999
DXF file: 1-500T_FRONT.dxf
999
Pro/ENGINEER 2013150 by Parametric Technology Corporation
  0
SECTION
  2
HEADER
  9
$ACADVER
  1
AC1021
  9
$DWGCODEPAGE
  3
ANSI_1252
  9
$EXTMAX
 10
11.0
 20
8.5
 30
0.0
  9
$EXTMIN
 10
0.0
 20
0.0
 30
0.0
  9
$LIMMIN
 10
0.0
 20
0.0
  9
$LIMMAX
 10
11.0
 20
8.5
  9
$VIEWCTR
 10
5.5
 20
4.25
  9
$VIEWSIZE
 40
8.5
  9
$CLAYER
  8
0
  9
$LTSCALE
 40
0.605
  9
$CELTYPE
  6
BYLAYER
  9
$DIMSCALE
 40
1.0
  9
$DIMASZ
 40
0.1
  9
$DIMEXO
 40
0.0625
  9
$DIMDLI
 40
0.418
  9
$DIMEXE
 40
0.125
  9
$DIMCEN
 40
0.099
  9
$DIMLFAC
 40
1.0
  9
$DIMBLK
  1
_FILLED
  9
$DIMTXT
 40
0.08
  9
$DIMTOL
 70
1
  9
$DIMLIM
 70
0
  9
$DIMTFAC
 40
1.0
  9
$DIMTP
 40
0.001
  9
$DIMTM
 40
0.001
  9
$DIMGAP
 40
0.09
  9
$DIMDSEP
 70
46
  9
$PDMODE
 70
3
  9
$PDSIZE
 40
0.06
  9
$HANDSEED
  5
564
  9
$TILEMODE
 70
1
  9
$MEASUREMENT
 70
0
  9
$INSUNITS
 70
1
  0
ENDSEC
  0
SECTION
  2
CLASSES
  0
CLASS
  1
ACDBDICTIONARYWDFLT
  2
AcDbDictionaryWithDefault
  3
AutoCAD 2000
 90
0
 91
1
280
0
281
0
  0
CLASS
  1
ACDBPLACEHOLDER
  2
AcDbPlaceHolder
  3
AutoCAD 2000
 90
0
 91
1
280
0
281
0
  0
CLASS
  1
LAYOUT
  2
AcDbLayout
  3
AutoCAD 2000
 90
0
 91
0
280
0
281
0
  0
ENDSEC
  0
SECTION
  2
TABLES
  0
TABLE
  2
VPORT
  5
8
100
AcDbSymbolTable
 70
2
  0
VPORT
  5
1F4
100
AcDbSymbolTableRecord
100
AcDbViewportTableRecord
  2
*ACTIVE
 70
0
 10
0.0
 20
0.0
 11
1.0
 21
1.0
 12
5.5
 22
4.25
 13
0.0
 23
0.0
 14
1.0
 24
1.0
 15
0.0
 25
0.0
 16
0.0
 26
0.0
 36
1.0
 17
0.0
 27
0.0
 37
0.0
 40
8.5
 41
1.2941176471
 42
50.0
 43
0.0
 44
0.0
 50
0.0
 51
0.0
 71
0
 72
100
 73
1
 74
1
 75
0
 76
0
 77
0
 78
0
  0
ENDTAB
  0
TABLE
  2
LTYPE
  5
5
100
AcDbSymbolTable
 70
6
  0
LTYPE
  5
14
100
AcDbSymbolTableRecord
100
AcDbLinetypeTableRecord
  2
BYBLOCK
 70
0
  3

 72
65
 73
0
 40
0.0
  0
LTYPE
  5
15
100
AcDbSymbolTableRecord
100
AcDbLinetypeTableRecord
  2
BYLAYER
 70
0
  3

 72
65
 73
0
 40
0.0
  0
LTYPE
  5
16
100
AcDbSymbolTableRecord
100
AcDbLinetypeTableRecord
  2
CONTINUOUS
 70
64
  3
Solid line
 72
65
 73
0
 40
0.0
  0
LTYPE
  5
1F5
100
AcDbSymbolTableRecord
100
AcDbLinetypeTableRecord
  2
CENTER
 70
64
  3
____ _ ____ _ ____ _ ____ _ ____ _ ____ _ ____
 72
65
 73
4
 40
0.6
 49
0.375
 74
0
 49
-0.075
 74
0
 49
0.075
 74
0
 49
-0.075
 74
0
  0
LTYPE
  5
1F6
100
AcDbSymbolTableRecord
100
AcDbLinetypeTableRecord
  2
HIDDEN
 70
64
  3
- - - - - - - - - - - - - - - - - - - -
 72
65
 73
2
 40
0.2
 49
0.1
 74
0
 49
-0.1
 74
0
  0
LTYPE
  5
1F7
100
AcDbSymbolTableRecord
100
AcDbLinetypeTableRecord
  2
PHANTOM
 70
64
  3
_____ _ _ _____ _ _ _____ _ _ _____
 72
65
 73
6
 40
0.8
 49
0.45
 74
0
 49
-0.05
 74
0
 49
0.1
 74
0
 49
-0.05
 74
0
 49
0.1
 74
0
 49
-0.05
 74
0
  0
LTYPE
  5
1F8
100
AcDbSymbolTableRecord
100
AcDbLinetypeTableRecord
  2
DOT
 70
64
  3
. . . . . . . . . . . . . . . . . . . .
 72
65
 73
2
 40
0.2
 49
0.1
 74
0
 49
-0.1
 74
0
  0
LTYPE
  5
1F9
100
AcDbSymbolTableRecord
100
AcDbLinetypeTableRecord
  2
DASHED
 70
64
  3
- - - - - - - - - - - - - - - - - - - -
 72
65
 73
2
 40
0.2
 49
0.1
 74
0
 49
-0.1
 74
0
  0
ENDTAB
  0
TABLE
  2
LAYER
  5
2
100
AcDbSymbolTable
 70
36
  0
LAYER
  5
10
100
AcDbSymbolTableRecord
100
AcDbLayerTableRecord
  2
0
 70
0
 62
7
  6
CONTINUOUS
370
-3
390
F
  0
LAYER
  5
1FA
100
AcDbSymbolTableRecord
100
AcDbLayerTableRecord
  2
DEFAULT_1
 70
0
 62
7
  6
CENTER
370
-3
390
F
  0
LAYER
  5
1FB
100
AcDbSymbolTableRecord
100
AcDbLayerTableRecord
  2
DEFAULT_2
 70
0
 62
8
  6
HIDDEN
370
-3
390
F
  0
LAYER
  5
1FC
100
AcDbSymbolTableRecord
100
AcDbLayerTableRecord
  2
DEFAULT_3
 70
0
 62
7
  6
PHANTOM
370
-3
390
F
  0
LAYER
  5
1FD
100
AcDbSymbolTableRecord
100
AcDbLayerTableRecord
  2
1-500_ASSY_DATUMS
 70
0
 62
7
  6
CONTINUOUS
370
-3
390
F
  0
LAYER
  5
1FE
100
AcDbSymbolTableRecord
100
AcDbLayerTableRecord
  2
1-510_ASSY_DATUMS
 70
0
 62
7
  6
CONTINUOUS
370
-3
390
F
  0
LAYER
  5
1FF
100
AcDbSymbolTableRecord
100
AcDbLayerTableRecord
  2
1-511_ASSY_DATUMS
 70
0
 62
7
  6
CONTINUOUS
370
-3
390
F
  0
LAYER
  5
200
100
AcDbSymbolTableRecord
100
AcDbLayerTableRecord
  2
ALL_ASSEMBLY_MEMBERS
 70
0
 62
7
  6
CONTINUOUS
370
-3
390
F
  0
LAYER
  5
201
100
AcDbSymbolTableRecord
100
AcDbLayerTableRecord
  2
ALL_FEATURES
 70
0
 62
7
  6
CONTINUOUS
370
-3
390
F
  0
LAYER
  5
202
100
AcDbSymbolTableRecord
100
AcDbLayerTableRecord
  2
AXES_FEATURES
 70
0
 62
7
  6
CONTINUOUS
370
-3
390
F
  0
LAYER
  5
203
100
AcDbSymbolTableRecord
100
AcDbLayerTableRecord
  2
BLANK1
 70
0
 62
7
  6
CONTINUOUS
370
-3
390
F
  0
LAYER
  5
204
100
AcDbSymbolTableRecord
100
AcDbLayerTableRecord
  2
BLANK2
 70
0
 62
7
  6
CONTINUOUS
370
-3
390
F
  0
LAYER
  5
205
100
AcDbSymbolTableRecord
100
AcDbLayerTableRecord
  2
BLANK3
 70
0
 62
7
  6
CONTINUOUS
370
-3
390
F
  0
LAYER
  5
206
100
AcDbSymbolTableRecord
100
AcDbLayerTableRecord
  2
CHAMFER_FEATURES
 70
0
 62
7
  6
CONTINUOUS
370
-3
390
F
  0
LAYER
  5
207
100
AcDbSymbolTableRecord
100
AcDbLayerTableRecord
  2
COSM
 70
0
 62
7
  6
CONTINUOUS
370
-3
390
F
  0
LAYER
  5
208
100
AcDbSymbolTableRecord
100
AcDbLayerTableRecord
  2
CURVES_SURFACE
 70
0
 62
7
  6
CONTINUOUS
370
-3
390
F
  0
LAYER
  5
209
100
AcDbSymbolTableRecord
100
AcDbLayerTableRecord
  2
CUT_FEATURES
 70
0
 62
7
  6
CONTINUOUS
370
-3
390
F
  0
LAYER
  5
20A
100
AcDbSymbolTableRecord
100
AcDbLayerTableRecord
  2
DATUM_CURVES
 70
0
 62
7
  6
CONTINUOUS
370
-3
390
F
  0
LAYER
  5
20B
100
AcDbSymbolTableRecord
100
AcDbLayerTableRecord
  2
DATUM_PLANES
 70
0
 62
7
  6
CONTINUOUS
370
-3
390
F
  0
LAYER
  5
20C
100
AcDbSymbolTableRecord
100
AcDbLayerTableRecord
  2
DEFAULT_COORDINATE_SYSTEM
 70
0
 62
7
  6
CONTINUOUS
370
-3
390
F
  0
LAYER
  5
20D
100
AcDbSymbolTableRecord
100
AcDbLayerTableRecord
  2
DEFAULT_DATUM_AXES
 70
0
 62
7
  6
CONTINUOUS
370
-3
390
F
  0
LAYER
  5
20E
100
AcDbSymbolTableRecord
100
AcDbLayerTableRecord
  2
DEFAULT_DATUM_CURVES
 70
0
 62
7
  6
CONTINUOUS
370
-3
390
F
  0
LAYER
  5
20F
100
AcDbSymbolTableRecord
100
AcDbLayerTableRecord
  2
DEFAULT_DATUM_PLANES
 70
0
 62
7
  6
CONTINUOUS
370
-3
390
F
  0
LAYER
  5
210
100
AcDbSymbolTableRecord
100
AcDbLayerTableRecord
  2
DEFAULT_SURFACES
 70
0
 62
7
  6
CONTINUOUS
370
-3
390
F
  0
LAYER
  5
211
100
AcDbSymbolTableRecord
100
AcDbLayerTableRecord
  2
DIMENSIONS
 70
0
 62
7
  6
CONTINUOUS
370
-3
390
F
  0
LAYER
  5
212
100
AcDbSymbolTableRecord
100
AcDbLayerTableRecord
  2
DIMS
 70
0
 62
7
  6
CONTINUOUS
370
-3
390
F
  0
LAYER
  5
213
100
AcDbSymbolTableRecord
100
AcDbLayerTableRecord
  2
DTM-AXIS
 70
0
 62
7
  6
CONTINUOUS
370
-3
390
F
  0
LAYER
  5
214
100
AcDbSymbolTableRecord
100
AcDbLayerTableRecord
  2
DTM-CRVS
 70
0
 62
7
  6
CONTINUOUS
370
-3
390
F
  0
LAYER
  5
215
100
AcDbSymbolTableRecord
100
AcDbLayerTableRecord
  2
DTM-PLNS
 70
0
 62
7
  6
CONTINUOUS
370
-3
390
F
  0
LAYER
  5
216
100
AcDbSymbolTableRecord
100
AcDbLayerTableRecord
  2
DTM-QILT
 70
0
 62
7
  6
CONTINUOUS
370
-3
390
F
  0
LAYER
  5
217
100
AcDbSymbolTableRecord
100
AcDbLayerTableRecord
  2
GTOLS
 70
0
 62
7
  6
CONTINUOUS
370
-3
390
F
  0
LAYER
  5
218
100
AcDbSymbolTableRecord
100
AcDbLayerTableRecord
  2
HOLE_FEATURES
 70
0
 62
7
  6
CONTINUOUS
370
-3
390
F
  0
LAYER
  5
219
100
AcDbSymbolTableRecord
100
AcDbLayerTableRecord
  2
ID_454
 70
0
 62
7
  6
CONTINUOUS
370
-3
390
F
  0
LAYER
  5
21A
100
AcDbSymbolTableRecord
100
AcDbLayerTableRecord
  2
INDERQUILT
 70
0
 62
7
  6
CONTINUOUS
370
-3
390
F
  0
LAYER
  5
21B
100
AcDbSymbolTableRecord
100
AcDbLayerTableRecord
  2
LAY0001
 70
0
 62
7
  6
CONTINUOUS
370
-3
390
F
  0
LAYER
  5
21C
100
AcDbSymbolTableRecord
100
AcDbLayerTableRecord
  2
LAY0002
 70
0
 62
7
  6
CONTINUOUS
370
-3
390
F
  0
LAYER
  5
21D
100
AcDbSymbolTableRecord
100
AcDbLayerTableRecord
  2
NONE
 70
0
 62
7
  6
CONTINUOUS
370
-3
390
F
  0
LAYER
  5
21E
100
AcDbSymbolTableRecord
100
AcDbLayerTableRecord
  2
NOTES
 70
0
 62
7
  6
CONTINUOUS
370
-3
390
F
  0
LAYER
  5
21F
100
AcDbSymbolTableRecord
100
AcDbLayerTableRecord
  2
OUTSURFACE
 70
0
 62
7
  6
CONTINUOUS
370
-3
390
F
  0
LAYER
  5
220
100
AcDbSymbolTableRecord
100
AcDbLayerTableRecord
  2
PART_REFERENCE_DIMENSIONS
 70
0
 62
7
  6
CONTINUOUS
370
-3
390
F
  0
LAYER
  5
221
100
AcDbSymbolTableRecord
100
AcDbLayerTableRecord
  2
PROTRUSION_FEATURES
 70
0
 62
7
  6
CONTINUOUS
370
-3
390
F
  0
LAYER
  5
222
100
AcDbSymbolTableRecord
100
AcDbLayerTableRecord
  2
QUILTS
 70
0
 62
7
  6
CONTINUOUS
370
-3
390
F
  0
LAYER
  5
223
100
AcDbSymbolTableRecord
100
AcDbLayerTableRecord
  2
REFERENCE_DIMENSIONS
 70
0
 62
7
  6
CONTINUOUS
370
-3
390
F
  0
LAYER
  5
224
100
AcDbSymbolTableRecord
100
AcDbLayerTableRecord
  2
ROUND_FEATURES
 70
0
 62
7
  6
CONTINUOUS
370
-3
390
F
  0
LAYER
  5
225
100
AcDbSymbolTableRecord
100
AcDbLayerTableRecord
  2
STARTUP
 70
0
 62
7
  6
CONTINUOUS
370
-3
390
F
  0
LAYER
  5
226
100
AcDbSymbolTableRecord
100
AcDbLayerTableRecord
  2
START_PARAMS_NOTE
 70
0
 62
7
  6
CONTINUOUS
370
-3
390
F
  0
LAYER
  5
227
100
AcDbSymbolTableRecord
100
AcDbLayerTableRecord
  2
SURFACE_FEATURES
 70
0
 62
7
  6
CONTINUOUS
370
-3
390
F
  0
LAYER
  5
228
100
AcDbSymbolTableRecord
100
AcDbLayerTableRecord
  2
XSEC_DATUMS
 70
0
 62
7
  6
CONTINUOUS
370
-3
390
F
  0
LAYER
  5
229
100
AcDbSymbolTableRecord
100
AcDbLayerTableRecord
  2
YDERQUILT
 70
0
 62
7
  6
CONTINUOUS
370
-3
390
F
  0
ENDTAB
  0
TABLE
  2
STYLE
  5
3
100
AcDbSymbolTable
 70
1
  0
STYLE
  5
11
100
AcDbSymbolTableRecord
100
AcDbTextStyleTableRecord
  2
STANDARD
 70
0
 40
0.0
 41
0.8
 50
0.0
 71
0
 42
0.2
  3
txt
  4

  0
STYLE
  5
22A
100
AcDbSymbolTableRecord
100
AcDbTextStyleTableRecord
  2
TEXTSTYLE_1
 70
0
 40
0.0
 41
0.8
 50
0.0
 71
0
 42
0.2
  3
gdt
  4

  0
ENDTAB
  0
TABLE
  2
VIEW
  5
6
100
AcDbSymbolTable
 70
0
  0
ENDTAB
  0
TABLE
  2
UCS
  5
7
100
AcDbSymbolTable
 70
0
  0
ENDTAB
  0
TABLE
  2
APPID
  5
9
100
AcDbSymbolTable
 70
1
  0
APPID
  5
22B
100
AcDbSymbolTableRecord
100
AcDbRegAppTableRecord
  2
ACAD
 70
0
  0
ENDTAB
  0
TABLE
  2
BLOCK_RECORD
  5
1
100
AcDbSymbolTable
 70
0
  0
BLOCK_RECORD
  5
22C
100
AcDbSymbolTableRecord
100
AcDbBlockTableRecord
  2
*Model_Space
  0
BLOCK_RECORD
  5
22D
100
AcDbSymbolTableRecord
100
AcDbBlockTableRecord
  2
*Paper_Space
  0
ENDTAB
  0
TABLE
  2
DIMSTYLE
  5
A
100
AcDbSymbolTable
 70
1
100
AcDbDimStyleTable
 71
0
  0
DIMSTYLE
105
22E
100
AcDbSymbolTableRecord
100
AcDbDimStyleTableRecord
  2
STANDARD
 70
0
  3

  4

 40
1.0
 41
0.1
 42
0.0625
 43
0.38
 44
0.125
 45
0.0
 46
0.0
 47
0.001
 48
0.001
140
0.08
141
0.09
142
0.0
143
25.4
144
1.0
145
0.0
146
1.0
147
0.09
 71
1.0
 72
0.0
 73
1
 74
1
 75
0
 76
0
 77
0
 78
4
170
0
171
2
172
0
173
0
174
0
175
0
176
0
177
0
178
0
270
2
271
3
272
3
273
2
274
2
275
0
280
0
281
0
282
0
283
1
284
4
285
0
286
0
287
3
288
0
340
11
278
46
  0
ENDTAB
  0
ENDSEC
  0
SECTION
  2
BLOCKS
  0
BLOCK
  5
20
100
AcDbEntity
  8
0
100
AcDbBlockBegin
  2
*Model_Space
 70
0
 10
0.0
 20
0.0
 30
0.0
  3
*Model_Space
  1

  0
ENDBLK
  5
21
100
AcDbEntity
  8
0
100
AcDbBlockEnd
  0
BLOCK
  5
1C
100
AcDbEntity
  8
0
100
AcDbBlockBegin
  2
*Paper_Space
 70
0
 10
0.0
 20
0.0
 30
0.0
  3
*Paper_Space
  1

  0
ENDBLK
  5
1D
100
AcDbEntity
  8
0
100
AcDbBlockEnd
  0
ENDSEC
  0
SECTION
  2
ENTITIES
  0
LINE
  5
22F
100
AcDbEntity
  8
0
100
AcDbLine
 62
7
  6
CONTINUOUS
 10
0.0
 20
0.0
 11
0.0
 21
8.5
  0
LINE
  5
230
100
AcDbEntity
  8
0
100
AcDbLine
 62
7
  6
CONTINUOUS
 10
0.0
 20
0.0
 11
11.0
 21
0.0
  0
LINE
  5
231
100
AcDbEntity
  8
0
100
AcDbLine
 62
7
  6
CONTINUOUS
 10
0.0
 20
8.5
 11
11.0
 21
8.5
  0
LINE
  5
232
100
AcDbEntity
  8
0
100
AcDbLine
 62
7
  6
CONTINUOUS
 10
11.0
 20
0.0
 11
11.0
 21
8.5
  0
LINE
  5
233
100
AcDbEntity
  8
0
100
AcDbLine
 62
7
  6
CONTINUOUS
 10
2.2086377574
 20
4.6979788887
 11
2.2086377574
 21
4.9341993611
  0
LINE
  5
234
100
AcDbEntity
  8
0
100
AcDbLine
 62
7
  6
CONTINUOUS
 10
2.3365905133
 20
4.8653017233
 11
2.3365905133
 21
4.7668765264
  0
LINE
  5
235
100
AcDbEntity
  8
0
100
AcDbLine
 62
7
  6
CONTINUOUS
 10
2.4743857889
 20
4.7668765264
 11
2.4743857889
 21
4.8653017233
  0
LINE
  5
236
100
AcDbEntity
  8
0
100
AcDbLine
 62
7
  6
CONTINUOUS
 10
2.6583825555
 20
4.6139349443
 11
2.705202347
 21
4.0286875501
  0
LINE
  5
237
100
AcDbEntity
  8
0
100
AcDbLine
 62
7
  6
CONTINUOUS
 10
2.5875432692
 20
4.7960891249
 11
2.5875432692
 21
4.8360891249
  0
LINE
  5
238
100
AcDbEntity
  8
0
100
AcDbLine
 62
7
  6
CONTINUOUS
 10
2.5875432692
 20
4.837472104
 11
2.5875432692
 21
4.8910891249
  0
LINE
  5
239
100
AcDbEntity
  8
0
100
AcDbLine
 62
7
  6
CONTINUOUS
 10
2.5880432692
 20
4.6910891249
 11
2.5880432692
 21
4.9410891249
  0
LINE
  5
23A
100
AcDbEntity
  8
0
100
AcDbLine
 62
7
  6
CONTINUOUS
 10
2.5895432692
 20
4.6910891249
 11
2.5895432692
 21
4.9410891249
  0
LINE
  5
23B
100
AcDbEntity
  8
0
100
AcDbLine
 62
7
  6
CONTINUOUS
 10
2.6023385448
 20
4.6192387312
 11
2.6023385448
 21
5.0129395186
  0
LINE
  5
23C
100
AcDbEntity
  8
0
100
AcDbLine
 62
7
  6
CONTINUOUS
 10
2.9907348564
 20
4.7811757341
 11
2.9907348564
 21
4.7923854987
  0
LINE
  5
23D
100
AcDbEntity
  8
0
100
AcDbLine
 62
7
  6
CONTINUOUS
 10
2.9907348564
 20
4.839792751
 11
2.9907348564
 21
4.8510025156
  0
LINE
  5
23E
100
AcDbEntity
  8
0
100
AcDbLine
 62
9
  6
CONTINUOUS
 10
2.9960393322
 20
4.3414065441
 11
2.9960393322
 21
4.0286875501
  0
LINE
  5
23F
100
AcDbEntity
  8
0
100
AcDbLine
 62
7
  6
CONTINUOUS
 10
3.001343808
 20
4.8510025156
 11
3.001343808
 21
4.839792751
  0
LINE
  5
240
100
AcDbEntity
  8
0
100
AcDbLine
 62
7
  6
CONTINUOUS
 10
3.001343808
 20
4.7923854987
 11
3.001343808
 21
4.7811757341
  0
LINE
  5
241
100
AcDbEntity
  8
ALL_FEATURES
100
AcDbLine
 62
7
  6
CONTINUOUS
 10
2.9692541875
 20
4.8933265415
 11
2.9708015051
 21
4.9050795855
  0
LINE
  5
242
100
AcDbEntity
  8
ALL_FEATURES
100
AcDbLine
 62
7
  6
CONTINUOUS
 10
3.022824477
 20
4.7388517083
 11
3.0212771594
 21
4.7270986643
  0
LINE
  5
243
100
AcDbEntity
  8
0
100
AcDbLine
 62
7
  6
CONTINUOUS
 10
2.971485433
 20
4.806510038
 11
2.9723357061
 21
4.8107846491
  0
LINE
  5
244
100
AcDbEntity
  8
0
100
AcDbLine
 62
7
  6
CONTINUOUS
 10
3.0205932314
 20
4.8256682118
 11
3.0197429584
 21
4.8213936007
  0
LINE
  5
245
100
AcDbEntity
  8
ALL_FEATURES
100
AcDbLine
 62
7
  6
CONTINUOUS
 10
2.9386674454
 20
4.743530758
 11
2.9417356055
 21
4.7549812877
  0
LINE
  5
246
100
AcDbEntity
  8
ALL_FEATURES
100
AcDbLine
 62
7
  6
CONTINUOUS
 10
3.0534112191
 20
4.8886474917
 11
3.0503430589
 21
4.8771969621
  0
LINE
  5
247
100
AcDbEntity
  8
ALL_ASSEMBLY_MEMBERS
100
AcDbLine
 62
7
  6
CONTINUOUS
 10
2.8164833985
 20
4.8160891249
 11
2.8539637011
 21
4.8810069132
  0
LINE
  5
248
100
AcDbEntity
  8
ALL_ASSEMBLY_MEMBERS
100
AcDbLine
 62
7
  6
CONTINUOUS
 10
2.8687810628
 20
4.9066713366
 11
2.9062613654
 21
4.9715891249
  0
LINE
  5
249
100
AcDbEntity
  8
ALL_FEATURES
100
AcDbLine
 62
7
  6
CONTINUOUS
 10
2.9417356055
 20
4.8771969621
 11
2.9386674454
 21
4.8886474917
  0
LINE
  5
24A
100
AcDbEntity
  8
ALL_ASSEMBLY_MEMBERS
100
AcDbLine
 62
7
  6
CONTINUOUS
 10
2.9017545114
 20
4.8418061425
 11
2.9000237043
 21
4.8488986664
  0
LINE
  5
24B
100
AcDbEntity
  8
0
100
AcDbLine
 62
7
  6
CONTINUOUS
 10
2.971485433
 20
4.8256682118
 11
2.9723357061
 21
4.8213936007
  0
LINE
  5
24C
100
AcDbEntity
  8
0
100
AcDbLine
 62
7
  6
CONTINUOUS
 10
3.0205932314
 20
4.806510038
 11
3.0197429584
 21
4.8107846491
  0
LINE
  5
24D
100
AcDbEntity
  8
ALL_FEATURES
100
AcDbLine
 62
7
  6
CONTINUOUS
 10
2.9708015051
 20
4.7270986643
 11
2.9692541875
 21
4.7388517083
  0
LINE
  5
24E
100
AcDbEntity
  8
ALL_FEATURES
100
AcDbLine
 62
7
  6
CONTINUOUS
 10
3.0212771594
 20
4.9050795855
 11
3.022824477
 21
4.8933265415
  0
LINE
  5
24F
100
AcDbEntity
  8
ALL_ASSEMBLY_MEMBERS
100
AcDbLine
 62
7
  6
CONTINUOUS
 10
3.0920549601
 20
4.8488986664
 11
3.0903241531
 21
4.8418061425
  0
LINE
  5
250
100
AcDbEntity
  8
0
100
AcDbLine
 62
7
  6
CONTINUOUS
 10
2.9907348564
 20
4.839792751
 11
2.98534587
 21
4.8267825871
  0
LINE
  5
251
100
AcDbEntity
  8
0
100
AcDbLine
 62
7
  6
CONTINUOUS
 10
3.001343808
 20
4.7923854987
 11
3.0067327944
 21
4.8053956627
  0
LINE
  5
252
100
AcDbEntity
  8
ALL_FEATURES
100
AcDbLine
 62
7
  6
CONTINUOUS
 10
3.0008505649
 20
4.8976974243
 11
3.0067777952
 21
4.9079636883
  0
LINE
  5
253
100
AcDbEntity
  8
ALL_FEATURES
100
AcDbLine
 62
7
  6
CONTINUOUS
 10
2.9912280995
 20
4.7344808254
 11
2.9853008692
 21
4.7242145614
  0
LINE
  5
254
100
AcDbEntity
  8
ALL_ASSEMBLY_MEMBERS
100
AcDbLine
 62
7
  6
CONTINUOUS
 10
2.9062613654
 20
4.6605891249
 11
2.8687810628
 21
4.7255069132
  0
LINE
  5
255
100
AcDbEntity
  8
ALL_ASSEMBLY_MEMBERS
100
AcDbLine
 62
7
  6
CONTINUOUS
 10
2.8539637011
 20
4.7511713366
 11
2.8164833985
 21
4.8160891249
  0
LINE
  5
256
100
AcDbEntity
  8
ALL_FEATURES
100
AcDbLine
 62
7
  6
CONTINUOUS
 10
3.0067777952
 20
4.7242145614
 11
3.0008505649
 21
4.7344808254
  0
LINE
  5
257
100
AcDbEntity
  8
0
100
AcDbLine
 62
7
  6
CONTINUOUS
 10
2.98534587
 20
4.8053956627
 11
2.9907348564
 21
4.7923854987
  0
LINE
  5
258
100
AcDbEntity
  8
0
100
AcDbLine
 62
7
  6
CONTINUOUS
 10
3.0067327944
 20
4.8267825871
 11
3.001343808
 21
4.839792751
  0
LINE
  5
259
100
AcDbEntity
  8
ALL_FEATURES
100
AcDbLine
 62
7
  6
CONTINUOUS
 10
3.0503430589
 20
4.7549812877
 11
3.0534112191
 21
4.743530758
  0
LINE
  5
25A
100
AcDbEntity
  8
DTM-AXIS
100
AcDbLine
 62
7
  6
CONTINUOUS
 10
3.3393853123
 20
5.1183833709
 11
3.3393853123
 21
5.1115605227
  0
LINE
  5
25B
100
AcDbEntity
  8
DTM-AXIS
100
AcDbLine
 62
7
  6
CONTINUOUS
 10
3.3528506722
 20
5.1192303569
 11
3.3528506722
 21
5.1092376126
  0
LINE
  5
25C
100
AcDbEntity
  8
0
100
AcDbLine
 62
7
  6
CONTINUOUS
 10
3.3199946218
 20
4.4426671272
 11
3.2868763175
 21
4.0286875501
  0
LWPOLYLINE
  5
25D
100
AcDbEntity
  8
0
100
AcDbPolyline
 62
7
  6
CONTINUOUS
 90
20
 70
0
 10
3.3199946218
 20
4.4426671272
 10
3.3205177885
 20
4.4474123587
 10
3.3215812444
 20
4.4535481281
 10
3.3232423311
 20
4.4602708764
 10
3.3255776552
 20
4.4673885081
 10
3.3285486867
 20
4.4745317958
 10
3.3321565538
 20
4.4815966174
 10
3.3364161727
 20
4.4885254633
 10
3.3411945058
 20
4.4950717366
 10
3.3464398257
 20
4.5011837681
 10
3.3521069224
 20
4.5068276378
 10
3.3579962062
 20
4.5118524297
 10
3.3640217735
 20
4.5162588636
 10
3.3701144031
 20
4.5200649938
 10
3.3760550255
 20
4.5232175037
 10
3.381763832
 20
4.5257707026
 10
3.3871652546
 20
4.5277806851
 10
3.3920279773
 20
4.5292619856
 10
3.3962492517
 20
4.5302945967
 10
3.3993822924
 20
4.5309029365
  0
LINE
  5
25E
100
AcDbEntity
  8
ALL_ASSEMBLY_MEMBERS
100
AcDbLine
 62
7
  6
CONTINUOUS
 10
3.0858172991
 20
4.6605891249
 11
3.1232976016
 21
4.7255069132
  0
LINE
  5
25F
100
AcDbEntity
  8
ALL_ASSEMBLY_MEMBERS
100
AcDbLine
 62
7
  6
CONTINUOUS
 10
3.1381149634
 20
4.7511713366
 11
3.1755952659
 21
4.8160891249
  0
LINE
  5
260
100
AcDbEntity
  8
ALL_FEATURES
100
AcDbLine
 62
7
  6
CONTINUOUS
 10
2.9152677353
 20
4.7710092054
 11
2.9224842737
 21
4.7804139813
  0
LINE
  5
261
100
AcDbEntity
  8
ALL_FEATURES
100
AcDbLine
 62
7
  6
CONTINUOUS
 10
3.0768109291
 20
4.8611690443
 11
3.0695943907
 21
4.8517642684
  0
LINE
  5
262
100
AcDbEntity
  8
ALL_FEATURES
100
AcDbLine
 62
7
  6
CONTINUOUS
 10
2.9224842737
 20
4.8517642684
 11
2.9152677353
 21
4.8611690443
  0
LINE
  5
263
100
AcDbEntity
  8
ALL_FEATURES
100
AcDbLine
 62
7
  6
CONTINUOUS
 10
2.9853008692
 20
4.9079636883
 11
2.9912280995
 21
4.8976974243
  0
LINE
  5
264
100
AcDbEntity
  8
ALL_ASSEMBLY_MEMBERS
100
AcDbLine
 62
7
  6
CONTINUOUS
 10
3.1755952659
 20
4.8160891249
 11
3.1381149634
 21
4.8810069132
  0
LINE
  5
265
100
AcDbEntity
  8
ALL_ASSEMBLY_MEMBERS
100
AcDbLine
 62
7
  6
CONTINUOUS
 10
3.1232976016
 20
4.9066713366
 11
3.0858172991
 21
4.9715891249
  0
LINE
  5
266
100
AcDbEntity
  8
DTM-AXIS
100
AcDbLine
 62
7
  6
CONTINUOUS
 10
3.5378295346
 20
5.0873756904
 11
3.5378295346
 21
5.0773580145
  0
LINE
  5
267
100
AcDbEntity
  8
DTM-AXIS
100
AcDbLine
 62
7
  6
CONTINUOUS
 10
3.5445622146
 20
5.0845728694
 11
3.5445622146
 21
5.0744228567
  0
LINE
  5
268
100
AcDbEntity
  8
DTM-AXIS
100
AcDbLine
 62
7
  6
CONTINUOUS
 10
3.5865905133
 20
5.0789448495
 11
3.5865905133
 21
5.068977855
  0
LINE
  5
269
100
AcDbEntity
  8
0
100
AcDbLine
 62
7
  6
CONTINUOUS
 10
3.0100920727
 20
4.8301418654
 11
3.0067327944
 21
4.8267825871
  0
LINE
  5
26A
100
AcDbEntity
  8
0
100
AcDbLine
 62
7
  6
CONTINUOUS
 10
2.9819865917
 20
4.8020363843
 11
2.98534587
 21
4.8053956627
  0
LINE
  5
26B
100
AcDbEntity
  8
0
100
AcDbLine
 62
7
  6
CONTINUOUS
 10
2.9819865917
 20
4.8301418654
 11
2.98534587
 21
4.8267825871
  0
LINE
  5
26C
100
AcDbEntity
  8
0
100
AcDbLine
 62
7
  6
CONTINUOUS
 10
3.0100920727
 20
4.8020363843
 11
3.0067327944
 21
4.8053956627
  0
LINE
  5
26D
100
AcDbEntity
  8
ALL_FEATURES
100
AcDbLine
 62
7
  6
CONTINUOUS
 10
3.0695943907
 20
4.7804139813
 11
3.0768109291
 21
4.7710092054
  0
LINE
  5
26E
100
AcDbEntity
  8
ALL_FEATURES
100
AcDbLine
 62
7
  6
CONTINUOUS
 10
3.7145432692
 20
4.5640945498
 11
3.7145432692
 21
5.0680836999
  0
LINE
  5
26F
100
AcDbEntity
  8
ALL_FEATURES
100
AcDbLine
 62
7
  6
CONTINUOUS
 10
3.0317144758
 20
4.8896441834
 11
3.0411192517
 21
4.8968607217
  0
LINE
  5
270
100
AcDbEntity
  8
ALL_FEATURES
100
AcDbLine
 62
7
  6
CONTINUOUS
 10
2.9603641887
 20
4.7425340664
 11
2.9509594128
 21
4.735317528
  0
LINE
  5
271
100
AcDbEntity
  8
ALL_FEATURES
100
AcDbLine
 62
7
  6
CONTINUOUS
 10
3.0411192517
 20
4.735317528
 11
3.0317144758
 21
4.7425340664
  0
LINE
  5
272
100
AcDbEntity
  8
ALL_FEATURES
100
AcDbLine
 62
7
  6
CONTINUOUS
 10
3.9645432692
 20
4.5640945498
 11
3.9645432692
 21
5.0680836999
  0
LINE
  5
273
100
AcDbEntity
  8
ALL_FEATURES
100
AcDbLine
 62
7
  6
CONTINUOUS
 10
2.9041647688
 20
4.8053506619
 11
2.9144310328
 21
4.8112778922
  0
LINE
  5
274
100
AcDbEntity
  8
ALL_FEATURES
100
AcDbLine
 62
7
  6
CONTINUOUS
 10
3.0879138957
 20
4.8268275878
 11
3.0776476317
 21
4.8209003576
  0
LINE
  5
275
100
AcDbEntity
  8
ALL_FEATURES
100
AcDbLine
 62
7
  6
CONTINUOUS
 10
2.9144310328
 20
4.8209003576
 11
2.9041647688
 21
4.8268275878
  0
LINE
  5
276
100
AcDbEntity
  8
ALL_FEATURES
100
AcDbLine
 62
7
  6
CONTINUOUS
 10
2.9509594128
 20
4.8968607217
 11
2.9603641887
 21
4.8896441834
  0
LINE
  5
277
100
AcDbEntity
  8
0
100
AcDbLine
 62
7
  6
CONTINUOUS
 10
2.98534587
 20
4.8267825871
 11
2.9723357061
 21
4.8213936007
  0
LINE
  5
278
100
AcDbEntity
  8
0
100
AcDbLine
 62
7
  6
CONTINUOUS
 10
3.0067327944
 20
4.8053956627
 11
3.0197429584
 21
4.8107846491
  0
LINE
  5
279
100
AcDbEntity
  8
ALL_FEATURES
100
AcDbLine
 62
7
  6
CONTINUOUS
 10
3.0776476317
 20
4.8112778922
 11
3.0879138957
 21
4.8053506619
  0
LINE
  5
27A
100
AcDbEntity
  8
0
100
AcDbLine
 62
7
  6
CONTINUOUS
 10
3.2868763175
 20
4.0286875501
 11
2.705202347
 21
4.0286875501
  0
LINE
  5
27B
100
AcDbEntity
  8
0
100
AcDbLine
 62
7
  6
CONTINUOUS
 10
6.642210221
 20
4.0286875501
 11
7.2238841915
 21
4.0286875501
  0
LINE
  5
27C
100
AcDbEntity
  8
0
100
AcDbLine
 62
7
  6
CONTINUOUS
 10
2.9723357061
 20
4.8107846491
 11
2.98534587
 21
4.8053956627
  0
LINE
  5
27D
100
AcDbEntity
  8
0
100
AcDbLine
 62
7
  6
CONTINUOUS
 10
3.0197429584
 20
4.8213936007
 11
3.0067327944
 21
4.8267825871
  0
LINE
  5
27E
100
AcDbEntity
  8
ALL_FEATURES
100
AcDbLine
 62
7
  6
CONTINUOUS
 10
6.871939369
 20
4.7617853982
 11
6.8604888394
 21
4.758717238
  0
LINE
  5
27F
100
AcDbEntity
  8
ALL_FEATURES
100
AcDbLine
 62
7
  6
CONTINUOUS
 10
6.9941550434
 20
4.8703928516
 11
7.0056055731
 21
4.8734610117
  0
LINE
  5
280
100
AcDbEntity
  8
ALL_ASSEMBLY_MEMBERS
100
AcDbLine
 62
7
  6
CONTINUOUS
 10
6.9073539999
 20
4.7218101148
 11
6.900326624
 21
4.7200952059
  0
LINE
  5
281
100
AcDbEntity
  8
ALL_FEATURES
100
AcDbLine
 62
7
  6
CONTINUOUS
 10
3.0685976991
 20
4.758717238
 11
3.0571471694
 21
4.7617853982
  0
LINE
  5
282
100
AcDbEntity
  8
ALL_FEATURES
100
AcDbLine
 62
7
  6
CONTINUOUS
 10
2.9234809654
 20
4.8734610117
 11
2.934931495
 21
4.8703928516
  0
LINE
  5
283
100
AcDbEntity
  8
0
100
AcDbLine
 62
7
  6
CONTINUOUS
 10
6.9234681193
 20
4.7915352257
 11
6.9277427304
 21
4.7923854987
  0
LINE
  5
284
100
AcDbEntity
  8
0
100
AcDbLine
 62
7
  6
CONTINUOUS
 10
6.9426262931
 20
4.840643024
 11
6.9383516821
 21
4.839792751
  0
LINE
  5
285
100
AcDbEntity
  8
ALL_FEATURES
100
AcDbLine
 62
7
  6
CONTINUOUS
 10
7.0220376669
 20
4.7908512977
 11
7.0102846228
 21
4.7893039801
  0
LINE
  5
286
100
AcDbEntity
  8
0
100
AcDbLine
 62
9
  6
CONTINUOUS
 10
5.0645432692
 20
4.4870898305
 11
5.0450432692
 21
4.4870898305
  0
LINE
  5
287
100
AcDbEntity
  8
0
100
AcDbLine
 62
9
  6
CONTINUOUS
 10
4.8645432692
 20
4.4870898305
 11
4.8840432692
 21
4.4870898305
  0
LINE
  5
288
100
AcDbEntity
  8
0
100
AcDbLine
 62
9
  6
CONTINUOUS
 10
5.0645432692
 20
4.4902331933
 11
5.0450432692
 21
4.4902331933
  0
LINE
  5
289
100
AcDbEntity
  8
0
100
AcDbLine
 62
9
  6
CONTINUOUS
 10
4.8645432692
 20
4.4902331933
 11
4.8840432692
 21
4.4902331933
  0
LINE
  5
28A
100
AcDbEntity
  8
ALL_FEATURES
100
AcDbLine
 62
7
  6
CONTINUOUS
 10
3.9645432692
 20
4.5640891249
 11
3.7145432692
 21
4.5640891249
  0
LINE
  5
28B
100
AcDbEntity
  8
ALL_FEATURES
100
AcDbLine
 62
7
  6
CONTINUOUS
 10
2.9188019156
 20
4.7893039801
 11
2.9070488716
 21
4.7908512977
  0
LINE
  5
28C
100
AcDbEntity
  8
0
100
AcDbLine
 62
7
  6
CONTINUOUS
 10
3.0056184191
 20
4.7915352257
 11
3.001343808
 21
4.7923854987
  0
LINE
  5
28D
100
AcDbEntity
  8
0
100
AcDbLine
 62
7
  6
CONTINUOUS
 10
2.9864602453
 20
4.840643024
 11
2.9907348564
 21
4.839792751
  0
LINE
  5
28E
100
AcDbEntity
  8
ALL_ASSEMBLY_MEMBERS
100
AcDbLine
 62
7
  6
CONTINUOUS
 10
2.953520703
 20
4.9082073556
 11
2.9595074454
 21
4.9067163578
  0
LWPOLYLINE
  5
28F
100
AcDbEntity
  8
0
100
AcDbPolyline
 62
7
  6
CONTINUOUS
 90
7
 70
0
 10
4.7488154389
 20
4.5866458316
 10
4.7478518563
 20
4.5870085537
 10
4.7475182476
 20
4.587153498
 10
4.7478083685
 20
4.5869932616
 10
4.7485610015
 20
4.5865193145
 10
4.749663932
 20
4.5857133245
 10
4.7509032095
 20
4.5846627273
  0
LINE
  5
290
100
AcDbEntity
  8
DTM-AXIS
100
AcDbLine
 62
7
  6
CONTINUOUS
 10
4.8346220094
 20
5.1030049046
 11
4.8346220094
 21
5.1137761287
  0
LINE
  5
291
100
AcDbEntity
  8
DTM-AXIS
100
AcDbLine
 62
7
  6
CONTINUOUS
 10
4.8379028494
 20
5.1044680465
 11
4.8379028494
 21
5.115186584
  0
LINE
  5
292
100
AcDbEntity
  8
DTM-AXIS
100
AcDbLine
 62
7
  6
CONTINUOUS
 10
4.8444645291
 20
5.1072614013
 11
4.8444645291
 21
5.1178807453
  0
LINE
  5
293
100
AcDbEntity
  8
DTM-AXIS
100
AcDbLine
 62
7
  6
CONTINUOUS
 10
4.8575878879
 20
5.119571858
 11
4.8575878879
 21
5.1227772929
  0
LINE
  5
294
100
AcDbEntity
  8
0
100
AcDbLine
 62
7
  6
CONTINUOUS
 10
4.8645432692
 20
4.4870898305
 11
4.8645432692
 21
4.4902331933
  0
LINE
  5
295
100
AcDbEntity
  8
0
100
AcDbLine
 62
7
  6
CONTINUOUS
 10
4.8645432692
 20
5.1419450565
 11
4.8645432692
 21
5.1450884192
  0
LINE
  5
296
100
AcDbEntity
  8
0
100
AcDbLine
 62
7
  6
CONTINUOUS
 10
4.8840432692
 20
4.4870898305
 11
4.8840432692
 21
4.4902331933
  0
LINE
  5
297
100
AcDbEntity
  8
0
100
AcDbLine
 62
7
  6
CONTINUOUS
 10
4.8840432692
 20
5.1419450565
 11
4.8840432692
 21
5.1450884192
  0
LINE
  5
298
100
AcDbEntity
  8
0
100
AcDbLine
 62
9
  6
CONTINUOUS
 10
5.0321871747
 20
5.1839369665
 11
5.0286604366
 21
5.1647585698
  0
LINE
  5
299
100
AcDbEntity
  8
0
100
AcDbLine
 62
9
  6
CONTINUOUS
 10
4.8968993637
 20
4.4482412832
 11
4.9004261019
 21
4.46741968
  0
LINE
  5
29A
100
AcDbEntity
  8
0
100
AcDbLine
 62
9
  6
CONTINUOUS
 10
5.0884975759
 20
5.1056321075
 11
5.0808232549
 21
5.0877057776
  0
LINE
  5
29B
100
AcDbEntity
  8
0
100
AcDbLine
 62
9
  6
CONTINUOUS
 10
4.8405889539
 20
4.526546122
 11
4.8482632755
 21
4.5444724532
  0
LWPOLYLINE
  5
29C
100
AcDbEntity
  8
DTM-AXIS
100
AcDbPolyline
 62
7
  6
CONTINUOUS
 90
4
 70
0
 10
3.6800999485
 20
4.5790260272
 10
3.6842451103
 20
4.5795851531
 10
3.6890024563
 20
4.5798600257
 10
3.6900006142
 20
4.5798685426
  0
LINE
  5
29D
100
AcDbEntity
  8
ALL_FEATURES
100
AcDbLine
 62
7
  6
CONTINUOUS
 10
6.8440567456
 20
4.841326952
 11
6.8558097897
 21
4.8428742696
  0
LINE
  5
29E
100
AcDbEntity
  8
DTM-AXIS
100
AcDbLine
 62
7
  6
CONTINUOUS
 10
6.2390857047
 20
4.5798686524
 11
5.172572057
 21
4.5798686524
  0
LINE
  5
29F
100
AcDbEntity
  8
DTM-AXIS
100
AcDbLine
 62
7
  6
CONTINUOUS
 10
4.756515614
 20
4.5798686524
 11
3.9645432692
 21
4.5798686524
  0
LINE
  5
2A0
100
AcDbEntity
  8
DTM-AXIS
100
AcDbLine
 62
7
  6
CONTINUOUS
 10
3.7145432692
 20
4.5798686524
 11
3.6900008337
 21
4.5798686524
  0
LINE
  5
2A1
100
AcDbEntity
  8
DEFAULT_SURFACES
100
AcDbLine
 62
7
  6
CONTINUOUS
 10
6.0520432692
 20
4.5817857155
 11
6.1270432692
 21
4.5817857155
  0
LINE
  5
2A2
100
AcDbEntity
  8
0
100
AcDbLine
 62
7
  6
CONTINUOUS
 10
7.6417086236
 20
4.6192387312
 11
7.2739915792
 21
4.6192387312
  0
LINE
  5
2A3
100
AcDbEntity
  8
0
100
AcDbLine
 62
7
  6
CONTINUOUS
 10
2.2873779149
 20
4.6192387312
 11
2.6550844488
 21
4.6192387312
  0
LINE
  5
2A4
100
AcDbEntity
  8
0
100
AcDbLine
 62
9
  6
CONTINUOUS
 10
7.3267479936
 20
4.6389237705
 11
7.2846243534
 21
4.6389237705
  0
LINE
  5
2A5
100
AcDbEntity
  8
0
100
AcDbLine
 62
9
  6
CONTINUOUS
 10
2.6023385448
 20
4.6389237705
 11
2.6445625761
 21
4.6389237705
  0
LINE
  5
2A6
100
AcDbEntity
  8
0
100
AcDbLine
 62
7
  6
CONTINUOUS
 10
5.8795469397
 20
4.6525892648
 11
6.2995395987
 21
4.6525892648
  0
LINE
  5
2A7
100
AcDbEntity
  8
ALL_ASSEMBLY_MEMBERS
100
AcDbLine
 62
7
  6
CONTINUOUS
 10
2.9062613654
 20
4.6605891249
 11
2.9812219705
 21
4.6605891249
  0
LINE
  5
2A8
100
AcDbEntity
  8
ALL_ASSEMBLY_MEMBERS
100
AcDbLine
 62
7
  6
CONTINUOUS
 10
3.010856694
 20
4.6605891249
 11
3.0858172991
 21
4.6605891249
  0
LINE
  5
2A9
100
AcDbEntity
  8
0
100
AcDbLine
 62
7
  6
CONTINUOUS
 10
2.5895432692
 20
4.6910891249
 11
2.5880432692
 21
4.6910891249
  0
LINE
  5
2AA
100
AcDbEntity
  8
0
100
AcDbLine
 62
7
  6
CONTINUOUS
 10
7.3395432692
 20
4.6910891249
 11
7.3410432692
 21
4.6910891249
  0
LINE
  5
2AB
100
AcDbEntity
  8
0
100
AcDbLine
 62
9
  6
CONTINUOUS
 10
6.2995432692
 20
4.7373505884
 11
6.5211869686
 21
4.7373587741
  0
LINE
  5
2AC
100
AcDbEntity
  8
0
100
AcDbLine
 62
9
  6
CONTINUOUS
 10
3.6734345856
 20
4.7373489674
 11
3.407899519
 21
4.7373585118
  0
LINE
  5
2AD
100
AcDbEntity
  8
0
100
AcDbLine
 62
7
  6
CONTINUOUS
 10
7.4743483873
 20
4.7470891249
 11
7.5728483873
 21
4.7470891249
  0
LWPOLYLINE
  5
2AE
100
AcDbEntity
  8
DTM-AXIS
100
AcDbPolyline
 62
7
  6
CONTINUOUS
 90
3
 70
0
 10
6.2390858511
 20
4.5798685425
 10
6.2440622674
 20
4.5796568073
 10
6.2489865409
 20
4.5790260356
  0
LINE
  5
2AF
100
AcDbEntity
  8
ALL_FEATURES
100
AcDbLine
 62
7
  6
CONTINUOUS
 10
3.0732767488
 20
4.8428742696
 11
3.0850297928
 21
4.841326952
  0
LINE
  5
2B0
100
AcDbEntity
  8
0
100
AcDbLine
 62
9
  6
CONTINUOUS
 10
4.8968997966
 20
5.1839346554
 11
4.9004265137
 21
5.1647563511
  0
LINE
  5
2B1
100
AcDbEntity
  8
0
100
AcDbLine
 62
9
  6
CONTINUOUS
 10
5.0321867418
 20
4.4482435943
 11
5.0286600248
 21
4.4674218987
  0
LINE
  5
2B2
100
AcDbEntity
  8
0
100
AcDbLine
 62
7
  6
CONTINUOUS
 10
5.0450432692
 20
5.1450884192
 11
5.0450432692
 21
5.1419450565
  0
LINE
  5
2B3
100
AcDbEntity
  8
0
100
AcDbLine
 62
7
  6
CONTINUOUS
 10
5.0450432692
 20
4.4902331933
 11
5.0450432692
 21
4.4870898305
  0
LINE
  5
2B4
100
AcDbEntity
  8
0
100
AcDbLine
 62
7
  6
CONTINUOUS
 10
5.0645432692
 20
5.1450884192
 11
5.0645432692
 21
5.1419450565
  0
LINE
  5
2B5
100
AcDbEntity
  8
0
100
AcDbLine
 62
7
  6
CONTINUOUS
 10
5.0645432692
 20
4.4902331933
 11
5.0645432692
 21
4.4870898305
  0
LINE
  5
2B6
100
AcDbEntity
  8
DTM-AXIS
100
AcDbLine
 62
7
  6
CONTINUOUS
 10
5.074123328
 20
5.116166624
 11
5.074123328
 21
5.1218493197
  0
LINE
  5
2B7
100
AcDbEntity
  8
DTM-AXIS
100
AcDbLine
 62
7
  6
CONTINUOUS
 10
5.087246675
 20
5.1061651022
 11
5.087246675
 21
5.1168231605
  0
LINE
  5
2B8
100
AcDbEntity
  8
DTM-AXIS
100
AcDbLine
 62
7
  6
CONTINUOUS
 10
5.0970891947
 20
5.1018018758
 11
5.0970891947
 21
5.1126168025
  0
LINE
  5
2B9
100
AcDbEntity
  8
DTM-AXIS
100
AcDbLine
 62
7
  6
CONTINUOUS
 10
5.1003700409
 20
5.1002568333
 11
5.1003700409
 21
5.1111284004
  0
LINE
  5
2BA
100
AcDbEntity
  8
DTM-AXIS
100
AcDbLine
 62
7
  6
CONTINUOUS
 10
6.5770887012
 20
5.1093982348
 11
6.5762358662
 21
5.1092376126
  0
LINE
  5
2BB
100
AcDbEntity
  8
DTM-AXIS
100
AcDbLine
 62
7
  6
CONTINUOUS
 10
6.576875211
 20
5.1193478714
 11
6.5762358662
 21
5.1192303569
  0
LINE
  5
2BC
100
AcDbEntity
  8
DTM-AXIS
100
AcDbLine
 62
7
  6
CONTINUOUS
 10
3.3994006669
 20
4.5309060736
 11
3.6800995017
 21
4.5790258738
  0
LINE
  5
2BD
100
AcDbEntity
  8
DTM-AXIS
100
AcDbLine
 62
7
  6
CONTINUOUS
 10
6.6949136871
 20
5.1295969445
 11
6.5770886984
 21
5.109398375
  0
LINE
  5
2BE
100
AcDbEntity
  8
DTM-AXIS
100
AcDbLine
 62
7
  6
CONTINUOUS
 10
6.3527396809
 20
5.0709385435
 11
6.2721202954
 21
5.0571180774
  0
LINE
  5
2BF
100
AcDbEntity
  8
DTM-AXIS
100
AcDbLine
 62
7
  6
CONTINUOUS
 10
6.3895634153
 20
5.087237281
 11
6.353436303
 21
5.0810440617
  0
LINE
  5
2C0
100
AcDbEntity
  8
0
100
AcDbLine
 62
7
  6
CONTINUOUS
 10
3.3994026519
 20
4.5309064139
 11
3.3993851985
 21
4.5309034233
  0
LINE
  5
2C1
100
AcDbEntity
  8
0
100
AcDbLine
 62
7
  6
CONTINUOUS
 10
2.5880432692
 20
4.7960891249
 11
2.5875432692
 21
4.7960891249
  0
LINE
  5
2C2
100
AcDbEntity
  8
0
100
AcDbLine
 62
7
  6
CONTINUOUS
 10
7.3410432692
 20
4.7960891249
 11
7.3415432692
 21
4.7960891249
  0
LINE
  5
2C3
100
AcDbEntity
  8
0
100
AcDbLine
 62
7
  6
CONTINUOUS
 10
2.5880432692
 20
4.7969401887
 11
2.5875432692
 21
4.7969401887
  0
LINE
  5
2C4
100
AcDbEntity
  8
0
100
AcDbLine
 62
7
  6
CONTINUOUS
 10
7.3410432692
 20
4.7969401887
 11
7.3415432692
 21
4.7969401887
  0
LINE
  5
2C5
100
AcDbEntity
  8
0
100
AcDbLine
 62
7
  6
CONTINUOUS
 10
2.5880432692
 20
4.7977912525
 11
2.5875432692
 21
4.7977912525
  0
LINE
  5
2C6
100
AcDbEntity
  8
0
100
AcDbLine
 62
7
  6
CONTINUOUS
 10
7.3410432692
 20
4.7977912525
 11
7.3415432692
 21
4.7977912525
  0
LINE
  5
2C7
100
AcDbEntity
  8
0
100
AcDbLine
 62
7
  6
CONTINUOUS
 10
2.5880432692
 20
4.7994933801
 11
2.5875432692
 21
4.7994933801
  0
LINE
  5
2C8
100
AcDbEntity
  8
0
100
AcDbLine
 62
7
  6
CONTINUOUS
 10
7.3410432692
 20
4.7994933801
 11
7.3415432692
 21
4.7994933801
  0
LINE
  5
2C9
100
AcDbEntity
  8
0
100
AcDbLine
 62
7
  6
CONTINUOUS
 10
7.3410432692
 20
4.8011955078
 11
7.3415432692
 21
4.8011955078
  0
LINE
  5
2CA
100
AcDbEntity
  8
0
100
AcDbLine
 62
7
  6
CONTINUOUS
 10
2.5880432692
 20
4.8020465716
 11
2.5875432692
 21
4.8020465716
  0
LINE
  5
2CB
100
AcDbEntity
  8
0
100
AcDbLine
 62
7
  6
CONTINUOUS
 10
7.3410432692
 20
4.8045997633
 11
7.3415432692
 21
4.8045997633
  0
LINE
  5
2CC
100
AcDbEntity
  8
0
100
AcDbLine
 62
7
  6
CONTINUOUS
 10
2.5880432692
 20
4.8080040183
 11
2.5875432692
 21
4.8080040183
  0
LINE
  5
2CD
100
AcDbEntity
  8
0
100
AcDbLine
 62
7
  6
CONTINUOUS
 10
7.3410432692
 20
4.8097061457
 11
7.3415432692
 21
4.8097061457
  0
LINE
  5
2CE
100
AcDbEntity
  8
0
100
AcDbLine
 62
7
  6
CONTINUOUS
 10
6.967960597
 20
4.8107846491
 11
6.9567508324
 21
4.8107846491
  0
LINE
  5
2CF
100
AcDbEntity
  8
0
100
AcDbLine
 62
7
  6
CONTINUOUS
 10
6.9093435801
 20
4.8107846491
 11
6.8981338155
 21
4.8107846491
  0
LINE
  5
2D0
100
AcDbEntity
  8
0
100
AcDbLine
 62
7
  6
CONTINUOUS
 10
3.030952723
 20
4.8107846491
 11
3.0197429584
 21
4.8107846491
  0
LINE
  5
2D1
100
AcDbEntity
  8
0
100
AcDbLine
 62
7
  6
CONTINUOUS
 10
2.9723357061
 20
4.8107846491
 11
2.9611259414
 21
4.8107846491
  0
LINE
  5
2D2
100
AcDbEntity
  8
0
100
AcDbLine
 62
7
  6
CONTINUOUS
 10
2.5880432692
 20
4.8114082744
 11
2.5875432692
 21
4.8114082744
  0
LINE
  5
2D3
100
AcDbEntity
  8
0
100
AcDbLine
 62
7
  6
CONTINUOUS
 10
2.5880432692
 20
4.8148125293
 11
2.5875432692
 21
4.8148125293
  0
LINE
  5
2D4
100
AcDbEntity
  8
0
100
AcDbLine
 62
7
  6
CONTINUOUS
 10
7.3410432692
 20
4.8148125293
 11
7.3415432692
 21
4.8148125293
  0
LINE
  5
2D5
100
AcDbEntity
  8
0
100
AcDbLine
 62
7
  6
CONTINUOUS
 10
2.5880432692
 20
4.8173657205
 11
2.5875432692
 21
4.8173657205
  0
LINE
  5
2D6
100
AcDbEntity
  8
0
100
AcDbLine
 62
7
  6
CONTINUOUS
 10
7.3410432692
 20
4.8182167842
 11
7.3415432692
 21
4.8182167842
  0
LINE
  5
2D7
100
AcDbEntity
  8
0
100
AcDbLine
 62
7
  6
CONTINUOUS
 10
2.5880432692
 20
4.8199189116
 11
2.5875432692
 21
4.8199189116
  0
LINE
  5
2D8
100
AcDbEntity
  8
0
100
AcDbLine
 62
7
  6
CONTINUOUS
 10
7.3410432692
 20
4.8199189116
 11
7.3415432692
 21
4.8199189116
  0
LINE
  5
2D9
100
AcDbEntity
  8
0
100
AcDbLine
 62
7
  6
CONTINUOUS
 10
2.9611259414
 20
4.8213936007
 11
2.9723357061
 21
4.8213936007
  0
LINE
  5
2DA
100
AcDbEntity
  8
0
100
AcDbLine
 62
7
  6
CONTINUOUS
 10
3.0197429584
 20
4.8213936007
 11
3.030952723
 21
4.8213936007
  0
LINE
  5
2DB
100
AcDbEntity
  8
0
100
AcDbLine
 62
7
  6
CONTINUOUS
 10
6.8981338155
 20
4.8213936007
 11
6.9093435801
 21
4.8213936007
  0
LINE
  5
2DC
100
AcDbEntity
  8
0
100
AcDbLine
 62
7
  6
CONTINUOUS
 10
6.9567508324
 20
4.8213936007
 11
6.967960597
 21
4.8213936007
  0
LINE
  5
2DD
100
AcDbEntity
  8
0
100
AcDbLine
 62
7
  6
CONTINUOUS
 10
2.5880432692
 20
4.8216210391
 11
2.5875432692
 21
4.8216210391
  0
LINE
  5
2DE
100
AcDbEntity
  8
0
100
AcDbLine
 62
7
  6
CONTINUOUS
 10
7.3410432692
 20
4.8216210391
 11
7.3415432692
 21
4.8216210391
  0
LINE
  5
2DF
100
AcDbEntity
  8
0
100
AcDbLine
 62
7
  6
CONTINUOUS
 10
2.5880432692
 20
4.8224721028
 11
2.5875432692
 21
4.8224721028
  0
LINE
  5
2E0
100
AcDbEntity
  8
0
100
AcDbLine
 62
7
  6
CONTINUOUS
 10
7.3410432692
 20
4.8224721028
 11
7.3415432692
 21
4.8224721028
  0
LINE
  5
2E1
100
AcDbEntity
  8
0
100
AcDbLine
 62
7
  6
CONTINUOUS
 10
2.5880432692
 20
4.8233231666
 11
2.5875432692
 21
4.8233231666
  0
LINE
  5
2E2
100
AcDbEntity
  8
0
100
AcDbLine
 62
7
  6
CONTINUOUS
 10
7.3410432692
 20
4.8233231666
 11
7.3415432692
 21
4.8233231666
  0
LINE
  5
2E3
100
AcDbEntity
  8
0
100
AcDbLine
 62
7
  6
CONTINUOUS
 10
2.5880432692
 20
4.8301316788
 11
2.5875432692
 21
4.8301316788
  0
LINE
  5
2E4
100
AcDbEntity
  8
0
100
AcDbLine
 62
7
  6
CONTINUOUS
 10
2.5880432692
 20
4.8318338062
 11
2.5875432692
 21
4.8318338062
  0
LINE
  5
2E5
100
AcDbEntity
  8
0
100
AcDbLine
 62
7
  6
CONTINUOUS
 10
2.5880432692
 20
4.8360891249
 11
2.5875432692
 21
4.8360891249
  0
LINE
  5
2E6
100
AcDbEntity
  8
0
100
AcDbLine
 62
7
  6
CONTINUOUS
 10
7.3410432692
 20
4.8360891249
 11
7.3415432692
 21
4.8360891249
  0
LINE
  5
2E7
100
AcDbEntity
  8
0
100
AcDbLine
 62
7
  6
CONTINUOUS
 10
2.5880432692
 20
4.837472104
 11
2.5875432692
 21
4.837472104
  0
LINE
  5
2E8
100
AcDbEntity
  8
0
100
AcDbLine
 62
7
  6
CONTINUOUS
 10
7.3410432692
 20
4.837472104
 11
7.3415432692
 21
4.837472104
  0
LINE
  5
2E9
100
AcDbEntity
  8
0
100
AcDbLine
 62
7
  6
CONTINUOUS
 10
2.5880432692
 20
4.8383231678
 11
2.5875432692
 21
4.8383231678
  0
LINE
  5
2EA
100
AcDbEntity
  8
0
100
AcDbLine
 62
7
  6
CONTINUOUS
 10
7.3410432692
 20
4.8383231678
 11
7.3415432692
 21
4.8383231678
  0
LINE
  5
2EB
100
AcDbEntity
  8
0
100
AcDbLine
 62
7
  6
CONTINUOUS
 10
2.5880432692
 20
4.8391742315
 11
2.5875432692
 21
4.8391742315
  0
LINE
  5
2EC
100
AcDbEntity
  8
0
100
AcDbLine
 62
7
  6
CONTINUOUS
 10
7.3410432692
 20
4.8400252952
 11
7.3415432692
 21
4.8400252952
  0
LINE
  5
2ED
100
AcDbEntity
  8
0
100
AcDbLine
 62
7
  6
CONTINUOUS
 10
2.5880432692
 20
4.8408763589
 11
2.5875432692
 21
4.8408763589
  0
LINE
  5
2EE
100
AcDbEntity
  8
0
100
AcDbLine
 62
7
  6
CONTINUOUS
 10
7.3410432692
 20
4.8425784864
 11
7.3415432692
 21
4.8425784864
  0
LINE
  5
2EF
100
AcDbEntity
  8
0
100
AcDbLine
 62
7
  6
CONTINUOUS
 10
2.5880432692
 20
4.8434295501
 11
2.5875432692
 21
4.8434295501
  0
LINE
  5
2F0
100
AcDbEntity
  8
0
100
AcDbLine
 62
7
  6
CONTINUOUS
 10
7.3410432692
 20
4.8476848697
 11
7.3415432692
 21
4.8476848697
  0
LINE
  5
2F1
100
AcDbEntity
  8
0
100
AcDbLine
 62
7
  6
CONTINUOUS
 10
2.5880432692
 20
4.8493869973
 11
2.5875432692
 21
4.8493869973
  0
LINE
  5
2F2
100
AcDbEntity
  8
0
100
AcDbLine
 62
7
  6
CONTINUOUS
 10
7.3410432692
 20
4.8493869973
 11
7.3415432692
 21
4.8493869973
  0
LINE
  5
2F3
100
AcDbEntity
  8
0
100
AcDbLine
 62
7
  6
CONTINUOUS
 10
2.5880432692
 20
4.8510891249
 11
2.5875432692
 21
4.8510891249
  0
LINE
  5
2F4
100
AcDbEntity
  8
0
100
AcDbLine
 62
7
  6
CONTINUOUS
 10
7.3410432692
 20
4.8510891249
 11
7.3415432692
 21
4.8510891249
  0
LINE
  5
2F5
100
AcDbEntity
  8
0
100
AcDbLine
 62
7
  6
CONTINUOUS
 10
2.5880432692
 20
4.8672593381
 11
2.5875432692
 21
4.8672593381
  0
LINE
  5
2F6
100
AcDbEntity
  8
0
100
AcDbLine
 62
7
  6
CONTINUOUS
 10
2.5880432692
 20
4.8715146567
 11
2.5875432692
 21
4.8715146567
  0
LINE
  5
2F7
100
AcDbEntity
  8
0
100
AcDbLine
 62
7
  6
CONTINUOUS
 10
2.5880432692
 20
4.8740678479
 11
2.5875432692
 21
4.8740678479
  0
LINE
  5
2F8
100
AcDbEntity
  8
0
100
AcDbLine
 62
7
  6
CONTINUOUS
 10
2.5880432692
 20
4.8757699754
 11
2.5875432692
 21
4.8757699754
  0
LINE
  5
2F9
100
AcDbEntity
  8
0
100
AcDbLine
 62
7
  6
CONTINUOUS
 10
2.5880432692
 20
4.8774721028
 11
2.5875432692
 21
4.8774721028
  0
LINE
  5
2FA
100
AcDbEntity
  8
0
100
AcDbLine
 62
7
  6
CONTINUOUS
 10
2.5880432692
 20
4.8783231666
 11
2.5875432692
 21
4.8783231666
  0
LINE
  5
2FB
100
AcDbEntity
  8
0
100
AcDbLine
 62
7
  6
CONTINUOUS
 10
7.5728483873
 20
4.8850891249
 11
7.4743483873
 21
4.8850891249
  0
LINE
  5
2FC
100
AcDbEntity
  8
0
100
AcDbLine
 62
7
  6
CONTINUOUS
 10
2.5880432692
 20
4.8851316788
 11
2.5875432692
 21
4.8851316788
  0
LINE
  5
2FD
100
AcDbEntity
  8
0
100
AcDbLine
 62
7
  6
CONTINUOUS
 10
2.5880432692
 20
4.8910891249
 11
2.5875432692
 21
4.8910891249
  0
LINE
  5
2FE
100
AcDbEntity
  8
0
100
AcDbLine
 62
7
  6
CONTINUOUS
 10
7.3410432692
 20
4.8910891249
 11
7.3415432692
 21
4.8910891249
  0
LINE
  5
2FF
100
AcDbEntity
  8
0
100
AcDbLine
 62
9
  6
CONTINUOUS
 10
3.6734345856
 20
4.8948292824
 11
3.4079059425
 21
4.8948086796
  0
LINE
  5
300
100
AcDbEntity
  8
0
100
AcDbLine
 62
7
  6
CONTINUOUS
 10
2.5895432692
 20
4.9410891249
 11
2.5880432692
 21
4.9410891249
  0
LINE
  5
301
100
AcDbEntity
  8
0
100
AcDbLine
 62
7
  6
CONTINUOUS
 10
7.3395432692
 20
4.9410891249
 11
7.3410432692
 21
4.9410891249
  0
LINE
  5
302
100
AcDbEntity
  8
0
100
AcDbLine
 62
9
  6
CONTINUOUS
 10
6.2995432692
 20
4.8948259549
 11
6.5211807859
 21
4.8948091523
  0
LINE
  5
303
100
AcDbEntity
  8
0
100
AcDbLine
 62
7
  6
CONTINUOUS
 10
6.529700845
 20
4.5309035078
 11
6.5296851395
 21
4.5309061991
  0
LINE
  5
304
100
AcDbEntity
  8
DTM-AXIS
100
AcDbLine
 62
7
  6
CONTINUOUS
 10
6.2489870367
 20
4.5790258738
 11
6.5296863427
 21
4.5309059928
  0
LINE
  5
305
100
AcDbEntity
  8
DTM-AXIS
100
AcDbLine
 62
7
  6
CONTINUOUS
 10
3.6800995242
 20
5.0531523721
 11
3.5763468575
 21
5.0709385435
  0
LINE
  5
306
100
AcDbEntity
  8
DTM-AXIS
100
AcDbLine
 62
7
  6
CONTINUOUS
 10
3.3519978401
 20
5.109398375
 11
3.2340571738
 21
5.129616775
  0
LINE
  5
307
100
AcDbEntity
  8
DTM-AXIS
100
AcDbLine
 62
7
  6
CONTINUOUS
 10
3.5756502355
 20
5.0810440617
 11
3.5395231231
 21
5.087237281
  0
LINE
  5
308
100
AcDbEntity
  8
DTM-AXIS
100
AcDbLine
 62
7
  6
CONTINUOUS
 10
3.3522113274
 20
5.1193478714
 11
3.3528506722
 21
5.1192303569
  0
LINE
  5
309
100
AcDbEntity
  8
DTM-AXIS
100
AcDbLine
 62
7
  6
CONTINUOUS
 10
3.3519978373
 20
5.1093982348
 11
3.3528506722
 21
5.1092376126
  0
LWPOLYLINE
  5
30A
100
AcDbEntity
  8
0
100
AcDbPolyline
 62
7
  6
CONTINUOUS
 90
20
 70
0
 10
6.5297024357
 20
4.530903236
 10
6.5329164572
 20
4.5302774245
 10
6.5371467494
 20
4.5292378743
 10
6.5420078509
 20
4.5277515086
 10
6.547400023
 20
4.525739111
 10
6.553095515
 20
4.5231863009
 10
6.5590189327
 20
4.520038048
 10
6.5650917806
 20
4.516240597
 10
6.5710998963
 20
4.5118448733
 10
6.5769751875
 20
4.5068317073
 10
6.5826310451
 20
4.5012006234
 10
6.5878690107
 20
4.4951007748
 10
6.5926436161
 20
4.488565311
 10
6.5969026231
 20
4.481645358
 10
6.6005129238
 20
4.4745856907
 10
6.6034887829
 20
4.467442607
 10
6.6058299736
 20
4.4603205717
 10
6.6074966367
 20
4.4535896751
 10
6.608564581
 20
4.4474426888
 10
6.6090917187
 20
4.4426697433
  0
LINE
  5
30B
100
AcDbEntity
  8
0
100
AcDbLine
 62
9
  6
CONTINUOUS
 10
5.0884984001
 20
4.5265442133
 11
5.0808243507
 21
4.5444699067
  0
LINE
  5
30C
100
AcDbEntity
  8
0
100
AcDbLine
 62
9
  6
CONTINUOUS
 10
4.8405881384
 20
5.1056340365
 11
4.8482621877
 21
5.087708343
  0
LINE
  5
30D
100
AcDbEntity
  8
ALL_FEATURES
100
AcDbLine
 62
7
  6
CONTINUOUS
 10
3.0850297928
 20
4.7908512977
 11
3.0732767488
 21
4.7893039801
  0
LINE
  5
30E
100
AcDbEntity
  8
ALL_FEATURES
100
AcDbLine
 62
7
  6
CONTINUOUS
 10
2.9070488716
 20
4.841326952
 11
2.9188019156
 21
4.8428742696
  0
LINE
  5
30F
100
AcDbEntity
  8
0
100
AcDbLine
 62
7
  6
CONTINUOUS
 10
5.8795432692
 20
4.9635892648
 11
6.2995432692
 21
4.9635892648
  0
LINE
  5
310
100
AcDbEntity
  8
ALL_ASSEMBLY_MEMBERS
100
AcDbLine
 62
7
  6
CONTINUOUS
 10
2.9062613654
 20
4.9715891249
 11
2.9812219705
 21
4.9715891249
  0
LINE
  5
311
100
AcDbEntity
  8
ALL_ASSEMBLY_MEMBERS
100
AcDbLine
 62
7
  6
CONTINUOUS
 10
3.010856694
 20
4.9715891249
 11
3.0858172991
 21
4.9715891249
  0
LINE
  5
312
100
AcDbEntity
  8
0
100
AcDbLine
 62
7
  6
CONTINUOUS
 10
6.2720931785
 20
4.9905936037
 11
6.0895432692
 21
4.9905891249
  0
LINE
  5
313
100
AcDbEntity
  8
0
100
AcDbLine
 62
7
  6
CONTINUOUS
 10
6.0895432692
 20
4.9905891249
 11
5.9069933598
 21
4.9905936036
  0
LINE
  5
314
100
AcDbEntity
  8
0
100
AcDbLine
 62
9
  6
CONTINUOUS
 10
2.6445625761
 20
4.9932544792
 11
2.6023385448
 21
4.9932544792
  0
LINE
  5
315
100
AcDbEntity
  8
0
100
AcDbLine
 62
9
  6
CONTINUOUS
 10
7.2846243534
 20
4.9932544792
 11
7.3267479936
 21
4.9932544792
  0
LINE
  5
316
100
AcDbEntity
  8
0
100
AcDbLine
 62
7
  6
CONTINUOUS
 10
2.6550844488
 20
5.0129395186
 11
2.2873779149
 21
5.0129395186
  0
LINE
  5
317
100
AcDbEntity
  8
0
100
AcDbLine
 62
7
  6
CONTINUOUS
 10
7.2739915792
 20
5.0129395186
 11
7.6417086236
 21
5.0129395186
  0
LINE
  5
318
100
AcDbEntity
  8
DTM-AXIS
100
AcDbLine
 62
7
  6
CONTINUOUS
 10
5.9069679331
 20
5.0523095973
 11
5.172570921
 21
5.0523095973
  0
LINE
  5
319
100
AcDbEntity
  8
DTM-AXIS
100
AcDbLine
 62
7
  6
CONTINUOUS
 10
4.7565144915
 20
5.0523095973
 11
3.9645432692
 21
5.0523095973
  0
LINE
  5
31A
100
AcDbEntity
  8
DTM-AXIS
100
AcDbLine
 62
7
  6
CONTINUOUS
 10
3.7145432692
 20
5.0523095973
 11
3.690000842
 21
5.0523095973
  0
LINE
  5
31B
100
AcDbEntity
  8
ALL_FEATURES
100
AcDbLine
 62
7
  6
CONTINUOUS
 10
3.9645432692
 20
5.0680891249
 11
3.7145432692
 21
5.0680891249
  0
LWPOLYLINE
  5
31C
100
AcDbEntity
  8
DTM-AXIS
100
AcDbPolyline
 62
7
  6
CONTINUOUS
 90
4
 70
0
 10
3.6900006366
 20
5.0523097091
 10
3.6890024732
 20
5.052318226
 10
3.6842451292
 20
5.0525930985
 10
3.6800999636
 20
5.0531522252
  0
LINE
  5
31D
100
AcDbEntity
  8
ALL_FEATURES
100
AcDbLine
 62
7
  6
CONTINUOUS
 10
6.8558097897
 20
4.7893039801
 11
6.8440567456
 21
4.7908512977
  0
LINE
  5
31E
100
AcDbEntity
  8
ALL_FEATURES
100
AcDbLine
 62
7
  6
CONTINUOUS
 10
7.0102846228
 20
4.8428742696
 11
7.0220376669
 21
4.841326952
  0
LWPOLYLINE
  5
31F
100
AcDbEntity
  8
0
100
AcDbPolyline
 62
7
  6
CONTINUOUS
 90
7
 70
0
 10
5.1803241091
 20
5.0455121841
 10
5.1812460214
 20
5.0451645584
 10
5.1815661645
 20
5.0450256104
 10
5.1812609944
 20
5.0451950026
 10
5.1805028762
 20
5.0456738692
 10
5.1794060586
 20
5.0464761015
 10
5.1781818257
 20
5.0475146571
  0
LINE
  5
320
100
AcDbEntity
  8
0
100
AcDbLine
 62
7
  6
CONTINUOUS
 10
5.9069939801
 20
4.9905942137
 11
5.8795432692
 21
4.9635892648
  0
LINE
  5
321
100
AcDbEntity
  8
ALL_FEATURES
100
AcDbLine
 62
7
  6
CONTINUOUS
 10
2.934931495
 20
4.7617853982
 11
2.9234809654
 21
4.758717238
  0
LINE
  5
322
100
AcDbEntity
  8
0
100
AcDbLine
 62
7
  6
CONTINUOUS
 10
2.9864602453
 20
4.7915352257
 11
2.9907348564
 21
4.7923854987
  0
LINE
  5
323
100
AcDbEntity
  8
0
100
AcDbLine
 62
7
  6
CONTINUOUS
 10
3.0056184191
 20
4.840643024
 11
3.001343808
 21
4.839792751
  0
LINE
  5
324
100
AcDbEntity
  8
0
100
AcDbLine
 62
9
  6
CONTINUOUS
 10
5.0645432692
 20
5.1419450565
 11
5.0450432692
 21
5.1419450565
  0
LINE
  5
325
100
AcDbEntity
  8
0
100
AcDbLine
 62
9
  6
CONTINUOUS
 10
4.8645432692
 20
5.1419450565
 11
4.8840432692
 21
5.1419450565
  0
LINE
  5
326
100
AcDbEntity
  8
0
100
AcDbLine
 62
9
  6
CONTINUOUS
 10
5.0645432692
 20
5.1450884192
 11
5.0450432692
 21
5.1450884192
  0
LINE
  5
327
100
AcDbEntity
  8
0
100
AcDbLine
 62
9
  6
CONTINUOUS
 10
4.8645432692
 20
5.1450884192
 11
4.8840432692
 21
5.1450884192
  0
LINE
  5
328
100
AcDbEntity
  8
0
100
AcDbLine
 62
7
  6
CONTINUOUS
 10
6.9426262931
 20
4.7915352257
 11
6.9383516821
 21
4.7923854987
  0
LINE
  5
329
100
AcDbEntity
  8
0
100
AcDbLine
 62
7
  6
CONTINUOUS
 10
6.9234681193
 20
4.840643024
 11
6.9277427304
 21
4.839792751
  0
LINE
  5
32A
100
AcDbEntity
  8
ALL_FEATURES
100
AcDbLine
 62
7
  6
CONTINUOUS
 10
7.0056055731
 20
4.758717238
 11
6.9941550434
 21
4.7617853982
  0
LINE
  5
32B
100
AcDbEntity
  8
ALL_ASSEMBLY_MEMBERS
100
AcDbLine
 62
7
  6
CONTINUOUS
 10
6.7775472062
 20
4.9058670917
 11
6.8428144095
 21
4.9435491291
  0
LINE
  5
32C
100
AcDbEntity
  8
ALL_ASSEMBLY_MEMBERS
100
AcDbLine
 62
7
  6
CONTINUOUS
 10
6.867780003
 20
4.9579630212
 11
6.9330472062
 21
4.9956450586
  0
LINE
  5
32D
100
AcDbEntity
  8
0
100
AcDbLine
 62
7
  6
CONTINUOUS
 10
6.9223537441
 20
4.8267825871
 11
6.9093435801
 21
4.8213936007
  0
LINE
  5
32E
100
AcDbEntity
  8
0
100
AcDbLine
 62
7
  6
CONTINUOUS
 10
6.9437406684
 20
4.8053956627
 11
6.9567508324
 21
4.8107846491
  0
LINE
  5
32F
100
AcDbEntity
  8
ALL_FEATURES
100
AcDbLine
 62
7
  6
CONTINUOUS
 10
3.0571471694
 20
4.8703928516
 11
3.0685976991
 21
4.8734610117
  0
LINE
  5
330
100
AcDbEntity
  8
ALL_ASSEMBLY_MEMBERS
100
AcDbLine
 62
7
  6
CONTINUOUS
 10
3.0325712191
 20
4.9067163578
 11
3.0385579615
 21
4.9082073556
  0
LWPOLYLINE
  5
331
100
AcDbEntity
  8
0
100
AcDbPolyline
 62
7
  6
CONTINUOUS
 90
30
 70
0
 10
6.0895432692
 20
5.4139447693
 10
6.0820405362
 20
5.4137872815
 10
6.0725216583
 20
5.413135485
 10
6.0630320382
 20
5.4119812914
 10
6.0535979726
 20
5.4103281723
 10
6.0442455481
 20
5.408179586
 10
6.0350006725
 20
5.4055388528
 10
6.0258904537
 20
5.4024095321
 10
6.016941923
 20
5.3987951835
 10
6.0081800543
 20
5.3947021127
 10
5.9996294169
 20
5.390142759
 10
5.991313853
 20
5.3851298821
 10
5.9832557653
 20
5.379675104
 10
5.9754801954
 20
5.3737914378
 10
5.9680125084
 20
5.3674921402
 10
5.960876549
 20
5.3607888922
 10
5.9540935317
 20
5.3536916639
 10
5.9476883458
 20
5.3462241057
 10
5.9416891052
 20
5.3384202716
 10
5.9361073899
 20
5.3302948117
 10
5.9309670387
 20
5.3218792849
 10
5.9263063691
 20
5.3132387873
 10
5.9221360154
 20
5.3044002822
 10
5.9184658658
 20
5.2953904681
 10
5.9153138051
 20
5.2862818784
 10
5.9126717729
 20
5.2771025788
 10
5.9105333576
 20
5.2678852334
 10
5.9088992561
 20
5.258713412
 10
5.9077550446
 20
5.2496335923
 10
5.9070806106
 20
5.240653019
  0
LINE
  5
332
100
AcDbEntity
  8
ALL_ASSEMBLY_MEMBERS
100
AcDbLine
 62
7
  6
CONTINUOUS
 10
6.900326624
 20
4.9120830438
 11
6.9073539999
 21
4.910368135
  0
LINE
  5
333
100
AcDbEntity
  8
ALL_FEATURES
100
AcDbLine
 62
7
  6
CONTINUOUS
 10
6.8604888394
 20
4.8734610117
 11
6.871939369
 21
4.8703928516
  0
LINE
  5
334
100
AcDbEntity
  8
0
100
AcDbLine
 62
7
  6
CONTINUOUS
 10
5.9068594773
 20
5.2317949701
 11
5.9068640418
 21
5.2312586337
  0
LINE
  5
335
100
AcDbEntity
  8
0
100
AcDbLine
 62
7
  6
CONTINUOUS
 10
5.9068640418
 20
5.2312586337
 11
5.9068988457
 21
5.205243295
  0
LINE
  5
336
100
AcDbEntity
  8
0
100
AcDbLine
 62
7
  6
CONTINUOUS
 10
5.9068988457
 20
5.205243295
 11
5.9069888072
 21
4.9905891249
  0
LINE
  5
337
100
AcDbEntity
  8
0
100
AcDbLine
 62
7
  6
CONTINUOUS
 10
5.8795432692
 20
4.9635892648
 11
5.8795432692
 21
4.6525892648
  0
LINE
  5
338
100
AcDbEntity
  8
0
100
AcDbLine
 62
7
  6
CONTINUOUS
 10
5.9068594773
 20
5.2317949701
 11
5.9068595072
 21
5.2326817474
  0
LINE
  5
339
100
AcDbEntity
  8
0
100
AcDbLine
 62
7
  6
CONTINUOUS
 10
5.9068595072
 20
5.2326817474
 11
5.906846287
 21
5.2289572735
  0
LINE
  5
33A
100
AcDbEntity
  8
0
100
AcDbLine
 62
7
  6
CONTINUOUS
 10
5.9070806106
 20
5.240653019
 11
5.9068594773
 21
5.2317949701
  0
LINE
  5
33B
100
AcDbEntity
  8
ALL_FEATURES
100
AcDbLine
 62
7
  6
CONTINUOUS
 10
6.8411726428
 20
4.8053506619
 11
6.8514389068
 21
4.8112778922
  0
LINE
  5
33C
100
AcDbEntity
  8
ALL_FEATURES
100
AcDbLine
 62
7
  6
CONTINUOUS
 10
7.0249217697
 20
4.8268275878
 11
7.0146555057
 21
4.8209003576
  0
LINE
  5
33D
100
AcDbEntity
  8
0
100
AcDbLine
 62
7
  6
CONTINUOUS
 10
6.9093435801
 20
4.8107846491
 11
6.9223537441
 21
4.8053956627
  0
LINE
  5
33E
100
AcDbEntity
  8
0
100
AcDbLine
 62
7
  6
CONTINUOUS
 10
6.9567508324
 20
4.8213936007
 11
6.9437406684
 21
4.8267825871
  0
LINE
  5
33F
100
AcDbEntity
  8
ALL_ASSEMBLY_MEMBERS
100
AcDbLine
 62
7
  6
CONTINUOUS
 10
6.7775472062
 20
4.726311158
 11
6.8428144095
 21
4.6886291206
  0
LINE
  5
340
100
AcDbEntity
  8
ALL_ASSEMBLY_MEMBERS
100
AcDbLine
 62
7
  6
CONTINUOUS
 10
6.867780003
 20
4.6742152285
 11
6.9330472062
 21
4.6365331912
  0
LINE
  5
341
100
AcDbEntity
  8
DEFAULT_SURFACES
100
AcDbLine
 62
7
  6
CONTINUOUS
 10
6.0520432692
 20
4.5818027206
 11
6.0520432692
 21
4.6525892648
  0
LINE
  5
342
100
AcDbEntity
  8
0
100
AcDbLine
 62
9
  6
CONTINUOUS
 10
6.0895432692
 20
4.9905891249
 11
6.0895432692
 21
5.4139447694
  0
LINE
  5
343
100
AcDbEntity
  8
DEFAULT_SURFACES
100
AcDbLine
 62
7
  6
CONTINUOUS
 10
6.1270432692
 20
4.6525892648
 11
6.1270432692
 21
4.5818027206
  0
LINE
  5
344
100
AcDbEntity
  8
ALL_FEATURES
100
AcDbLine
 62
7
  6
CONTINUOUS
 10
6.9687223498
 20
4.8896441834
 11
6.9781271257
 21
4.8968607217
  0
LINE
  5
345
100
AcDbEntity
  8
ALL_ASSEMBLY_MEMBERS
100
AcDbLine
 62
7
  6
CONTINUOUS
 10
6.9330472062
 20
4.6365331912
 11
6.9983144095
 21
4.6742152285
  0
LINE
  5
346
100
AcDbEntity
  8
ALL_ASSEMBLY_MEMBERS
100
AcDbLine
 62
7
  6
CONTINUOUS
 10
7.023280003
 20
4.6886291206
 11
7.0885472062
 21
4.726311158
  0
LINE
  5
347
100
AcDbEntity
  8
ALL_FEATURES
100
AcDbLine
 62
7
  6
CONTINUOUS
 10
6.8514389068
 20
4.8209003576
 11
6.8411726428
 21
4.8268275878
  0
LINE
  5
348
100
AcDbEntity
  8
ALL_FEATURES
100
AcDbLine
 62
7
  6
CONTINUOUS
 10
7.0146555057
 20
4.8112778922
 11
7.0249217697
 21
4.8053506619
  0
LINE
  5
349
100
AcDbEntity
  8
0
100
AcDbLine
 62
7
  6
CONTINUOUS
 10
6.2720925583
 20
4.9905942138
 11
6.2995432692
 21
4.9635892648
  0
LWPOLYLINE
  5
34A
100
AcDbEntity
  8
0
100
AcDbPolyline
 62
7
  6
CONTINUOUS
 90
31
 70
0
 10
6.2722270612
 20
5.231795138
 10
6.2720068302
 20
5.2406349139
 10
6.2713348992
 20
5.2495996271
 10
6.2701944574
 20
5.2586661027
 10
6.2685650039
 20
5.2678274405
 10
6.266431794
 20
5.2770369285
 10
6.263795403
 20
5.2862102062
 10
6.2606491799
 20
5.2953146368
 10
6.256984836
 20
5.3043221114
 10
6.2528203436
 20
5.3131592141
 10
6.2481654854
 20
5.3217991996
 10
6.2430307808
 20
5.3302151186
 10
6.2374548989
 20
5.3383411901
 10
6.2314618325
 20
5.3461457096
 10
6.2250630501
 20
5.3536142642
 10
6.2182867397
 20
5.3607127647
 10
6.2111578247
 20
5.3674175056
 10
6.2036974278
 20
5.3737186064
 10
6.1959292522
 20
5.3796045448
 10
6.187878645
 20
5.3850620981
 10
6.1795706256
 20
5.3900782896
 10
6.1710274135
 20
5.394641617
 10
6.1622728198
 20
5.3987393303
 10
6.1533313597
 20
5.4023589714
 10
6.1442277403
 20
5.405494203
 10
6.1349889429
 20
5.4081414275
 10
6.1256420337
 20
5.4102970527
 10
6.116212688
 20
5.4119577547
 10
6.10672689
 20
5.4131200165
 10
6.0972109716
 20
5.4137802869
 10
6.0895432692
 20
5.4139447694
  0
LINE
  5
34B
100
AcDbEntity
  8
0
100
AcDbLine
 62
7
  6
CONTINUOUS
 10
6.2722402515
 20
5.2289572735
 11
6.2722273361
 21
5.2326647171
  0
LINE
  5
34C
100
AcDbEntity
  8
0
100
AcDbLine
 62
7
  6
CONTINUOUS
 10
6.2995432692
 20
4.9635892648
 11
6.2995432692
 21
4.6525892648
  0
LINE
  5
34D
100
AcDbEntity
  8
0
100
AcDbLine
 62
7
  6
CONTINUOUS
 10
6.2720977313
 20
4.9905891249
 11
6.272174846
 21
5.1857501669
  0
LINE
  5
34E
100
AcDbEntity
  8
0
100
AcDbLine
 62
7
  6
CONTINUOUS
 10
6.2722270591
 20
5.2326520791
 11
6.2722270612
 21
5.231795138
  0
LWPOLYLINE
  5
34F
100
AcDbEntity
  8
0
100
AcDbPolyline
 62
7
  6
CONTINUOUS
 90
3
 70
0
 10
6.272174846
 20
5.1857501669
 10
6.2722224967
 20
5.2312587253
 10
6.2722270612
 20
5.231795138
  0
LINE
  5
350
100
AcDbEntity
  8
0
100
AcDbLine
 62
7
  6
CONTINUOUS
 10
6.2722273361
 20
5.2326647171
 11
6.2722270591
 21
5.2326520791
  0
LINE
  5
351
100
AcDbEntity
  8
0
100
AcDbLine
 62
7
  6
CONTINUOUS
 10
6.9470999468
 20
4.8301418654
 11
6.9437406684
 21
4.8267825871
  0
LINE
  5
352
100
AcDbEntity
  8
0
100
AcDbLine
 62
7
  6
CONTINUOUS
 10
6.9189944657
 20
4.8020363843
 11
6.9223537441
 21
4.8053956627
  0
LINE
  5
353
100
AcDbEntity
  8
ALL_FEATURES
100
AcDbLine
 62
7
  6
CONTINUOUS
 10
6.8973720627
 20
4.7425340664
 11
6.8879672868
 21
4.735317528
  0
LINE
  5
354
100
AcDbEntity
  8
ALL_ASSEMBLY_MEMBERS
100
AcDbLine
 62
7
  6
CONTINUOUS
 10
6.9330472062
 20
4.9956450586
 11
6.9983144095
 21
4.9579630212
  0
LINE
  5
355
100
AcDbEntity
  8
ALL_ASSEMBLY_MEMBERS
100
AcDbLine
 62
7
  6
CONTINUOUS
 10
7.023280003
 20
4.9435491291
 11
7.0885472062
 21
4.9058670917
  0
LINE
  5
356
100
AcDbEntity
  8
ALL_FEATURES
100
AcDbLine
 62
7
  6
CONTINUOUS
 10
6.9781271257
 20
4.735317528
 11
6.9687223498
 21
4.7425340664
  0
LINE
  5
357
100
AcDbEntity
  8
ALL_FEATURES
100
AcDbLine
 62
7
  6
CONTINUOUS
 10
6.8879672868
 20
4.8968607217
 11
6.8973720627
 21
4.8896441834
  0
LINE
  5
358
100
AcDbEntity
  8
DTM-AXIS
100
AcDbLine
 62
7
  6
CONTINUOUS
 10
6.3424960251
 20
5.0789448495
 11
6.3424960251
 21
5.068977855
  0
LINE
  5
359
100
AcDbEntity
  8
DTM-AXIS
100
AcDbLine
 62
7
  6
CONTINUOUS
 10
6.3845243239
 20
5.0845728694
 11
6.3845243239
 21
5.0744228567
  0
LINE
  5
35A
100
AcDbEntity
  8
DTM-AXIS
100
AcDbLine
 62
7
  6
CONTINUOUS
 10
6.3912570039
 20
5.0873756904
 11
6.3912570039
 21
5.0773580145
  0
LINE
  5
35B
100
AcDbEntity
  8
ALL_FEATURES
100
AcDbLine
 62
7
  6
CONTINUOUS
 10
6.8522756094
 20
4.7710092054
 11
6.8594921477
 21
4.7804139813
  0
LINE
  5
35C
100
AcDbEntity
  8
0
100
AcDbLine
 62
7
  6
CONTINUOUS
 10
6.9470999468
 20
4.8020363843
 11
6.9437406684
 21
4.8053956627
  0
LINE
  5
35D
100
AcDbEntity
  8
0
100
AcDbLine
 62
7
  6
CONTINUOUS
 10
6.9189944657
 20
4.8301418654
 11
6.9223537441
 21
4.8267825871
  0
LINE
  5
35E
100
AcDbEntity
  8
0
100
AcDbLine
 62
7
  6
CONTINUOUS
 10
6.6090902353
 20
4.4426696223
 11
6.642210221
 21
4.0286875501
  0
LINE
  5
35F
100
AcDbEntity
  8
DTM-AXIS
100
AcDbLine
 62
7
  6
CONTINUOUS
 10
6.5762358662
 20
5.1192303569
 11
6.5762358662
 21
5.1092376126
  0
LINE
  5
360
100
AcDbEntity
  8
DTM-AXIS
100
AcDbLine
 62
7
  6
CONTINUOUS
 10
6.5897012262
 20
5.1183833709
 11
6.5897012262
 21
5.1115605227
  0
LINE
  5
361
100
AcDbEntity
  8
ALL_FEATURES
100
AcDbLine
 62
7
  6
CONTINUOUS
 10
6.9378584389
 20
4.8976974243
 11
6.9437856692
 21
4.9079636883
  0
LINE
  5
362
100
AcDbEntity
  8
ALL_FEATURES
100
AcDbLine
 62
7
  6
CONTINUOUS
 10
6.9282359736
 20
4.7344808254
 11
6.9223087433
 21
4.7242145614
  0
LINE
  5
363
100
AcDbEntity
  8
ALL_FEATURES
100
AcDbLine
 62
7
  6
CONTINUOUS
 10
7.0138188031
 20
4.8611690443
 11
7.0066022648
 21
4.8517642684
  0
LINE
  5
364
100
AcDbEntity
  8
ALL_FEATURES
100
AcDbLine
 62
7
  6
CONTINUOUS
 10
6.8594921477
 20
4.8517642684
 11
6.8522756094
 21
4.8611690443
  0
LINE
  5
365
100
AcDbEntity
  8
ALL_FEATURES
100
AcDbLine
 62
7
  6
CONTINUOUS
 10
7.0066022648
 20
4.7804139813
 11
7.0138188031
 21
4.7710092054
  0
LINE
  5
366
100
AcDbEntity
  8
ALL_FEATURES
100
AcDbLine
 62
7
  6
CONTINUOUS
 10
6.9437856692
 20
4.7242145614
 11
6.9378584389
 21
4.7344808254
  0
LINE
  5
367
100
AcDbEntity
  8
ALL_ASSEMBLY_MEMBERS
100
AcDbLine
 62
7
  6
CONTINUOUS
 10
6.7775472062
 20
4.726311158
 11
6.7775472062
 21
4.8016752328
  0
LINE
  5
368
100
AcDbEntity
  8
ALL_ASSEMBLY_MEMBERS
100
AcDbLine
 62
7
  6
CONTINUOUS
 10
6.7775472062
 20
4.830503017
 11
6.7775472062
 21
4.9058670917
  0
LINE
  5
369
100
AcDbEntity
  8
ALL_FEATURES
100
AcDbLine
 62
7
  6
CONTINUOUS
 10
6.9062620615
 20
4.8933265415
 11
6.9078093791
 21
4.9050795855
  0
LINE
  5
36A
100
AcDbEntity
  8
0
100
AcDbLine
 62
7
  6
CONTINUOUS
 10
6.9084933071
 20
4.806510038
 11
6.9093435801
 21
4.8107846491
  0
LINE
  5
36B
100
AcDbEntity
  8
ALL_ASSEMBLY_MEMBERS
100
AcDbLine
 62
7
  6
CONTINUOUS
 10
6.8409433028
 20
4.7736280235
 11
6.8424071722
 21
4.7795058381
  0
LINE
  5
36C
100
AcDbEntity
  8
ALL_FEATURES
100
AcDbLine
 62
7
  6
CONTINUOUS
 10
6.8756753194
 20
4.743530758
 11
6.8787434795
 21
4.7549812877
  0
LINE
  5
36D
100
AcDbEntity
  8
ALL_FEATURES
100
AcDbLine
 62
7
  6
CONTINUOUS
 10
6.9904190931
 20
4.8886474917
 11
6.9873509329
 21
4.8771969621
  0
LINE
  5
36E
100
AcDbEntity
  8
0
100
AcDbLine
 62
7
  6
CONTINUOUS
 10
6.9277427304
 20
4.839792751
 11
6.9223537441
 21
4.8267825871
  0
LINE
  5
36F
100
AcDbEntity
  8
0
100
AcDbLine
 62
7
  6
CONTINUOUS
 10
6.9383516821
 20
4.7923854987
 11
6.9437406684
 21
4.8053956627
  0
LINE
  5
370
100
AcDbEntity
  8
ALL_FEATURES
100
AcDbLine
 62
7
  6
CONTINUOUS
 10
6.9223087433
 20
4.9079636883
 11
6.9282359736
 21
4.8976974243
  0
LINE
  5
371
100
AcDbEntity
  8
0
100
AcDbLine
 62
7
  6
CONTINUOUS
 10
6.9223537441
 20
4.8053956627
 11
6.9277427304
 21
4.7923854987
  0
LINE
  5
372
100
AcDbEntity
  8
0
100
AcDbLine
 62
7
  6
CONTINUOUS
 10
6.9437406684
 20
4.8267825871
 11
6.9383516821
 21
4.839792751
  0
LINE
  5
373
100
AcDbEntity
  8
ALL_FEATURES
100
AcDbLine
 62
7
  6
CONTINUOUS
 10
6.8787434795
 20
4.8771969621
 11
6.8756753194
 21
4.8886474917
  0
LINE
  5
374
100
AcDbEntity
  8
ALL_ASSEMBLY_MEMBERS
100
AcDbLine
 62
7
  6
CONTINUOUS
 10
6.8424071722
 20
4.8526724116
 11
6.8409433028
 21
4.8585502262
  0
LINE
  5
375
100
AcDbEntity
  8
0
100
AcDbLine
 62
7
  6
CONTINUOUS
 10
6.9277427304
 20
4.7811757341
 11
6.9277427304
 21
4.7923854987
  0
LINE
  5
376
100
AcDbEntity
  8
0
100
AcDbLine
 62
7
  6
CONTINUOUS
 10
6.9277427304
 20
4.839792751
 11
6.9277427304
 21
4.8510025156
  0
LINE
  5
377
100
AcDbEntity
  8
0
100
AcDbLine
 62
9
  6
CONTINUOUS
 10
6.9330472062
 20
4.3414065441
 11
6.9330472062
 21
4.0286875501
  0
LINE
  5
378
100
AcDbEntity
  8
0
100
AcDbLine
 62
7
  6
CONTINUOUS
 10
6.9383516821
 20
4.8510025156
 11
6.9383516821
 21
4.839792751
  0
LINE
  5
379
100
AcDbEntity
  8
0
100
AcDbLine
 62
7
  6
CONTINUOUS
 10
6.9383516821
 20
4.7923854987
 11
6.9383516821
 21
4.7811757341
  0
LINE
  5
37A
100
AcDbEntity
  8
ALL_FEATURES
100
AcDbLine
 62
7
  6
CONTINUOUS
 10
6.959832351
 20
4.7388517083
 11
6.9582850334
 21
4.7270986643
  0
LINE
  5
37B
100
AcDbEntity
  8
0
100
AcDbLine
 62
7
  6
CONTINUOUS
 10
6.9576011054
 20
4.8256682118
 11
6.9567508324
 21
4.8213936007
  0
LINE
  5
37C
100
AcDbEntity
  8
ALL_FEATURES
100
AcDbLine
 62
7
  6
CONTINUOUS
 10
6.9873509329
 20
4.7549812877
 11
6.9904190931
 21
4.743530758
  0
LINE
  5
37D
100
AcDbEntity
  8
0
100
AcDbLine
 62
7
  6
CONTINUOUS
 10
6.9084933071
 20
4.8256682118
 11
6.9093435801
 21
4.8213936007
  0
LINE
  5
37E
100
AcDbEntity
  8
0
100
AcDbLine
 62
7
  6
CONTINUOUS
 10
6.9576011054
 20
4.806510038
 11
6.9567508324
 21
4.8107846491
  0
LINE
  5
37F
100
AcDbEntity
  8
ALL_FEATURES
100
AcDbLine
 62
7
  6
CONTINUOUS
 10
6.9078093791
 20
4.7270986643
 11
6.9062620615
 21
4.7388517083
  0
LINE
  5
380
100
AcDbEntity
  8
ALL_FEATURES
100
AcDbLine
 62
7
  6
CONTINUOUS
 10
6.9582850334
 20
4.9050795855
 11
6.959832351
 21
4.8933265415
  0
LINE
  5
381
100
AcDbEntity
  8
ALL_ASSEMBLY_MEMBERS
100
AcDbLine
 62
7
  6
CONTINUOUS
 10
7.0885472062
 20
4.726311158
 11
7.0885472062
 21
4.8016752328
  0
LINE
  5
382
100
AcDbEntity
  8
ALL_ASSEMBLY_MEMBERS
100
AcDbLine
 62
7
  6
CONTINUOUS
 10
7.0885472062
 20
4.830503017
 11
7.0885472062
 21
4.9058670917
  0
LINE
  5
383
100
AcDbEntity
  8
0
100
AcDbLine
 62
7
  6
CONTINUOUS
 10
7.3267479936
 20
4.6192387312
 11
7.3267479936
 21
5.0129395186
  0
LINE
  5
384
100
AcDbEntity
  8
0
100
AcDbLine
 62
7
  6
CONTINUOUS
 10
7.3395432692
 20
4.9410891249
 11
7.3395432692
 21
4.6910891249
  0
LINE
  5
385
100
AcDbEntity
  8
0
100
AcDbLine
 62
7
  6
CONTINUOUS
 10
7.3410432692
 20
4.9410891249
 11
7.3410432692
 21
4.6910891249
  0
LINE
  5
386
100
AcDbEntity
  8
0
100
AcDbLine
 62
7
  6
CONTINUOUS
 10
7.3415432692
 20
4.8910891249
 11
7.3415432692
 21
4.837472104
  0
LINE
  5
387
100
AcDbEntity
  8
0
100
AcDbLine
 62
7
  6
CONTINUOUS
 10
7.3415432692
 20
4.8360891249
 11
7.3415432692
 21
4.7960891249
  0
LINE
  5
388
100
AcDbEntity
  8
0
100
AcDbLine
 62
7
  6
CONTINUOUS
 10
7.2706774825
 20
4.6136036886
 11
7.2238841915
 21
4.0286875501
  0
LINE
  5
389
100
AcDbEntity
  8
0
100
AcDbLine
 62
7
  6
CONTINUOUS
 10
7.720448781
 20
4.6979788887
 11
7.720448781
 21
4.9341993611
  0
ARC
  5
38A
100
AcDbEntity
  8
0
100
AcDbCircle
 62
7
  6
CONTINUOUS
 10
1.262780422
 20
-0.3945136909
 40
5.4974143098
100
AcDbArc
 50
71.1188547481
 51
71.238042366
  0
ARC
  5
38B
100
AcDbEntity
  8
0
100
AcDbCircle
 62
7
  6
CONTINUOUS
 10
-2.214563483
 20
3.0828302148
 40
5.4974143093
100
AcDbArc
 50
18.761957634
 51
18.8811452519
  0
ARC
  5
38C
100
AcDbEntity
  8
0
100
AcDbCircle
 62
7
  6
CONTINUOUS
 10
4.7292982427
 20
-0.3945136916
 40
5.4974143105
100
AcDbArc
 50
108.761957634
 51
108.8811452519
  0
ARC
  5
38D
100
AcDbEntity
  8
0
100
AcDbCircle
 62
7
  6
CONTINUOUS
 10
1.7224443908
 20
3.0828302148
 40
5.4974143094
100
AcDbArc
 50
18.761957634
 51
18.8811452519
  0
ARC
  5
38E
100
AcDbEntity
  8
0
100
AcDbCircle
 62
7
  6
CONTINUOUS
 10
2.5002784048
 20
3.6188772896
 40
1.3141810563
100
AcDbArc
 50
66.6764331465
 51
67.174079531
  0
ARC
  5
38F
100
AcDbEntity
  8
0
100
AcDbCircle
 62
7
  6
CONTINUOUS
 10
2.9929201406
 20
3.6659774064
 40
1.1598888787
100
AcDbArc
 50
91.0588843569
 51
92.1057281644
  0
ARC
  5
390
100
AcDbEntity
  8
0
100
AcDbCircle
 62
7
  6
CONTINUOUS
 10
2.9991585239
 20
3.6659774064
 40
1.1598888786
100
AcDbArc
 50
87.8942718356
 51
88.9411156431
  0
ARC
  5
391
100
AcDbEntity
  8
0
100
AcDbCircle
 62
7
  6
CONTINUOUS
 10
1.8056202075
 20
4.3232219956
 40
1.3067977
100
AcDbArc
 50
22.8245146187
 51
23.3249727038
  0
ARC
  5
392
100
AcDbEntity
  8
0
100
AcDbCircle
 62
7
  6
CONTINUOUS
 10
1.8459308595
 20
4.8129698436
 40
1.1598856318
100
AcDbArc
 50
357.8942703704
 51
358.9411171084
  0
ARC
  5
393
100
AcDbEntity
  8
0
100
AcDbCircle
 62
7
  6
CONTINUOUS
 10
2.9960329752
 20
4.8159824491
 40
0.3246964585
100
AcDbArc
 50
251.3627921205
 51
278.9465874207
  0
ARC
  5
394
100
AcDbEntity
  8
0
100
AcDbCircle
 62
7
  6
CONTINUOUS
 10
2.9956961201
 20
4.8153670075
 40
0.3240038138
100
AcDbArc
 50
245.8818640159
 51
249.868321004
  0
ARC
  5
395
100
AcDbEntity
  8
0
100
AcDbCircle
 62
7
  6
CONTINUOUS
 10
2.9950186904
 20
4.8157170493
 40
0.3237169351
100
AcDbArc
 50
201.1076526092
 51
203.5829146268
  0
ARC
  5
396
100
AcDbEntity
  8
0
100
AcDbCircle
 62
7
  6
CONTINUOUS
 10
2.9933952909
 20
4.8150294282
 40
0.3227553124
100
AcDbArc
 50
246.050376309
 51
246.2226741137
  0
ARC
  5
397
100
AcDbEntity
  8
0
100
AcDbCircle
 62
7
  6
CONTINUOUS
 10
2.993898298
 20
4.8152803799
 40
0.3225144609
100
AcDbArc
 50
200.7000472687
 51
201.1069608348
  0
ARC
  5
398
100
AcDbEntity
  8
0
100
AcDbCircle
 62
7
  6
CONTINUOUS
 10
2.9950305422
 20
4.8138550312
 40
0.3223518577
100
AcDbArc
 50
245.7000094032
 51
245.8800249711
  0
ARC
  5
399
100
AcDbEntity
  8
0
100
AcDbCircle
 62
7
  6
CONTINUOUS
 10
2.9962904857
 20
4.8141115825
 40
0.3205946577
100
AcDbArc
 50
0.3534218758
 51
20.3062143179
  0
ARC
  5
39A
100
AcDbEntity
  8
0
100
AcDbCircle
 62
7
  6
CONTINUOUS
 10
2.9969007312
 20
4.814267558
 40
0.3199691089
100
AcDbArc
 50
24.3126125851
 51
28.3058569855
  0
ARC
  5
39B
100
AcDbEntity
  8
0
100
AcDbCircle
 62
7
  6
CONTINUOUS
 10
2.9969831148
 20
4.8143292591
 40
0.3198686292
100
AcDbArc
 50
20.3127021163
 51
24.3086162709
  0
ARC
  5
39C
100
AcDbEntity
  8
0
100
AcDbCircle
 62
7
  6
CONTINUOUS
 10
2.9975618115
 20
4.8147668738
 40
0.319146979
100
AcDbArc
 50
28.2832111886
 51
68.2459775718
  0
ARC
  5
39D
100
AcDbEntity
  8
0
100
AcDbCircle
 62
7
  6
CONTINUOUS
 10
2.9977503645
 20
4.815066836
 40
0.3187952577
100
AcDbArc
 50
68.2574714278
 51
68.8527135242
  0
ARC
  5
39E
100
AcDbEntity
  8
0
100
AcDbCircle
 62
7
  6
CONTINUOUS
 10
2.9980125013
 20
4.8156992061
 40
0.3181121855
100
AcDbArc
 50
72.261580815
 51
76.2626078754
  0
ARC
  5
39F
100
AcDbEntity
  8
0
100
AcDbCircle
 62
7
  6
CONTINUOUS
 10
2.9979941457
 20
4.8157119744
 40
0.3181056173
100
AcDbArc
 50
68.8517444402
 51
72.2577311919
  0
ARC
  5
3A0
100
AcDbEntity
  8
ALL_ASSEMBLY_MEMBERS
100
AcDbCircle
 62
7
  6
CONTINUOUS
 10
2.9978805302
 20
4.81532417
 40
0.2322110131
100
AcDbArc
 50
75.1829666853
 51
75.3794954337
  0
ARC
  5
3A1
100
AcDbEntity
  8
ALL_ASSEMBLY_MEMBERS
100
AcDbCircle
 62
7
  6
CONTINUOUS
 10
2.9945069106
 20
4.8088511646
 40
0.225715124
100
AcDbArc
 50
344.1221719271
 51
349.915238241
  0
ARC
  5
3A2
100
AcDbEntity
  8
ALL_ASSEMBLY_MEMBERS
100
AcDbCircle
 62
7
  6
CONTINUOUS
 10
2.9940075068
 20
4.816005271
 40
0.2251013098
100
AcDbArc
 50
256.6134999698
 51
257.6099362558
  0
ARC
  5
3A3
100
AcDbEntity
  8
ALL_ASSEMBLY_MEMBERS
100
AcDbCircle
 62
7
  6
CONTINUOUS
 10
2.9938742775
 20
4.8153987716
 40
0.2244803497
100
AcDbArc
 50
257.6099342544
 51
258.5641353948
  0
ARC
  5
3A4
100
AcDbEntity
  8
ALL_ASSEMBLY_MEMBERS
100
AcDbCircle
 62
7
  6
CONTINUOUS
 10
2.995783483
 20
4.8148765396
 40
0.2243557171
100
AcDbArc
 50
257.3217103727
 51
258.0597943329
  0
ARC
  5
3A5
100
AcDbEntity
  8
ALL_ASSEMBLY_MEMBERS
100
AcDbCircle
 62
7
  6
CONTINUOUS
 10
2.9972977973
 20
4.815822831
 40
0.2243086692
100
AcDbArc
 50
347.4551030509
 51
348.0367940193
  0
ARC
  5
3A6
100
AcDbEntity
  8
ALL_ASSEMBLY_MEMBERS
100
AcDbCircle
 62
7
  6
CONTINUOUS
 10
3.0015752428
 20
4.8083158375
 40
0.1285936844
100
AcDbArc
 50
37.6662385116
 51
37.8524176969
  0
ARC
  5
3A7
100
AcDbEntity
  8
ALL_ASSEMBLY_MEMBERS
100
AcDbCircle
 62
7
  6
CONTINUOUS
 10
3.0021064057
 20
4.8087417402
 40
0.1279129352
100
AcDbArc
 50
37.8477803561
 51
45.6696871123
  0
ARC
  5
3A8
100
AcDbEntity
  8
ALL_ASSEMBLY_MEMBERS
100
AcDbCircle
 62
7
  6
CONTINUOUS
 10
2.9956963662
 20
4.8158483906
 40
0.1276674136
100
AcDbArc
 50
33.2278356158
 51
33.3923224819
  0
ARC
  5
3A9
100
AcDbEntity
  8
ALL_ASSEMBLY_MEMBERS
100
AcDbCircle
 62
7
  6
CONTINUOUS
 10
2.9960023979
 20
4.8160737611
 40
0.1272878657
100
AcDbArc
 50
33.3834385834
 51
41.3940500989
  0
ARC
  5
3AA
100
AcDbEntity
  8
ALL_ASSEMBLY_MEMBERS
100
AcDbCircle
 62
7
  6
CONTINUOUS
 10
2.9964111678
 20
4.815669894
 40
0.1266896309
100
AcDbArc
 50
308.9596258042
 51
311.3990126734
  0
ARC
  5
3AB
100
AcDbEntity
  8
0
100
AcDbCircle
 62
7
  6
CONTINUOUS
 10
2.2873779149
 20
4.6979788887
 40
0.0787401575
100
AcDbArc
 50
180.0
 51
270.0
  0
ARC
  5
3AC
100
AcDbEntity
  8
0
100
AcDbCircle
 62
7
  6
CONTINUOUS
 10
2.4054881511
 20
4.7668765264
 40
0.0688976378
100
AcDbArc
 50
180.0
 51
360.0
  0
ARC
  5
3AD
100
AcDbEntity
  8
ALL_ASSEMBLY_MEMBERS
100
AcDbCircle
 62
7
  6
CONTINUOUS
 10
3.0894146027
 20
4.753717676
 40
0.04
100
AcDbArc
 50
205.0218776943
 51
210.4008272528
  0
ARC
  5
3AE
100
AcDbEntity
  8
ALL_ASSEMBLY_MEMBERS
100
AcDbCircle
 62
7
  6
CONTINUOUS
 10
2.9026640617
 20
4.753717676
 40
0.04
100
AcDbArc
 50
329.5991727472
 51
334.9781223057
  0
ARC
  5
3AF
100
AcDbEntity
  8
ALL_ASSEMBLY_MEMBERS
100
AcDbCircle
 62
7
  6
CONTINUOUS
 10
3.0894146027
 20
4.753717676
 40
0.02
100
AcDbArc
 50
185.8842981878
 51
198.974875381
  0
ARC
  5
3B0
100
AcDbEntity
  8
ALL_ASSEMBLY_MEMBERS
100
AcDbCircle
 62
7
  6
CONTINUOUS
 10
2.9026640617
 20
4.753717676
 40
0.02
100
AcDbArc
 50
341.025124619
 51
354.1157018122
  0
ARC
  5
3B1
100
AcDbEntity
  8
0
100
AcDbCircle
 62
7
  6
CONTINUOUS
 10
3.4889078547
 20
3.6256667298
 40
1.3068012547
100
AcDbArc
 50
112.8245152994
 51
113.3249720231
  0
ARC
  5
3B2
100
AcDbEntity
  8
DTM-AXIS
100
AcDbCircle
 62
9
  6
CONTINUOUS
 10
3.9770967022
 20
4.6984059998
 40
2.2782376401
100
AcDbArc
 50
358.4705399701
 51
358.8476500235
  0
ARC
  5
3B3
100
AcDbEntity
  8
0
100
AcDbCircle
 62
7
  6
CONTINUOUS
 10
4.1932543555
 20
4.3203268393
 40
1.3141845215
100
AcDbArc
 50
156.6764338026
 51
157.1740788749
  0
ARC
  5
3B4
100
AcDbEntity
  8
0
100
AcDbCircle
 62
7
  6
CONTINUOUS
 10
4.146147805
 20
4.8129698436
 40
1.1598856318
100
AcDbArc
 50
181.0588828916
 51
182.1057296296
  0
ARC
  5
3B5
100
AcDbEntity
  8
0
100
AcDbCircle
 62
9
  6
CONTINUOUS
 10
4.7855054103
 20
4.6987852351
 40
0.352192418
100
AcDbArc
 50
95.2627018071
 51
97.1486747824
  0
ARC
  5
3B6
100
AcDbEntity
  8
DTM-AXIS
100
AcDbCircle
 62
7
  6
CONTINUOUS
 10
3.527987776
 20
4.8030828542
 40
0.282017945
100
AcDbArc
 50
78.006665185
 51
80.2700243365
  0
ARC
  5
3B7
100
AcDbEntity
  8
DTM-AXIS
100
AcDbCircle
 62
7
  6
CONTINUOUS
 10
3.5293325917
 20
4.811702485
 40
0.2732950569
100
AcDbArc
 50
80.2424995569
 51
86.8054842235
  0
ARC
  5
3B8
100
AcDbEntity
  8
DTM-AXIS
100
AcDbCircle
 62
7
  6
CONTINUOUS
 10
3.5320683667
 20
4.8137381552
 40
0.2609839264
100
AcDbArc
 50
80.2319584194
 51
87.2560821282
  0
ARC
  5
3B9
100
AcDbEntity
  8
0
100
AcDbCircle
 62
7
  6
CONTINUOUS
 10
4.9644842864
 20
4.8160664011
 40
0.2063097599
100
AcDbArc
 50
1.3812439405
 51
15.2540760203
  0
ARC
  5
3BA
100
AcDbEntity
  8
0
100
AcDbCircle
 62
7
  6
CONTINUOUS
 10
4.963826349
 20
4.8133589257
 40
0.1979729736
100
AcDbArc
 50
151.3287275208
 51
179.2098327605
  0
ARC
  5
3BB
100
AcDbEntity
  8
0
100
AcDbCircle
 62
7
  6
CONTINUOUS
 10
4.9626060809
 20
4.8139356
 40
0.1966246525
100
AcDbArc
 50
150.4936365341
 51
151.3055620066
  0
ARC
  5
3BC
100
AcDbEntity
  8
0
100
AcDbCircle
 62
7
  6
CONTINUOUS
 10
4.9626083817
 20
4.8140263851
 40
0.1965819576
100
AcDbArc
 50
123.3976537991
 51
150.5169951735
  0
ARC
  5
3BD
100
AcDbEntity
  8
0
100
AcDbCircle
 62
7
  6
CONTINUOUS
 10
4.9618314241
 20
4.8152656414
 40
0.1951171063
100
AcDbArc
 50
90.576336909
 51
123.4074866136
  0
ARC
  5
3BE
100
AcDbEntity
  8
0
100
AcDbCircle
 62
9
  6
CONTINUOUS
 10
4.7029793962
 20
4.5314493909
 40
0.0716813791
100
AcDbArc
 50
60.2439676341
 51
72.7961164427
  0
ARC
  5
3BF
100
AcDbEntity
  8
0
100
AcDbCircle
 62
9
  6
CONTINUOUS
 10
4.7045536415
 20
4.5341484956
 40
0.0685568556
100
AcDbArc
 50
47.461917971
 51
60.2666067269
  0
ARC
  5
3C0
100
AcDbEntity
  8
0
100
AcDbCircle
 62
7
  6
CONTINUOUS
 10
4.8250432692
 20
4.4902331933
 40
0.058996539
100
AcDbArc
 50
0.0
 51
66.8240730632
  0
ARC
  5
3C1
100
AcDbEntity
  8
0
100
AcDbCircle
 62
7
  6
CONTINUOUS
 10
4.9040432692
 20
4.4870898305
 40
0.0395
100
AcDbArc
 50
180.0
 51
259.5802338725
  0
ARC
  5
3C2
100
AcDbEntity
  8
0
100
AcDbCircle
 62
7
  6
CONTINUOUS
 10
4.8250432692
 20
4.4902331933
 40
0.0395
100
AcDbArc
 50
0.0
 51
66.8240730632
  0
ARC
  5
3C3
100
AcDbEntity
  8
0
100
AcDbCircle
 62
7
  6
CONTINUOUS
 10
4.9040432692
 20
4.4870898305
 40
0.0199993005
100
AcDbArc
 50
180.0
 51
259.5802338725
  0
ARC
  5
3C4
100
AcDbEntity
  8
0
100
AcDbCircle
 62
7
  6
CONTINUOUS
 10
-2.2145634826
 20
6.5493480348
 40
5.4974143089
100
AcDbArc
 50
341.1188547481
 51
341.238042366
  0
ARC
  5
3C5
100
AcDbEntity
  8
0
100
AcDbCircle
 62
7
  6
CONTINUOUS
 10
1.2627804218
 20
10.0266919411
 40
5.4974143103
100
AcDbArc
 50
288.761957634
 51
288.8811452519
  0
ARC
  5
3C6
100
AcDbEntity
  8
0
100
AcDbCircle
 62
7
  6
CONTINUOUS
 10
1.8459308595
 20
4.8192084062
 40
1.1598856318
100
AcDbArc
 50
1.0588828916
 51
2.1057296296
  0
ARC
  5
3C7
100
AcDbEntity
  8
0
100
AcDbCircle
 62
7
  6
CONTINUOUS
 10
2.2873779149
 20
4.9341993611
 40
0.0787401575
100
AcDbArc
 50
90.0
 51
180.0
  0
ARC
  5
3C8
100
AcDbEntity
  8
0
100
AcDbCircle
 62
7
  6
CONTINUOUS
 10
2.4054881511
 20
4.8653017233
 40
0.0688976378
100
AcDbArc
 50
0.0
 51
180.0
  0
ARC
  5
3C9
100
AcDbEntity
  8
0
100
AcDbCircle
 62
7
  6
CONTINUOUS
 10
1.7988243088
 20
5.3118514105
 40
1.3141845216
100
AcDbArc
 50
336.6764338026
 51
337.1740788749
  0
ARC
  5
3CA
100
AcDbEntity
  8
0
100
AcDbCircle
 62
7
  6
CONTINUOUS
 10
2.9944670767
 20
4.8176826118
 40
0.3256174911
100
AcDbArc
 50
249.8421656298
 51
253.6072248825
  0
ARC
  5
3CB
100
AcDbEntity
  8
0
100
AcDbCircle
 62
7
  6
CONTINUOUS
 10
2.9932393385
 20
4.8230035824
 40
0.3247144981
100
AcDbArc
 50
204.8865702134
 51
205.7093237733
  0
ARC
  5
3CC
100
AcDbEntity
  8
0
100
AcDbCircle
 62
7
  6
CONTINUOUS
 10
2.9940749069
 20
4.816622659
 40
0.3244873191
100
AcDbArc
 50
246.2262822378
 51
249.8426742588
  0
ARC
  5
3CD
100
AcDbEntity
  8
0
100
AcDbCircle
 62
7
  6
CONTINUOUS
 10
2.9940556754
 20
4.8161597548
 40
0.3240349294
100
AcDbArc
 50
253.6033763725
 51
277.1595911003
  0
ARC
  5
3CE
100
AcDbEntity
  8
0
100
AcDbCircle
 62
7
  6
CONTINUOUS
 10
2.9923496398
 20
4.8225999691
 40
0.3237375647
100
AcDbArc
 50
202.3143072548
 51
204.8880340272
  0
ARC
  5
3CF
100
AcDbEntity
  8
0
100
AcDbCircle
 62
7
  6
CONTINUOUS
 10
2.9915059841
 20
4.8222501616
 40
0.3228242688
100
AcDbArc
 50
202.0074043145
 51
202.3137238929
  0
ARC
  5
3D0
100
AcDbEntity
  8
0
100
AcDbCircle
 62
7
  6
CONTINUOUS
 10
2.9892142921
 20
4.8190414085
 40
0.31894964
100
AcDbArc
 50
247.0035520481
 51
252.7055479033
  0
ARC
  5
3D1
100
AcDbEntity
  8
0
100
AcDbCircle
 62
7
  6
CONTINUOUS
 10
2.9891215335
 20
4.8187484686
 40
0.3186423685
100
AcDbArc
 50
252.7058138462
 51
252.8859551406
  0
ARC
  5
3D2
100
AcDbEntity
  8
0
100
AcDbCircle
 62
7
  6
CONTINUOUS
 10
2.9889799771
 20
4.8184838707
 40
0.3183448695
100
AcDbArc
 50
245.6438158331
 51
247.0031701652
  0
ARC
  5
3D3
100
AcDbEntity
  8
0
100
AcDbCircle
 62
7
  6
CONTINUOUS
 10
2.9885983989
 20
4.8166339233
 40
0.3164651416
100
AcDbArc
 50
252.8638154666
 51
278.1031962384
  0
ARC
  5
3D4
100
AcDbEntity
  8
ALL_ASSEMBLY_MEMBERS
100
AcDbCircle
 62
7
  6
CONTINUOUS
 10
2.9953339393
 20
4.8163189757
 40
0.2263347698
100
AcDbArc
 50
340.4212604309
 51
342.2445308325
  0
ARC
  5
3D5
100
AcDbEntity
  8
ALL_ASSEMBLY_MEMBERS
100
AcDbCircle
 62
7
  6
CONTINUOUS
 10
2.9951769437
 20
4.8185069804
 40
0.1322136467
100
AcDbArc
 50
181.0478305766
 51
218.4821982603
  0
ARC
  5
3D6
100
AcDbEntity
  8
ALL_ASSEMBLY_MEMBERS
100
AcDbCircle
 62
7
  6
CONTINUOUS
 10
2.995784151
 20
4.8164548987
 40
0.1276944335
100
AcDbArc
 50
303.2550096353
 51
307.3160454135
  0
ARC
  5
3D7
100
AcDbEntity
  8
ALL_ASSEMBLY_MEMBERS
100
AcDbCircle
 62
7
  6
CONTINUOUS
 10
2.9959822546
 20
4.8161946677
 40
0.1273673782
100
AcDbArc
 50
307.3161364662
 51
308.961224988
  0
ARC
  5
3D8
100
AcDbEntity
  8
ALL_ASSEMBLY_MEMBERS
100
AcDbCircle
 62
7
  6
CONTINUOUS
 10
2.935700709
 20
4.8714235683
 40
0.02
100
AcDbArc
 50
150.1388857292
 51
178.853228133
  0
ARC
  5
3D9
100
AcDbEntity
  8
ALL_ASSEMBLY_MEMBERS
100
AcDbCircle
 62
7
  6
CONTINUOUS
 10
2.935700709
 20
4.8714235683
 40
0.02
100
AcDbArc
 50
96.1252274213
 51
124.5963507672
  0
CIRCLE
  5
3DA
100
AcDbEntity
  8
0
100
AcDbCircle
 62
7
  6
CONTINUOUS
 10
2.9960393322
 20
4.8160891249
 40
0.3937007874
  0
CIRCLE
  5
3DB
100
AcDbEntity
  8
0
100
AcDbCircle
 62
7
  6
CONTINUOUS
 10
2.9960393322
 20
4.8160891249
 40
0.374015748
  0
CIRCLE
  5
3DC
100
AcDbEntity
  8
0
100
AcDbCircle
 62
7
  6
CONTINUOUS
 10
2.9960393322
 20
4.8160891249
 40
0.3346456693
  0
ARC
  5
3DD
100
AcDbEntity
  8
0
100
AcDbCircle
 62
7
  6
CONTINUOUS
 10
2.9963473133
 20
4.8170725556
 40
0.3258292877
100
AcDbArc
 50
249.8640313504
 51
251.3716751426
  0
ARC
  5
3DE
100
AcDbEntity
  8
0
100
AcDbCircle
 62
7
  6
CONTINUOUS
 10
2.9964071649
 20
4.8163124672
 40
0.3252276595
100
AcDbArc
 50
203.5811872421
 51
204.832035122
  0
ARC
  5
3DF
100
AcDbEntity
  8
0
100
AcDbCircle
 62
7
  6
CONTINUOUS
 10
2.9960393322
 20
4.8160891249
 40
0.3248031496
100
AcDbArc
 50
200.6999999988
 51
245.699999999
  0
ARC
  5
3E0
100
AcDbEntity
  8
0
100
AcDbCircle
 62
7
  6
CONTINUOUS
 10
2.9970006608
 20
4.8179966766
 40
0.315567995
100
AcDbArc
 50
170.034879967
 51
180.3463447877
  0
ARC
  5
3E1
100
AcDbEntity
  8
0
100
AcDbCircle
 62
7
  6
CONTINUOUS
 10
2.9960393322
 20
4.8160891249
 40
0.3149606299
100
AcDbArc
 50
180.0
 51
169.6656555152
  0
ARC
  5
3E2
100
AcDbEntity
  8
ALL_ASSEMBLY_MEMBERS
100
AcDbCircle
 62
7
  6
CONTINUOUS
 10
2.9960393322
 20
4.8160891249
 40
0.23625
100
AcDbArc
 50
311.0065992274
 51
310.6997096313
  0
ARC
  5
3E3
100
AcDbEntity
  8
ALL_ASSEMBLY_MEMBERS
100
AcDbCircle
 62
7
  6
CONTINUOUS
 10
2.9964972007
 20
4.8180417575
 40
0.2287672936
100
AcDbArc
 50
165.6751141129
 51
180.4890515209
  0
ARC
  5
3E4
100
AcDbEntity
  8
ALL_ASSEMBLY_MEMBERS
100
AcDbCircle
 62
7
  6
CONTINUOUS
 10
2.9962576124
 20
4.8167615126
 40
0.2262997793
100
AcDbArc
 50
250.4261011481
 51
251.3984903445
  0
ARC
  5
3E5
100
AcDbEntity
  8
ALL_ASSEMBLY_MEMBERS
100
AcDbCircle
 62
7
  6
CONTINUOUS
 10
2.9960976608
 20
4.8162256837
 40
0.225740921
100
AcDbArc
 50
251.3935853485
 51
257.3190676891
  0
ARC
  5
3E6
100
AcDbEntity
  8
ALL_ASSEMBLY_MEMBERS
100
AcDbCircle
 62
7
  6
CONTINUOUS
 10
2.9960393322
 20
4.8160891249
 40
0.2255949998
100
AcDbArc
 50
258.0599363234
 51
348.0368826088
  0
ARC
  5
3E7
100
AcDbEntity
  8
ALL_ASSEMBLY_MEMBERS
100
AcDbCircle
 62
7
  6
CONTINUOUS
 10
2.9960472973
 20
4.8161102905
 40
0.2255917526
100
AcDbArc
 50
342.2397566705
 51
347.4528216927
  0
CIRCLE
  5
3E8
100
AcDbEntity
  8
ALL_ASSEMBLY_MEMBERS
100
AcDbCircle
 62
7
  6
CONTINUOUS
 10
2.9960393322
 20
4.8160891249
 40
0.22125
  0
ARC
  5
3E9
100
AcDbEntity
  8
ALL_ASSEMBLY_MEMBERS
100
AcDbCircle
 62
7
  6
CONTINUOUS
 10
2.9960393322
 20
4.8160891249
 40
0.1595559337
100
AcDbArc
 50
282.9464553575
 51
317.0535446425
  0
ARC
  5
3EA
100
AcDbEntity
  8
ALL_ASSEMBLY_MEMBERS
100
AcDbCircle
 62
7
  6
CONTINUOUS
 10
2.9960393322
 20
4.8160891249
 40
0.1595559337
100
AcDbArc
 50
222.9464553575
 51
257.0535446425
  0
ARC
  5
3EB
100
AcDbEntity
  8
ALL_ASSEMBLY_MEMBERS
100
AcDbCircle
 62
7
  6
CONTINUOUS
 10
2.9960393322
 20
4.8160891249
 40
0.1595559337
100
AcDbArc
 50
102.9464553575
 51
137.0535446425
  0
ARC
  5
3EC
100
AcDbEntity
  8
ALL_ASSEMBLY_MEMBERS
100
AcDbCircle
 62
7
  6
CONTINUOUS
 10
2.9960393322
 20
4.8160891249
 40
0.1595559337
100
AcDbArc
 50
42.9464553575
 51
77.0535446425
  0
ARC
  5
3ED
100
AcDbEntity
  8
ALL_ASSEMBLY_MEMBERS
100
AcDbCircle
 62
7
  6
CONTINUOUS
 10
2.9960393322
 20
4.8160891249
 40
0.1595559337
100
AcDbArc
 50
162.9464553575
 51
197.0535446425
  0
ARC
  5
3EE
100
AcDbEntity
  8
ALL_ASSEMBLY_MEMBERS
100
AcDbCircle
 62
7
  6
CONTINUOUS
 10
2.9960393322
 20
4.8160891249
 40
0.1595559337
100
AcDbArc
 50
342.9464553575
 51
17.0535446425
  0
CIRCLE
  5
3EF
100
AcDbEntity
  8
ALL_ASSEMBLY_MEMBERS
100
AcDbCircle
 62
7
  6
CONTINUOUS
 10
2.9960393322
 20
4.8160891249
 40
0.15625
  0
ARC
  5
3F0
100
AcDbEntity
  8
ALL_ASSEMBLY_MEMBERS
100
AcDbCircle
 62
7
  6
CONTINUOUS
 10
2.9960393322
 20
4.8160891249
 40
0.14075
100
AcDbArc
 50
7.9667569308
 51
5.9200164875
  0
ARC
  5
3F1
100
AcDbEntity
  8
ALL_ASSEMBLY_MEMBERS
100
AcDbCircle
 62
7
  6
CONTINUOUS
 10
2.9960393322
 20
4.8160891249
 40
0.1272499999
100
AcDbArc
 50
311.3997714769
 51
41.3998569654
  0
CIRCLE
  5
3F2
100
AcDbEntity
  8
ALL_ASSEMBLY_MEMBERS
100
AcDbCircle
 62
7
  6
CONTINUOUS
 10
2.9960393322
 20
4.8160891249
 40
0.12075
  0
CIRCLE
  5
3F3
100
AcDbEntity
  8
ALL_ASSEMBLY_MEMBERS
100
AcDbCircle
 62
7
  6
CONTINUOUS
 10
2.9960393322
 20
4.8160891249
 40
0.1015
  0
CIRCLE
  5
3F4
100
AcDbEntity
  8
ALL_FEATURES
100
AcDbCircle
 62
7
  6
CONTINUOUS
 10
2.9960393322
 20
4.8160891249
 40
0.09775
  0
ARC
  5
3F5
100
AcDbEntity
  8
ALL_FEATURES
100
AcDbCircle
 62
7
  6
CONTINUOUS
 10
2.9960393322
 20
4.8160891249
 40
0.0925
100
AcDbArc
 50
141.6665846093
 51
150.8334153907
  0
ARC
  5
3F6
100
AcDbEntity
  8
ALL_FEATURES
100
AcDbCircle
 62
7
  6
CONTINUOUS
 10
2.9960393322
 20
4.8160891249
 40
0.0925
100
AcDbArc
 50
119.1665846093
 51
128.3334153907
  0
ARC
  5
3F7
100
AcDbEntity
  8
ALL_FEATURES
100
AcDbCircle
 62
7
  6
CONTINUOUS
 10
2.9960393322
 20
4.8160891249
 40
0.0925
100
AcDbArc
 50
96.6665846093
 51
105.8334153907
  0
ARC
  5
3F8
100
AcDbEntity
  8
ALL_FEATURES
100
AcDbCircle
 62
7
  6
CONTINUOUS
 10
2.9960393322
 20
4.8160891249
 40
0.0925
100
AcDbArc
 50
74.1665846093
 51
83.3334153907
  0
ARC
  5
3F9
100
AcDbEntity
  8
ALL_FEATURES
100
AcDbCircle
 62
7
  6
CONTINUOUS
 10
2.9960393322
 20
4.8160891249
 40
0.0925
100
AcDbArc
 50
51.6665846093
 51
60.8334153907
  0
ARC
  5
3FA
100
AcDbEntity
  8
ALL_FEATURES
100
AcDbCircle
 62
7
  6
CONTINUOUS
 10
2.9960393322
 20
4.8160891249
 40
0.0925
100
AcDbArc
 50
29.1665846093
 51
38.3334153907
  0
ARC
  5
3FB
100
AcDbEntity
  8
ALL_FEATURES
100
AcDbCircle
 62
7
  6
CONTINUOUS
 10
2.9960393322
 20
4.8160891249
 40
0.0925
100
AcDbArc
 50
6.6665846093
 51
15.8334153907
  0
ARC
  5
3FC
100
AcDbEntity
  8
ALL_FEATURES
100
AcDbCircle
 62
7
  6
CONTINUOUS
 10
2.9960393322
 20
4.8160891249
 40
0.0925
100
AcDbArc
 50
164.1665846093
 51
173.3334153907
  0
ARC
  5
3FD
100
AcDbEntity
  8
ALL_FEATURES
100
AcDbCircle
 62
7
  6
CONTINUOUS
 10
2.9960393322
 20
4.8160891249
 40
0.0925
100
AcDbArc
 50
344.1665846093
 51
353.3334153907
  0
ARC
  5
3FE
100
AcDbEntity
  8
ALL_FEATURES
100
AcDbCircle
 62
7
  6
CONTINUOUS
 10
2.9960393322
 20
4.8160891249
 40
0.0925
100
AcDbArc
 50
321.6665846093
 51
330.8334153907
  0
ARC
  5
3FF
100
AcDbEntity
  8
ALL_FEATURES
100
AcDbCircle
 62
7
  6
CONTINUOUS
 10
2.9960393322
 20
4.8160891249
 40
0.0925
100
AcDbArc
 50
299.1665846093
 51
308.3334153907
  0
ARC
  5
400
100
AcDbEntity
  8
ALL_FEATURES
100
AcDbCircle
 62
7
  6
CONTINUOUS
 10
2.9960393322
 20
4.8160891249
 40
0.0925
100
AcDbArc
 50
276.6665846093
 51
285.8334153907
  0
ARC
  5
401
100
AcDbEntity
  8
ALL_FEATURES
100
AcDbCircle
 62
7
  6
CONTINUOUS
 10
2.9960393322
 20
4.8160891249
 40
0.0925
100
AcDbArc
 50
254.1665846093
 51
263.3334153907
  0
ARC
  5
402
100
AcDbEntity
  8
ALL_FEATURES
100
AcDbCircle
 62
7
  6
CONTINUOUS
 10
2.9960393322
 20
4.8160891249
 40
0.0925
100
AcDbArc
 50
231.6665846093
 51
240.8334153907
  0
ARC
  5
403
100
AcDbEntity
  8
ALL_FEATURES
100
AcDbCircle
 62
7
  6
CONTINUOUS
 10
2.9960393322
 20
4.8160891249
 40
0.0925
100
AcDbArc
 50
209.1665846093
 51
218.3334153907
  0
ARC
  5
404
100
AcDbEntity
  8
ALL_FEATURES
100
AcDbCircle
 62
7
  6
CONTINUOUS
 10
2.9960393322
 20
4.8160891249
 40
0.0925
100
AcDbArc
 50
186.6665846093
 51
195.8334153907
  0
ARC
  5
405
100
AcDbEntity
  8
ALL_FEATURES
100
AcDbCircle
 62
7
  6
CONTINUOUS
 10
2.9960393322
 20
4.8160891249
 40
0.08175
100
AcDbArc
 50
154.1260218921
 51
160.8739781079
  0
ARC
  5
406
100
AcDbEntity
  8
ALL_FEATURES
100
AcDbCircle
 62
7
  6
CONTINUOUS
 10
2.9960393322
 20
4.8160891249
 40
0.08175
100
AcDbArc
 50
131.6260218921
 51
138.3739781079
  0
ARC
  5
407
100
AcDbEntity
  8
ALL_FEATURES
100
AcDbCircle
 62
7
  6
CONTINUOUS
 10
2.9960393322
 20
4.8160891249
 40
0.08175
100
AcDbArc
 50
109.1260218921
 51
115.8739781079
  0
ARC
  5
408
100
AcDbEntity
  8
ALL_FEATURES
100
AcDbCircle
 62
7
  6
CONTINUOUS
 10
2.9960393322
 20
4.8160891249
 40
0.08175
100
AcDbArc
 50
86.6260218921
 51
93.3739781079
  0
ARC
  5
409
100
AcDbEntity
  8
ALL_FEATURES
100
AcDbCircle
 62
7
  6
CONTINUOUS
 10
2.9960393322
 20
4.8160891249
 40
0.08175
100
AcDbArc
 50
64.1260218921
 51
70.8739781079
  0
ARC
  5
40A
100
AcDbEntity
  8
ALL_FEATURES
100
AcDbCircle
 62
7
  6
CONTINUOUS
 10
2.9960393322
 20
4.8160891249
 40
0.08175
100
AcDbArc
 50
41.6260218921
 51
48.3739781079
  0
ARC
  5
40B
100
AcDbEntity
  8
ALL_FEATURES
100
AcDbCircle
 62
7
  6
CONTINUOUS
 10
2.9960393322
 20
4.8160891249
 40
0.08175
100
AcDbArc
 50
19.1260218921
 51
25.8739781079
  0
ARC
  5
40C
100
AcDbEntity
  8
ALL_FEATURES
100
AcDbCircle
 62
7
  6
CONTINUOUS
 10
2.9960393322
 20
4.8160891249
 40
0.08175
100
AcDbArc
 50
356.6260218921
 51
3.3739781079
  0
ARC
  5
40D
100
AcDbEntity
  8
ALL_FEATURES
100
AcDbCircle
 62
7
  6
CONTINUOUS
 10
2.9960393322
 20
4.8160891249
 40
0.08175
100
AcDbArc
 50
334.1260218921
 51
340.8739781079
  0
ARC
  5
40E
100
AcDbEntity
  8
ALL_FEATURES
100
AcDbCircle
 62
7
  6
CONTINUOUS
 10
2.9960393322
 20
4.8160891249
 40
0.08175
100
AcDbArc
 50
311.6260218921
 51
318.3739781079
  0
ARC
  5
40F
100
AcDbEntity
  8
ALL_FEATURES
100
AcDbCircle
 62
7
  6
CONTINUOUS
 10
2.9960393322
 20
4.8160891249
 40
0.08175
100
AcDbArc
 50
289.1260218921
 51
295.8739781079
  0
ARC
  5
410
100
AcDbEntity
  8
ALL_FEATURES
100
AcDbCircle
 62
7
  6
CONTINUOUS
 10
2.9960393322
 20
4.8160891249
 40
0.08175
100
AcDbArc
 50
266.6260218921
 51
273.3739781079
  0
ARC
  5
411
100
AcDbEntity
  8
ALL_FEATURES
100
AcDbCircle
 62
7
  6
CONTINUOUS
 10
2.9960393322
 20
4.8160891249
 40
0.08175
100
AcDbArc
 50
244.1260218921
 51
250.8739781079
  0
ARC
  5
412
100
AcDbEntity
  8
ALL_FEATURES
100
AcDbCircle
 62
7
  6
CONTINUOUS
 10
2.9960393322
 20
4.8160891249
 40
0.08175
100
AcDbArc
 50
221.6260218921
 51
228.3739781079
  0
ARC
  5
413
100
AcDbEntity
  8
ALL_FEATURES
100
AcDbCircle
 62
7
  6
CONTINUOUS
 10
2.9960393322
 20
4.8160891249
 40
0.08175
100
AcDbArc
 50
199.1260218921
 51
205.8739781079
  0
ARC
  5
414
100
AcDbEntity
  8
ALL_FEATURES
100
AcDbCircle
 62
7
  6
CONTINUOUS
 10
2.9960393322
 20
4.8160891249
 40
0.08175
100
AcDbArc
 50
176.6260218921
 51
183.3739781079
  0
CIRCLE
  5
415
100
AcDbEntity
  8
0
100
AcDbCircle
 62
7
  6
CONTINUOUS
 10
2.9960393322
 20
4.8160891249
 40
0.0787401575
  0
CIRCLE
  5
416
100
AcDbEntity
  8
0
100
AcDbCircle
 62
9
  6
CONTINUOUS
 10
2.9960393322
 20
4.8160891249
 40
0.0747856107
  0
ARC
  5
417
100
AcDbEntity
  8
0
100
AcDbCircle
 62
7
  6
CONTINUOUS
 10
2.9960393322
 20
4.8160891249
 40
0.0466136043
100
AcDbArc
 50
168.8752303572
 51
191.1247696428
  0
ARC
  5
418
100
AcDbEntity
  8
0
100
AcDbCircle
 62
7
  6
CONTINUOUS
 10
2.9960393322
 20
4.8160891249
 40
0.0466136043
100
AcDbArc
 50
258.8752303572
 51
281.1247696428
  0
ARC
  5
419
100
AcDbEntity
  8
0
100
AcDbCircle
 62
7
  6
CONTINUOUS
 10
2.9960393322
 20
4.8160891249
 40
0.0466136043
100
AcDbArc
 50
348.8752303572
 51
11.1247696428
  0
ARC
  5
41A
100
AcDbEntity
  8
0
100
AcDbCircle
 62
7
  6
CONTINUOUS
 10
2.9960393322
 20
4.8160891249
 40
0.0466136043
100
AcDbArc
 50
78.8752303572
 51
101.1247696428
  0
ARC
  5
41B
100
AcDbEntity
  8
0
100
AcDbCircle
 62
7
  6
CONTINUOUS
 10
2.9960393322
 20
4.8160891249
 40
0.0353140527
100
AcDbArc
 50
261.3609822788
 51
278.6390177212
  0
ARC
  5
41C
100
AcDbEntity
  8
0
100
AcDbCircle
 62
7
  6
CONTINUOUS
 10
2.9960393322
 20
4.8160891249
 40
0.0353140527
100
AcDbArc
 50
171.3609822788
 51
188.6390177212
  0
ARC
  5
41D
100
AcDbEntity
  8
0
100
AcDbCircle
 62
7
  6
CONTINUOUS
 10
2.9960393322
 20
4.8160891249
 40
0.0353140527
100
AcDbArc
 50
81.3609822788
 51
98.6390177212
  0
ARC
  5
41E
100
AcDbEntity
  8
0
100
AcDbCircle
 62
7
  6
CONTINUOUS
 10
2.9960393322
 20
4.8160891249
 40
0.0353140527
100
AcDbArc
 50
351.3609822788
 51
8.6390177212
  0
ARC
  5
41F
100
AcDbEntity
  8
ALL_ASSEMBLY_MEMBERS
100
AcDbCircle
 62
7
  6
CONTINUOUS
 10
3.0563779554
 20
4.8714235683
 40
0.02
100
AcDbArc
 50
55.4036492329
 51
83.8747725787
  0
ARC
  5
420
100
AcDbEntity
  8
ALL_ASSEMBLY_MEMBERS
100
AcDbCircle
 62
7
  6
CONTINUOUS
 10
3.0563779554
 20
4.8714235683
 40
0.02
100
AcDbArc
 50
1.146771867
 51
29.8611142707
  0
ARC
  5
421
100
AcDbEntity
  8
0
100
AcDbCircle
 62
7
  6
CONTINUOUS
 10
1.7224443908
 20
6.549348035
 40
5.4974143094
100
AcDbArc
 50
341.1188547481
 51
341.238042366
  0
ARC
  5
422
100
AcDbEntity
  8
0
100
AcDbCircle
 62
7
  6
CONTINUOUS
 10
2.5031708098
 20
6.00651152
 40
1.3068012547
100
AcDbArc
 50
292.8245152994
 51
293.3249720231
  0
ARC
  5
423
100
AcDbEntity
  8
0
100
AcDbCircle
 62
7
  6
CONTINUOUS
 10
2.9991585239
 20
5.9662008434
 40
1.1598888787
100
AcDbArc
 50
271.0588843569
 51
272.1057281644
  0
ARC
  5
424
100
AcDbEntity
  8
0
100
AcDbCircle
 62
7
  6
CONTINUOUS
 10
2.9929201406
 20
5.9662008434
 40
1.1598888787
100
AcDbArc
 50
267.8942718356
 51
268.9411156431
  0
ARC
  5
425
100
AcDbEntity
  8
0
100
AcDbCircle
 62
7
  6
CONTINUOUS
 10
4.1864584569
 20
5.3089562541
 40
1.3067976999
100
AcDbArc
 50
202.8245146187
 51
203.3249727038
  0
ARC
  5
426
100
AcDbEntity
  8
0
100
AcDbCircle
 62
7
  6
CONTINUOUS
 10
4.1461478049
 20
4.8192084062
 40
1.1598856318
100
AcDbArc
 50
177.8942703704
 51
178.9411171084
  0
ARC
  5
427
100
AcDbEntity
  8
0
100
AcDbCircle
 62
9
  6
CONTINUOUS
 10
4.7902879489
 20
4.9820330654
 40
0.4010660101
100
AcDbArc
 50
264.2996063883
 51
264.7053983061
  0
ARC
  5
428
100
AcDbEntity
  8
0
100
AcDbCircle
 62
9
  6
CONTINUOUS
 10
4.8913592007
 20
4.9231860359
 40
0.3829189017
100
AcDbArc
 50
232.3270635235
 51
237.0720305633
  0
ARC
  5
429
100
AcDbEntity
  8
0
100
AcDbCircle
 62
9
  6
CONTINUOUS
 10
4.7858054379
 20
4.9375864075
 40
0.3563939163
100
AcDbArc
 50
263.0052385439
 51
264.3069388506
  0
ARC
  5
42A
100
AcDbEntity
  8
0
100
AcDbCircle
 62
7
  6
CONTINUOUS
 10
4.9637671093
 20
4.8165824608
 40
0.2071656073
100
AcDbArc
 50
325.702979753
 51
330.2742273117
  0
ARC
  5
42B
100
AcDbEntity
  8
0
100
AcDbCircle
 62
7
  6
CONTINUOUS
 10
4.9643504244
 20
4.8160956039
 40
0.2064428697
100
AcDbArc
 50
356.7509112658
 51
1.3720739138
  0
ARC
  5
42C
100
AcDbEntity
  8
0
100
AcDbCircle
 62
7
  6
CONTINUOUS
 10
4.9623903962
 20
4.8263608057
 40
0.2050455442
100
AcDbArc
 50
12.6114678489
 51
16.9729607236
  0
ARC
  5
42D
100
AcDbEntity
  8
0
100
AcDbCircle
 62
7
  6
CONTINUOUS
 10
4.96393023
 20
4.8265507064
 40
0.2035014551
100
AcDbArc
 50
355.1964049762
 51
12.6539497871
  0
ARC
  5
42E
100
AcDbEntity
  8
0
100
AcDbCircle
 62
7
  6
CONTINUOUS
 10
4.9631880254
 20
4.8185931353
 40
0.1912829476
100
AcDbArc
 50
18.305612516
 51
19.1698859403
  0
ARC
  5
42F
100
AcDbEntity
  8
0
100
AcDbCircle
 62
7
  6
CONTINUOUS
 10
4.9632913992
 20
4.8186267818
 40
0.1911742372
100
AcDbArc
 50
15.8664386435
 51
18.3057696798
  0
ARC
  5
430
100
AcDbEntity
  8
0
100
AcDbCircle
 62
7
  6
CONTINUOUS
 10
4.8250432692
 20
5.1419450565
 40
0.058996539
100
AcDbArc
 50
293.1759269368
 51
360.0
  0
ARC
  5
431
100
AcDbEntity
  8
0
100
AcDbCircle
 62
7
  6
CONTINUOUS
 10
4.9040432692
 20
5.1450884192
 40
0.0395
100
AcDbArc
 50
100.4197661275
 51
180.0
  0
ARC
  5
432
100
AcDbEntity
  8
0
100
AcDbCircle
 62
7
  6
CONTINUOUS
 10
4.8250432692
 20
5.1419450565
 40
0.0395
100
AcDbArc
 50
293.1759269368
 51
360.0
  0
ARC
  5
433
100
AcDbEntity
  8
0
100
AcDbCircle
 62
7
  6
CONTINUOUS
 10
4.9040432692
 20
5.1450884192
 40
0.0199993598
100
AcDbArc
 50
100.4197661275
 51
180.0
  0
ARC
  5
434
100
AcDbEntity
  8
0
100
AcDbCircle
 62
7
  6
CONTINUOUS
 10
3.4918002597
 20
6.0133009602
 40
1.3141810563
100
AcDbArc
 50
246.6764331465
 51
247.174079531
  0
ARC
  5
435
100
AcDbEntity
  8
0
100
AcDbCircle
 62
7
  6
CONTINUOUS
 10
4.7292982426
 20
10.026691941
 40
5.4974143102
100
AcDbArc
 50
251.1188547481
 51
251.238042366
  0
ARC
  5
436
100
AcDbEntity
  8
0
100
AcDbCircle
 62
7
  6
CONTINUOUS
 10
5.1997882962
 20
-0.3945136903
 40
5.4974143092
100
AcDbArc
 50
71.1188547481
 51
71.238042366
  0
ARC
  5
437
100
AcDbEntity
  8
0
100
AcDbCircle
 62
7
  6
CONTINUOUS
 10
6.4372862787
 20
3.6188772895
 40
1.3141810564
100
AcDbArc
 50
66.6764331465
 51
67.174079531
  0
ARC
  5
438
100
AcDbEntity
  8
0
100
AcDbCircle
 62
7
  6
CONTINUOUS
 10
5.7426280815
 20
4.3232219957
 40
1.3067976999
100
AcDbArc
 50
22.8245146187
 51
23.3249727038
  0
ARC
  5
439
100
AcDbEntity
  8
0
100
AcDbCircle
 62
7
  6
CONTINUOUS
 10
5.7829387335
 20
4.8129698436
 40
1.1598856318
100
AcDbArc
 50
357.8942703704
 51
358.9411171084
  0
ARC
  5
43A
100
AcDbEntity
  8
0
100
AcDbCircle
 62
9
  6
CONTINUOUS
 10
5.0365376674
 20
4.7073120274
 40
0.3849758695
100
AcDbArc
 50
52.3396459689
 51
57.0593454591
  0
ARC
  5
43B
100
AcDbEntity
  8
0
100
AcDbCircle
 62
9
  6
CONTINUOUS
 10
5.142016663
 20
4.6844103603
 40
0.3666503307
100
AcDbArc
 50
82.8779394598
 51
84.7000015158
  0
ARC
  5
43C
100
AcDbEntity
  8
DTM-AXIS
100
AcDbCircle
 62
7
  6
CONTINUOUS
 10
6.4010987625
 20
4.8030828542
 40
0.282017945
100
AcDbArc
 50
99.7299756635
 51
101.993334815
  0
ARC
  5
43D
100
AcDbEntity
  8
DTM-AXIS
100
AcDbCircle
 62
7
  6
CONTINUOUS
 10
6.3997539468
 20
4.811702485
 40
0.2732950569
100
AcDbArc
 50
93.1945157765
 51
99.7575004431
  0
ARC
  5
43E
100
AcDbEntity
  8
DTM-AXIS
100
AcDbCircle
 62
7
  6
CONTINUOUS
 10
6.3970181718
 20
4.8137381552
 40
0.2609839264
100
AcDbArc
 50
92.7439178718
 51
99.7680415806
  0
ARC
  5
43F
100
AcDbEntity
  8
0
100
AcDbCircle
 62
7
  6
CONTINUOUS
 10
4.9649737566
 20
4.8159104448
 40
0.2057845263
100
AcDbArc
 50
330.2701258492
 51
334.2392063745
  0
ARC
  5
440
100
AcDbEntity
  8
0
100
AcDbCircle
 62
7
  6
CONTINUOUS
 10
4.9661102263
 20
4.8153548771
 40
0.2045195452
100
AcDbArc
 50
334.2410068098
 51
334.8778249355
  0
ARC
  5
441
100
AcDbEntity
  8
0
100
AcDbCircle
 62
7
  6
CONTINUOUS
 10
4.9657776641
 20
4.8135613425
 40
0.1999669108
100
AcDbArc
 50
198.0149948951
 51
202.7288401126
  0
ARC
  5
442
100
AcDbEntity
  8
0
100
AcDbCircle
 62
7
  6
CONTINUOUS
 10
4.9652456246
 20
4.813345668
 40
0.1993950536
100
AcDbArc
 50
179.2116477053
 51
198.0033401296
  0
ARC
  5
443
100
AcDbEntity
  8
0
100
AcDbCircle
 62
7
  6
CONTINUOUS
 10
5.1040432692
 20
4.4902331933
 40
0.058996539
100
AcDbArc
 50
113.1759269368
 51
180.0
  0
ARC
  5
444
100
AcDbEntity
  8
0
100
AcDbCircle
 62
7
  6
CONTINUOUS
 10
5.0250432692
 20
4.4870898305
 40
0.0395
100
AcDbArc
 50
280.4197661275
 51
360.0
  0
ARC
  5
445
100
AcDbEntity
  8
0
100
AcDbCircle
 62
7
  6
CONTINUOUS
 10
5.1040432692
 20
4.4902331933
 40
0.0395
100
AcDbArc
 50
113.1759269368
 51
180.0
  0
ARC
  5
446
100
AcDbEntity
  8
0
100
AcDbCircle
 62
7
  6
CONTINUOUS
 10
5.0250432692
 20
4.4870898305
 40
0.0199993598
100
AcDbArc
 50
280.4197661275
 51
360.0
  0
ARC
  5
447
100
AcDbEntity
  8
0
100
AcDbCircle
 62
7
  6
CONTINUOUS
 10
8.2066421476
 20
3.0828302148
 40
5.4974143094
100
AcDbArc
 50
161.1188547481
 51
161.238042366
  0
ARC
  5
448
100
AcDbEntity
  8
0
100
AcDbCircle
 62
7
  6
CONTINUOUS
 10
7.4259157287
 20
3.6256667298
 40
1.3068012546
100
AcDbArc
 50
112.8245152994
 51
113.3249720232
  0
ARC
  5
449
100
AcDbEntity
  8
0
100
AcDbCircle
 62
7
  6
CONTINUOUS
 10
6.9361663979
 20
3.6659774064
 40
1.1598888787
100
AcDbArc
 50
87.8942718356
 51
88.9411156431
  0
ARC
  5
44A
100
AcDbEntity
  8
0
100
AcDbCircle
 62
7
  6
CONTINUOUS
 10
6.9299280146
 20
3.6659774064
 40
1.1598888787
100
AcDbArc
 50
91.0588843569
 51
92.1057281644
  0
ARC
  5
44B
100
AcDbEntity
  8
0
100
AcDbCircle
 62
7
  6
CONTINUOUS
 10
8.1302622297
 20
4.3203268392
 40
1.3141845216
100
AcDbArc
 50
156.6764338026
 51
157.1740788749
  0
ARC
  5
44C
100
AcDbEntity
  8
0
100
AcDbCircle
 62
7
  6
CONTINUOUS
 10
8.0831556789
 20
4.8129698436
 40
1.1598856317
100
AcDbArc
 50
181.0588828916
 51
182.1057296296
  0
ARC
  5
44D
100
AcDbEntity
  8
0
100
AcDbCircle
 62
7
  6
CONTINUOUS
 10
6.9330535255
 20
4.8159824459
 40
0.3246964585
100
AcDbArc
 50
261.0534190756
 51
288.6372143764
  0
ARC
  5
44E
100
AcDbEntity
  8
0
100
AcDbCircle
 62
7
  6
CONTINUOUS
 10
6.9333904184
 20
4.8153670075
 40
0.3240038138
100
AcDbArc
 50
290.131678996
 51
294.1181359841
  0
ARC
  5
44F
100
AcDbEntity
  8
0
100
AcDbCircle
 62
7
  6
CONTINUOUS
 10
6.934067848
 20
4.8157170493
 40
0.3237169351
100
AcDbArc
 50
336.4170853732
 51
338.8923473908
  0
ARC
  5
450
100
AcDbEntity
  8
0
100
AcDbCircle
 62
7
  6
CONTINUOUS
 10
6.9356913513
 20
4.8150291947
 40
0.322755057
100
AcDbArc
 50
293.7773257076
 51
293.9496236902
  0
ARC
  5
451
100
AcDbEntity
  8
0
100
AcDbCircle
 62
7
  6
CONTINUOUS
 10
6.9351882406
 20
4.8152803799
 40
0.3225144608
100
AcDbArc
 50
338.8930391652
 51
339.2999527314
  0
ARC
  5
452
100
AcDbEntity
  8
0
100
AcDbCircle
 62
7
  6
CONTINUOUS
 10
6.9340559963
 20
4.8138550311
 40
0.3223518576
100
AcDbArc
 50
294.1199750289
 51
294.2999905968
  0
ARC
  5
453
100
AcDbEntity
  8
0
100
AcDbCircle
 62
7
  6
CONTINUOUS
 10
6.9327960526
 20
4.8141115824
 40
0.3205946576
100
AcDbArc
 50
159.6937641476
 51
179.6465781226
  0
ARC
  5
454
100
AcDbEntity
  8
0
100
AcDbCircle
 62
7
  6
CONTINUOUS
 10
6.9321858063
 20
4.8142675585
 40
0.3199691079
100
AcDbArc
 50
151.6941187457
 51
155.6873636288
  0
ARC
  5
455
100
AcDbEntity
  8
0
100
AcDbCircle
 62
7
  6
CONTINUOUS
 10
6.9321034242
 20
4.8143292591
 40
0.3198686297
100
AcDbArc
 50
155.691359944
 51
159.6872763304
  0
ARC
  5
456
100
AcDbEntity
  8
0
100
AcDbCircle
 62
7
  6
CONTINUOUS
 10
6.9315247297
 20
4.8147668776
 40
0.319146978
100
AcDbArc
 50
111.7539832337
 51
151.7167653064
  0
ARC
  5
457
100
AcDbEntity
  8
0
100
AcDbCircle
 62
7
  6
CONTINUOUS
 10
6.9313361753
 20
4.8150668319
 40
0.318795262
100
AcDbArc
 50
111.147287183
 51
111.7424885851
  0
ARC
  5
458
100
AcDbEntity
  8
0
100
AcDbCircle
 62
7
  6
CONTINUOUS
 10
6.931074037
 20
4.8156992075
 40
0.3181121841
100
AcDbArc
 50
103.7373611412
 51
107.738382711
  0
ARC
  5
459
100
AcDbEntity
  8
0
100
AcDbCircle
 62
7
  6
CONTINUOUS
 10
6.9310923963
 20
4.8157119648
 40
0.3181056276
100
AcDbArc
 50
107.7422323583
 51
111.1482562813
  0
ARC
  5
45A
100
AcDbEntity
  8
ALL_ASSEMBLY_MEMBERS
100
AcDbCircle
 62
7
  6
CONTINUOUS
 10
6.9328173554
 20
4.815383732
 40
0.2263347698
100
AcDbArc
 50
70.4212604309
 51
72.2445308325
  0
ARC
  5
45B
100
AcDbEntity
  8
ALL_ASSEMBLY_MEMBERS
100
AcDbCircle
 62
7
  6
CONTINUOUS
 10
6.9402851665
 20
4.8145567032
 40
0.225715124
100
AcDbArc
 50
74.1221719271
 51
79.915238241
  0
ARC
  5
45C
100
AcDbEntity
  8
ALL_ASSEMBLY_MEMBERS
100
AcDbCircle
 62
7
  6
CONTINUOUS
 10
6.9331310602
 20
4.8140572994
 40
0.2251013098
100
AcDbArc
 50
346.6134999697
 51
347.6099362558
  0
ARC
  5
45D
100
AcDbEntity
  8
ALL_ASSEMBLY_MEMBERS
100
AcDbCircle
 62
7
  6
CONTINUOUS
 10
6.9337375595
 20
4.8139240702
 40
0.2244803497
100
AcDbArc
 50
347.6099342544
 51
348.5641353949
  0
ARC
  5
45E
100
AcDbEntity
  8
ALL_ASSEMBLY_MEMBERS
100
AcDbCircle
 62
7
  6
CONTINUOUS
 10
6.9342597915
 20
4.8158332757
 40
0.2243557171
100
AcDbArc
 50
347.3217103727
 51
348.0597943328
  0
ARC
  5
45F
100
AcDbEntity
  8
ALL_ASSEMBLY_MEMBERS
100
AcDbCircle
 62
7
  6
CONTINUOUS
 10
6.9385831164
 20
4.8083158371
 40
0.128593685
100
AcDbArc
 50
37.6662385118
 51
37.8524176964
  0
ARC
  5
460
100
AcDbEntity
  8
ALL_ASSEMBLY_MEMBERS
100
AcDbCircle
 62
7
  6
CONTINUOUS
 10
6.9391142797
 20
4.8087417402
 40
0.1279129352
100
AcDbArc
 50
37.8477803561
 51
45.6696871123
  0
ARC
  5
461
100
AcDbEntity
  8
ALL_ASSEMBLY_MEMBERS
100
AcDbCircle
 62
7
  6
CONTINUOUS
 10
6.9327042405
 20
4.8158483908
 40
0.1276674133
100
AcDbArc
 50
33.2278356155
 51
33.392322482
  0
ARC
  5
462
100
AcDbEntity
  8
ALL_ASSEMBLY_MEMBERS
100
AcDbCircle
 62
7
  6
CONTINUOUS
 10
6.9330102719
 20
4.8160737611
 40
0.1272878657
100
AcDbArc
 50
33.3834385834
 51
41.3940500988
  0
ARC
  5
463
100
AcDbEntity
  8
ALL_ASSEMBLY_MEMBERS
100
AcDbCircle
 62
7
  6
CONTINUOUS
 10
6.9334190418
 20
4.815669894
 40
0.1266896309
100
AcDbArc
 50
308.9596258043
 51
311.3990126734
  0
ARC
  5
464
100
AcDbEntity
  8
0
100
AcDbCircle
 62
7
  6
CONTINUOUS
 10
7.6417086236
 20
4.6979788887
 40
0.0787401575
100
AcDbArc
 50
270.0
 51
360.0
  0
ARC
  5
465
100
AcDbEntity
  8
ALL_ASSEMBLY_MEMBERS
100
AcDbCircle
 62
7
  6
CONTINUOUS
 10
6.9954186551
 20
4.7227138544
 40
0.04
100
AcDbArc
 50
59.6373704656
 51
64.9955518539
  0
ARC
  5
466
100
AcDbEntity
  8
ALL_ASSEMBLY_MEMBERS
100
AcDbCircle
 62
7
  6
CONTINUOUS
 10
6.8777127628
 20
4.7557505017
 40
0.02
100
AcDbArc
 50
239.8837685094
 51
269.0245095238
  0
ARC
  5
467
100
AcDbEntity
  8
ALL_ASSEMBLY_MEMBERS
100
AcDbCircle
 62
7
  6
CONTINUOUS
 10
6.8777127628
 20
4.7557505017
 40
0.02
100
AcDbArc
 50
185.9952068658
 51
214.5396036424
  0
ARC
  5
468
100
AcDbEntity
  8
ALL_ASSEMBLY_MEMBERS
100
AcDbCircle
 62
7
  6
CONTINUOUS
 10
6.9954186551
 20
4.7227138544
 40
0.02
100
AcDbArc
 50
71.027140205
 51
84.2283446586
  0
ARC
  5
469
100
AcDbEntity
  8
0
100
AcDbCircle
 62
7
  6
CONTINUOUS
 10
8.6663061169
 20
-0.3945136923
 40
5.4974143113
100
AcDbArc
 50
108.761957634
 51
108.8811452519
  0
ARC
  5
46A
100
AcDbEntity
  8
0
100
AcDbCircle
 62
7
  6
CONTINUOUS
 10
12.1436500213
 20
3.0828302149
 40
5.4974143091
100
AcDbArc
 50
161.1188547481
 51
161.238042366
  0
ARC
  5
46B
100
AcDbEntity
  8
0
100
AcDbCircle
 62
7
  6
CONTINUOUS
 10
4.9645432692
 20
4.8160891249
 40
0.374015748
100
AcDbArc
 50
259.5802338725
 51
280.4197661275
  0
ARC
  5
46C
100
AcDbEntity
  8
0
100
AcDbCircle
 62
7
  6
CONTINUOUS
 10
4.9645432692
 20
4.8160891249
 40
0.374015748
100
AcDbArc
 50
79.5802338725
 51
100.4197661275
  0
ARC
  5
46D
100
AcDbEntity
  8
0
100
AcDbCircle
 62
7
  6
CONTINUOUS
 10
4.9645432692
 20
4.8160891249
 40
0.35451372
100
AcDbArc
 50
79.5802338725
 51
100.4197661275
  0
ARC
  5
46E
100
AcDbEntity
  8
0
100
AcDbCircle
 62
7
  6
CONTINUOUS
 10
4.9645432692
 20
4.8160891249
 40
0.35451372
100
AcDbArc
 50
259.5802338725
 51
280.4197661275
  0
ARC
  5
46F
100
AcDbEntity
  8
DTM-AXIS
100
AcDbCircle
 62
7
  6
CONTINUOUS
 10
4.9645432692
 20
4.8160891249
 40
0.3248031496
100
AcDbArc
 50
108.7705696659
 51
113.5781784782
  0
ARC
  5
470
100
AcDbEntity
  8
DTM-AXIS
100
AcDbCircle
 62
7
  6
CONTINUOUS
 10
4.9645432692
 20
4.8160891249
 40
0.3248031496
100
AcDbArc
 50
65.2801488171
 51
71.2270236463
  0
ARC
  5
471
100
AcDbEntity
  8
0
100
AcDbCircle
 62
7
  6
CONTINUOUS
 10
4.9645432692
 20
4.8160891249
 40
0.3149606299
100
AcDbArc
 50
113.1759269368
 51
246.8240730632
  0
ARC
  5
472
100
AcDbEntity
  8
0
100
AcDbCircle
 62
7
  6
CONTINUOUS
 10
4.9645432692
 20
4.8160891249
 40
0.3149606299
100
AcDbArc
 50
293.1759269368
 51
66.8240730632
  0
ARC
  5
473
100
AcDbEntity
  8
0
100
AcDbCircle
 62
7
  6
CONTINUOUS
 10
4.9645432692
 20
4.8160891249
 40
0.2954600403
100
AcDbArc
 50
113.1759269368
 51
246.8240730632
  0
ARC
  5
474
100
AcDbEntity
  8
0
100
AcDbCircle
 62
7
  6
CONTINUOUS
 10
4.9645432692
 20
4.8160891249
 40
0.2954600065
100
AcDbArc
 50
293.1759269368
 51
66.8240730632
  0
CIRCLE
  5
475
100
AcDbEntity
  8
0
100
AcDbCircle
 62
7
  6
CONTINUOUS
 10
4.9645432692
 20
4.8160891249
 40
0.212007874
  0
ARC
  5
476
100
AcDbEntity
  8
0
100
AcDbCircle
 62
7
  6
CONTINUOUS
 10
4.9652523983
 20
4.8189776979
 40
0.2068578491
100
AcDbArc
 50
324.7874013337
 51
329.4235896059
  0
ARC
  5
477
100
AcDbEntity
  8
0
100
AcDbCircle
 62
7
  6
CONTINUOUS
 10
4.9645432692
 20
4.8160891249
 40
0.20625
100
AcDbArc
 50
334.8779527553
 51
19.8779527556
  0
ARC
  5
478
100
AcDbEntity
  8
0
100
AcDbCircle
 62
7
  6
CONTINUOUS
 10
4.966351181
 20
4.8183470035
 40
0.205591025
100
AcDbArc
 50
329.4191475375
 51
333.5844611677
  0
ARC
  5
479
100
AcDbEntity
  8
0
100
AcDbCircle
 62
7
  6
CONTINUOUS
 10
4.9652003569
 20
4.8163375779
 40
0.205547584
100
AcDbArc
 50
15.233664826
 51
19.8751015979
  0
ARC
  5
47A
100
AcDbEntity
  8
0
100
AcDbCircle
 62
7
  6
CONTINUOUS
 10
4.9666524084
 20
4.8180560293
 40
0.2052088914
100
AcDbArc
 50
300.5269953114
 51
301.480263004
  0
ARC
  5
47B
100
AcDbEntity
  8
0
100
AcDbCircle
 62
7
  6
CONTINUOUS
 10
4.9667097517
 20
4.8178964863
 40
0.2050437321
100
AcDbArc
 50
301.489878459
 51
324.7994286559
  0
ARC
  5
47C
100
AcDbEntity
  8
0
100
AcDbCircle
 62
7
  6
CONTINUOUS
 10
4.967445133
 20
4.8177957988
 40
0.2043660725
100
AcDbArc
 50
333.5864177224
 51
334.0993135998
  0
ARC
  5
47D
100
AcDbEntity
  8
0
100
AcDbCircle
 62
7
  6
CONTINUOUS
 10
4.9659763108
 20
4.8184770911
 40
0.1883739251
100
AcDbArc
 50
326.7968034104
 51
333.9344588238
  0
ARC
  5
47E
100
AcDbEntity
  8
0
100
AcDbCircle
 62
7
  6
CONTINUOUS
 10
4.9665639665
 20
4.8180666572
 40
0.1876568654
100
AcDbArc
 50
300.6799473305
 51
326.803403756
  0
ARC
  5
47F
100
AcDbEntity
  8
0
100
AcDbCircle
 62
7
  6
CONTINUOUS
 10
4.9645432692
 20
4.8160891249
 40
0.187007874
100
AcDbArc
 50
306.517536138
 51
301.5215718459
  0
CIRCLE
  5
480
100
AcDbEntity
  8
DTM-AXIS
100
AcDbCircle
 62
7
  6
CONTINUOUS
 10
4.9645432692
 20
4.8160891249
 40
0.1732283465
  0
ARC
  5
481
100
AcDbEntity
  8
0
100
AcDbCircle
 62
7
  6
CONTINUOUS
 10
4.9673142825
 20
4.8262194011
 40
0.2001001335
100
AcDbArc
 50
333.3002525041
 51
355.209793894
  0
ARC
  5
482
100
AcDbEntity
  8
0
100
AcDbCircle
 62
7
  6
CONTINUOUS
 10
4.9692115426
 20
4.8254474484
 40
0.1980558787
100
AcDbArc
 50
328.8656192308
 51
333.2531485221
  0
ARC
  5
483
100
AcDbEntity
  8
0
100
AcDbCircle
 62
7
  6
CONTINUOUS
 10
4.9703547174
 20
4.8247554286
 40
0.1967195634
100
AcDbArc
 50
324.5513629248
 51
328.8659873972
  0
ARC
  5
484
100
AcDbEntity
  8
0
100
AcDbCircle
 62
7
  6
CONTINUOUS
 10
4.9724359192
 20
4.8230696366
 40
0.1940464995
100
AcDbArc
 50
298.4210183125
 51
324.6004559272
  0
ARC
  5
485
100
AcDbEntity
  8
0
100
AcDbCircle
 62
9
  6
CONTINUOUS
 10
5.1391720746
 20
4.9781544886
 40
0.3971695189
100
AcDbArc
 50
275.2918289534
 51
275.6982575335
  0
ARC
  5
486
100
AcDbEntity
  8
0
100
AcDbCircle
 62
9
  6
CONTINUOUS
 10
5.1445075937
 20
4.926551301
 40
0.3452916127
100
AcDbArc
 50
275.6674766727
 51
277.0104994596
  0
ARC
  5
487
100
AcDbEntity
  8
0
100
AcDbCircle
 62
9
  6
CONTINUOUS
 10
5.226105685
 20
5.100730853
 40
0.0716833919
100
AcDbArc
 50
240.2455845311
 51
252.7974650165
  0
ARC
  5
488
100
AcDbEntity
  8
0
100
AcDbCircle
 62
9
  6
CONTINUOUS
 10
5.2245310287
 20
5.0980308835
 40
0.0685579144
100
AcDbArc
 50
227.4632697782
 51
240.268236437
  0
ARC
  5
489
100
AcDbEntity
  8
0
100
AcDbCircle
 62
7
  6
CONTINUOUS
 10
5.1040432692
 20
5.1419450565
 40
0.058996539
100
AcDbArc
 50
180.0
 51
246.8240730632
  0
ARC
  5
48A
100
AcDbEntity
  8
0
100
AcDbCircle
 62
7
  6
CONTINUOUS
 10
5.0250432692
 20
5.1450884192
 40
0.0395
100
AcDbArc
 50
0.0
 51
79.5802338725
  0
ARC
  5
48B
100
AcDbEntity
  8
0
100
AcDbCircle
 62
7
  6
CONTINUOUS
 10
5.1040432692
 20
5.1419450565
 40
0.0395
100
AcDbArc
 50
180.0
 51
246.8240730632
  0
ARC
  5
48C
100
AcDbEntity
  8
0
100
AcDbCircle
 62
7
  6
CONTINUOUS
 10
5.0250432692
 20
5.1450884192
 40
0.0199993005
100
AcDbArc
 50
0.0
 51
79.5802338725
  0
ARC
  5
48D
100
AcDbEntity
  8
0
100
AcDbCircle
 62
7
  6
CONTINUOUS
 10
5.7829387335
 20
4.8192084062
 40
1.1598856318
100
AcDbArc
 50
1.0588828917
 51
2.1057296296
  0
ARC
  5
48E
100
AcDbEntity
  8
0
100
AcDbCircle
 62
7
  6
CONTINUOUS
 10
5.7358321828
 20
5.3118514105
 40
1.3141845216
100
AcDbArc
 50
336.6764338026
 51
337.1740788749
  0
ARC
  5
48F
100
AcDbEntity
  8
0
100
AcDbCircle
 62
7
  6
CONTINUOUS
 10
6.0895432692
 20
5.2285891249
 40
0.21
100
AcDbArc
 50
330.4215679569
 51
209.5697947431
  0
ARC
  5
490
100
AcDbEntity
  8
0
100
AcDbCircle
 62
7
  6
CONTINUOUS
 10
6.0895432692
 20
5.2285891249
 40
0.1826900809
100
AcDbArc
 50
359.5048610522
 51
0.1154553072
  0
ARC
  5
491
100
AcDbEntity
  8
0
100
AcDbCircle
 62
7
  6
CONTINUOUS
 10
6.0895432692
 20
5.2285891249
 40
0.1826900809
100
AcDbArc
 50
179.8845446882
 51
180.4951389339
  0
ARC
  5
492
100
AcDbEntity
  8
0
100
AcDbCircle
 62
7
  6
CONTINUOUS
 10
6.4401786838
 20
6.0065115198
 40
1.3068012545
100
AcDbArc
 50
292.8245152994
 51
293.3249720232
  0
CIRCLE
  5
493
100
AcDbEntity
  8
DTM-AXIS
100
AcDbCircle
 62
7
  6
CONTINUOUS
 10
6.9330472062
 20
4.8160891249
 40
0.3937007874
  0
CIRCLE
  5
494
100
AcDbEntity
  8
DTM-AXIS
100
AcDbCircle
 62
7
  6
CONTINUOUS
 10
6.9330472062
 20
4.8160891249
 40
0.374015748
  0
CIRCLE
  5
495
100
AcDbEntity
  8
DTM-AXIS
100
AcDbCircle
 62
7
  6
CONTINUOUS
 10
6.9330472062
 20
4.8160891249
 40
0.3346456693
  0
ARC
  5
496
100
AcDbEntity
  8
0
100
AcDbCircle
 62
7
  6
CONTINUOUS
 10
6.9327392252
 20
4.8170725556
 40
0.3258292877
100
AcDbArc
 50
288.6283248574
 51
290.1359686496
  0
ARC
  5
497
100
AcDbEntity
  8
0
100
AcDbCircle
 62
7
  6
CONTINUOUS
 10
6.9346194202
 20
4.8176827528
 40
0.3256176374
100
AcDbArc
 50
286.392752659
 51
290.1578345787
  0
ARC
  5
498
100
AcDbEntity
  8
0
100
AcDbCircle
 62
7
  6
CONTINUOUS
 10
6.9326793735
 20
4.8163124672
 40
0.3252276595
100
AcDbArc
 50
335.1679648779
 51
336.4188127579
  0
ARC
  5
499
100
AcDbEntity
  8
0
100
AcDbCircle
 62
7
  6
CONTINUOUS
 10
6.9330472062
 20
4.8160891249
 40
0.3248031496
100
AcDbArc
 50
294.300000001
 51
339.3000000012
  0
ARC
  5
49A
100
AcDbEntity
  8
0
100
AcDbCircle
 62
7
  6
CONTINUOUS
 10
6.9351645164
 20
4.8162436143
 40
0.3240788068
100
AcDbArc
 50
290.1550465855
 51
293.7759967611
  0
ARC
  5
49B
100
AcDbEntity
  8
0
100
AcDbCircle
 62
7
  6
CONTINUOUS
 10
6.9350309394
 20
4.8161606397
 40
0.3240358128
100
AcDbArc
 50
262.840315199
 51
286.3966071377
  0
ARC
  5
49C
100
AcDbEntity
  8
0
100
AcDbCircle
 62
7
  6
CONTINUOUS
 10
6.9320859868
 20
4.8179966822
 40
0.3155678858
100
AcDbArc
 50
359.6536540716
 51
9.971185829
  0
ARC
  5
49D
100
AcDbEntity
  8
0
100
AcDbCircle
 62
7
  6
CONTINUOUS
 10
6.9330472062
 20
4.8160891249
 40
0.3149606299
100
AcDbArc
 50
10.3403894334
 51
360.0
  0
ARC
  5
49E
100
AcDbEntity
  8
ALL_ASSEMBLY_MEMBERS
100
AcDbCircle
 62
7
  6
CONTINUOUS
 10
6.9330472062
 20
4.8160891249
 40
0.23625
100
AcDbArc
 50
41.0065992274
 51
40.6997096313
  0
ARC
  5
49F
100
AcDbEntity
  8
ALL_ASSEMBLY_MEMBERS
100
AcDbCircle
 62
7
  6
CONTINUOUS
 10
6.9338121611
 20
4.8179303228
 40
0.2322110131
100
AcDbArc
 50
165.1829666854
 51
165.3794954338
  0
ARC
  5
4A0
100
AcDbEntity
  8
ALL_ASSEMBLY_MEMBERS
100
AcDbCircle
 62
7
  6
CONTINUOUS
 10
6.9310945778
 20
4.8165469934
 40
0.2287672936
100
AcDbArc
 50
255.6751131093
 51
270.4890504841
  0
ARC
  5
4A1
100
AcDbEntity
  8
ALL_ASSEMBLY_MEMBERS
100
AcDbCircle
 62
7
  6
CONTINUOUS
 10
6.9323748185
 20
4.8163074051
 40
0.2262997794
100
AcDbArc
 50
340.4261011481
 51
341.3984903445
  0
ARC
  5
4A2
100
AcDbEntity
  8
ALL_ASSEMBLY_MEMBERS
100
AcDbCircle
 62
7
  6
CONTINUOUS
 10
6.9329106474
 20
4.8161474535
 40
0.225740921
100
AcDbArc
 50
341.3935853485
 51
347.3190676891
  0
ARC
  5
4A3
100
AcDbEntity
  8
ALL_ASSEMBLY_MEMBERS
100
AcDbCircle
 62
7
  6
CONTINUOUS
 10
6.9330472062
 20
4.8160891249
 40
0.2255949998
100
AcDbArc
 50
348.0599363234
 51
78.0368826088
  0
ARC
  5
4A4
100
AcDbEntity
  8
ALL_ASSEMBLY_MEMBERS
100
AcDbCircle
 62
7
  6
CONTINUOUS
 10
6.9330260406
 20
4.8160970899
 40
0.2255917526
100
AcDbArc
 50
72.2397566705
 51
77.4528216927
  0
ARC
  5
4A5
100
AcDbEntity
  8
ALL_ASSEMBLY_MEMBERS
100
AcDbCircle
 62
7
  6
CONTINUOUS
 10
6.9333135001
 20
4.8173475899
 40
0.2243086692
100
AcDbArc
 50
77.4551030509
 51
78.0367940193
  0
CIRCLE
  5
4A6
100
AcDbEntity
  8
ALL_ASSEMBLY_MEMBERS
100
AcDbCircle
 62
7
  6
CONTINUOUS
 10
6.9330472062
 20
4.8160891249
 40
0.22125
  0
ARC
  5
4A7
100
AcDbEntity
  8
ALL_ASSEMBLY_MEMBERS
100
AcDbCircle
 62
7
  6
CONTINUOUS
 10
6.9330472062
 20
4.8160891249
 40
0.1595559337
100
AcDbArc
 50
252.9464553575
 51
287.0535446425
  0
ARC
  5
4A8
100
AcDbEntity
  8
ALL_ASSEMBLY_MEMBERS
100
AcDbCircle
 62
7
  6
CONTINUOUS
 10
6.9330472062
 20
4.8160891249
 40
0.1595559337
100
AcDbArc
 50
72.9464553575
 51
107.0535446425
  0
ARC
  5
4A9
100
AcDbEntity
  8
ALL_ASSEMBLY_MEMBERS
100
AcDbCircle
 62
7
  6
CONTINUOUS
 10
6.9330472062
 20
4.8160891249
 40
0.1595559337
100
AcDbArc
 50
192.9464553575
 51
227.0535446425
  0
ARC
  5
4AA
100
AcDbEntity
  8
ALL_ASSEMBLY_MEMBERS
100
AcDbCircle
 62
7
  6
CONTINUOUS
 10
6.9330472062
 20
4.8160891249
 40
0.1595559337
100
AcDbArc
 50
132.9464553575
 51
167.0535446425
  0
ARC
  5
4AB
100
AcDbEntity
  8
ALL_ASSEMBLY_MEMBERS
100
AcDbCircle
 62
7
  6
CONTINUOUS
 10
6.9330472062
 20
4.8160891249
 40
0.1595559337
100
AcDbArc
 50
12.9464553575
 51
47.0535446425
  0
ARC
  5
4AC
100
AcDbEntity
  8
ALL_ASSEMBLY_MEMBERS
100
AcDbCircle
 62
7
  6
CONTINUOUS
 10
6.9330472062
 20
4.8160891249
 40
0.1595559337
100
AcDbArc
 50
312.9464553575
 51
347.0535446425
  0
CIRCLE
  5
4AD
100
AcDbEntity
  8
ALL_ASSEMBLY_MEMBERS
100
AcDbCircle
 62
7
  6
CONTINUOUS
 10
6.9330472062
 20
4.8160891249
 40
0.15625
  0
ARC
  5
4AE
100
AcDbEntity
  8
ALL_ASSEMBLY_MEMBERS
100
AcDbCircle
 62
7
  6
CONTINUOUS
 10
6.9330472062
 20
4.8160891249
 40
0.14075
100
AcDbArc
 50
7.9667569308
 51
5.9200164875
  0
ARC
  5
4AF
100
AcDbEntity
  8
ALL_ASSEMBLY_MEMBERS
100
AcDbCircle
 62
7
  6
CONTINUOUS
 10
6.9321848179
 20
4.8185069804
 40
0.1322136469
100
AcDbArc
 50
181.047830595
 51
218.4821982375
  0
ARC
  5
4B0
100
AcDbEntity
  8
ALL_ASSEMBLY_MEMBERS
100
AcDbCircle
 62
7
  6
CONTINUOUS
 10
6.932792025
 20
4.8164548987
 40
0.1276944335
100
AcDbArc
 50
303.2550096353
 51
307.3160454135
  0
ARC
  5
4B1
100
AcDbEntity
  8
ALL_ASSEMBLY_MEMBERS
100
AcDbCircle
 62
7
  6
CONTINUOUS
 10
6.9329901286
 20
4.8161946677
 40
0.1273673782
100
AcDbArc
 50
307.3161364662
 51
308.961224988
  0
ARC
  5
4B2
100
AcDbEntity
  8
ALL_ASSEMBLY_MEMBERS
100
AcDbCircle
 62
7
  6
CONTINUOUS
 10
6.9330472062
 20
4.8160891249
 40
0.1272499999
100
AcDbArc
 50
311.3997714769
 51
41.3998569654
  0
CIRCLE
  5
4B3
100
AcDbEntity
  8
ALL_ASSEMBLY_MEMBERS
100
AcDbCircle
 62
7
  6
CONTINUOUS
 10
6.9330472062
 20
4.8160891249
 40
0.12075
  0
CIRCLE
  5
4B4
100
AcDbEntity
  8
ALL_ASSEMBLY_MEMBERS
100
AcDbCircle
 62
7
  6
CONTINUOUS
 10
6.9330472062
 20
4.8160891249
 40
0.1015
  0
CIRCLE
  5
4B5
100
AcDbEntity
  8
ALL_FEATURES
100
AcDbCircle
 62
7
  6
CONTINUOUS
 10
6.9330472062
 20
4.8160891249
 40
0.09775
  0
ARC
  5
4B6
100
AcDbEntity
  8
ALL_FEATURES
100
AcDbCircle
 62
7
  6
CONTINUOUS
 10
6.9330472062
 20
4.8160891249
 40
0.0925
100
AcDbArc
 50
141.6665846093
 51
150.8334153907
  0
ARC
  5
4B7
100
AcDbEntity
  8
ALL_FEATURES
100
AcDbCircle
 62
7
  6
CONTINUOUS
 10
6.9330472062
 20
4.8160891249
 40
0.0925
100
AcDbArc
 50
119.1665846093
 51
128.3334153907
  0
ARC
  5
4B8
100
AcDbEntity
  8
ALL_FEATURES
100
AcDbCircle
 62
7
  6
CONTINUOUS
 10
6.9330472062
 20
4.8160891249
 40
0.0925
100
AcDbArc
 50
96.6665846093
 51
105.8334153907
  0
ARC
  5
4B9
100
AcDbEntity
  8
ALL_FEATURES
100
AcDbCircle
 62
7
  6
CONTINUOUS
 10
6.9330472062
 20
4.8160891249
 40
0.0925
100
AcDbArc
 50
74.1665846093
 51
83.3334153907
  0
ARC
  5
4BA
100
AcDbEntity
  8
ALL_FEATURES
100
AcDbCircle
 62
7
  6
CONTINUOUS
 10
6.9330472062
 20
4.8160891249
 40
0.0925
100
AcDbArc
 50
51.6665846093
 51
60.8334153907
  0
ARC
  5
4BB
100
AcDbEntity
  8
ALL_FEATURES
100
AcDbCircle
 62
7
  6
CONTINUOUS
 10
6.9330472062
 20
4.8160891249
 40
0.0925
100
AcDbArc
 50
29.1665846093
 51
38.3334153907
  0
ARC
  5
4BC
100
AcDbEntity
  8
ALL_FEATURES
100
AcDbCircle
 62
7
  6
CONTINUOUS
 10
6.9330472062
 20
4.8160891249
 40
0.0925
100
AcDbArc
 50
6.6665846093
 51
15.8334153907
  0
ARC
  5
4BD
100
AcDbEntity
  8
ALL_FEATURES
100
AcDbCircle
 62
7
  6
CONTINUOUS
 10
6.9330472062
 20
4.8160891249
 40
0.0925
100
AcDbArc
 50
164.1665846093
 51
173.3334153907
  0
ARC
  5
4BE
100
AcDbEntity
  8
ALL_FEATURES
100
AcDbCircle
 62
7
  6
CONTINUOUS
 10
6.9330472062
 20
4.8160891249
 40
0.0925
100
AcDbArc
 50
344.1665846093
 51
353.3334153907
  0
ARC
  5
4BF
100
AcDbEntity
  8
ALL_FEATURES
100
AcDbCircle
 62
7
  6
CONTINUOUS
 10
6.9330472062
 20
4.8160891249
 40
0.0925
100
AcDbArc
 50
321.6665846093
 51
330.8334153907
  0
ARC
  5
4C0
100
AcDbEntity
  8
ALL_FEATURES
100
AcDbCircle
 62
7
  6
CONTINUOUS
 10
6.9330472062
 20
4.8160891249
 40
0.0925
100
AcDbArc
 50
299.1665846093
 51
308.3334153907
  0
ARC
  5
4C1
100
AcDbEntity
  8
ALL_FEATURES
100
AcDbCircle
 62
7
  6
CONTINUOUS
 10
6.9330472062
 20
4.8160891249
 40
0.0925
100
AcDbArc
 50
276.6665846093
 51
285.8334153907
  0
ARC
  5
4C2
100
AcDbEntity
  8
ALL_FEATURES
100
AcDbCircle
 62
7
  6
CONTINUOUS
 10
6.9330472062
 20
4.8160891249
 40
0.0925
100
AcDbArc
 50
254.1665846093
 51
263.3334153907
  0
ARC
  5
4C3
100
AcDbEntity
  8
ALL_FEATURES
100
AcDbCircle
 62
7
  6
CONTINUOUS
 10
6.9330472062
 20
4.8160891249
 40
0.0925
100
AcDbArc
 50
231.6665846093
 51
240.8334153907
  0
ARC
  5
4C4
100
AcDbEntity
  8
ALL_FEATURES
100
AcDbCircle
 62
7
  6
CONTINUOUS
 10
6.9330472062
 20
4.8160891249
 40
0.0925
100
AcDbArc
 50
209.1665846093
 51
218.3334153907
  0
ARC
  5
4C5
100
AcDbEntity
  8
ALL_FEATURES
100
AcDbCircle
 62
7
  6
CONTINUOUS
 10
6.9330472062
 20
4.8160891249
 40
0.0925
100
AcDbArc
 50
186.6665846093
 51
195.8334153907
  0
ARC
  5
4C6
100
AcDbEntity
  8
ALL_FEATURES
100
AcDbCircle
 62
7
  6
CONTINUOUS
 10
6.9330472062
 20
4.8160891249
 40
0.08175
100
AcDbArc
 50
154.1260218921
 51
160.8739781079
  0
ARC
  5
4C7
100
AcDbEntity
  8
ALL_FEATURES
100
AcDbCircle
 62
7
  6
CONTINUOUS
 10
6.9330472062
 20
4.8160891249
 40
0.08175
100
AcDbArc
 50
131.6260218921
 51
138.3739781079
  0
ARC
  5
4C8
100
AcDbEntity
  8
ALL_FEATURES
100
AcDbCircle
 62
7
  6
CONTINUOUS
 10
6.9330472062
 20
4.8160891249
 40
0.08175
100
AcDbArc
 50
109.1260218921
 51
115.8739781079
  0
ARC
  5
4C9
100
AcDbEntity
  8
ALL_FEATURES
100
AcDbCircle
 62
7
  6
CONTINUOUS
 10
6.9330472062
 20
4.8160891249
 40
0.08175
100
AcDbArc
 50
86.6260218921
 51
93.3739781079
  0
ARC
  5
4CA
100
AcDbEntity
  8
ALL_FEATURES
100
AcDbCircle
 62
7
  6
CONTINUOUS
 10
6.9330472062
 20
4.8160891249
 40
0.08175
100
AcDbArc
 50
64.1260218921
 51
70.8739781079
  0
ARC
  5
4CB
100
AcDbEntity
  8
ALL_FEATURES
100
AcDbCircle
 62
7
  6
CONTINUOUS
 10
6.9330472062
 20
4.8160891249
 40
0.08175
100
AcDbArc
 50
41.6260218921
 51
48.3739781079
  0
ARC
  5
4CC
100
AcDbEntity
  8
ALL_FEATURES
100
AcDbCircle
 62
7
  6
CONTINUOUS
 10
6.9330472062
 20
4.8160891249
 40
0.08175
100
AcDbArc
 50
19.1260218921
 51
25.8739781079
  0
ARC
  5
4CD
100
AcDbEntity
  8
ALL_FEATURES
100
AcDbCircle
 62
7
  6
CONTINUOUS
 10
6.9330472062
 20
4.8160891249
 40
0.08175
100
AcDbArc
 50
356.6260218921
 51
3.3739781079
  0
ARC
  5
4CE
100
AcDbEntity
  8
ALL_FEATURES
100
AcDbCircle
 62
7
  6
CONTINUOUS
 10
6.9330472062
 20
4.8160891249
 40
0.08175
100
AcDbArc
 50
334.1260218921
 51
340.8739781079
  0
ARC
  5
4CF
100
AcDbEntity
  8
ALL_FEATURES
100
AcDbCircle
 62
7
  6
CONTINUOUS
 10
6.9330472062
 20
4.8160891249
 40
0.08175
100
AcDbArc
 50
311.6260218921
 51
318.3739781079
  0
ARC
  5
4D0
100
AcDbEntity
  8
ALL_FEATURES
100
AcDbCircle
 62
7
  6
CONTINUOUS
 10
6.9330472062
 20
4.8160891249
 40
0.08175
100
AcDbArc
 50
289.1260218921
 51
295.8739781079
  0
ARC
  5
4D1
100
AcDbEntity
  8
ALL_FEATURES
100
AcDbCircle
 62
7
  6
CONTINUOUS
 10
6.9330472062
 20
4.8160891249
 40
0.08175
100
AcDbArc
 50
266.6260218921
 51
273.3739781079
  0
ARC
  5
4D2
100
AcDbEntity
  8
ALL_FEATURES
100
AcDbCircle
 62
7
  6
CONTINUOUS
 10
6.9330472062
 20
4.8160891249
 40
0.08175
100
AcDbArc
 50
244.1260218921
 51
250.8739781079
  0
ARC
  5
4D3
100
AcDbEntity
  8
ALL_FEATURES
100
AcDbCircle
 62
7
  6
CONTINUOUS
 10
6.9330472062
 20
4.8160891249
 40
0.08175
100
AcDbArc
 50
221.6260218921
 51
228.3739781079
  0
ARC
  5
4D4
100
AcDbEntity
  8
ALL_FEATURES
100
AcDbCircle
 62
7
  6
CONTINUOUS
 10
6.9330472062
 20
4.8160891249
 40
0.08175
100
AcDbArc
 50
199.1260218921
 51
205.8739781079
  0
ARC
  5
4D5
100
AcDbEntity
  8
ALL_FEATURES
100
AcDbCircle
 62
7
  6
CONTINUOUS
 10
6.9330472062
 20
4.8160891249
 40
0.08175
100
AcDbArc
 50
176.6260218921
 51
183.3739781079
  0
CIRCLE
  5
4D6
100
AcDbEntity
  8
0
100
AcDbCircle
 62
7
  6
CONTINUOUS
 10
6.9330472062
 20
4.8160891249
 40
0.0787401575
  0
CIRCLE
  5
4D7
100
AcDbEntity
  8
0
100
AcDbCircle
 62
9
  6
CONTINUOUS
 10
6.9330472062
 20
4.8160891249
 40
0.0747856107
  0
ARC
  5
4D8
100
AcDbEntity
  8
0
100
AcDbCircle
 62
7
  6
CONTINUOUS
 10
6.9330472062
 20
4.8160891249
 40
0.0466136043
100
AcDbArc
 50
168.8752303572
 51
191.1247696428
  0
ARC
  5
4D9
100
AcDbEntity
  8
0
100
AcDbCircle
 62
7
  6
CONTINUOUS
 10
6.9330472062
 20
4.8160891249
 40
0.0466136043
100
AcDbArc
 50
258.8752303572
 51
281.1247696428
  0
ARC
  5
4DA
100
AcDbEntity
  8
0
100
AcDbCircle
 62
7
  6
CONTINUOUS
 10
6.9330472062
 20
4.8160891249
 40
0.0466136043
100
AcDbArc
 50
348.8752303572
 51
11.1247696428
  0
ARC
  5
4DB
100
AcDbEntity
  8
0
100
AcDbCircle
 62
7
  6
CONTINUOUS
 10
6.9330472062
 20
4.8160891249
 40
0.0466136043
100
AcDbArc
 50
78.8752303572
 51
101.1247696428
  0
ARC
  5
4DC
100
AcDbEntity
  8
0
100
AcDbCircle
 62
7
  6
CONTINUOUS
 10
6.9330472062
 20
4.8160891249
 40
0.0353140527
100
AcDbArc
 50
261.3609822788
 51
278.6390177212
  0
ARC
  5
4DD
100
AcDbEntity
  8
0
100
AcDbCircle
 62
7
  6
CONTINUOUS
 10
6.9330472062
 20
4.8160891249
 40
0.0353140527
100
AcDbArc
 50
171.3609822788
 51
188.6390177212
  0
ARC
  5
4DE
100
AcDbEntity
  8
0
100
AcDbCircle
 62
7
  6
CONTINUOUS
 10
6.9330472062
 20
4.8160891249
 40
0.0353140527
100
AcDbArc
 50
81.3609822788
 51
98.6390177212
  0
ARC
  5
4DF
100
AcDbEntity
  8
0
100
AcDbCircle
 62
7
  6
CONTINUOUS
 10
6.9330472062
 20
4.8160891249
 40
0.0353140527
100
AcDbArc
 50
351.3609822788
 51
8.6390177212
  0
ARC
  5
4E0
100
AcDbEntity
  8
0
100
AcDbCircle
 62
7
  6
CONTINUOUS
 10
6.9398720679
 20
4.8190418689
 40
0.3189501325
100
AcDbArc
 50
287.2944170152
 51
292.9964023902
  0
ARC
  5
4E1
100
AcDbEntity
  8
0
100
AcDbCircle
 62
7
  6
CONTINUOUS
 10
6.9399649411
 20
4.8187486058
 40
0.3186425184
100
AcDbArc
 50
287.1160447205
 51
287.2941486425
  0
ARC
  5
4E2
100
AcDbEntity
  8
0
100
AcDbCircle
 62
7
  6
CONTINUOUS
 10
6.9401063496
 20
4.818484427
 40
0.3183454632
100
AcDbArc
 50
292.996782965
 51
294.3586304457
  0
ARC
  5
4E3
100
AcDbEntity
  8
0
100
AcDbCircle
 62
7
  6
CONTINUOUS
 10
6.9404779616
 20
4.816769132
 40
0.316599342
100
AcDbArc
 50
261.9020764259
 51
287.1327440737
  0
ARC
  5
4E4
100
AcDbEntity
  8
0
100
AcDbCircle
 62
7
  6
CONTINUOUS
 10
6.935847152
 20
4.8230035859
 40
0.3247145435
100
AcDbArc
 50
334.2913905834
 51
335.1134325725
  0
ARC
  5
4E5
100
AcDbEntity
  8
0
100
AcDbCircle
 62
7
  6
CONTINUOUS
 10
6.9364907612
 20
4.8227074991
 40
0.324006098
100
AcDbArc
 50
335.1130342279
 51
337.684603235
  0
ARC
  5
4E6
100
AcDbEntity
  8
0
100
AcDbCircle
 62
7
  6
CONTINUOUS
 10
6.9375801647
 20
4.8222503191
 40
0.3228246891
100
AcDbArc
 50
337.6862518727
 51
337.9925956835
  0
ARC
  5
4E7
100
AcDbEntity
  8
ALL_ASSEMBLY_MEMBERS
100
AcDbCircle
 62
7
  6
CONTINUOUS
 10
6.9954186551
 20
4.9094643954
 40
0.04
100
AcDbArc
 50
295.0044481461
 51
300.3626295344
  0
ARC
  5
4E8
100
AcDbEntity
  8
ALL_ASSEMBLY_MEMBERS
100
AcDbCircle
 62
7
  6
CONTINUOUS
 10
6.8777127628
 20
4.8764277481
 40
0.02
100
AcDbArc
 50
145.4603963576
 51
174.0047931342
  0
ARC
  5
4E9
100
AcDbEntity
  8
ALL_ASSEMBLY_MEMBERS
100
AcDbCircle
 62
7
  6
CONTINUOUS
 10
6.8777127628
 20
4.8764277481
 40
0.02
100
AcDbArc
 50
90.9754904762
 51
120.1162314906
  0
ARC
  5
4EA
100
AcDbEntity
  8
ALL_ASSEMBLY_MEMBERS
100
AcDbCircle
 62
7
  6
CONTINUOUS
 10
6.9954186551
 20
4.9094643954
 40
0.02
100
AcDbArc
 50
275.7716553414
 51
288.972859795
  0
ARC
  5
4EB
100
AcDbEntity
  8
0
100
AcDbCircle
 62
7
  6
CONTINUOUS
 10
7.4743483873
 20
4.8160891249
 40
0.069
100
AcDbArc
 50
90.0
 51
270.0
  0
ARC
  5
4EC
100
AcDbEntity
  8
0
100
AcDbCircle
 62
7
  6
CONTINUOUS
 10
8.083155679
 20
4.8192084062
 40
1.1598856318
100
AcDbArc
 50
177.8942703704
 51
178.9411171083
  0
ARC
  5
4ED
100
AcDbEntity
  8
0
100
AcDbCircle
 62
7
  6
CONTINUOUS
 10
7.6417086236
 20
4.9341993611
 40
0.0787401575
100
AcDbArc
 50
0.0
 51
90.0
  0
ARC
  5
4EE
100
AcDbEntity
  8
0
100
AcDbCircle
 62
7
  6
CONTINUOUS
 10
7.5728483873
 20
4.8160891249
 40
0.069
100
AcDbArc
 50
270.0
 51
90.0
  0
ARC
  5
4EF
100
AcDbEntity
  8
0
100
AcDbCircle
 62
7
  6
CONTINUOUS
 10
8.1234663309
 20
5.3089562541
 40
1.3067976999
100
AcDbArc
 50
202.8245146187
 51
203.3249727038
  0
ARC
  5
4F0
100
AcDbEntity
  8
0
100
AcDbCircle
 62
7
  6
CONTINUOUS
 10
8.2066421476
 20
6.549348035
 40
5.4974143094
100
AcDbArc
 50
198.761957634
 51
198.8811452519
  0
ARC
  5
4F1
100
AcDbEntity
  8
0
100
AcDbCircle
 62
7
  6
CONTINUOUS
 10
7.4288081337
 20
6.0133009602
 40
1.3141810563
100
AcDbArc
 50
246.6764331465
 51
247.174079531
  0
ARC
  5
4F2
100
AcDbEntity
  8
0
100
AcDbCircle
 62
7
  6
CONTINUOUS
 10
6.9361663979
 20
5.9662008434
 40
1.1598888787
100
AcDbArc
 50
271.0588843569
 51
272.1057281644
  0
ARC
  5
4F3
100
AcDbEntity
  8
0
100
AcDbCircle
 62
7
  6
CONTINUOUS
 10
6.9299280146
 20
5.9662008434
 40
1.1598888787
100
AcDbArc
 50
267.8942718356
 51
268.9411156431
  0
ARC
  5
4F4
100
AcDbEntity
  8
0
100
AcDbCircle
 62
7
  6
CONTINUOUS
 10
5.1997882955
 20
10.026691942
 40
5.4974143113
100
AcDbArc
 50
288.761957634
 51
288.8811452519
  0
ARC
  5
4F5
100
AcDbEntity
  8
0
100
AcDbCircle
 62
7
  6
CONTINUOUS
 10
12.1436500213
 20
6.5493480348
 40
5.4974143091
100
AcDbArc
 50
198.761957634
 51
198.8811452519
  0
ARC
  5
4F6
100
AcDbEntity
  8
0
100
AcDbCircle
 62
7
  6
CONTINUOUS
 10
8.6663061168
 20
10.0266919415
 40
5.4974143107
100
AcDbArc
 50
251.1188547481
 51
251.238042366
  0
SPLINE
  5
4F7
100
AcDbEntity
  8
ALL_ASSEMBLY_MEMBERS
100
AcDbSpline
 62
7
  6
CONTINUOUS
 70
0
 71
3
 72
40
 73
36
 74
0
 42
0.0000001
 43
0.0000001
 44
0.0000000001
 40
0.0
 40
0.0
 40
0.0
 40
0.0
 40
0.0312314816
 40
0.0624985231
 40
0.0937584466
 40
0.1250070481
 40
0.1562549099
 40
0.1875054315
 40
0.2187550545
 40
0.2500037099
 40
0.2812522056
 40
0.3125021196
 40
0.3437525294
 40
0.3750037623
 40
0.406254665
 40
0.4375050105
 40
0.468754417
 40
0.5000028369
 40
0.5312510851
 40
0.5624998629
 40
0.5937492989
 40
0.6249981999
 40
0.6406270843
 40
0.6562557621
 40
0.6875035736
 40
0.718751357
 40
0.7499987013
 40
0.7812470016
 40
0.8124969508
 40
0.8437488589
 40
0.8749981069
 40
0.9062459543
 40
0.9375029743
 40
0.9687691954
 40
1.0
 40
1.0
 40
1.0
 40
1.0
 10
3.1360386907
 20
4.8306060846
 30
0.0
 10
3.1355147739
 20
4.8349036471
 30
0.0
 10
3.1340659665
 20
4.8434600937
 30
0.0
 10
3.1307223581
 20
4.8560379111
 30
0.0
 10
3.1262247527
 20
4.8682546729
 30
0.0
 10
3.1206155091
 20
4.8799993094
 30
0.0
 10
3.1139392005
 20
4.8911705734
 30
0.0
 10
3.1062537122
 20
4.9016732668
 30
0.0
 10
3.0976231144
 20
4.9114145792
 30
0.0
 10
3.0881202907
 20
4.9203066842
 30
0.0
 10
3.0778284598
 20
4.9282725657
 30
0.0
 10
3.0668345741
 20
4.9352380634
 30
0.0
 10
3.0552364736
 20
4.9411440616
 30
0.0
 10
3.0431332854
 20
4.9459309112
 30
0.0
 10
3.0306341242
 20
4.9495605044
 30
0.0
 10
3.0178478762
 20
4.9519915921
 30
0.0
 10
3.0048897683
 20
4.9532072362
 30
0.0
 10
2.9918749581
 20
4.9531882482
 30
0.0
 10
2.9789203974
 20
4.9519381818
 30
0.0
 10
2.9661431486
 20
4.94946116
 30
0.0
 10
2.9536593673
 20
4.9457819662
 30
0.0
 10
2.9435937286
 20
4.9417365888
 30
0.0
 10
2.935803705
 20
4.9379361453
 30
0.0
 10
2.9282038569
 20
4.9337686912
 30
0.0
 10
2.9190917529
 20
4.9278826896
 30
0.0
 10
2.9088865291
 20
4.9198063553
 30
0.0
 10
2.8995026256
 20
4.9107877086
 30
0.0
 10
2.8910297657
 20
4.90090797
 30
0.0
 10
2.8835469084
 20
4.8902577884
 30
0.0
 10
2.877128271
 20
4.8789342082
 30
0.0
 10
2.8718316112
 20
4.8670445633
 30
0.0
 10
2.8677136643
 20
4.8546963114
 30
0.0
 10
2.8648113611
 20
4.8420043034
 30
0.0
 10
2.8631609719
 20
4.8290934095
 30
0.0
 10
2.8629000423
 20
4.8204176275
 30
0.0
 10
2.8629824132
 20
4.8160891249
 30
0.0
  0
SPLINE
  5
4F8
100
AcDbEntity
  8
ALL_ASSEMBLY_MEMBERS
100
AcDbSpline
 62
7
  6
CONTINUOUS
 70
0
 71
3
 72
21
 73
17
 74
0
 42
0.0000001
 43
0.0000001
 44
0.0000000001
 40
0.0
 40
0.0
 40
0.0
 40
0.0
 40
0.0625173606
 40
0.12503459
 40
0.187555421
 40
0.2500775317
 40
0.3126018559
 40
0.3751254792
 40
0.4376487109
 40
0.5001681753
 40
0.5626848967
 40
0.6252028537
 40
0.6877261043
 40
0.7502458468
 40
0.8751278803
 40
1.0
 40
1.0
 40
1.0
 40
1.0
 10
2.8916827519
 20
4.736236471
 30
0.0
 10
2.8944347353
 20
4.7327804592
 30
0.0
 10
2.9002916706
 20
4.7261412
 30
0.0
 10
2.9100339109
 20
4.7171231638
 30
0.0
 10
2.9206403711
 20
4.7091366089
 30
0.0
 10
2.9320008825
 20
4.7022642974
 30
0.0
 10
2.9440019487
 20
4.6965833413
 30
0.0
 10
2.956517992
 20
4.6921502425
 30
0.0
 10
2.9694213146
 20
4.6890196148
 30
0.0
 10
2.9825760375
 20
4.6872199746
 30
0.0
 10
2.9958457948
 20
4.6867795169
 30
0.0
 10
3.0090910302
 20
4.6876994219
 30
0.0
 10
3.0221723347
 20
4.6899798487
 30
0.0
 10
3.0391938658
 20
4.6947888156
 30
0.0
 10
3.0593979831
 20
4.7040654374
 30
0.0
 10
3.0736891246
 20
4.7146710939
 30
0.0
 10
3.0801908863
 20
4.7206371557
 30
0.0
  0
SPLINE
  5
4F9
100
AcDbEntity
  8
ALL_ASSEMBLY_MEMBERS
100
AcDbSpline
 62
7
  6
CONTINUOUS
 70
0
 71
3
 72
20
 73
16
 74
0
 42
0.0000001
 43
0.0000001
 44
0.0000000001
 40
0.0
 40
0.0
 40
0.0
 40
0.0
 40
0.1249424358
 40
0.1874961045
 40
0.2500232404
 40
0.3125366302
 40
0.3750538724
 40
0.4375748637
 40
0.5000937344
 40
0.6250237067
 40
0.7499479506
 40
0.8124517264
 40
0.8749513079
 40
0.9374621636
 40
1.0
 40
1.0
 40
1.0
 40
1.0
 10
3.1044887216
 20
4.7263712758
 30
0.0
 10
3.1086693315
 20
4.732185163
 30
0.0
 10
3.1142846749
 20
4.741413065
 30
0.0
 10
3.1202738962
 20
4.7544419409
 30
0.0
 10
3.1239939622
 20
4.7645422113
 30
0.0
 10
3.1269138605
 20
4.7748989324
 30
0.0
 10
3.1290092631
 20
4.7854533172
 30
0.0
 10
3.1302661562
 20
4.7961409856
 30
0.0
 10
3.1308055389
 20
4.8104701573
 30
0.0
 10
3.1293270677
 20
4.8283948537
 30
0.0
 10
3.1249752704
 20
4.8458473727
 30
0.0
 10
3.1198331325
 20
4.8592312979
 30
0.0
 10
3.1151601088
 20
4.8689236191
 30
0.0
 10
3.1097022846
 20
4.8781975416
 30
0.0
 10
3.1055581239
 20
4.8840571286
 30
0.0
 10
3.1033679121
 20
4.8868943851
 30
0.0
  0
SPLINE
  5
4FA
100
AcDbEntity
  8
ALL_ASSEMBLY_MEMBERS
100
AcDbSpline
 62
7
  6
CONTINUOUS
 70
0
 71
3
 72
40
 73
36
 74
0
 42
0.0000001
 43
0.0000001
 44
0.0000000001
 40
0.0
 40
0.0
 40
0.0
 40
0.0
 40
0.0312314816
 40
0.0624985231
 40
0.0937584466
 40
0.1250070481
 40
0.1562549099
 40
0.1875054315
 40
0.2187550545
 40
0.2500037099
 40
0.2812522056
 40
0.3125021196
 40
0.3437525294
 40
0.3750037623
 40
0.406254665
 40
0.4375050105
 40
0.468754417
 40
0.5000028369
 40
0.5312510851
 40
0.5624998629
 40
0.5937492989
 40
0.6249981999
 40
0.6406270843
 40
0.6562557621
 40
0.6875035736
 40
0.718751357
 40
0.7499987013
 40
0.7812470016
 40
0.8124969508
 40
0.8437488589
 40
0.8749981069
 40
0.9062459543
 40
0.9375029743
 40
0.9687691954
 40
1.0
 40
1.0
 40
1.0
 40
1.0
 10
7.0730465647
 20
4.8306060846
 30
0.0
 10
7.0725226479
 20
4.8349036471
 30
0.0
 10
7.0710738405
 20
4.8434600937
 30
0.0
 10
7.0677302322
 20
4.8560379111
 30
0.0
 10
7.0632326267
 20
4.8682546729
 30
0.0
 10
7.0576233832
 20
4.8799993094
 30
0.0
 10
7.0509470745
 20
4.8911705734
 30
0.0
 10
7.0432615862
 20
4.9016732668
 30
0.0
 10
7.0346309884
 20
4.9114145792
 30
0.0
 10
7.0251281648
 20
4.9203066842
 30
0.0
 10
7.0148363338
 20
4.9282725657
 30
0.0
 10
7.0038424481
 20
4.9352380634
 30
0.0
 10
6.9922443477
 20
4.9411440616
 30
0.0
 10
6.9801411595
 20
4.9459309112
 30
0.0
 10
6.9676419982
 20
4.9495605044
 30
0.0
 10
6.9548557502
 20
4.9519915921
 30
0.0
 10
6.9418976423
 20
4.9532072362
 30
0.0
 10
6.9288828321
 20
4.9531882482
 30
0.0
 10
6.9159282714
 20
4.9519381818
 30
0.0
 10
6.9031510226
 20
4.94946116
 30
0.0
 10
6.8906672413
 20
4.9457819662
 30
0.0
 10
6.8806016026
 20
4.9417365888
 30
0.0
 10
6.872811579
 20
4.9379361453
 30
0.0
 10
6.8652117309
 20
4.9337686912
 30
0.0
 10
6.8560996269
 20
4.9278826896
 30
0.0
 10
6.8458944031
 20
4.9198063553
 30
0.0
 10
6.8365104997
 20
4.9107877086
 30
0.0
 10
6.8280376397
 20
4.90090797
 30
0.0
 10
6.8205547824
 20
4.8902577884
 30
0.0
 10
6.8141361451
 20
4.8789342082
 30
0.0
 10
6.8088394852
 20
4.8670445633
 30
0.0
 10
6.8047215383
 20
4.8546963114
 30
0.0
 10
6.8018192351
 20
4.8420043034
 30
0.0
 10
6.8001688459
 20
4.8290934095
 30
0.0
 10
6.7999079163
 20
4.8204176275
 30
0.0
 10
6.7999902873
 20
4.8160891249
 30
0.0
  0
SPLINE
  5
4FB
100
AcDbEntity
  8
ALL_ASSEMBLY_MEMBERS
100
AcDbSpline
 62
7
  6
CONTINUOUS
 70
0
 71
3
 72
21
 73
17
 74
0
 42
0.0000001
 43
0.0000001
 44
0.0000000001
 40
0.0
 40
0.0
 40
0.0
 40
0.0
 40
0.0625173606
 40
0.12503459
 40
0.187555421
 40
0.2500775317
 40
0.3126018559
 40
0.3751254792
 40
0.4376487109
 40
0.5001681753
 40
0.5626848967
 40
0.6252028537
 40
0.6877261043
 40
0.7502458468
 40
0.8751278803
 40
1.0
 40
1.0
 40
1.0
 40
1.0
 10
6.8286906259
 20
4.736236471
 30
0.0
 10
6.8314426093
 20
4.7327804592
 30
0.0
 10
6.8372995447
 20
4.7261412
 30
0.0
 10
6.8470417849
 20
4.7171231638
 30
0.0
 10
6.8576482451
 20
4.7091366089
 30
0.0
 10
6.8690087565
 20
4.7022642974
 30
0.0
 10
6.8810098227
 20
4.6965833413
 30
0.0
 10
6.893525866
 20
4.6921502425
 30
0.0
 10
6.9064291886
 20
4.6890196148
 30
0.0
 10
6.9195839115
 20
4.6872199746
 30
0.0
 10
6.9328536689
 20
4.6867795169
 30
0.0
 10
6.9460989042
 20
4.6876994219
 30
0.0
 10
6.9591802087
 20
4.6899798487
 30
0.0
 10
6.9762017398
 20
4.6947888156
 30
0.0
 10
6.9964058571
 20
4.7040654374
 30
0.0
 10
7.0106969986
 20
4.7146710939
 30
0.0
 10
7.0171987603
 20
4.7206371557
 30
0.0
  0
SPLINE
  5
4FC
100
AcDbEntity
  8
ALL_ASSEMBLY_MEMBERS
100
AcDbSpline
 62
7
  6
CONTINUOUS
 70
0
 71
3
 72
20
 73
16
 74
0
 42
0.0000001
 43
0.0000001
 44
0.0000000001
 40
0.0
 40
0.0
 40
0.0
 40
0.0
 40
0.1249424358
 40
0.1874961045
 40
0.2500232404
 40
0.3125366302
 40
0.3750538724
 40
0.4375748637
 40
0.5000937344
 40
0.6250237067
 40
0.7499479506
 40
0.8124517264
 40
0.8749513079
 40
0.9374621636
 40
1.0
 40
1.0
 40
1.0
 40
1.0
 10
7.0414965956
 20
4.7263712758
 30
0.0
 10
7.0456772055
 20
4.732185163
 30
0.0
 10
7.0512925489
 20
4.741413065
 30
0.0
 10
7.0572817703
 20
4.7544419409
 30
0.0
 10
7.0610018362
 20
4.7645422113
 30
0.0
 10
7.0639217345
 20
4.7748989324
 30
0.0
 10
7.0660171372
 20
4.7854533172
 30
0.0
 10
7.0672740302
 20
4.7961409856
 30
0.0
 10
7.0678134129
 20
4.8104701573
 30
0.0
 10
7.0663349417
 20
4.8283948537
 30
0.0
 10
7.0619831444
 20
4.8458473727
 30
0.0
 10
7.0568410065
 20
4.8592312979
 30
0.0
 10
7.0521679828
 20
4.8689236191
 30
0.0
 10
7.0467101586
 20
4.8781975416
 30
0.0
 10
7.0425659979
 20
4.8840571286
 30
0.0
 10
7.0403757861
 20
4.8868943851
 30
0.0
  0
SPLINE
  5
4FD
100
AcDbEntity
  8
0
100
AcDbSpline
 62
7
  6
CONTINUOUS
 70
0
 71
3
 72
22
 73
18
 74
0
 42
0.0000001
 43
0.0000001
 44
0.0000000001
 40
0.0
 40
0.0
 40
0.0
 40
0.0
 40
0.1249186542
 40
0.187432526
 40
0.2499338318
 40
0.3124371279
 40
0.3749436051
 40
0.4374493154
 40
0.4999543607
 40
0.5624597053
 40
0.6249659082
 40
0.6874721862
 40
0.7499786343
 40
0.8124843607
 40
0.8749898266
 40
0.9374947568
 40
1.0
 40
1.0
 40
1.0
 40
1.0
 10
5.933112435
 20
5.3686940645
 30
0.0
 10
5.9260299141
 20
5.3606675226
 30
0.0
 10
5.9163052661
 20
5.3477803997
 30
0.0
 10
5.905444022
 20
5.3293050132
 30
0.0
 10
5.89837641
 20
5.3148547915
 30
0.0
 10
5.8924396075
 20
5.2999069572
 30
0.0
 10
5.8876640836
 20
5.2845477466
 30
0.0
 10
5.8840826779
 20
5.268866971
 30
0.0
 10
5.8817144438
 20
5.2529577718
 30
0.0
 10
5.8805764192
 20
5.236913521
 30
0.0
 10
5.8806737222
 20
5.2208291397
 30
0.0
 10
5.8820085287
 20
5.2047998192
 30
0.0
 10
5.8845721419
 20
5.1889206519
 30
0.0
 10
5.8883509824
 20
5.1732861649
 30
0.0
 10
5.8933229167
 20
5.1579890808
 30
0.0
 10
5.8994584853
 20
5.143121527
 30
0.0
 10
5.9043026437
 20
5.1335528569
 30
0.0
 10
5.9069042958
 20
5.1288709332
 30
0.0
  0
SPLINE
  5
4FE
100
AcDbEntity
  8
ALL_ASSEMBLY_MEMBERS
100
AcDbSpline
 62
7
  6
CONTINUOUS
 70
0
 71
3
 72
21
 73
17
 74
0
 42
0.0000001
 43
0.0000001
 44
0.0000000001
 40
0.0
 40
0.0
 40
0.0
 40
0.0
 40
0.1249074912
 40
0.1874414323
 40
0.2499529613
 40
0.3124594037
 40
0.3749735707
 40
0.4374909133
 40
0.5000059575
 40
0.562519051
 40
0.6250306612
 40
0.7499504044
 40
0.8124617784
 40
0.8749736931
 40
0.9374861055
 40
1.0
 40
1.0
 40
1.0
 40
1.0
 10
3.2305802803
 20
4.8160891249
 30
0.0
 10
3.2304731161
 20
4.8287434792
 30
0.0
 10
3.2287637289
 20
4.8477671093
 30
0.0
 10
3.2234514724
 20
4.8725463707
 30
0.0
 10
3.2179667166
 20
4.8907628411
 30
0.0
 10
3.2110238063
 20
4.9084703991
 30
0.0
 10
3.2026625365
 20
4.9255552694
 30
0.0
 10
3.1929440862
 20
4.9419072918
 30
0.0
 10
3.1819250914
 20
4.9574122501
 30
0.0
 10
3.1696805029
 20
4.9719701658
 30
0.0
 10
3.1518431763
 20
4.9899739429
 30
0.0
 10
3.131851032
 20
5.0057350877
 30
0.0
 10
3.1101771886
 20
5.0188707865
 30
0.0
 10
3.0931599953
 20
5.0273724531
 30
0.0
 10
3.0755066149
 20
5.0344520096
 30
0.0
 10
3.0633874817
 20
5.038193879
 30
0.0
 10
3.0572645889
 20
5.0398135643
 30
0.0
  0
SPLINE
  5
4FF
100
AcDbEntity
  8
ALL_ASSEMBLY_MEMBERS
100
AcDbSpline
 62
7
  6
CONTINUOUS
 70
0
 71
3
 72
26
 73
22
 74
0
 42
0.0000001
 43
0.0000001
 44
0.0000000001
 40
0.0
 40
0.0
 40
0.0
 40
0.0
 40
0.062497202
 40
0.0937550928
 40
0.1250129132
 40
0.1875090522
 40
0.2500057963
 40
0.3125024055
 40
0.3749999792
 40
0.4374963893
 40
0.4999924553
 40
0.5624878632
 40
0.624984193
 40
0.6562416258
 40
0.6874989327
 40
0.7187565933
 40
0.7500146943
 40
0.8125136839
 40
0.8750146647
 40
0.9375082086
 40
1.0
 40
1.0
 40
1.0
 40
1.0
 10
3.0564942259
 20
5.040015935
 30
0.0
 10
3.0491901137
 20
5.041921305
 30
0.0
 10
3.038083106
 20
5.0442462313
 30
0.0
 10
3.0231126031
 20
5.0462470752
 30
0.0
 10
3.0080614312
 20
5.0475160911
 30
0.0
 10
2.9891575155
 20
5.0477191125
 30
0.0
 10
2.9665630734
 20
5.0457418302
 30
0.0
 10
2.944268771
 20
5.0415656329
 30
0.0
 10
2.9224916253
 20
5.0352236058
 30
0.0
 10
2.9014398257
 20
5.0267804394
 30
0.0
 10
2.8813190907
 20
5.0163102737
 30
0.0
 10
2.8623227048
 20
5.0039183811
 30
0.0
 10
2.8475820594
 20
4.9920808772
 30
0.0
 10
2.8365335076
 20
4.9817821766
 30
0.0
 10
2.8286365582
 20
4.9736565806
 30
0.0
 10
2.8211499768
 20
4.9651513369
 30
0.0
 10
2.8117396623
 20
4.9533363579
 30
0.0
 10
2.8010866038
 20
4.9377167547
 30
0.0
 10
2.7902184702
 20
4.9178077618
 30
0.0
 10
2.7813640888
 20
4.8969271972
 30
0.0
 10
2.7768662039
 20
4.8824863093
 30
0.0
 10
2.774980294
 20
4.8751778233
 30
0.0
  0
LINE
  5
500
100
AcDbEntity
  8
ALL_ASSEMBLY_MEMBERS
100
AcDbLine
 62
7
  6
CONTINUOUS
 10
2.774980294
 20
4.8751778233
 11
2.7748430345
 21
4.8746432359
  0
SPLINE
  5
501
100
AcDbEntity
  8
ALL_ASSEMBLY_MEMBERS
100
AcDbSpline
 62
7
  6
CONTINUOUS
 70
0
 71
3
 72
21
 73
17
 74
0
 42
0.0000001
 43
0.0000001
 44
0.0000000001
 40
0.0
 40
0.0
 40
0.0
 40
0.0
 40
0.1249028734
 40
0.1874339938
 40
0.2499441106
 40
0.3124503453
 40
0.3749632167
 40
0.4374766232
 40
0.4999860613
 40
0.5624939394
 40
0.6250035027
 40
0.6875144889
 40
0.7500208691
 40
0.8125270974
 40
0.8750502844
 40
1.0
 40
1.0
 40
1.0
 40
1.0
 10
2.767738294
 20
4.8160891249
 30
0.0
 10
2.7678474632
 20
4.8035409744
 30
0.0
 10
2.7695754786
 20
4.7846758241
 30
0.0
 10
2.7749433154
 20
4.7601253992
 30
0.0
 10
2.7804825443
 20
4.7420911837
 30
0.0
 10
2.7874926176
 20
4.7245806288
 30
0.0
 10
2.7959298383
 20
4.7077103398
 30
0.0
 10
2.8057313094
 20
4.6915940638
 30
0.0
 10
2.8168380527
 20
4.6763484558
 30
0.0
 10
2.8291684241
 20
4.6620749091
 30
0.0
 10
2.8426428659
 20
4.6488756345
 30
0.0
 10
2.8571663459
 20
4.6368404429
 30
0.0
 10
2.8726378786
 20
4.6260525559
 30
0.0
 10
2.888957828
 20
4.6165898723
 30
0.0
 10
2.9116734021
 20
4.6058319484
 30
0.0
 10
2.9296800723
 20
4.5999261485
 30
0.0
 10
2.9418923458
 20
4.5970198612
 30
0.0
  0
LINE
  5
502
100
AcDbEntity
  8
ALL_ASSEMBLY_MEMBERS
100
AcDbLine
 62
7
  6
CONTINUOUS
 10
3.1500966724
 20
4.6369791072
 11
3.1505423884
 21
4.6373700397
  0
SPLINE
  5
503
100
AcDbEntity
  8
ALL_ASSEMBLY_MEMBERS
100
AcDbSpline
 62
7
  6
CONTINUOUS
 70
0
 71
3
 72
15
 73
11
 74
0
 42
0.0000001
 43
0.0000001
 44
0.0000000001
 40
0.0
 40
0.0
 40
0.0
 40
0.0
 40
0.1249709519
 40
0.2500054918
 40
0.3749966191
 40
0.4999972641
 40
0.6249989086
 40
0.749995096
 40
0.8750336095
 40
1.0
 40
1.0
 40
1.0
 40
1.0
 10
3.1505423884
 20
4.6373700397
 30
0.0
 10
3.1568572926
 20
4.642922871
 30
0.0
 10
3.1689052428
 20
4.6547175111
 30
0.0
 10
3.1849812573
 20
4.6742256659
 30
0.0
 10
3.198881508
 20
4.6953456571
 30
0.0
 10
3.2104398717
 20
4.7178294004
 30
0.0
 10
3.2195295896
 20
4.7414199284
 30
0.0
 10
3.2260381516
 20
4.7658526537
 30
0.0
 10
3.2298855643
 20
4.7908374309
 30
0.0
 10
3.2306514876
 20
4.8076806935
 30
0.0
 10
3.2305802803
 20
4.8160891249
 30
0.0
  0
SPLINE
  5
504
100
AcDbEntity
  8
ALL_ASSEMBLY_MEMBERS
100
AcDbSpline
 62
7
  6
CONTINUOUS
 70
0
 71
3
 72
15
 73
11
 74
0
 42
0.0000001
 43
0.0000001
 44
0.0000000001
 40
0.0
 40
0.0
 40
0.0
 40
0.0
 40
0.1250519163
 40
0.2500715525
 40
0.3750559176
 40
0.5000329618
 40
0.6250201973
 40
0.7500141729
 40
0.8750070073
 40
1.0
 40
1.0
 40
1.0
 40
1.0
 10
3.2116103824
 20
4.7470984341
 30
0.0
 10
3.2101725139
 20
4.7420407696
 30
0.0
 10
3.206944679
 20
4.7320230898
 30
0.0
 10
3.2010694493
 20
4.7173752621
 30
0.0
 10
3.1941937326
 20
4.7031723575
 30
0.0
 10
3.1863529278
 20
4.6894803682
 30
0.0
 10
3.1775844459
 20
4.6763627557
 30
0.0
 10
3.16793505
 20
4.6638778676
 30
0.0
 10
3.1574495754
 20
4.6520870931
 30
0.0
 10
3.1499353037
 20
4.6447233014
 30
0.0
 10
3.1460581571
 20
4.6411751861
 30
0.0
  0
SPLINE
  5
505
100
AcDbEntity
  8
ALL_ASSEMBLY_MEMBERS
100
AcDbSpline
 62
7
  6
CONTINUOUS
 70
0
 71
3
 72
18
 73
14
 74
0
 42
0.0000001
 43
0.0000001
 44
0.0000000001
 40
0.0
 40
0.0
 40
0.0
 40
0.0
 40
0.1249825325
 40
0.1874946617
 40
0.2500083736
 40
0.3125230555
 40
0.3750383815
 40
0.4375536595
 40
0.500066622
 40
0.6250407722
 40
0.750028332
 40
0.875060684
 40
1.0
 40
1.0
 40
1.0
 40
1.0
 10
3.1460581571
 20
4.6411751861
 30
0.0
 10
3.140432089
 20
4.6360265704
 30
0.0
 10
3.1315996874
 20
4.6287156647
 30
0.0
 10
3.119154068
 20
4.6198863391
 30
0.0
 10
3.1095012241
 20
4.6137305776
 30
0.0
 10
3.0995566386
 20
4.6080587735
 30
0.0
 10
3.0893438095
 20
4.6028852222
 30
0.0
 10
3.0788888684
 20
4.5982200873
 30
0.0
 10
3.0646653539
 20
4.5926921067
 30
0.0
 10
3.0464015605
 20
4.5871020151
 30
0.0
 10
3.0239369446
 20
4.5825664185
 30
0.0
 10
3.0011405353
 20
4.5802445962
 30
0.0
 10
2.9858594337
 20
4.5801747669
 30
0.0
 10
2.978243132
 20
4.580510353
 30
0.0
  0
SPLINE
  5
506
100
AcDbEntity
  8
ALL_ASSEMBLY_MEMBERS
100
AcDbSpline
 62
7
  6
CONTINUOUS
 70
0
 71
3
 72
21
 73
17
 74
0
 42
0.0000001
 43
0.0000001
 44
0.0000000001
 40
0.0
 40
0.0
 40
0.0
 40
0.0
 40
0.1249074912
 40
0.1874414323
 40
0.2499529613
 40
0.3124594037
 40
0.3749735707
 40
0.4374909133
 40
0.5000059575
 40
0.562519051
 40
0.6250306612
 40
0.7499504044
 40
0.8124617784
 40
0.8749736931
 40
0.9374861055
 40
1.0
 40
1.0
 40
1.0
 40
1.0
 10
6.9330472062
 20
5.0506300729
 30
0.0
 10
6.9203928519
 20
5.0505229087
 30
0.0
 10
6.9013692218
 20
5.0488135216
 30
0.0
 10
6.8765899604
 20
5.0435012651
 30
0.0
 10
6.85837349
 20
5.0380165093
 30
0.0
 10
6.840665932
 20
5.031073599
 30
0.0
 10
6.8235810617
 20
5.0227123292
 30
0.0
 10
6.8072290393
 20
5.0129938789
 30
0.0
 10
6.791724081
 20
5.0019748841
 30
0.0
 10
6.7771661653
 20
4.9897302955
 30
0.0
 10
6.7591623882
 20
4.9718929689
 30
0.0
 10
6.7434012434
 20
4.9519008247
 30
0.0
 10
6.7302655446
 20
4.9302269813
 30
0.0
 10
6.721763878
 20
4.913209788
 30
0.0
 10
6.7146843215
 20
4.8955564075
 30
0.0
 10
6.7109424521
 20
4.8834372743
 30
0.0
 10
6.7093227668
 20
4.8773143816
 30
0.0
  0
SPLINE
  5
507
100
AcDbEntity
  8
ALL_ASSEMBLY_MEMBERS
100
AcDbSpline
 62
7
  6
CONTINUOUS
 70
0
 71
3
 72
26
 73
22
 74
0
 42
0.0000001
 43
0.0000001
 44
0.0000000001
 40
0.0
 40
0.0
 40
0.0
 40
0.0
 40
0.062497202
 40
0.0937550928
 40
0.1250129132
 40
0.1875090522
 40
0.2500057963
 40
0.3125024055
 40
0.3749999792
 40
0.4374963893
 40
0.4999924553
 40
0.5624878632
 40
0.624984193
 40
0.6562416258
 40
0.6874989327
 40
0.7187565933
 40
0.7500146943
 40
0.8125136839
 40
0.8750146647
 40
0.9375082086
 40
1.0
 40
1.0
 40
1.0
 40
1.0
 10
6.7091203961
 20
4.8765440186
 30
0.0
 10
6.7072150262
 20
4.8692399064
 30
0.0
 10
6.7048900998
 20
4.8581328986
 30
0.0
 10
6.7028892559
 20
4.8431623958
 30
0.0
 10
6.70162024
 20
4.8281112238
 30
0.0
 10
6.7014172186
 20
4.8092073081
 30
0.0
 10
6.7033945009
 20
4.786612866
 30
0.0
 10
6.7075706982
 20
4.7643185636
 30
0.0
 10
6.7139127253
 20
4.7425414179
 30
0.0
 10
6.7223558917
 20
4.7214896183
 30
0.0
 10
6.7328260574
 20
4.7013688833
 30
0.0
 10
6.74521795
 20
4.6823724975
 30
0.0
 10
6.7570554539
 20
4.667631852
 30
0.0
 10
6.7673541545
 20
4.6565833002
 30
0.0
 10
6.7754797505
 20
4.6486863508
 30
0.0
 10
6.7839849942
 20
4.6411997695
 30
0.0
 10
6.7957999732
 20
4.6317894549
 30
0.0
 10
6.8114195764
 20
4.6211363965
 30
0.0
 10
6.8313285693
 20
4.6102682628
 30
0.0
 10
6.8522091339
 20
4.6014138814
 30
0.0
 10
6.8666500218
 20
4.5969159965
 30
0.0
 10
6.8739585078
 20
4.5950300866
 30
0.0
  0
LINE
  5
508
100
AcDbEntity
  8
ALL_ASSEMBLY_MEMBERS
100
AcDbLine
 62
7
  6
CONTINUOUS
 10
6.8739585078
 20
4.5950300866
 11
6.8744930952
 21
4.5948928271
  0
SPLINE
  5
509
100
AcDbEntity
  8
ALL_ASSEMBLY_MEMBERS
100
AcDbSpline
 62
7
  6
CONTINUOUS
 70
0
 71
3
 72
21
 73
17
 74
0
 42
0.0000001
 43
0.0000001
 44
0.0000000001
 40
0.0
 40
0.0
 40
0.0
 40
0.0
 40
0.1249028734
 40
0.1874339938
 40
0.2499441106
 40
0.3124503453
 40
0.3749632167
 40
0.4374766232
 40
0.4999860613
 40
0.5624939394
 40
0.6250035027
 40
0.6875144889
 40
0.7500208691
 40
0.8125270974
 40
0.8750502844
 40
1.0
 40
1.0
 40
1.0
 40
1.0
 10
6.9330472062
 20
4.5877880867
 30
0.0
 10
6.9455953567
 20
4.5878972559
 30
0.0
 10
6.964460507
 20
4.5896252712
 30
0.0
 10
6.9890109319
 20
4.594993108
 30
0.0
 10
7.0070451474
 20
4.6005323369
 30
0.0
 10
7.0245557023
 20
4.6075424103
 30
0.0
 10
7.0414259913
 20
4.615979631
 30
0.0
 10
7.0575422673
 20
4.625781102
 30
0.0
 10
7.0727878753
 20
4.6368878454
 30
0.0
 10
7.087061422
 20
4.6492182168
 30
0.0
 10
7.1002606967
 20
4.6626926585
 30
0.0
 10
7.1122958882
 20
4.6772161386
 30
0.0
 10
7.1230837752
 20
4.6926876712
 30
0.0
 10
7.1325464588
 20
4.7090076207
 30
0.0
 10
7.1433043827
 20
4.7317231947
 30
0.0
 10
7.1492101826
 20
4.749729865
 30
0.0
 10
7.1521164699
 20
4.7619421384
 30
0.0
  0
LINE
  5
50A
100
AcDbEntity
  8
ALL_ASSEMBLY_MEMBERS
100
AcDbLine
 62
7
  6
CONTINUOUS
 10
7.1121572239
 20
4.9701464651
 11
7.1117662914
 21
4.9705921811
  0
SPLINE
  5
50B
100
AcDbEntity
  8
ALL_ASSEMBLY_MEMBERS
100
AcDbSpline
 62
7
  6
CONTINUOUS
 70
0
 71
3
 72
15
 73
11
 74
0
 42
0.0000001
 43
0.0000001
 44
0.0000000001
 40
0.0
 40
0.0
 40
0.0
 40
0.0
 40
0.1249709519
 40
0.2500054918
 40
0.3749966191
 40
0.4999972641
 40
0.6249989086
 40
0.749995096
 40
0.8750336095
 40
1.0
 40
1.0
 40
1.0
 40
1.0
 10
7.1117662914
 20
4.9705921811
 30
0.0
 10
7.1062134601
 20
4.9769070852
 30
0.0
 10
7.09441882
 20
4.9889550354
 30
0.0
 10
7.0749106652
 20
5.00503105
 30
0.0
 10
7.053790674
 20
5.0189313006
 30
0.0
 10
7.0313069307
 20
5.0304896644
 30
0.0
 10
7.0077164028
 20
5.0395793822
 30
0.0
 10
6.9832836774
 20
5.0460879443
 30
0.0
 10
6.9582989002
 20
5.049935357
 30
0.0
 10
6.9414556376
 20
5.0507012803
 30
0.0
 10
6.9330472062
 20
5.0506300729
 30
0.0
  0
SPLINE
  5
50C
100
AcDbEntity
  8
ALL_ASSEMBLY_MEMBERS
100
AcDbSpline
 62
7
  6
CONTINUOUS
 70
0
 71
3
 72
15
 73
11
 74
0
 42
0.0000001
 43
0.0000001
 44
0.0000000001
 40
0.0
 40
0.0
 40
0.0
 40
0.0
 40
0.1250519163
 40
0.2500715525
 40
0.3750559176
 40
0.5000329618
 40
0.6250201973
 40
0.7500141729
 40
0.8750070073
 40
1.0
 40
1.0
 40
1.0
 40
1.0
 10
7.002037897
 20
5.0316601751
 30
0.0
 10
7.0070955615
 20
5.0302223066
 30
0.0
 10
7.0171132413
 20
5.0269944716
 30
0.0
 10
7.031761069
 20
5.021119242
 30
0.0
 10
7.0459639736
 20
5.0142435253
 30
0.0
 10
7.0596559629
 20
5.0064027205
 30
0.0
 10
7.0727735754
 20
4.9976342385
 30
0.0
 10
7.0852584635
 20
4.9879848426
 30
0.0
 10
7.097049238
 20
4.9774993681
 30
0.0
 10
7.1044130297
 20
4.9699850963
 30
0.0
 10
7.107961145
 20
4.9661079497
 30
0.0
  0
SPLINE
  5
50D
100
AcDbEntity
  8
ALL_ASSEMBLY_MEMBERS
100
AcDbSpline
 62
7
  6
CONTINUOUS
 70
0
 71
3
 72
18
 73
14
 74
0
 42
0.0000001
 43
0.0000001
 44
0.0000000001
 40
0.0
 40
0.0
 40
0.0
 40
0.0
 40
0.1249825325
 40
0.1874946617
 40
0.2500083736
 40
0.3125230555
 40
0.3750383815
 40
0.4375536595
 40
0.500066622
 40
0.6250407722
 40
0.750028332
 40
0.875060684
 40
1.0
 40
1.0
 40
1.0
 40
1.0
 10
7.107961145
 20
4.9661079497
 30
0.0
 10
7.1131097607
 20
4.9604818817
 30
0.0
 10
7.1204206664
 20
4.9516494801
 30
0.0
 10
7.129249992
 20
4.9392038606
 30
0.0
 10
7.1354057535
 20
4.9295510167
 30
0.0
 10
7.1410775576
 20
4.9196064312
 30
0.0
 10
7.1462511089
 20
4.9093936021
 30
0.0
 10
7.1509162438
 20
4.898938661
 30
0.0
 10
7.1564442244
 20
4.8847151466
 30
0.0
 10
7.162034316
 20
4.8664513532
 30
0.0
 10
7.1665699127
 20
4.8439867373
 30
0.0
 10
7.1688917349
 20
4.821190328
 30
0.0
 10
7.1689615642
 20
4.8059092264
 30
0.0
 10
7.1686259781
 20
4.7982929246
 30
0.0
  0
SPLINE
  5
50E
100
AcDbEntity
  8
0
100
AcDbSpline
 62
7
  6
CONTINUOUS
 70
0
 71
3
 72
23
 73
19
 74
0
 42
0.0000001
 43
0.0000001
 44
0.0000000001
 40
0.0
 40
0.0
 40
0.0
 40
0.0
 40
0.0625060113
 40
0.125008955
 40
0.1875088967
 40
0.2500044026
 40
0.3125000346
 40
0.3749968215
 40
0.4374989129
 40
0.5000048888
 40
0.5625116986
 40
0.6250197686
 40
0.6875228416
 40
0.7500230807
 40
0.8125206959
 40
0.8750189564
 40
0.9375135355
 40
1.0
 40
1.0
 40
1.0
 40
1.0
 10
5.0708870888
 20
4.6412911557
 30
0.0
 10
5.0646957564
 20
4.6376402501
 30
0.0
 10
5.0519199085
 20
4.6309828546
 30
0.0
 10
5.0318167869
 20
4.6230813079
 30
0.0
 10
5.0109910455
 20
4.6173455426
 30
0.0
 10
4.9896773329
 20
4.613839699
 30
0.0
 10
4.9681122386
 20
4.6126159244
 30
0.0
 10
4.9465374877
 20
4.6136762902
 30
0.0
 10
4.9251975091
 20
4.6170312922
 30
0.0
 10
4.9043316525
 20
4.6226272257
 30
0.0
 10
4.8841816669
 20
4.6304199817
 30
0.0
 10
4.8649772687
 20
4.6403149724
 30
0.0
 10
4.8469377521
 20
4.6522013458
 30
0.0
 10
4.8302783783
 20
4.6659533668
 30
0.0
 10
4.8151819421
 20
4.6814043154
 30
0.0
 10
4.8018383179
 20
4.6983921643
 30
0.0
 10
4.7903898422
 20
4.7167060763
 30
0.0
 10
4.7841156785
 20
4.7296726962
 30
0.0
 10
4.7813394387
 20
4.7363000557
 30
0.0
  0
SPLINE
  5
50F
100
AcDbEntity
  8
0
100
AcDbSpline
 62
7
  6
CONTINUOUS
 70
0
 71
3
 72
15
 73
11
 74
0
 42
0.0000001
 43
0.0000001
 44
0.0000000001
 40
0.0
 40
0.0
 40
0.0
 40
0.0
 40
0.1250045233
 40
0.2500075577
 40
0.3750072106
 40
0.5000061991
 40
0.6250025919
 40
0.7500027068
 40
0.8750023221
 40
1.0
 40
1.0
 40
1.0
 40
1.0
 10
5.135191101
 20
4.735705777
 30
0.0
 10
5.1377316909
 20
4.7408989849
 30
0.0
 10
5.1423396191
 20
4.7515246412
 30
0.0
 10
5.1477593561
 20
4.7680244337
 30
0.0
 10
5.1516391119
 20
4.7849536465
 30
0.0
 10
5.153960005
 20
4.8021651473
 30
0.0
 10
5.1546950421
 20
4.8195170903
 30
0.0
 10
5.1538428297
 20
4.8368636645
 30
0.0
 10
5.1514198829
 20
4.8540600181
 30
0.0
 10
5.1487626743
 20
4.8653322228
 30
0.0
 10
5.1471822073
 20
4.8708930203
 30
0.0
  0
SPLINE
  5
510
100
AcDbEntity
  8
0
100
AcDbSpline
 62
7
  6
CONTINUOUS
 70
0
 71
3
 72
19
 73
15
 74
0
 42
0.0000001
 43
0.0000001
 44
0.0000000001
 40
0.0
 40
0.0
 40
0.0
 40
0.0
 40
0.0625242662
 40
0.1250471667
 40
0.1875713194
 40
0.2500956506
 40
0.3750466824
 40
0.4999987818
 40
0.5625222592
 40
0.6250465848
 40
0.6875695058
 40
0.7500925962
 40
0.8750462931
 40
1.0
 40
1.0
 40
1.0
 40
1.0
 10
5.1438641592
 20
4.8814047641
 30
0.0
 10
5.1422233323
 20
4.8861245631
 30
0.0
 10
5.1385704605
 20
4.8954397928
 30
0.0
 10
5.1320105686
 20
4.9089350084
 30
0.0
 10
5.1244121881
 20
4.9218757689
 30
0.0
 10
5.1129750869
 20
4.9382789258
 30
0.0
 10
5.0963170079
 20
4.9570242362
 30
0.0
 10
5.0769513617
 20
4.972955707
 30
0.0
 10
5.0601301114
 20
4.9837683762
 30
0.0
 10
5.0469171814
 20
4.9908815361
 30
0.0
 10
5.0331919175
 20
4.9969477613
 30
0.0
 10
5.0143284996
 20
5.0035842114
 30
0.0
 10
4.9898735451
 20
5.0091178982
 30
0.0
 10
4.9698545362
 20
5.0104652737
 30
0.0
 10
4.9598688086
 20
5.0103699176
 30
0.0
  0
SPLINE
  5
511
100
AcDbEntity
  8
DTM-AXIS
100
AcDbSpline
 62
7
  6
CONTINUOUS
 70
0
 71
3
 72
9
 73
5
 74
0
 42
0.0000001
 43
0.0000001
 44
0.0000000001
 40
0.0
 40
0.0
 40
0.0
 40
0.0
 40
0.5040011535
 40
1.0
 40
1.0
 40
1.0
 40
1.0
 10
3.3393853123
 20
5.1183833709
 30
0.0
 10
3.3414574983
 20
5.1190507039
 30
0.0
 10
3.3457349902
 20
5.1199236635
 30
0.0
 10
3.3500996963
 20
5.1197098023
 30
0.0
 10
3.3522113273
 20
5.1193478618
 30
0.0
  0
SPLINE
  5
512
100
AcDbEntity
  8
DTM-AXIS
100
AcDbSpline
 62
7
  6
CONTINUOUS
 70
0
 71
3
 72
9
 73
5
 74
0
 42
0.0000001
 43
0.0000001
 44
0.0000000001
 40
0.0
 40
0.0
 40
0.0
 40
0.0
 40
0.5040011535
 40
1.0
 40
1.0
 40
1.0
 40
1.0
 10
6.5897012262
 20
5.1183833709
 30
0.0
 10
6.5876290402
 20
5.1190507039
 30
0.0
 10
6.5833515483
 20
5.1199236635
 30
0.0
 10
6.5789868422
 20
5.1197098023
 30
0.0
 10
6.5768752112
 20
5.1193478618
 30
0.0
  0
SPLINE
  5
513
100
AcDbEntity
  8
0
100
AcDbSpline
 62
7
  6
CONTINUOUS
 70
0
 71
3
 72
24
 73
20
 74
0
 42
0.0000001
 43
0.0000001
 44
0.0000000001
 40
0.0
 40
0.0
 40
0.0
 40
0.0
 40
0.0624984354
 40
0.1249961814
 40
0.1874946238
 40
0.2499923315
 40
0.2812517465
 40
0.3125110799
 40
0.3750087554
 40
0.437507225
 40
0.5000049757
 40
0.5625035229
 40
0.62500088
 40
0.6874990471
 40
0.7499981373
 40
0.8124981745
 40
0.8749904998
 40
0.9374821074
 40
1.0
 40
1.0
 40
1.0
 40
1.0
 10
6.8555314218
 20
5.1247116262
 30
0.0
 10
6.8660107768
 20
5.1272736291
 30
0.0
 10
6.8872453211
 20
5.1313371813
 30
0.0
 10
6.9195401126
 20
5.1341559882
 30
0.0
 10
6.9519557411
 20
5.1336798426
 30
0.0
 10
6.9787943267
 20
5.1305332672
 30
0.0
 10
6.9999797985
 20
5.1263868305
 30
0.0
 10
7.0209271909
 20
5.1211692112
 30
0.0
 10
7.0465712567
 20
5.1126483358
 30
0.0
 10
7.0761337261
 20
5.0993429106
 30
0.0
 10
7.1041862909
 20
5.0830900442
 30
0.0
 10
7.1304316655
 20
5.0640574269
 30
0.0
 10
7.1545970678
 20
5.0424445929
 30
0.0
 10
7.1764247256
 20
5.0184729398
 30
0.0
 10
7.1956879244
 20
4.9923949599
 30
0.0
 10
7.2121765432
 20
4.9644813257
 30
0.0
 10
7.2257256285
 20
4.9350288192
 30
0.0
 10
7.2361805122
 20
4.904341554
 30
0.0
 10
7.2410184495
 20
4.8832664844
 30
0.0
 10
7.242887206
 20
4.8726381749
 30
0.0
  0
SPLINE
  5
514
100
AcDbEntity
  8
0
100
AcDbSpline
 62
7
  6
CONTINUOUS
 70
0
 71
3
 72
22
 73
18
 74
0
 42
0.0000001
 43
0.0000001
 44
0.0000000001
 40
0.0
 40
0.0
 40
0.0
 40
0.0
 40
0.1248779649
 40
0.187401541
 40
0.2499039422
 40
0.3124052985
 40
0.3749122149
 40
0.4374178761
 40
0.4999219735
 40
0.5624265381
 40
0.6249342591
 40
0.6874440014
 40
0.7499553413
 40
0.812467519
 40
0.8749787296
 40
0.9374899307
 40
1.0
 40
1.0
 40
1.0
 40
1.0
 10
3.3168801406
 20
4.8160891249
 30
0.0
 10
3.317000663
 20
4.7966207726
 30
0.0
 10
3.31450147
 20
4.7672971633
 30
0.0
 10
3.305929897
 20
4.7292542418
 30
0.0
 10
3.2969282837
 20
4.7013924895
 30
0.0
 10
3.2854324623
 20
4.674471556
 30
0.0
 10
3.2715428012
 20
4.6487022911
 30
0.0
 10
3.2553731545
 20
4.6242986631
 30
0.0
 10
3.2370554202
 20
4.6014638788
 30
0.0
 10
3.2167461295
 20
4.5803802133
 30
0.0
 10
3.1946069915
 20
4.561225871
 30
0.0
 10
3.170828004
 20
4.5441479592
 30
0.0
 10
3.1455968059
 20
4.5292980119
 30
0.0
 10
3.1191295834
 20
4.5167833154
 30
0.0
 10
3.0916367325
 20
4.5067176799
 30
0.0
 10
3.0633512218
 20
4.4991727092
 30
0.0
 10
3.0441107381
 20
4.4958659976
 30
0.0
 10
3.0344412813
 20
4.494651375
 30
0.0
  0
SPLINE
  5
515
100
AcDbEntity
  8
0
100
AcDbSpline
 62
7
  6
CONTINUOUS
 70
0
 71
3
 72
24
 73
20
 74
0
 42
0.0000001
 43
0.0000001
 44
0.0000000001
 40
0.0
 40
0.0
 40
0.0
 40
0.0
 40
0.0624984331
 40
0.1249961767
 40
0.1874946165
 40
0.2499923215
 40
0.2812517366
 40
0.3125110698
 40
0.3750087427
 40
0.4375072097
 40
0.500004958
 40
0.5625035025
 40
0.6250008566
 40
0.6874990215
 40
0.7499981102
 40
0.8124981423
 40
0.8749904563
 40
0.9374820729
 40
1.0
 40
1.0
 40
1.0
 40
1.0
 10
3.073555284
 20
5.1247115853
 30
0.0
 10
3.0630752523
 20
5.1272737596
 30
0.0
 10
3.0418393173
 20
5.1313375178
 30
0.0
 10
3.0095424029
 20
5.1341562044
 30
0.0
 10
2.9771246774
 20
5.1336795127
 30
0.0
 10
2.95028442
 20
5.1305321248
 30
0.0
 10
2.92909769
 20
5.1263848372
 30
0.0
 10
2.9081491015
 20
5.1211662351
 30
0.0
 10
2.8825036768
 20
5.1126438837
 30
0.0
 10
2.8529398506
 20
5.0993363446
 30
0.0
 10
2.8248862663
 20
5.0830810393
 30
0.0
 10
2.7986402446
 20
5.0640457287
 30
0.0
 10
2.7744746283
 20
5.0424299767
 30
0.0
 10
2.7526472033
 20
5.0184552645
 30
0.0
 10
2.7333847392
 20
4.9923741252
 30
0.0
 10
2.7168973435
 20
4.9644573261
 30
0.0
 10
2.7033500122
 20
4.9350016954
 30
0.0
 10
2.692897383
 20
4.9043114316
 30
0.0
 10
2.6880613023
 20
4.8832344856
 30
0.0
 10
2.6861935511
 20
4.8726052839
 30
0.0
  0
SPLINE
  5
516
100
AcDbEntity
  8
0
100
AcDbSpline
 62
7
  6
CONTINUOUS
 70
0
 71
3
 72
22
 73
18
 74
0
 42
0.0000001
 43
0.0000001
 44
0.0000000001
 40
0.0
 40
0.0
 40
0.0
 40
0.0
 40
0.0625101481
 40
0.1250214023
 40
0.1875326402
 40
0.250044818
 40
0.3125561371
 40
0.375065837
 40
0.4375735241
 40
0.5000780902
 40
0.5625822104
 40
0.6250878798
 40
0.6875947886
 40
0.7500961368
 40
0.8125985226
 40
0.8751220679
 40
1.0
 40
1.0
 40
1.0
 40
1.0
 10
6.8946446977
 20
4.4946514494
 30
0.0
 10
6.8849752423
 20
4.4958660878
 30
0.0
 10
6.8657347654
 20
4.4991728237
 30
0.0
 10
6.8374492809
 20
4.5067178521
 30
0.0
 10
6.809956465
 20
4.5167835163
 30
0.0
 10
6.7834892957
 20
4.5292982462
 30
0.0
 10
6.7582581593
 20
4.544148208
 30
0.0
 10
6.73447923
 20
4.5612261147
 30
0.0
 10
6.712340155
 20
4.580380458
 30
0.0
 10
6.6920309108
 20
4.601464117
 30
0.0
 10
6.67371322
 20
4.6242988971
 30
0.0
 10
6.6575436024
 20
4.6487025066
 30
0.0
 10
6.6436539843
 20
4.6744717533
 30
0.0
 10
6.6321581931
 20
4.7013926558
 30
0.0
 10
6.6231566097
 20
4.7292543717
 30
0.0
 10
6.6145850567
 20
4.7672972367
 30
0.0
 10
6.6120858756
 20
4.7966208011
 30
0.0
 10
6.6122063979
 20
4.8160891249
 30
0.0
  0
SPLINE
  5
517
100
AcDbEntity
  8
DTM-AXIS
100
AcDbSpline
 62
7
  6
CONTINUOUS
 70
0
 71
3
 72
9
 73
5
 74
0
 42
0.0000001
 43
0.0000001
 44
0.0000000001
 40
0.0
 40
0.0
 40
0.0
 40
0.0
 40
0.2422244092
 40
1.0
 40
1.0
 40
1.0
 40
1.0
 10
6.3912570039
 20
5.0773580145
 30
0.0
 10
6.3906874461
 20
5.0771899943
 30
0.0
 10
6.3883589207
 20
5.0764195469
 30
0.0
 10
6.386132663
 20
5.0753525726
 30
0.0
 10
6.3845243239
 20
5.0744228567
 30
0.0
  0
LINE
  5
518
100
AcDbEntity
  8
DTM-AXIS
100
AcDbLine
 62
7
  6
CONTINUOUS
 10
6.5762358662
 20
5.1092376126
 11
6.3912570039
 21
5.0773580145
  0
SPLINE
  5
519
100
AcDbEntity
  8
0
100
AcDbSpline
 62
9
  6
CONTINUOUS
 70
0
 71
3
 72
12
 73
8
 74
0
 42
0.0000001
 43
0.0000001
 44
0.0000000001
 40
0.0
 40
0.0
 40
0.0
 40
0.0
 40
0.2522489779
 40
0.3779445721
 40
0.5032467143
 40
0.7524899618
 40
1.0
 40
1.0
 40
1.0
 40
1.0
 10
6.5211852338
 20
4.7373587741
 30
0.0
 10
6.5250337191
 20
4.7250933445
 30
0.0
 10
6.5320048769
 20
4.7070666753
 30
0.0
 10
6.5434007114
 20
4.684080541
 30
0.0
 10
6.556043835
 20
4.6619277275
 30
0.0
 10
6.5740637546
 20
4.6357661466
 30
0.0
 10
6.5905618754
 20
4.6165007855
 30
0.0
 10
6.5992232477
 20
4.6073311903
 30
0.0
  0
SPLINE
  5
51A
100
AcDbEntity
  8
0
100
AcDbSpline
 62
9
  6
CONTINUOUS
 70
0
 71
3
 72
16
 73
12
 74
0
 42
0.0000001
 43
0.0000001
 44
0.0000000001
 40
0.0
 40
0.0
 40
0.0
 40
0.0
 40
0.1487433382
 40
0.2919765035
 40
0.4291226825
 40
0.5596062214
 40
0.6828030031
 40
0.7978755577
 40
0.9038618615
 40
0.9532003943
 40
1.0
 40
1.0
 40
1.0
 40
1.0
 10
6.6683406513
 20
4.5246689866
 30
0.0
 10
6.6614687642
 20
4.5250827004
 30
0.0
 10
6.6479713703
 20
4.5257633539
 30
0.0
 10
6.6281209025
 20
4.5264351359
 30
0.0
 10
6.609109082
 20
4.5268500045
 30
0.0
 10
6.5910228922
 20
4.5271482054
 30
0.0
 10
6.573958947
 20
4.5274919682
 30
0.0
 10
6.5580349054
 20
4.5280536806
 30
0.0
 10
6.5455425278
 20
4.5288783342
 30
0.0
 10
6.5362412536
 20
4.5298925271
 30
0.0
 10
6.5318370568
 20
4.5305375814
 30
0.0
 10
6.5297021162
 20
4.5309033058
 30
0.0
  0
SPLINE
  5
51B
100
AcDbEntity
  8
0
100
AcDbSpline
 62
9
  6
CONTINUOUS
 70
0
 71
3
 72
15
 73
11
 74
0
 42
0.0000001
 43
0.0000001
 44
0.0000000001
 40
0.0
 40
0.0
 40
0.0
 40
0.0
 40
0.1248800852
 40
0.249877947
 40
0.3749042727
 40
0.5000010413
 40
0.6250992821
 40
0.7501265397
 40
0.8751217514
 40
1.0
 40
1.0
 40
1.0
 40
1.0
 10
6.5211849749
 20
4.894809152
 30
0.0
 10
6.5194145749
 20
4.8884072572
 30
0.0
 10
6.5162021005
 20
4.8755025454
 30
0.0
 10
6.5125503521
 20
4.8558856523
 30
0.0
 10
6.5102647466
 20
4.8360462019
 30
0.0
 10
6.5095119322
 20
4.8160834248
 30
0.0
 10
6.5102662841
 20
4.7961207352
 30
0.0
 10
6.512549715
 20
4.7762810949
 30
0.0
 10
6.5162003142
 20
4.75666412
 30
0.0
 10
6.519414557
 20
4.743760011
 30
0.0
 10
6.5211869686
 20
4.7373587741
 30
0.0
  0
SPLINE
  5
51C
100
AcDbEntity
  8
0
100
AcDbSpline
 62
9
  6
CONTINUOUS
 70
0
 71
3
 72
16
 73
12
 74
0
 42
0.0000001
 43
0.0000001
 44
0.0000000001
 40
0.0
 40
0.0
 40
0.0
 40
0.0
 40
0.1069322025
 40
0.2199090624
 40
0.3381616535
 40
0.4615181266
 40
0.5898943214
 40
0.7230590535
 40
0.8602812564
 40
0.9300224176
 40
1.0
 40
1.0
 40
1.0
 40
1.0
 10
4.6573370735
 20
4.6201010161
 30
0.0
 10
4.650804963
 20
4.6251500186
 30
0.0
 10
4.6377283701
 20
4.636005599
 30
0.0
 10
4.6189372592
 20
4.6541708146
 30
0.0
 10
4.600940541
 20
4.674852728
 30
0.0
 10
4.584376495
 20
4.6981904805
 30
0.0
 10
4.5699843942
 20
4.7242725998
 30
0.0
 10
4.558634829
 20
4.7529897614
 30
0.0
 10
4.5525327505
 20
4.7786432952
 30
0.0
 10
4.5500172639
 20
4.7998939892
 30
0.0
 10
4.5495835714
 20
4.8106863353
 30
0.0
 10
4.5495826393
 20
4.8160891249
 30
0.0
  0
SPLINE
  5
51D
100
AcDbEntity
  8
0
100
AcDbSpline
 62
9
  6
CONTINUOUS
 70
0
 71
3
 72
12
 73
8
 74
0
 42
0.0000001
 43
0.0000001
 44
0.0000000001
 40
0.0
 40
0.0
 40
0.0
 40
0.0
 40
0.2388114467
 40
0.3618337597
 40
0.4869358927
 40
0.7418013851
 40
1.0
 40
1.0
 40
1.0
 40
1.0
 10
3.1919658165
 20
4.4747143722
 30
0.0
 10
3.1909995086
 20
4.4705886899
 30
0.0
 10
3.1897775047
 20
4.4642786655
 30
0.0
 10
3.1885530456
 20
4.4557251508
 30
0.0
 10
3.1875612039
 20
4.4468543943
 30
0.0
 10
3.1868284761
 20
4.4355464483
 30
0.0
 10
3.186933681
 20
4.4264304723
 30
0.0
 10
3.1871982018
 20
4.4218567856
 30
0.0
  0
SPLINE
  5
51E
100
AcDbEntity
  8
0
100
AcDbSpline
 62
9
  6
CONTINUOUS
 70
0
 71
3
 72
9
 73
5
 74
0
 42
0.0000001
 43
0.0000001
 44
0.0000000001
 40
0.0
 40
0.0
 40
0.0
 40
0.0
 40
0.5217579504
 40
1.0
 40
1.0
 40
1.0
 40
1.0
 10
3.4078974237
 20
4.7373490639
 30
0.0
 10
3.4034844959
 20
4.7380940675
 30
0.0
 10
3.395016794
 20
4.7394641121
 30
0.0
 10
3.3865278841
 20
4.7406974846
 30
0.0
 10
3.3824623869
 20
4.7412443724
 30
0.0
  0
SPLINE
  5
51F
100
AcDbEntity
  8
0
100
AcDbSpline
 62
9
  6
CONTINUOUS
 70
0
 71
3
 72
9
 73
5
 74
0
 42
0.0000001
 43
0.0000001
 44
0.0000000001
 40
0.0
 40
0.0
 40
0.0
 40
0.0
 40
0.5217580472
 40
1.0
 40
1.0
 40
1.0
 40
1.0
 10
3.407897567
 20
4.8948292426
 30
0.0
 10
3.4034846269
 20
4.8940841589
 30
0.0
 10
3.3950168985
 20
4.8927139797
 30
0.0
 10
3.3865279546
 20
4.8914805106
 30
0.0
 10
3.3824624402
 20
4.8909335872
 30
0.0
  0
SPLINE
  5
520
100
AcDbEntity
  8
0
100
AcDbSpline
 62
9
  6
CONTINUOUS
 70
0
 71
3
 72
12
 73
8
 74
0
 42
0.0000001
 43
0.0000001
 44
0.0000000001
 40
0.0
 40
0.0
 40
0.0
 40
0.0
 40
0.238825864
 40
0.3618510693
 40
0.4869535592
 40
0.7418126869
 40
1.0
 40
1.0
 40
1.0
 40
1.0
 10
6.7371285936
 20
4.4746798446
 30
0.0
 10
6.7380934111
 20
4.4705564461
 30
0.0
 10
6.7393135583
 20
4.4642501202
 30
0.0
 10
6.7405361612
 20
4.4557018322
 30
0.0
 10
6.7415264832
 20
4.446836939
 30
0.0
 10
6.7422578441
 20
4.4355367745
 30
0.0
 10
6.7421524195
 20
4.426427198
 30
0.0
 10
6.7418880888
 20
4.4218567541
 30
0.0
  0
SPLINE
  5
521
100
AcDbEntity
  8
0
100
AcDbSpline
 62
9
  6
CONTINUOUS
 70
0
 71
3
 72
9
 73
5
 74
0
 42
0.0000001
 43
0.0000001
 44
0.0000000001
 40
0.0
 40
0.0
 40
0.0
 40
0.0
 40
0.5216887968
 40
1.0
 40
1.0
 40
1.0
 40
1.0
 10
6.5211889286
 20
4.7373489901
 30
0.0
 10
6.5255917074
 20
4.7380923519
 30
0.0
 10
6.5340410364
 20
4.7394596776
 30
0.0
 10
6.5425114809
 20
4.7406909606
 30
0.0
 10
6.5465687058
 20
4.7412371708
 30
0.0
  0
SPLINE
  5
522
100
AcDbEntity
  8
0
100
AcDbSpline
 62
9
  6
CONTINUOUS
 70
0
 71
3
 72
9
 73
5
 74
0
 42
0.0000001
 43
0.0000001
 44
0.0000000001
 40
0.0
 40
0.0
 40
0.0
 40
0.0
 40
0.5216885833
 40
1.0
 40
1.0
 40
1.0
 40
1.0
 10
6.5211891216
 20
4.8948291832
 30
0.0
 10
6.5255918754
 20
4.8940858788
 30
0.0
 10
6.5340411568
 20
4.89271865
 30
0.0
 10
6.5425115484
 20
4.8914874372
 30
0.0
 10
6.5465687485
 20
4.8909412529
 30
0.0
  0
SPLINE
  5
523
100
AcDbEntity
  8
0
100
AcDbSpline
 62
9
  6
CONTINUOUS
 70
0
 71
3
 72
10
 73
6
 74
0
 42
0.0000001
 43
0.0000001
 44
0.0000000001
 40
0.0
 40
0.0
 40
0.0
 40
0.0
 40
0.2669225699
 40
0.524014632
 40
1.0
 40
1.0
 40
1.0
 40
1.0
 10
3.1871982018
 20
4.4218567856
 30
0.0
 10
3.1855652084
 20
4.4255306616
 30
0.0
 10
3.1825582505
 20
4.4328345266
 30
0.0
 10
3.1776028494
 20
4.4470605044
 30
0.0
 10
3.1748939482
 20
4.4578123449
 30
0.0
 10
3.1737109821
 20
4.4648834814
 30
0.0
  0
SPLINE
  5
524
100
AcDbEntity
  8
0
100
AcDbSpline
 62
9
  6
CONTINUOUS
 70
0
 71
3
 72
11
 73
7
 74
0
 42
0.0000001
 43
0.0000001
 44
0.0000000001
 40
0.0
 40
0.0
 40
0.0
 40
0.0
 40
0.219991899
 40
0.4650589083
 40
0.7279324312
 40
1.0
 40
1.0
 40
1.0
 40
1.0
 10
3.0606011865
 20
4.4279912467
 30
0.0
 10
3.0609837751
 20
4.4223766272
 30
0.0
 10
3.0620737389
 20
4.4105261759
 30
0.0
 10
3.0644125049
 20
4.3920496371
 30
0.0
 10
3.0674920084
 20
4.3723327011
 30
0.0
 10
3.0699562258
 20
4.3588702396
 30
0.0
 10
3.0712957985
 20
4.3520405785
 30
0.0
  0
SPLINE
  5
525
100
AcDbEntity
  8
0
100
AcDbSpline
 62
9
  6
CONTINUOUS
 70
0
 71
3
 72
11
 73
7
 74
0
 42
0.0000001
 43
0.0000001
 44
0.0000000001
 40
0.0
 40
0.0
 40
0.0
 40
0.0
 40
0.2488867495
 40
0.4986939074
 40
0.7491814438
 40
1.0
 40
1.0
 40
1.0
 40
1.0
 10
3.0712957985
 20
4.3520405785
 30
0.0
 10
3.0652113216
 20
4.3503146466
 30
0.0
 10
3.0529060031
 20
4.3472417817
 30
0.0
 10
3.0341491556
 20
4.3438975663
 30
0.0
 10
3.0151567628
 20
4.3418608644
 30
0.0
 10
3.0024129423
 20
4.3413944399
 30
0.0
 10
2.9960393322
 20
4.3414064592
 30
0.0
  0
SPLINE
  5
526
100
AcDbEntity
  8
0
100
AcDbSpline
 62
9
  6
CONTINUOUS
 70
0
 71
3
 72
11
 73
7
 74
0
 42
0.0000001
 43
0.0000001
 44
0.0000000001
 40
0.0
 40
0.0
 40
0.0
 40
0.0
 40
0.2508212421
 40
0.501307795
 40
0.7511161477
 40
1.0
 40
1.0
 40
1.0
 40
1.0
 10
2.9960393322
 20
4.341406544
 30
0.0
 10
2.9896656584
 20
4.3413980619
 30
0.0
 10
2.9769218915
 20
4.3418605311
 30
0.0
 10
2.957929284
 20
4.3438977271
 30
0.0
 10
2.9391726356
 20
4.347241504
 30
0.0
 10
2.9268667447
 20
4.3503124732
 30
0.0
 10
2.9207830799
 20
4.3520409592
 30
0.0
  0
SPLINE
  5
527
100
AcDbEntity
  8
0
100
AcDbSpline
 62
9
  6
CONTINUOUS
 70
0
 71
3
 72
11
 73
7
 74
0
 42
0.0000001
 43
0.0000001
 44
0.0000000001
 40
0.0
 40
0.0
 40
0.0
 40
0.0
 40
0.2199921578
 40
0.4650595592
 40
0.7279332482
 40
1.0
 40
1.0
 40
1.0
 40
1.0
 10
2.9314776075
 20
4.4279912155
 30
0.0
 10
2.9310950068
 20
4.4223763682
 30
0.0
 10
2.930005002
 20
4.4105254335
 30
0.0
 10
2.9276661354
 20
4.3920481474
 30
0.0
 10
2.9245864874
 20
4.3723304455
 30
0.0
 10
2.9221221451
 20
4.3588674759
 30
0.0
 10
2.9207825021
 20
4.3520375707
 30
0.0
  0
SPLINE
  5
528
100
AcDbEntity
  8
0
100
AcDbSpline
 62
9
  6
CONTINUOUS
 70
0
 71
3
 72
11
 73
7
 74
0
 42
0.0000001
 43
0.0000001
 44
0.0000000001
 40
0.0
 40
0.0
 40
0.0
 40
0.0
 40
0.2746016627
 40
0.5329502764
 40
0.7743345089
 40
1.0
 40
1.0
 40
1.0
 40
1.0
 10
4.7424042877
 20
4.5838450277
 30
0.0
 10
4.7367418758
 20
4.5845430034
 30
0.0
 10
4.725783531
 20
4.5861889553
 30
0.0
 10
4.7100829087
 20
4.5897995368
 30
0.0
 10
4.6958068396
 20
4.5947370817
 30
0.0
 10
4.6871450862
 20
4.5992314675
 30
0.0
 10
4.6832105155
 20
4.6017812908
 30
0.0
  0
SPLINE
  5
529
100
AcDbEntity
  8
0
100
AcDbSpline
 62
9
  6
CONTINUOUS
 70
0
 71
3
 72
11
 73
7
 74
0
 42
0.0000001
 43
0.0000001
 44
0.0000000001
 40
0.0
 40
0.0
 40
0.0
 40
0.0
 40
0.2201911076
 40
0.4652924813
 40
0.7280822485
 40
1.0
 40
1.0
 40
1.0
 40
1.0
 10
6.99762317
 20
4.4277851007
 30
0.0
 10
6.9980084165
 20
4.422180785
 30
0.0
 10
6.9991009192
 20
4.4103568666
 30
0.0
 10
7.0014383983
 20
4.3919269708
 30
0.0
 10
7.0045113474
 20
4.3722686592
 30
0.0
 10
7.0069683706
 20
4.3588484823
 30
0.0
 10
7.0083035906
 20
4.352040994
 30
0.0
  0
SPLINE
  5
52A
100
AcDbEntity
  8
0
100
AcDbSpline
 62
9
  6
CONTINUOUS
 70
0
 71
3
 72
11
 73
7
 74
0
 42
0.0000001
 43
0.0000001
 44
0.0000000001
 40
0.0
 40
0.0
 40
0.0
 40
0.0
 40
0.2508212441
 40
0.5013077981
 40
0.7511161497
 40
1.0
 40
1.0
 40
1.0
 40
1.0
 10
6.9330472062
 20
4.341406544
 30
0.0
 10
6.9394208915
 20
4.3413980627
 30
0.0
 10
6.9521646813
 20
4.341860533
 30
0.0
 10
6.9711573226
 20
4.3438977354
 30
0.0
 10
6.9899140034
 20
4.3472415255
 30
0.0
 10
7.002219915
 20
4.3503125048
 30
0.0
 10
7.0083035906
 20
4.352040994
 30
0.0
  0
SPLINE
  5
52B
100
AcDbEntity
  8
0
100
AcDbSpline
 62
9
  6
CONTINUOUS
 70
0
 71
3
 72
11
 73
7
 74
0
 42
0.0000001
 43
0.0000001
 44
0.0000000001
 40
0.0
 40
0.0
 40
0.0
 40
0.0
 40
0.2256558221
 40
0.4670375465
 40
0.7253900947
 40
1.0
 40
1.0
 40
1.0
 40
1.0
 10
5.2458760229
 20
4.6017812908
 30
0.0
 10
5.2419396275
 20
4.5992302826
 30
0.0
 10
5.2332734696
 20
4.5947341028
 30
0.0
 10
5.2189898645
 20
4.5897954062
 30
0.0
 10
5.2032806996
 20
4.5861846212
 30
0.0
 10
5.1923163796
 20
4.5845389458
 30
0.0
 10
5.1866508582
 20
4.5838411567
 30
0.0
  0
SPLINE
  5
52C
100
AcDbEntity
  8
0
100
AcDbSpline
 62
9
  6
CONTINUOUS
 70
0
 71
3
 72
15
 73
11
 74
0
 42
0.0000001
 43
0.0000001
 44
0.0000000001
 40
0.0
 40
0.0
 40
0.0
 40
0.0
 40
0.1441198118
 40
0.2849356495
 40
0.420468654
 40
0.5499949164
 40
0.6733686586
 40
0.7903081004
 40
0.8999886875
 40
1.0
 40
1.0
 40
1.0
 40
1.0
 10
5.3795038992
 20
4.8160891249
 30
0.0
 10
5.3795019723
 20
4.8034426158
 30
0.0
 10
5.3771644803
 20
4.7783790748
 30
0.0
 10
5.3671831364
 20
4.7426791086
 30
0.0
 10
5.3521324512
 20
4.7102470294
 30
0.0
 10
5.3335279824
 20
4.6815723813
 30
0.0
 10
5.3126675054
 20
4.6566242792
 30
0.0
 10
5.2906176473
 20
4.6351786672
 30
0.0
 10
5.2683543081
 20
4.6170782644
 30
0.0
 10
5.2532402793
 20
4.6065547302
 30
0.0
 10
5.2458760229
 20
4.6017812908
 30
0.0
  0
SPLINE
  5
52D
100
AcDbEntity
  8
0
100
AcDbSpline
 62
9
  6
CONTINUOUS
 70
0
 71
3
 72
11
 73
7
 74
0
 42
0.0000001
 43
0.0000001
 44
0.0000000001
 40
0.0
 40
0.0
 40
0.0
 40
0.0
 40
0.248886752
 40
0.4986939099
 40
0.749181446
 40
1.0
 40
1.0
 40
1.0
 40
1.0
 10
6.857790872
 20
4.3520405437
 30
0.0
 10
6.8638753386
 20
4.3503146164
 30
0.0
 10
6.8761806361
 20
4.3472417607
 30
0.0
 10
6.8949374511
 20
4.3438975575
 30
0.0
 10
6.9139298101
 20
4.3418608628
 30
0.0
 10
6.9266736077
 20
4.3413944393
 30
0.0
 10
6.9330472062
 20
4.3414064592
 30
0.0
  0
SPLINE
  5
52E
100
AcDbEntity
  8
0
100
AcDbSpline
 62
9
  6
CONTINUOUS
 70
0
 71
3
 72
10
 73
6
 74
0
 42
0.0000001
 43
0.0000001
 44
0.0000000001
 40
0.0
 40
0.0
 40
0.0
 40
0.0
 40
0.4760801005
 40
0.7331436615
 40
1.0
 40
1.0
 40
1.0
 40
1.0
 10
6.755357027
 20
4.4647729283
 30
0.0
 10
6.7541706277
 20
4.4577189105
 30
0.0
 10
6.7514626687
 20
4.4469944512
 30
0.0
 10
6.7465161778
 20
4.4328048377
 30
0.0
 10
6.7435166525
 20
4.4255206245
 30
0.0
 10
6.7418880888
 20
4.4218567541
 30
0.0
  0
SPLINE
  5
52F
100
AcDbEntity
  8
0
100
AcDbSpline
 62
9
  6
CONTINUOUS
 70
0
 71
3
 72
11
 73
7
 74
0
 42
0.0000001
 43
0.0000001
 44
0.0000000001
 40
0.0
 40
0.0
 40
0.0
 40
0.0
 40
0.2201917828
 40
0.4652937442
 40
0.7280835888
 40
1.0
 40
1.0
 40
1.0
 40
1.0
 10
6.8684713549
 20
4.4277850615
 30
0.0
 10
6.868086092
 20
4.4221804777
 30
0.0
 10
6.8669935462
 20
4.4103559974
 30
0.0
 10
6.8646559729
 20
4.3919252411
 30
0.0
 10
6.8615828919
 20
4.3722660663
 30
0.0
 10
6.8591257521
 20
4.3588453227
 30
0.0
 10
6.8577904658
 20
4.352037566
 30
0.0
  0
SPLINE
  5
530
100
AcDbEntity
  8
0
100
AcDbSpline
 62
9
  6
CONTINUOUS
 70
0
 71
3
 72
12
 73
8
 74
0
 42
0.0000001
 43
0.0000001
 44
0.0000000001
 40
0.0
 40
0.0
 40
0.0
 40
0.0
 40
0.2468048663
 40
0.3709420159
 40
0.4956273541
 40
0.7466464382
 40
1.0
 40
1.0
 40
1.0
 40
1.0
 10
7.21522062
 20
4.5415306545
 30
0.0
 10
7.2114368112
 20
4.5345147835
 30
0.0
 10
7.2055142095
 20
4.5240944632
 30
0.0
 10
7.1971314357
 20
4.5104561814
 30
0.0
 10
7.1883627677
 20
4.4969000334
 30
0.0
 10
7.176703614
 20
4.4802501902
 30
0.0
 10
7.1666419141
 20
4.467426403
 30
0.0
 10
7.1614111119
 20
4.4611339465
 30
0.0
  0
SPLINE
  5
531
100
AcDbEntity
  8
0
100
AcDbSpline
 62
9
  6
CONTINUOUS
 70
0
 71
3
 72
15
 73
11
 74
0
 42
0.0000001
 43
0.0000001
 44
0.0000000001
 40
0.0
 40
0.0
 40
0.0
 40
0.0
 40
0.1194616742
 40
0.2402298478
 40
0.3011684188
 40
0.3625061793
 40
0.4864201287
 40
0.6121048152
 40
0.7396307148
 40
1.0
 40
1.0
 40
1.0
 40
1.0
 10
7.1614111119
 20
4.4611339465
 30
0.0
 10
7.1565594394
 20
4.4552975685
 30
0.0
 10
7.1464925615
 20
4.4438150058
 30
0.0
 10
7.1330937864
 20
4.4301406518
 30
0.0
 10
7.1218153159
 20
4.4195915266
 30
0.0
 10
7.1100789858
 20
4.4092494987
 30
0.0
 10
7.0946424399
 20
4.396898508
 30
0.0
 10
7.0749016796
 20
4.3832780553
 30
0.0
 10
7.0466985822
 20
4.3668331034
 30
0.0
 10
7.0238933477
 20
4.3570651036
 30
0.0
 10
7.00815352
 20
4.3519773177
 30
0.0
  0
SPLINE
  5
532
100
AcDbEntity
  8
0
100
AcDbSpline
 62
7
  6
CONTINUOUS
 70
0
 71
3
 72
36
 73
32
 74
0
 42
0.0000001
 43
0.0000001
 44
0.0000000001
 40
0.0
 40
0.0
 40
0.0
 40
0.0
 40
0.0077379864
 40
0.0154819144
 40
0.0232663812
 40
0.0310654972
 40
0.0388705654
 40
0.0466781688
 40
0.054487726
 40
0.0622984113
 40
0.0701099182
 40
0.077921996
 40
0.0935470342
 40
0.1091732267
 40
0.1248001371
 40
0.1404275234
 40
0.1560552271
 40
0.1873110806
 40
0.2185675236
 40
0.249824301
 40
0.2810812836
 40
0.3123383959
 40
0.3748527651
 40
0.4373673427
 40
0.4998820198
 40
0.562396745
 40
0.6249114931
 40
0.6874262509
 40
0.749941011
 40
0.8749705101
 40
1.0
 40
1.0
 40
1.0
 40
1.0
 10
7.00815352
 20
4.3519773177
 30
0.0
 10
7.0089667562
 20
4.3522102973
 30
0.0
 10
7.0108195353
 20
4.3523068032
 30
0.0
 10
7.0128371306
 20
4.3505080949
 30
0.0
 10
7.0141393974
 20
4.3483227356
 30
0.0
 10
7.0151254348
 20
4.3459525011
 30
0.0
 10
7.0159019812
 20
4.343513226
 30
0.0
 10
7.0165443269
 20
4.3410332054
 30
0.0
 10
7.0170895995
 20
4.3385303117
 30
0.0
 10
7.0175623032
 20
4.3360123411
 30
0.0
 10
7.0179783628
 20
4.3334842471
 30
0.0
 10
7.0184723726
 20
4.3301037737
 30
0.0
 10
7.0189971048
 20
4.3258650597
 30
0.0
 10
7.0195216253
 20
4.3207668111
 30
0.0
 10
7.0199670247
 20
4.3156608557
 30
0.0
 10
7.0203508769
 20
4.3105498064
 30
0.0
 10
7.020796869
 20
4.3037303217
 30
0.0
 10
7.0212542696
 20
4.2951996829
 30
0.0
 10
7.0216909576
 20
4.2849576097
 30
0.0
 10
7.0220442319
 20
4.2747122376
 30
0.0
 10
7.0223335054
 20
4.2644648238
 30
0.0
 10
7.0226516981
 20
4.2507998228
 30
0.0
 10
7.0229482766
 20
4.2337163749
 30
0.0
 10
7.0231939801
 20
4.2132146917
 30
0.0
 10
7.0233598079
 20
4.1927121875
 30
0.0
 10
7.0234658821
 20
4.1722092874
 30
0.0
 10
7.0235258307
 20
4.1517061993
 30
0.0
 10
7.023549396
 20
4.1312030383
 30
0.0
 10
7.0235417015
 20
4.103865478
 30
0.0
 10
7.0234726118
 20
4.0696935831
 30
0.0
 10
7.0233734034
 20
4.0423562037
 30
0.0
 10
7.0233157964
 20
4.0286875501
 30
0.0
  0
SPLINE
  5
533
100
AcDbEntity
  8
0
100
AcDbSpline
 62
9
  6
CONTINUOUS
 70
0
 71
3
 72
12
 73
8
 74
0
 42
0.0000001
 43
0.0000001
 44
0.0000000001
 40
0.0
 40
0.0
 40
0.0
 40
0.0
 40
0.2574893853
 40
0.5099786759
 40
0.6343382055
 40
0.7574393383
 40
1.0
 40
1.0
 40
1.0
 40
1.0
 10
6.8577820125
 20
4.352040779
 30
0.0
 10
6.8466501467
 20
4.3556411969
 30
0.0
 10
6.8250476252
 20
4.3642215686
 30
0.0
 10
6.7996677645
 20
4.378013198
 30
0.0
 10
6.7806535602
 20
4.3904600905
 30
0.0
 10
6.7626799023
 20
4.4036142185
 30
0.0
 10
6.7499879115
 20
4.4143814274
 30
0.0
 10
6.7418891577
 20
4.4218566881
 30
0.0
  0
SPLINE
  5
534
100
AcDbEntity
  8
0
100
AcDbSpline
 62
9
  6
CONTINUOUS
 70
0
 71
3
 72
28
 73
24
 74
0
 42
0.0000001
 43
0.0000001
 44
0.0000000001
 40
0.0
 40
0.0
 40
0.0
 40
0.0
 40
0.1028083662
 40
0.2008773166
 40
0.2938170865
 40
0.3812653967
 40
0.4628748578
 40
0.5383731587
 40
0.6075207256
 40
0.670061205
 40
0.725761689
 40
0.7510066311
 40
0.7745207571
 40
0.7963460297
 40
0.8165826226
 40
0.8529613898
 40
0.8697212456
 40
0.8860235124
 40
0.9023425243
 40
0.919178472
 40
0.9561554936
 40
0.9771026757
 40
1.0
 40
1.0
 40
1.0
 40
1.0
 10
6.7418891577
 20
4.4218566881
 30
0.0
 10
6.7369834609
 20
4.4226058022
 30
0.0
 10
6.7273608688
 20
4.4238369828
 30
0.0
 10
6.7132168229
 20
4.4249490887
 30
0.0
 10
6.6997782147
 20
4.4253823375
 30
0.0
 10
6.6871289454
 20
4.4252610328
 30
0.0
 10
6.6753344146
 20
4.4247272614
 30
0.0
 10
6.6644394385
 20
4.4239608679
 30
0.0
 10
6.6544718961
 20
4.4231441808
 30
0.0
 10
6.6454529244
 20
4.4224565891
 30
0.0
 10
6.6385320067
 20
4.4221247463
 30
0.0
 10
6.6334885191
 20
4.4221235012
 30
0.0
 10
6.6300833907
 20
4.4222680033
 30
0.0
 10
6.6269304228
 20
4.4225799961
 30
0.0
 10
6.6231990744
 20
4.4232251981
 30
0.0
 10
6.6197844492
 20
4.4242974049
 30
0.0
 10
6.616852765
 20
4.4259455812
 30
0.0
 10
6.614969804
 20
4.4274236049
 30
0.0
 10
6.6133482646
 20
4.4291901942
 30
0.0
 10
6.6114796638
 20
4.4320285491
 30
0.0
 10
6.6102109677
 20
4.4354575429
 30
0.0
 10
6.6094346774
 20
4.4392818389
 30
0.0
 10
6.6091942015
 20
4.4413879242
 30
0.0
 10
6.6091060524
 20
4.442489658
 30
0.0
  0
SPLINE
  5
535
100
AcDbEntity
  8
0
100
AcDbSpline
 62
7
  6
CONTINUOUS
 70
0
 71
3
 72
41
 73
37
 74
0
 42
0.0000001
 43
0.0000001
 44
0.0000000001
 40
0.0
 40
0.0
 40
0.0
 40
0.0
 40
0.1250105087
 40
0.2500210265
 40
0.3125262957
 40
0.3750315624
 40
0.4375368196
 40
0.5000420537
 40
0.5625472399
 40
0.6250523271
 40
0.6875572074
 40
0.7188095761
 40
0.7500618156
 40
0.7813138521
 40
0.8125655608
 40
0.8438166922
 40
0.8594420432
 40
0.8750670885
 40
0.8906916911
 40
0.906315624
 40
0.9219384624
 40
0.929749492
 40
0.9375599894
 40
0.9453697346
 40
0.9531786315
 40
0.9609854738
 40
0.968789474
 40
0.9765906906
 40
0.9843663496
 40
0.9883092884
 40
0.9902800579
 40
0.9922200761
 40
0.9941422063
 40
0.9960828665
 40
0.9980460356
 40
1.0
 40
1.0
 40
1.0
 40
1.0
 10
6.842779321
 20
4.0286875501
 30
0.0
 10
6.8427217714
 20
4.0423498567
 30
0.0
 10
6.842622674
 20
4.0696745418
 30
0.0
 10
6.8425536671
 20
4.1038305687
 30
0.0
 10
6.8425459951
 20
4.1311554343
 30
0.0
 10
6.8425695439
 20
4.1516490743
 30
0.0
 10
6.8426294236
 20
4.1721426415
 30
0.0
 10
6.8427353594
 20
4.1926360212
 30
0.0
 10
6.8429009419
 20
4.213129006
 30
0.0
 10
6.8431462368
 20
4.2336211725
 30
0.0
 10
6.8434422541
 20
4.2506966946
 30
0.0
 10
6.8437597583
 20
4.264355363
 30
0.0
 10
6.8440483552
 20
4.2745980342
 30
0.0
 10
6.8444007199
 20
4.2848386758
 30
0.0
 10
6.8448361426
 20
4.2950760414
 30
0.0
 10
6.8452920537
 20
4.3036027904
 30
0.0
 10
6.8457363994
 20
4.3104192097
 30
0.0
 10
6.84611871
 20
4.3155279992
 30
0.0
 10
6.8465621137
 20
4.3206317601
 30
0.0
 10
6.8470840343
 20
4.3257279173
 30
0.0
 10
6.8476057545
 20
4.3299650432
 30
0.0
 10
6.8480965883
 20
4.3333444236
 30
0.0
 10
6.8485097535
 20
4.335871855
 30
0.0
 10
6.8489785451
 20
4.3383893995
 30
0.0
 10
6.8495191204
 20
4.3408923856
 30
0.0
 10
6.8501547749
 20
4.3433723446
 30
0.0
 10
6.8509220621
 20
4.3458160532
 30
0.0
 10
6.8518918117
 20
4.3481818521
 30
0.0
 10
6.8529670393
 20
4.3500465969
 30
0.0
 10
6.8540034625
 20
4.351140375
 30
0.0
 10
6.85469371
 20
4.3516543079
 30
0.0
 10
6.855259466
 20
4.3519553609
 30
0.0
 10
6.8558719116
 20
4.352137317
 30
0.0
 10
6.8565095129
 20
4.3521930234
 30
0.0
 10
6.8571501761
 20
4.3521561137
 30
0.0
 10
6.857573048
 20
4.3520847916
 30
0.0
 10
6.8577820125
 20
4.352040779
 30
0.0
  0
SPLINE
  5
536
100
AcDbEntity
  8
0
100
AcDbSpline
 62
9
  6
CONTINUOUS
 70
0
 71
3
 72
14
 73
10
 74
0
 42
0.0000001
 43
0.0000001
 44
0.0000000001
 40
0.0
 40
0.0
 40
0.0
 40
0.0
 40
0.2604500315
 40
0.3879918322
 40
0.5136767603
 40
0.6375776836
 40
0.7598188442
 40
0.8805627481
 40
1.0
 40
1.0
 40
1.0
 40
1.0
 10
2.9207732536
 20
4.3520412355
 30
0.0
 10
2.9048946721
 20
4.3571751863
 30
0.0
 10
2.8818981953
 20
4.3670594987
 30
0.0
 10
2.8534892139
 20
4.3837160864
 30
0.0
 10
2.8336181757
 20
4.3975093006
 30
0.0
 10
2.8150513631
 20
4.4124652491
 30
0.0
 10
2.7976970241
 20
4.4283432334
 30
0.0
 10
2.7814973501
 20
4.444997735
 30
0.0
 10
2.771393528
 20
4.4566172845
 30
0.0
 10
2.7665260147
 20
4.4625225315
 30
0.0
  0
SPLINE
  5
537
100
AcDbEntity
  8
0
100
AcDbSpline
 62
9
  6
CONTINUOUS
 70
0
 71
3
 72
11
 73
7
 74
0
 42
0.0000001
 43
0.0000001
 44
0.0000000001
 40
0.0
 40
0.0
 40
0.0
 40
0.0
 40
0.2532992866
 40
0.5043059686
 40
0.7531366534
 40
1.0
 40
1.0
 40
1.0
 40
1.0
 10
2.7665260147
 20
4.4625225315
 30
0.0
 10
2.7613913597
 20
4.4687518738
 30
0.0
 10
2.7515108656
 20
4.4814408468
 30
0.0
 10
2.7377928176
 20
4.5011491758
 30
0.0
 10
2.7251395756
 20
4.5213136446
 30
0.0
 10
2.7173461045
 20
4.5350624045
 30
0.0
 10
2.7136180493
 20
4.5419907058
 30
0.0
  0
SPLINE
  5
538
100
AcDbEntity
  8
0
100
AcDbSpline
 62
7
  6
CONTINUOUS
 70
0
 71
3
 72
42
 73
38
 74
0
 42
0.0000001
 43
0.0000001
 44
0.0000000001
 40
0.0
 40
0.0
 40
0.0
 40
0.0
 40
0.1250054335
 40
0.2500108764
 40
0.3125136083
 40
0.3750163377
 40
0.4375190578
 40
0.5000217551
 40
0.5625244044
 40
0.6250269551
 40
0.6875292992
 40
0.7187803996
 40
0.7500313717
 40
0.7812821414
 40
0.8125325816
 40
0.8437824484
 40
0.8594071711
 40
0.8750315921
 40
0.890655576
 40
0.9062789044
 40
0.9219011608
 40
0.9297119842
 40
0.9375221653
 40
0.9453315959
 40
0.953140476
 40
0.9609463744
 40
0.9687515288
 40
0.9765492496
 40
0.9804335951
 40
0.9843413963
 40
0.9883213008
 40
0.9902919634
 40
0.9922261087
 40
0.994143174
 40
0.9960821186
 40
0.9980455751
 40
1.0
 40
1.0
 40
1.0
 40
1.0
 10
2.9057707421
 20
4.0286875501
 30
0.0
 10
2.9057131632
 20
4.0423495374
 30
0.0
 10
2.9056140018
 20
4.069673584
 30
0.0
 10
2.9055448957
 20
4.1038288126
 30
0.0
 10
2.9055371293
 20
4.13115304
 30
0.0
 10
2.9055605985
 20
4.1516462014
 30
0.0
 10
2.905620389
 20
4.1721392903
 30
0.0
 10
2.9057262192
 20
4.1926321919
 30
0.0
 10
2.9058916879
 20
4.2131246991
 30
0.0
 10
2.9061368436
 20
4.2336163888
 30
0.0
 10
2.9064327242
 20
4.2506915145
 30
0.0
 10
2.906750105
 20
4.2643498668
 30
0.0
 10
2.9070385933
 20
4.274592302
 30
0.0
 10
2.907390827
 20
4.2848327089
 30
0.0
 10
2.9078261243
 20
4.295069841
 30
0.0
 10
2.9082818933
 20
4.3035963987
 30
0.0
 10
2.9087260978
 20
4.3104126694
 30
0.0
 10
2.9091082896
 20
4.3155213513
 30
0.0
 10
2.9095515627
 20
4.3206250089
 30
0.0
 10
2.9100733095
 20
4.3257210758
 30
0.0
 10
2.9105949513
 20
4.3299581287
 30
0.0
 10
2.9110854694
 20
4.333337495
 30
0.0
 10
2.911498577
 20
4.3358648812
 30
0.0
 10
2.9119670951
 20
4.3383824727
 30
0.0
 10
2.9125076567
 20
4.3408852807
 30
0.0
 10
2.9131423967
 20
4.3433658248
 30
0.0
 10
2.9139097211
 20
4.3458081584
 30
0.0
 10
2.9147183392
 20
4.3477831509
 30
0.0
 10
2.915518107
 20
4.3492903162
 30
0.0
 10
2.916250245
 20
4.3503520434
 30
0.0
 10
2.9169933495
 20
4.3511425936
 30
0.0
 10
2.9176864571
 20
4.3516586621
 30
0.0
 10
2.9182518491
 20
4.3519579376
 30
0.0
 10
2.9188635156
 20
4.3521376562
 30
0.0
 10
2.9195004855
 20
4.3521918699
 30
0.0
 10
2.9201409828
 20
4.3521547629
 30
0.0
 10
2.9205640608
 20
4.3520844179
 30
0.0
 10
2.9207732536
 20
4.3520412355
 30
0.0
  0
SPLINE
  5
539
100
AcDbEntity
  8
0
100
AcDbSpline
 62
9
  6
CONTINUOUS
 70
0
 71
3
 72
28
 73
24
 74
0
 42
0.0000001
 43
0.0000001
 44
0.0000000001
 40
0.0
 40
0.0
 40
0.0
 40
0.0
 40
0.0228972876
 40
0.0438443228
 40
0.0808214335
 40
0.0976576257
 40
0.1139768319
 40
0.1302792542
 40
0.147039212
 40
0.1834181005
 40
0.2036549333
 40
0.225480148
 40
0.248994404
 40
0.274239617
 40
0.3299404381
 40
0.3924811869
 40
0.4616287106
 40
0.5371268555
 40
0.6187362671
 40
0.706184335
 40
0.7991238028
 40
0.8971922166
 40
1.0
 40
1.0
 40
1.0
 40
1.0
 10
3.3199804861
 20
4.442489658
 30
0.0
 10
3.3198923401
 20
4.4413879301
 30
0.0
 10
3.3196518781
 20
4.4392818608
 30
0.0
 10
3.3188755934
 20
4.4354575825
 30
0.0
 10
3.3176068825
 20
4.4320286039
 30
0.0
 10
3.3157382997
 20
4.4291902224
 30
0.0
 10
3.3141167441
 20
4.4274236218
 30
0.0
 10
3.3122337834
 20
4.4259455774
 30
0.0
 10
3.3093020833
 20
4.4242974161
 30
0.0
 10
3.3058874516
 20
4.4232252156
 30
0.0
 10
3.3021561095
 20
4.4225799814
 30
0.0
 10
3.2990031404
 20
4.4222679669
 30
0.0
 10
3.295598007
 20
4.4221235052
 30
0.0
 10
3.2905545046
 20
4.4221247519
 30
0.0
 10
3.2836335716
 20
4.4224565926
 30
0.0
 10
3.2746146091
 20
4.4231441869
 30
0.0
 10
3.264647102
 20
4.4239608576
 30
0.0
 10
3.2537521835
 20
4.4247272792
 30
0.0
 10
3.2419577198
 20
4.425261019
 30
0.0
 10
3.2293085301
 20
4.425382339
 30
0.0
 10
3.2158700273
 20
4.4249491002
 30
0.0
 10
3.2017261051
 20
4.4238370245
 30
0.0
 10
3.1921036015
 20
4.4226058788
 30
0.0
 10
3.1871979526
 20
4.4218567678
 30
0.0
  0
SPLINE
  5
53A
100
AcDbEntity
  8
0
100
AcDbSpline
 62
9
  6
CONTINUOUS
 70
0
 71
3
 72
12
 73
8
 74
0
 42
0.0000001
 43
0.0000001
 44
0.0000000001
 40
0.0
 40
0.0
 40
0.0
 40
0.0
 40
0.2425514914
 40
0.3656505014
 40
0.4900096169
 40
0.7425015041
 40
1.0
 40
1.0
 40
1.0
 40
1.0
 10
3.1871979526
 20
4.4218567678
 30
0.0
 10
3.1790896942
 20
4.414372746
 30
0.0
 10
3.1663818898
 20
4.403593704
 30
0.0
 10
3.1483850321
 20
4.390426512
 30
0.0
 10
3.1293453322
 20
4.3779682322
 30
0.0
 10
3.1039285301
 20
4.3641698796
 30
0.0
 10
3.0822971752
 20
4.3555854389
 30
0.0
 10
3.071151188
 20
4.3519813061
 30
0.0
  0
SPLINE
  5
53B
100
AcDbEntity
  8
0
100
AcDbSpline
 62
7
  6
CONTINUOUS
 70
0
 71
3
 72
39
 73
35
 74
0
 42
0.0000001
 43
0.0000001
 44
0.0000000001
 40
0.0
 40
0.0
 40
0.0
 40
0.0
 40
0.0039219004
 40
0.0077999133
 40
0.0116716535
 40
0.0156329085
 40
0.0195440137
 40
0.0234329968
 40
0.0312290683
 40
0.0390362973
 40
0.046842089
 40
0.0546508969
 40
0.0624604103
 40
0.0702706363
 40
0.078081484
 40
0.0937039014
 40
0.1093274392
 40
0.1249516636
 40
0.1405763511
 40
0.1562013498
 40
0.1874517852
 40
0.2187028052
 40
0.2499541608
 40
0.281205722
 40
0.312457416
 40
0.3749609554
 40
0.4374647085
 40
0.4999685641
 40
0.5624724695
 40
0.6249763989
 40
0.6874803383
 40
0.7499842805
 40
0.8749921447
 40
1.0
 40
1.0
 40
1.0
 40
1.0
 10
3.071151188
 20
4.3519813061
 30
0.0
 10
3.0715634857
 20
4.3520992104
 30
0.0
 10
3.0724140156
 20
4.3522399942
 30
0.0
 10
3.0737099644
 20
4.3520717947
 30
0.0
 10
3.0748288914
 20
4.3513932101
 30
0.0
 10
3.0757294255
 20
4.3504695563
 30
0.0
 10
3.0764790987
 20
4.3494195814
 30
0.0
 10
3.0772967503
 20
4.3479203716
 30
0.0
 10
3.0781165437
 20
4.3459478052
 30
0.0
 10
3.0788945052
 20
4.3435076481
 30
0.0
 10
3.0795354119
 20
4.3410271988
 30
0.0
 10
3.0800808825
 20
4.3385242998
 30
0.0
 10
3.0805534022
 20
4.3360062676
 30
0.0
 10
3.0809693421
 20
4.3334781618
 30
0.0
 10
3.081463199
 20
4.3300977069
 30
0.0
 10
3.0819878513
 20
4.3258590425
 30
0.0
 10
3.0825122722
 20
4.3207608716
 30
0.0
 10
3.08295761
 20
4.3156550073
 30
0.0
 10
3.0833414334
 20
4.3105440577
 30
0.0
 10
3.0837874009
 20
4.3037247107
 30
0.0
 10
3.0842447894
 20
4.2951942476
 30
0.0
 10
3.0846814996
 20
4.2849523874
 30
0.0
 10
3.0850347925
 20
4.2747072282
 30
0.0
 10
3.0853241104
 20
4.2644600274
 30
0.0
 10
3.0856423583
 20
4.2507953087
 30
0.0
 10
3.0859390097
 20
4.2337122116
 30
0.0
 10
3.0861848001
 20
4.2132109476
 30
0.0
 10
3.0863507143
 20
4.1927088611
 30
0.0
 10
3.0864568675
 20
4.1722063778
 30
0.0
 10
3.0865168923
 20
4.151703706
 30
0.0
 10
3.0865405321
 20
4.131200961
 30
0.0
 10
3.0865329252
 20
4.1038639549
 30
0.0
 10
3.0864639289
 20
4.0696927524
 30
0.0
 10
3.0863647926
 20
4.0423559269
 30
0.0
 10
3.0863072175
 20
4.0286875501
 30
0.0
  0
SPLINE
  5
53C
100
AcDbEntity
  8
0
100
AcDbSpline
 62
9
  6
CONTINUOUS
 70
0
 71
3
 72
15
 73
11
 74
0
 42
0.0000001
 43
0.0000001
 44
0.0000000001
 40
0.0
 40
0.0
 40
0.0
 40
0.0
 40
0.1441199015
 40
0.2849366415
 40
0.4204702885
 40
0.5499967285
 40
0.6733702882
 40
0.7903102229
 40
0.8999882888
 40
1.0
 40
1.0
 40
1.0
 40
1.0
 10
4.5495826393
 20
4.8160891249
 30
0.0
 10
4.5495855886
 20
4.82873565
 30
0.0
 10
4.5519203702
 20
4.8537994507
 30
0.0
 10
4.5619038646
 20
4.8894992563
 30
0.0
 10
4.5769545413
 20
4.9219313599
 30
0.0
 10
4.5955587299
 20
4.9506062952
 30
0.0
 10
4.6164188002
 20
4.9755548518
 30
0.0
 10
4.6384690535
 20
4.9969998318
 30
0.0
 10
4.660732266
 20
5.0151001552
 30
0.0
 10
4.67584615
 20
5.0256236129
 30
0.0
 10
4.6832105155
 20
5.0303969589
 30
0.0
  0
SPLINE
  5
53D
100
AcDbEntity
  8
0
100
AcDbSpline
 62
9
  6
CONTINUOUS
 70
0
 71
3
 72
11
 73
7
 74
0
 42
0.0000001
 43
0.0000001
 44
0.0000000001
 40
0.0
 40
0.0
 40
0.0
 40
0.0
 40
0.2257661315
 40
0.4673622022
 40
0.7256412429
 40
1.0
 40
1.0
 40
1.0
 40
1.0
 10
4.6832105155
 20
5.0303969589
 30
0.0
 10
4.6871007361
 20
5.0329176047
 30
0.0
 10
4.695663294
 20
5.0373653683
 30
0.0
 10
4.709762731
 20
5.0422831279
 30
0.0
 10
4.7252683999
 20
5.0458881075
 30
0.0
 10
4.7360878781
 20
5.0475369896
 30
0.0
 10
4.7416770175
 20
5.0482399121
 30
0.0
  0
SPLINE
  5
53E
100
AcDbEntity
  8
0
100
AcDbSpline
 62
9
  6
CONTINUOUS
 70
0
 71
3
 72
16
 73
12
 74
0
 42
0.0000001
 43
0.0000001
 44
0.0000000001
 40
0.0
 40
0.0
 40
0.0
 40
0.0
 40
0.1069326514
 40
0.219910019
 40
0.3381614483
 40
0.4615156216
 40
0.58989199
 40
0.7230590594
 40
0.860284037
 40
0.9300232442
 40
1.0
 40
1.0
 40
1.0
 40
1.0
 10
5.2717499949
 20
5.0120768237
 30
0.0
 10
5.2782821321
 20
5.0070278327
 30
0.0
 10
5.291358868
 20
4.9961723779
 30
0.0
 10
5.3101499552
 20
4.9780072357
 30
0.0
 10
5.3281461894
 20
4.957325285
 30
0.0
 10
5.3447097896
 20
4.9339876319
 30
0.0
 10
5.3591019513
 20
4.907905625
 30
0.0
 10
5.3704520491
 20
4.879188352
 30
0.0
 10
5.3765546997
 20
4.8535347
 30
0.0
 10
5.3790691514
 20
4.8322839143
 30
0.0
 10
5.3795026136
 20
4.8214918371
 30
0.0
 10
5.3795038992
 20
4.8160891249
 30
0.0
  0
SPLINE
  5
53F
100
AcDbEntity
  8
DTM-AXIS
100
AcDbSpline
 62
9
  6
CONTINUOUS
 70
0
 71
3
 72
25
 73
21
 74
0
 42
0.0000001
 43
0.0000001
 44
0.0000000001
 40
0.0
 40
0.0
 40
0.0
 40
0.0
 40
0.2220160838
 40
0.4192554042
 40
0.5079589223
 40
0.5897533217
 40
0.664439208
 40
0.731838156
 40
0.7917943848
 40
0.8441774785
 40
0.8888857592
 40
0.925854068
 40
0.9414318466
 40
0.9550788374
 40
0.9668120418
 40
0.9766650533
 40
0.9847013887
 40
0.9910459869
 40
0.9959604368
 40
1.0
 40
1.0
 40
1.0
 40
1.0
 10
6.2324519806
 20
4.6525845953
 30
0.0
 10
6.2325953489
 20
4.6471402694
 30
0.0
 10
6.2329057676
 20
4.6368601741
 30
0.0
 10
6.2334113953
 20
4.6244094939
 30
0.0
 10
6.2338742834
 20
4.6154004383
 30
0.0
 10
6.2342322761
 20
4.6093964869
 30
0.0
 10
6.2346130622
 20
4.6039176801
 30
0.0
 10
6.235016581
 20
4.5989777678
 30
0.0
 10
6.2354425014
 20
4.5945890768
 30
0.0
 10
6.2358903728
 20
4.5907623386
 30
0.0
 10
6.2363591225
 20
4.5875069411
 30
0.0
 10
6.2367847938
 20
4.5851584812
 30
0.0
 10
6.2371448646
 20
4.5835748613
 30
0.0
 10
6.2374034817
 20
4.5826036969
 30
0.0
 10
6.2376658911
 20
4.5817797164
 30
0.0
 10
6.2379319671
 20
4.5811027965
 30
0.0
 10
6.2382017137
 20
4.5805714323
 30
0.0
 10
6.238477078
 20
4.5801836762
 30
0.0
 10
6.2387649068
 20
4.5799331425
 30
0.0
 10
6.2389857376
 20
4.5798686517
 30
0.0
 10
6.239084831
 20
4.5798686531
 30
0.0
  0
SPLINE
  5
540
100
AcDbEntity
  8
DTM-AXIS
100
AcDbSpline
 62
9
  6
CONTINUOUS
 70
0
 71
3
 72
25
 73
21
 74
0
 42
0.0000001
 43
0.0000001
 44
0.0000000001
 40
0.0
 40
0.0
 40
0.0
 40
0.0
 40
0.2270470206
 40
0.427001062
 40
0.5163225575
 40
0.5983005987
 40
0.6727995014
 40
0.7396971685
 40
0.7988741151
 40
0.8502436195
 40
0.8937792448
 40
0.9294826759
 40
0.9444113094
 40
0.9574073968
 40
0.9685011712
 40
0.977746309
 40
0.9852367249
 40
0.9911497859
 40
0.9958432281
 40
1.0
 40
1.0
 40
1.0
 40
1.0
 10
6.2545226821
 20
4.6375976885
 30
0.0
 10
6.2544013755
 20
4.6331022519
 30
0.0
 10
6.2541436252
 20
4.6246485498
 30
0.0
 10
6.2537256508
 20
4.6144301088
 30
0.0
 10
6.2533448101
 20
4.6070865637
 30
0.0
 10
6.2530502564
 20
4.602226928
 30
0.0
 10
6.2527358709
 20
4.5978136808
 30
0.0
 10
6.2524028864
 20
4.5938548039
 30
0.0
 10
6.2520512064
 20
4.5903576551
 30
0.0
 10
6.2516800314
 20
4.5873280809
 30
0.0
 10
6.2512911914
 20
4.5847701786
 30
0.0
 10
6.2509370362
 20
4.5829379254
 30
0.0
 10
6.2506353926
 20
4.5817139939
 30
0.0
 10
6.2504183901
 20
4.5809719375
 30
0.0
 10
6.2501971079
 20
4.5803493495
 30
0.0
 10
6.249971681
 20
4.5798454915
 30
0.0
 10
6.2497415672
 20
4.5794586446
 30
0.0
 10
6.2495046921
 20
4.5791860348
 30
0.0
 10
6.2492507459
 20
4.5790268279
 30
0.0
 10
6.2490676253
 20
4.5790121812
 30
0.0
 10
6.2489864678
 20
4.5790260401
 30
0.0
  0
SPLINE
  5
541
100
AcDbEntity
  8
0
100
AcDbSpline
 62
9
  6
CONTINUOUS
 70
0
 71
3
 72
16
 73
12
 74
0
 42
0.0000001
 43
0.0000001
 44
0.0000000001
 40
0.0
 40
0.0
 40
0.0
 40
0.0
 40
0.0467880292
 40
0.0961170737
 40
0.2020917385
 40
0.3171629578
 40
0.440359234
 40
0.5708479507
 40
0.7080028276
 40
0.8512461246
 40
1.0
 40
1.0
 40
1.0
 40
1.0
 10
3.3993829247
 20
4.5309030479
 30
0.0
 10
3.3972447391
 20
4.5305367938
 30
0.0
 10
3.3928336978
 20
4.5298909521
 30
0.0
 10
3.3835174236
 20
4.5288758821
 30
0.0
 10
3.3710039327
 20
4.5280512616
 30
0.0
 10
3.3550523616
 20
4.527489776
 30
0.0
 10
3.3379581107
 20
4.5271464752
 30
0.0
 10
3.3198393685
 20
4.5268475987
 30
0.0
 10
3.3007928918
 20
4.5264305794
 30
0.0
 10
3.2809061002
 20
4.5257548199
 30
0.0
 10
3.2673840466
 20
4.5250702173
 30
0.0
 10
3.2604996345
 20
4.5246541435
 30
0.0
  0
SPLINE
  5
542
100
AcDbEntity
  8
0
100
AcDbSpline
 62
7
  6
CONTINUOUS
 70
0
 71
3
 72
11
 73
7
 74
0
 42
0.0000001
 43
0.0000001
 44
0.0000000001
 40
0.0
 40
0.0
 40
0.0
 40
0.0
 40
0.2499661942
 40
0.5000054528
 40
0.7501818302
 40
1.0
 40
1.0
 40
1.0
 40
1.0
 10
5.0647917426
 20
4.6524107785
 30
0.0
 10
5.0582377676
 20
4.6488711576
 30
0.0
 10
5.0447002034
 20
4.6425523933
 30
0.0
 10
5.0234287078
 20
4.6355166152
 30
0.0
 10
5.0014780197
 20
4.6310495348
 30
0.0
 10
4.9865880107
 20
4.6298181233
 30
0.0
 10
4.9791455455
 20
4.6296522228
 30
0.0
  0
SPLINE
  5
543
100
AcDbEntity
  8
0
100
AcDbSpline
 62
9
  6
CONTINUOUS
 70
0
 71
3
 72
11
 73
7
 74
0
 42
0.0000001
 43
0.0000001
 44
0.0000000001
 40
0.0
 40
0.0
 40
0.0
 40
0.0
 40
0.2474603821
 40
0.4966765939
 40
0.7476997913
 40
1.0
 40
1.0
 40
1.0
 40
1.0
 10
6.5992353135
 20
5.0248626018
 30
0.0
 10
6.5905743232
 20
5.0156945525
 30
0.0
 10
6.574078577
 20
4.9964277213
 30
0.0
 10
6.5524165094
 20
4.9649863066
 30
0.0
 10
6.5343179286
 20
4.9310769248
 30
0.0
 10
6.5250296297
 20
4.9070784286
 30
0.0
 10
6.5211807859
 20
4.8948091523
 30
0.0
  0
LINE
  5
544
100
AcDbEntity
  8
DTM-AXIS
100
AcDbLine
 62
7
  6
CONTINUOUS
 10
6.5762358662
 20
5.1192303569
 11
6.5754237277
 21
5.1190908998
  0
LINE
  5
545
100
AcDbEntity
  8
DTM-AXIS
100
AcDbLine
 62
7
  6
CONTINUOUS
 10
6.5754237277
 20
5.1190908998
 11
6.3912570039
 21
5.0873756904
  0
SPLINE
  5
546
100
AcDbEntity
  8
DTM-AXIS
100
AcDbSpline
 62
7
  6
CONTINUOUS
 70
0
 71
3
 72
9
 73
5
 74
0
 42
0.0000001
 43
0.0000001
 44
0.0000000001
 40
0.0
 40
0.0
 40
0.0
 40
0.0
 40
0.2428015481
 40
1.0
 40
1.0
 40
1.0
 40
1.0
 10
6.3912570039
 20
5.0873756904
 30
0.0
 10
6.3906881413
 20
5.0872155125
 30
0.0
 10
6.3883661919
 20
5.0864820224
 30
0.0
 10
6.3861380592
 20
5.0854631714
 30
0.0
 10
6.3845243239
 20
5.0845728694
 30
0.0
  0
SPLINE
  5
547
100
AcDbEntity
  8
0
100
AcDbSpline
 62
7
  6
CONTINUOUS
 70
0
 71
3
 72
14
 73
10
 74
0
 42
0.0000001
 43
0.0000001
 44
0.0000000001
 40
0.0
 40
0.0
 40
0.0
 40
0.0
 40
0.1250685723
 40
0.2501383785
 40
0.375154491
 40
0.5001588878
 40
0.6251779253
 40
0.7501998402
 40
1.0
 40
1.0
 40
1.0
 40
1.0
 10
2.7006694846
 20
4.6821405785
 30
0.0
 10
2.7047222182
 20
4.6737231062
 30
0.0
 10
2.7135577894
 20
4.6572283295
 30
0.0
 10
2.7288956287
 20
4.6337353234
 30
0.0
 10
2.7462134569
 20
4.6116642669
 30
0.0
 10
2.7653781524
 20
4.5911835831
 30
0.0
 10
2.7862572477
 20
4.5724469028
 30
0.0
 10
2.8161330603
 20
4.5500004691
 30
0.0
 10
2.8406933535
 20
4.5361672683
 30
0.0
 10
2.8576920439
 20
4.5284719149
 30
0.0
  0
SPLINE
  5
548
100
AcDbEntity
  8
DTM-AXIS
100
AcDbSpline
 62
9
  6
CONTINUOUS
 70
0
 71
3
 72
26
 73
22
 74
0
 42
0.0000001
 43
0.0000001
 44
0.0000000001
 40
0.0
 40
0.0
 40
0.0
 40
0.0
 40
0.2095247219
 40
0.4025068503
 40
0.5743396915
 40
0.6510256356
 40
0.7209393777
 40
0.7836697805
 40
0.8388518932
 40
0.8861716755
 40
0.9068009961
 40
0.9253736376
 40
0.9418682181
 40
0.9562688004
 40
0.9685668552
 40
0.9787648056
 40
0.9830827474
 40
0.9868865825
 40
0.9901858838
 40
0.9929962219
 40
1.0
 40
1.0
 40
1.0
 40
1.0
 10
3.6976932784
 20
4.7390136249
 30
0.0
 10
3.6976694997
 20
4.727839949
 30
0.0
 10
3.6975599933
 20
4.7063748247
 30
0.0
 10
3.697177421
 20
4.6757480839
 30
0.0
 10
3.6966607813
 20
4.6522084461
 30
0.0
 10
3.69611198
 20
4.6352355393
 30
0.0
 10
3.6956584607
 20
4.6240812829
 30
0.0
 10
3.695149593
 20
4.6140774363
 30
0.0
 10
3.694587611
 20
4.6052834696
 30
0.0
 10
3.6940553981
 20
4.5987380529
 30
0.0
 10
3.693590947
 20
4.5941472378
 30
0.0
 10
3.6932453612
 20
4.5911970295
 30
0.0
 10
3.6928869659
 20
4.5885832117
 30
0.0
 10
3.692516971
 20
4.5863093804
 30
0.0
 10
3.6921360865
 20
4.5843783976
 30
0.0
 10
3.6917954501
 20
4.5829890446
 30
0.0
 10
3.6915100455
 20
4.5820537049
 30
0.0
 10
3.6913068769
 20
4.5814810115
 30
0.0
 10
3.6910975812
 20
4.5809894792
 30
0.0
 10
3.6907869863
 20
4.5803884795
 30
0.0
 10
3.6903752105
 20
4.5798686478
 30
0.0
 10
3.6900017074
 20
4.5798686531
 30
0.0
  0
SPLINE
  5
549
100
AcDbEntity
  8
DTM-AXIS
100
AcDbSpline
 62
9
  6
CONTINUOUS
 70
0
 71
3
 72
11
 73
7
 74
0
 42
0.0000001
 43
0.0000001
 44
0.0000000001
 40
0.0
 40
0.0
 40
0.0
 40
0.0
 40
0.2808122451
 40
0.5439737971
 40
0.7850365894
 40
1.0
 40
1.0
 40
1.0
 40
1.0
 10
3.6734345532
 20
4.7373489909
 30
0.0
 10
3.6734465861
 20
4.728011055
 30
0.0
 10
3.6735119582
 20
4.7099221671
 30
0.0
 10
3.6737166738
 20
4.6838177773
 30
0.0
 10
3.6740459425
 20
4.6599044981
 30
0.0
 10
3.6743710353
 20
4.6447433377
 30
0.0
 10
3.6745638563
 20
4.6375976885
 30
0.0
  0
SPLINE
  5
54A
100
AcDbEntity
  8
DTM-AXIS
100
AcDbSpline
 62
9
  6
CONTINUOUS
 70
0
 71
3
 72
25
 73
21
 74
0
 42
0.0000001
 43
0.0000001
 44
0.0000000001
 40
0.0
 40
0.0
 40
0.0
 40
0.0
 40
0.2270470206
 40
0.427001062
 40
0.5163225575
 40
0.5983005987
 40
0.6727995014
 40
0.7396971685
 40
0.7988741151
 40
0.8502436195
 40
0.8937792448
 40
0.9294826759
 40
0.9444113094
 40
0.9574073968
 40
0.9685011712
 40
0.977746309
 40
0.9852367249
 40
0.9911497859
 40
0.9958432281
 40
1.0
 40
1.0
 40
1.0
 40
1.0
 10
3.6745638563
 20
4.6375976885
 30
0.0
 10
3.674685163
 20
4.6331022519
 30
0.0
 10
3.6749429133
 20
4.6246485498
 30
0.0
 10
3.6753608876
 20
4.6144301088
 30
0.0
 10
3.6757417283
 20
4.6070865637
 30
0.0
 10
3.6760362821
 20
4.602226928
 30
0.0
 10
3.6763506676
 20
4.5978136808
 30
0.0
 10
3.676683652
 20
4.5938548039
 30
0.0
 10
3.677035332
 20
4.5903576551
 30
0.0
 10
3.6774065071
 20
4.5873280809
 30
0.0
 10
3.677795347
 20
4.5847701786
 30
0.0
 10
3.6781495022
 20
4.5829379254
 30
0.0
 10
3.6784511458
 20
4.5817139939
 30
0.0
 10
3.6786681483
 20
4.5809719375
 30
0.0
 10
3.6788894306
 20
4.5803493495
 30
0.0
 10
3.6791148574
 20
4.5798454915
 30
0.0
 10
3.6793449712
 20
4.5794586446
 30
0.0
 10
3.6795818464
 20
4.5791860348
 30
0.0
 10
3.6798357926
 20
4.5790268279
 30
0.0
 10
3.6800189131
 20
4.5790121812
 30
0.0
 10
3.6801000706
 20
4.5790260401
 30
0.0
  0
SPLINE
  5
54B
100
AcDbEntity
  8
DTM-AXIS
100
AcDbSpline
 62
9
  6
CONTINUOUS
 70
0
 71
3
 72
9
 73
5
 74
0
 42
0.0000001
 43
0.0000001
 44
0.0000000001
 40
0.0
 40
0.0
 40
0.0
 40
0.0
 40
0.4898390651
 40
1.0
 40
1.0
 40
1.0
 40
1.0
 10
3.6734345532
 20
4.7373489909
 30
0.0
 10
3.6773660027
 20
4.7379210962
 30
0.0
 10
3.6854423204
 20
4.7387562664
 30
0.0
 10
3.6935556039
 20
4.7390198191
 30
0.0
 10
3.6976932784
 20
4.7390136554
 30
0.0
  0
LINE
  5
54C
100
AcDbEntity
  8
DTM-AXIS
100
AcDbLine
 62
9
  6
CONTINUOUS
 10
3.6733211086
 20
4.8160891243
 11
3.6734345573
 21
4.7373489879
  0
LINE
  5
54D
100
AcDbEntity
  8
DTM-AXIS
100
AcDbLine
 62
9
  6
CONTINUOUS
 10
3.6978740867
 20
4.8160891249
 11
3.6976932784
 21
4.7390136249
  0
LINE
  5
54E
100
AcDbEntity
  8
DTM-AXIS
100
AcDbLine
 62
9
  6
CONTINUOUS
 10
3.6734345935
 20
4.8948292881
 11
3.6733212483
 21
4.8160891243
  0
SPLINE
  5
54F
100
AcDbEntity
  8
DTM-AXIS
100
AcDbSpline
 62
9
  6
CONTINUOUS
 70
0
 71
3
 72
9
 73
5
 74
0
 42
0.0000001
 43
0.0000001
 44
0.0000000001
 40
0.0
 40
0.0
 40
0.0
 40
0.0
 40
0.4898390059
 40
1.0
 40
1.0
 40
1.0
 40
1.0
 10
3.6734345935
 20
4.8948292881
 30
0.0
 10
3.6773660373
 20
4.8942571932
 30
0.0
 10
3.685442341
 20
4.8934220267
 30
0.0
 10
3.6935556103
 20
4.8931584618
 30
0.0
 10
3.6976932784
 20
4.8931646188
 30
0.0
  0
LINE
  5
550
100
AcDbEntity
  8
DTM-AXIS
100
AcDbLine
 62
9
  6
CONTINUOUS
 10
3.6976932784
 20
4.8931646249
 11
3.6978740867
 21
4.8160891249
  0
SPLINE
  5
551
100
AcDbEntity
  8
0
100
AcDbSpline
 62
7
  6
CONTINUOUS
 70
0
 71
3
 72
14
 73
10
 74
0
 42
0.0000001
 43
0.0000001
 44
0.0000000001
 40
0.0
 40
0.0
 40
0.0
 40
0.0
 40
0.2498003574
 40
0.3748223748
 40
0.4998414837
 40
0.6248458536
 40
0.7498618347
 40
0.8749315014
 40
1.0
 40
1.0
 40
1.0
 40
1.0
 10
7.0714069098
 20
4.528477536
 30
0.0
 10
7.0884045581
 20
4.5361732923
 30
0.0
 10
7.1129632682
 20
4.5500068609
 30
0.0
 10
7.1428370761
 20
4.5724533449
 30
0.0
 10
7.1637147265
 20
4.5911898505
 30
0.0
 10
7.1828780753
 20
4.6116701388
 30
0.0
 10
7.2001946586
 20
4.6337406155
 30
0.0
 10
7.2155314015
 20
4.6572328702
 30
0.0
 10
7.2243663501
 20
4.6737270521
 30
0.0
 10
7.2284188031
 20
4.68214421
 30
0.0
  0
SPLINE
  5
552
100
AcDbEntity
  8
DTM-AXIS
100
AcDbSpline
 62
7
  6
CONTINUOUS
 70
0
 71
3
 72
9
 73
5
 74
0
 42
0.0000001
 43
0.0000001
 44
0.0000000001
 40
0.0
 40
0.0
 40
0.0
 40
0.0
 40
0.2428015481
 40
1.0
 40
1.0
 40
1.0
 40
1.0
 10
3.5378295346
 20
5.0873756904
 30
0.0
 10
3.5383983972
 20
5.0872155125
 30
0.0
 10
3.5407203466
 20
5.0864820224
 30
0.0
 10
3.5429484792
 20
5.0854631714
 30
0.0
 10
3.5445622146
 20
5.0845728694
 30
0.0
  0
LINE
  5
553
100
AcDbEntity
  8
DTM-AXIS
100
AcDbLine
 62
7
  6
CONTINUOUS
 10
3.3528506722
 20
5.1192303569
 11
3.3536628108
 21
5.1190908998
  0
LINE
  5
554
100
AcDbEntity
  8
DTM-AXIS
100
AcDbLine
 62
7
  6
CONTINUOUS
 10
3.3536628108
 20
5.1190908998
 11
3.5378295346
 21
5.0873756904
  0
SPLINE
  5
555
100
AcDbEntity
  8
0
100
AcDbSpline
 62
9
  6
CONTINUOUS
 70
0
 71
3
 72
11
 73
7
 74
0
 42
0.0000001
 43
0.0000001
 44
0.0000000001
 40
0.0
 40
0.0
 40
0.0
 40
0.0
 40
0.2419946091
 40
0.4891874578
 40
0.7420186827
 40
1.0
 40
1.0
 40
1.0
 40
1.0
 10
5.2049052993
 20
5.0322541977
 30
0.0
 10
5.2080942039
 20
5.0312623285
 30
0.0
 10
5.2146827823
 20
5.0296889341
 30
0.0
 10
5.2248916519
 20
5.0286071144
 30
0.0
 10
5.2353749388
 20
5.028786467
 30
0.0
 10
5.2423795608
 20
5.0297265251
 30
0.0
 10
5.2458760229
 20
5.0303972839
 30
0.0
  0
SPLINE
  5
556
100
AcDbEntity
  8
0
100
AcDbSpline
 62
9
  6
CONTINUOUS
 70
0
 71
3
 72
11
 73
7
 74
0
 42
0.0000001
 43
0.0000001
 44
0.0000000001
 40
0.0
 40
0.0
 40
0.0
 40
0.0
 40
0.2743408334
 40
0.5326111735
 40
0.7742128741
 40
1.0
 40
1.0
 40
1.0
 40
1.0
 10
5.1874752704
 20
5.0482317176
 30
0.0
 10
5.1930578929
 20
5.0475284218
 30
0.0
 10
5.2038648423
 20
5.0458789548
 30
0.0
 10
5.2193526012
 20
5.04227441
 30
0.0
 10
5.2334362816
 20
5.0373591569
 30
0.0
 10
5.2419896322
 20
5.0329151494
 30
0.0
 10
5.2458760229
 20
5.0303969589
 30
0.0
  0
SPLINE
  5
557
100
AcDbEntity
  8
0
100
AcDbSpline
 62
9
  6
CONTINUOUS
 70
0
 71
3
 72
14
 73
10
 74
0
 42
0.0000001
 43
0.0000001
 44
0.0000000001
 40
0.0
 40
0.0
 40
0.0
 40
0.0
 40
0.119461086
 40
0.2397976911
 40
0.3613153781
 40
0.4844240808
 40
0.6096381151
 40
0.7373756415
 40
1.0
 40
1.0
 40
1.0
 40
1.0
 10
4.7509049886
 20
5.0475148766
 30
0.0
 10
4.7487820482
 20
5.0455651139
 30
0.0
 10
4.7442634217
 20
5.0419218417
 30
0.0
 10
4.7368257069
 20
5.0373327272
 30
0.0
 10
4.7287951329
 20
5.033663843
 30
0.0
 10
4.720265956
 20
5.0309687528
 30
0.0
 10
4.7113311329
 20
5.029266556
 30
0.0
 10
4.6989057857
 20
5.0283462588
 30
0.0
 10
4.6894337859
 20
5.0292030032
 30
0.0
 10
4.6832105155
 20
5.0303970186
 30
0.0
  0
SPLINE
  5
558
100
AcDbEntity
  8
0
100
AcDbSpline
 62
9
  6
CONTINUOUS
 70
0
 71
3
 72
11
 73
7
 74
0
 42
0.0000001
 43
0.0000001
 44
0.0000000001
 40
0.0
 40
0.0
 40
0.0
 40
0.0
 40
0.2419944195
 40
0.4891871811
 40
0.7420184759
 40
1.0
 40
1.0
 40
1.0
 40
1.0
 10
4.7241807984
 20
4.5999236245
 30
0.0
 10
4.7209919497
 20
4.6009155582
 30
0.0
 10
4.714403471
 20
4.602489082
 30
0.0
 10
4.7041947196
 20
4.6035710807
 30
0.0
 10
4.6937115253
 20
4.6033918868
 30
0.0
 10
4.6867069539
 20
4.6024519179
 30
0.0
 10
4.6832105155
 20
4.6017811992
 30
0.0
  0
SPLINE
  5
559
100
AcDbEntity
  8
DTM-AXIS
100
AcDbSpline
 62
9
  6
CONTINUOUS
 70
0
 71
3
 72
27
 73
23
 74
0
 42
0.0000001
 43
0.0000001
 44
0.0000000001
 40
0.0
 40
0.0
 40
0.0
 40
0.0
 40
0.0039364989
 40
0.0084639097
 40
0.0142751911
 40
0.0217141236
 40
0.0261006551
 40
0.0309479587
 40
0.0420569846
 40
0.0550916879
 40
0.0700764821
 40
0.0870228794
 40
0.1059364773
 40
0.1496694514
 40
0.2012700685
 40
0.2606885127
 40
0.3278077811
 40
0.4024993894
 40
0.4846263145
 40
0.5740185021
 40
0.7737728847
 40
1.0
 40
1.0
 40
1.0
 40
1.0
 10
3.6801000844
 20
5.0531522122
 30
0.0
 10
3.6800138289
 20
5.0531669426
 30
0.0
 10
3.6798165723
 20
5.0531474638
 30
0.0
 10
3.679547962
 20
5.0529633525
 30
0.0
 10
3.6792982989
 20
5.0526536545
 30
0.0
 10
3.6791077299
 20
5.052309499
 30
0.0
 10
3.6789544295
 20
5.051972027
 30
0.0
 10
3.6787870744
 20
5.0515517494
 30
0.0
 10
3.6785846517
 20
5.050939391
 30
0.0
 10
3.6783563748
 20
5.0500998174
 30
0.0
 10
3.6781330501
 20
5.0491253221
 30
0.0
 10
3.6779145715
 20
5.0480162751
 30
0.0
 10
3.6776152113
 20
5.0462723768
 30
0.0
 10
3.6772620819
 20
5.0437569067
 30
0.0
 10
3.6768765579
 20
5.0403383395
 30
0.0
 10
3.6765132262
 20
5.0363949983
 30
0.0
 10
3.6761701667
 20
5.0319349299
 30
0.0
 10
3.675848953
 20
5.0269672988
 30
0.0
 10
3.6755502239
 20
5.02150238
 30
0.0
 10
3.6751658068
 20
5.013258246
 30
0.0
 10
3.674751494
 20
5.001809234
 30
0.0
 10
3.6744988832
 20
4.9923433837
 30
0.0
 10
3.674381134
 20
4.987315971
 30
0.0
  0
SPLINE
  5
55A
100
AcDbEntity
  8
DTM-AXIS
100
AcDbSpline
 62
9
  6
CONTINUOUS
 70
0
 71
3
 72
11
 73
7
 74
0
 42
0.0000001
 43
0.0000001
 44
0.0000000001
 40
0.0
 40
0.0
 40
0.0
 40
0.0
 40
0.2197005116
 40
0.4618940397
 40
0.7232204586
 40
1.0
 40
1.0
 40
1.0
 40
1.0
 10
3.674381134
 20
4.987315971
 30
0.0
 10
3.67422253
 20
4.9805442291
 30
0.0
 10
3.6739528243
 20
4.9663059375
 30
0.0
 10
3.6736767625
 20
4.9440098841
 30
0.0
 10
3.6735025915
 20
4.9199529814
 30
0.0
 10
3.6734455007
 20
4.9033626546
 30
0.0
 10
3.6734345489
 20
4.8948292557
 30
0.0
  0
SPLINE
  5
55B
100
AcDbEntity
  8
0
100
AcDbSpline
 62
9
  6
CONTINUOUS
 70
0
 71
3
 72
14
 73
10
 74
0
 42
0.0000001
 43
0.0000001
 44
0.0000000001
 40
0.0
 40
0.0
 40
0.0
 40
0.0
 40
0.1194618425
 40
0.2397991093
 40
0.3613172836
 40
0.4844262392
 40
0.6096402161
 40
0.7373773374
 40
1.0
 40
1.0
 40
1.0
 40
1.0
 10
5.1781838445
 20
4.5846631995
 30
0.0
 10
5.1803067781
 20
4.586612843
 30
0.0
 10
5.1848253488
 20
4.5902559006
 30
0.0
 10
5.1922628847
 20
4.5948447863
 30
0.0
 10
5.2002932012
 20
4.5985135412
 30
0.0
 10
5.20882206
 20
4.6012086128
 30
0.0
 10
5.217756525
 20
4.6029108977
 30
0.0
 10
5.2301813482
 20
4.6038314527
 30
0.0
 10
5.2396529758
 20
4.6029750455
 30
0.0
 10
5.2458760229
 20
4.6017812948
 30
0.0
  0
SPLINE
  5
55C
100
AcDbEntity
  8
DTM-AXIS
100
AcDbSpline
 62
9
  6
CONTINUOUS
 70
0
 71
3
 72
26
 73
22
 74
0
 42
0.0000001
 43
0.0000001
 44
0.0000000001
 40
0.0
 40
0.0
 40
0.0
 40
0.0
 40
0.0070037952
 40
0.0098141276
 40
0.0131134214
 40
0.0169172478
 40
0.02123518
 40
0.0314331126
 40
0.0437311561
 40
0.0581317328
 40
0.0746263131
 40
0.0931989578
 40
0.1138282818
 40
0.1611480655
 40
0.2163301734
 40
0.2790605697
 40
0.3489743055
 40
0.4256602436
 40
0.5974930846
 40
0.7904752331
 40
1.0
 40
1.0
 40
1.0
 40
1.0
 10
3.6900017233
 20
5.0523095966
 30
0.0
 10
3.6903752273
 20
5.0523096017
 30
0.0
 10
3.6907870062
 20
5.051789772
 30
0.0
 10
3.6910975981
 20
5.0511887701
 30
0.0
 10
3.6913068908
 20
5.050697238
 30
0.0
 10
3.6915100552
 20
5.0501245445
 30
0.0
 10
3.6917954521
 20
5.0491892045
 30
0.0
 10
3.6921360775
 20
5.047799851
 30
0.0
 10
3.6925169533
 20
5.0458688685
 30
0.0
 10
3.6928869427
 20
5.0435950374
 30
0.0
 10
3.6932453391
 20
5.04098122
 30
0.0
 10
3.693590932
 20
5.0380310123
 30
0.0
 10
3.6940553959
 20
5.0334401983
 30
0.0
 10
3.6945876199
 20
5.0268947827
 30
0.0
 10
3.6951496049
 20
5.0181008169
 30
0.0
 10
3.695658469
 20
5.0080969714
 30
0.0
 10
3.6961119859
 20
4.9969427163
 30
0.0
 10
3.6966607582
 20
4.9799698098
 30
0.0
 10
3.697177419
 20
4.9564301731
 30
0.0
 10
3.6975600624
 20
4.92580343
 30
0.0
 10
3.6976694165
 20
4.9043383026
 30
0.0
 10
3.6976932784
 20
4.8931646249
 30
0.0
  0
SPLINE
  5
55D
100
AcDbEntity
  8
0
100
AcDbSpline
 62
9
  6
CONTINUOUS
 70
0
 71
3
 72
15
 73
11
 74
0
 42
0.0000001
 43
0.0000001
 44
0.0000000001
 40
0.0
 40
0.0
 40
0.0
 40
0.0
 40
0.1248782349
 40
0.2498734428
 40
0.3749006504
 40
0.4999988596
 40
0.6250956602
 40
0.7501220351
 40
0.8751198995
 40
1.0
 40
1.0
 40
1.0
 40
1.0
 10
3.407899519
 20
4.7373585118
 30
0.0
 10
3.4096718666
 20
4.7437597563
 30
0.0
 10
3.4128860606
 20
4.7566638552
 30
0.0
 10
3.4165367236
 20
4.7762807856
 30
0.0
 10
3.4188202384
 20
4.7961203859
 30
0.0
 10
3.4195746072
 20
4.8160830467
 30
0.0
 10
3.4188218133
 20
4.836045799
 30
0.0
 10
3.4165363016
 20
4.8558852366
 30
0.0
 10
3.4128846288
 20
4.8755021218
 30
0.0
 10
3.4096721146
 20
4.8884068094
 30
0.0
 10
3.4079016551
 20
4.8948086793
 30
0.0
  0
SPLINE
  5
55E
100
AcDbEntity
  8
0
100
AcDbSpline
 62
9
  6
CONTINUOUS
 70
0
 71
3
 72
12
 73
8
 74
0
 42
0.0000001
 43
0.0000001
 44
0.0000000001
 40
0.0
 40
0.0
 40
0.0
 40
0.0
 40
0.247491489
 40
0.4967279323
 40
0.6220323383
 40
0.7477331384
 40
1.0
 40
1.0
 40
1.0
 40
1.0
 10
3.3291672203
 20
4.6065962029
 30
0.0
 10
3.3379092841
 20
4.6158029262
 30
0.0
 10
3.3545619514
 20
4.6351555405
 30
0.0
 10
3.3727491944
 20
4.6614562844
 30
0.0
 10
3.3855060796
 20
4.6837385498
 30
0.0
 10
3.3970010904
 20
4.7068663997
 30
0.0
 10
3.404027043
 20
4.7250111012
 30
0.0
 10
3.4079012073
 20
4.7373585117
 30
0.0
  0
LINE
  5
55F
100
AcDbEntity
  8
DTM-AXIS
100
AcDbLine
 62
7
  6
CONTINUOUS
 10
3.3528506722
 20
5.1092376126
 11
3.5378295346
 21
5.0773580145
  0
SPLINE
  5
560
100
AcDbEntity
  8
DTM-AXIS
100
AcDbSpline
 62
7
  6
CONTINUOUS
 70
0
 71
3
 72
9
 73
5
 74
0
 42
0.0000001
 43
0.0000001
 44
0.0000000001
 40
0.0
 40
0.0
 40
0.0
 40
0.0
 40
0.2422244092
 40
1.0
 40
1.0
 40
1.0
 40
1.0
 10
3.5378295346
 20
5.0773580145
 30
0.0
 10
3.5383990924
 20
5.0771899943
 30
0.0
 10
3.5407276178
 20
5.0764195469
 30
0.0
 10
3.5429538755
 20
5.0753525726
 30
0.0
 10
3.5445622146
 20
5.0744228567
 30
0.0
  0
SPLINE
  5
561
100
AcDbEntity
  8
0
100
AcDbSpline
 62
9
  6
CONTINUOUS
 70
0
 71
3
 72
11
 73
7
 74
0
 42
0.0000001
 43
0.0000001
 44
0.0000000001
 40
0.0
 40
0.0
 40
0.0
 40
0.0
 40
0.2523201831
 40
0.503347815
 40
0.7525579066
 40
1.0
 40
1.0
 40
1.0
 40
1.0
 10
3.4079059425
 20
4.8948086796
 30
0.0
 10
3.4040316907
 20
4.9071588432
 30
0.0
 10
3.3946717348
 20
4.931311802
 30
0.0
 10
3.3764144656
 20
4.9654224323
 30
0.0
 10
3.3545542376
 20
4.9970289949
 30
0.0
 10
3.3379061513
 20
5.0163817907
 30
0.0
 10
3.3291656683
 20
5.0255864093
 30
0.0
  0
ENDSEC
  0
SECTION
  2
OBJECTS
  0
DICTIONARY
  5
C
100
AcDbDictionary
280
0
281
1
  3
ACAD_GROUP
350
D
  3
ACAD_MLINESTYLE
350
17
  3
ACAD_LAYOUT
350
1A
  3
ACAD_PLOTSETTINGS
350
19
  3
ACAD_PLOTSTYLENAME
350
E
  0
DICTIONARY
  5
D
102
{ACAD_REACTORS
330
C
102
}
100
AcDbDictionary
280
0
281
1
  0
ACDBDICTIONARYWDFLT
  5
E
102
{ACAD_REACTORS
330
C
102
}
100
AcDbDictionary
281
1
  3
Normal
350
F
100
AcDbDictionaryWithDefault
340
F
  0
DICTIONARY
  5
17
102
{ACAD_REACTORS
330
C
102
}
100
AcDbDictionary
280
0
281
1
  3
Standard
350
18
  0
DICTIONARY
  5
19
102
{ACAD_REACTORS
330
C
102
}
100
AcDbDictionary
281
1
  0
DICTIONARY
  5
1A
102
{ACAD_REACTORS
330
C
102
}
100
AcDbDictionary
281
1
  3
Model
350
562
  3
Layout1
350
563
  0
ACDBPLACEHOLDER
  5
F
102
{ACAD_REACTORS
330
E
102
}
  0
MLINESTYLE
  5
18
102
{ACAD_REACTORS
330
17
102
}
100
AcDbMlineStyle
  2
STANDARD
 70
0
  3

 62
256
 51
90.0
 52
90.0
 71
2
 49
0.5
 62
256
  6
BYLAYER
 49
-0.5
 62
256
  6
BYLAYER
  0
LAYOUT
  5
562
102
{ACAD_REACTORS
330
1A
102
}
100
AcDbPlotSettings
  1

  2
none_device
  4
ANSI_A_(11.00_x_8.50_Inches)
  6

 40
0.0
 41
0.0
 42
0.0
 43
0.0
 44
279.4
 45
215.9
 46
0.0
 47
0.0
 48
0.0
 49
0.0
140
0.0
141
0.0
142
1.0
143
1.0
 70
1024
 72
0
 73
0
 74
0
  7

 75
0
147
1.0
148
0.0
149
0.0
100
AcDbLayout
  1
Model
 70
0
 71
0
 10
0.0
 20
0.0
 11
11.0
 21
8.5
 12
0.0
 22
0.0
 32
0.0
 14
0.0
 24
0.0
 34
0.0
 15
0.0
 25
0.0
 35
0.0
146
0.0
 13
0.0
 23
0.0
 33
0.0
 16
1.0
 26
0.0
 36
0.0
 17
0.0
 27
1.0
 37
0.0
 76
0
330
22C
345
0
346
0
  0
LAYOUT
  5
563
102
{ACAD_REACTORS
330
1A
102
}
100
AcDbPlotSettings
  1

  2
none_device
  4
ANSI_A_(11.00_x_8.50_Inches)
  6

 40
0.0
 41
0.0
 42
0.0
 43
0.0
 44
279.4
 45
215.9
 46
0.0
 47
0.0
 48
0.0
 49
0.0
140
0.0
141
0.0
142
1.0
143
1.0
 70
0
 72
0
 73
0
 74
0
  7

 75
0
147
1.0
148
0.0
149
0.0
100
AcDbLayout
  1
Layout1
 70
0
 71
1
 10
0.0
 20
0.0
 11
11.0
 21
8.5
 12
0.0
 22
0.0
 32
0.0
 14
0.0
 24
0.0
 34
0.0
 15
0.0
 25
0.0
 35
0.0
146
0.0
 13
0.0
 23
0.0
 33
0.0
 16
1.0
 26
0.0
 36
0.0
 17
0.0
 27
1.0
 37
0.0
 76
0
330
22D
345
0
346
0
  0
ENDSEC
  0
EOF
