999
DXF file: 1-606HT_FRONT.dxf
999
Pro/ENGINEER 2013150 by Parametric Technology Corporation
  0
SECTION
  2
HEADER
  9
$ACADVER
  1
AC1021
  9
$DWGCODEPAGE
  3
ANSI_1252
  9
$EXTMAX
 10
11.0
 20
8.5
 30
0.0
  9
$EXTMIN
 10
0.0
 20
0.0
 30
0.0
  9
$LIMMIN
 10
0.0
 20
0.0
  9
$LIMMAX
 10
11.0
 20
8.5
  9
$VIEWCTR
 10
5.5
 20
4.25
  9
$VIEWSIZE
 40
8.5
  9
$CLAYER
  8
0
  9
$LTSCALE
 40
0.605
  9
$CELTYPE
  6
BYLAYER
  9
$DIMSCALE
 40
1.0
  9
$DIMASZ
 40
0.1
  9
$DIMEXO
 40
0.0625
  9
$DIMDLI
 40
0.418
  9
$DIMEXE
 40
0.125
  9
$DIMCEN
 40
0.099
  9
$DIMLFAC
 40
1.0
  9
$DIMBLK
  1
_FILLED
  9
$DIMTXT
 40
0.08
  9
$DIMTOL
 70
1
  9
$DIMLIM
 70
0
  9
$DIMTFAC
 40
1.0
  9
$DIMTP
 40
0.001
  9
$DIMTM
 40
0.001
  9
$DIMGAP
 40
0.09
  9
$DIMDSEP
 70
46
  9
$PDMODE
 70
3
  9
$PDSIZE
 40
0.06
  9
$HANDSEED
  5
430
  9
$TILEMODE
 70
1
  9
$MEASUREMENT
 70
0
  9
$INSUNITS
 70
1
  0
ENDSEC
  0
SECTION
  2
CLASSES
  0
CLASS
  1
ACDBDICTIONARYWDFLT
  2
AcDbDictionaryWithDefault
  3
AutoCAD 2000
 90
0
 91
1
280
0
281
0
  0
CLASS
  1
ACDBPLACEHOLDER
  2
AcDbPlaceHolder
  3
AutoCAD 2000
 90
0
 91
1
280
0
281
0
  0
CLASS
  1
LAYOUT
  2
AcDbLayout
  3
AutoCAD 2000
 90
0
 91
0
280
0
281
0
  0
ENDSEC
  0
SECTION
  2
TABLES
  0
TABLE
  2
VPORT
  5
8
100
AcDbSymbolTable
 70
2
  0
VPORT
  5
1F4
100
AcDbSymbolTableRecord
100
AcDbViewportTableRecord
  2
*ACTIVE
 70
0
 10
0.0
 20
0.0
 11
1.0
 21
1.0
 12
5.5
 22
4.25
 13
0.0
 23
0.0
 14
1.0
 24
1.0
 15
0.0
 25
0.0
 16
0.0
 26
0.0
 36
1.0
 17
0.0
 27
0.0
 37
0.0
 40
8.5
 41
1.2941176471
 42
50.0
 43
0.0
 44
0.0
 50
0.0
 51
0.0
 71
0
 72
100
 73
1
 74
1
 75
0
 76
0
 77
0
 78
0
  0
ENDTAB
  0
TABLE
  2
LTYPE
  5
5
100
AcDbSymbolTable
 70
6
  0
LTYPE
  5
14
100
AcDbSymbolTableRecord
100
AcDbLinetypeTableRecord
  2
BYBLOCK
 70
0
  3

 72
65
 73
0
 40
0.0
  0
LTYPE
  5
15
100
AcDbSymbolTableRecord
100
AcDbLinetypeTableRecord
  2
BYLAYER
 70
0
  3

 72
65
 73
0
 40
0.0
  0
LTYPE
  5
16
100
AcDbSymbolTableRecord
100
AcDbLinetypeTableRecord
  2
CONTINUOUS
 70
64
  3
Solid line
 72
65
 73
0
 40
0.0
  0
LTYPE
  5
1F5
100
AcDbSymbolTableRecord
100
AcDbLinetypeTableRecord
  2
CENTER
 70
64
  3
____ _ ____ _ ____ _ ____ _ ____ _ ____ _ ____
 72
65
 73
4
 40
0.6
 49
0.375
 74
0
 49
-0.075
 74
0
 49
0.075
 74
0
 49
-0.075
 74
0
  0
LTYPE
  5
1F6
100
AcDbSymbolTableRecord
100
AcDbLinetypeTableRecord
  2
HIDDEN
 70
64
  3
- - - - - - - - - - - - - - - - - - - -
 72
65
 73
2
 40
0.2
 49
0.1
 74
0
 49
-0.1
 74
0
  0
LTYPE
  5
1F7
100
AcDbSymbolTableRecord
100
AcDbLinetypeTableRecord
  2
PHANTOM
 70
64
  3
_____ _ _ _____ _ _ _____ _ _ _____
 72
65
 73
6
 40
0.8
 49
0.45
 74
0
 49
-0.05
 74
0
 49
0.1
 74
0
 49
-0.05
 74
0
 49
0.1
 74
0
 49
-0.05
 74
0
  0
LTYPE
  5
1F8
100
AcDbSymbolTableRecord
100
AcDbLinetypeTableRecord
  2
DOT
 70
64
  3
. . . . . . . . . . . . . . . . . . . .
 72
65
 73
2
 40
0.2
 49
0.1
 74
0
 49
-0.1
 74
0
  0
LTYPE
  5
1F9
100
AcDbSymbolTableRecord
100
AcDbLinetypeTableRecord
  2
DASHED
 70
64
  3
- - - - - - - - - - - - - - - - - - - -
 72
65
 73
2
 40
0.2
 49
0.1
 74
0
 49
-0.1
 74
0
  0
ENDTAB
  0
TABLE
  2
LAYER
  5
2
100
AcDbSymbolTable
 70
36
  0
LAYER
  5
10
100
AcDbSymbolTableRecord
100
AcDbLayerTableRecord
  2
0
 70
0
 62
7
  6
CONTINUOUS
370
-3
390
F
  0
LAYER
  5
1FA
100
AcDbSymbolTableRecord
100
AcDbLayerTableRecord
  2
DEFAULT_1
 70
0
 62
7
  6
CENTER
370
-3
390
F
  0
LAYER
  5
1FB
100
AcDbSymbolTableRecord
100
AcDbLayerTableRecord
  2
DEFAULT_2
 70
0
 62
8
  6
HIDDEN
370
-3
390
F
  0
LAYER
  5
1FC
100
AcDbSymbolTableRecord
100
AcDbLayerTableRecord
  2
DEFAULT_3
 70
0
 62
7
  6
PHANTOM
370
-3
390
F
  0
LAYER
  5
1FD
100
AcDbSymbolTableRecord
100
AcDbLayerTableRecord
  2
1-511_ASSY_DATUMS
 70
0
 62
7
  6
CONTINUOUS
370
-3
390
F
  0
LAYER
  5
1FE
100
AcDbSymbolTableRecord
100
AcDbLayerTableRecord
  2
ALL_ASSEMBLY_MEMBERS
 70
0
 62
7
  6
CONTINUOUS
370
-3
390
F
  0
LAYER
  5
1FF
100
AcDbSymbolTableRecord
100
AcDbLayerTableRecord
  2
ALL_FEATURES
 70
0
 62
7
  6
CONTINUOUS
370
-3
390
F
  0
LAYER
  5
200
100
AcDbSymbolTableRecord
100
AcDbLayerTableRecord
  2
AXES_FEATURES
 70
0
 62
7
  6
CONTINUOUS
370
-3
390
F
  0
LAYER
  5
201
100
AcDbSymbolTableRecord
100
AcDbLayerTableRecord
  2
CHAMFER_FEATURES
 70
0
 62
7
  6
CONTINUOUS
370
-3
390
F
  0
LAYER
  5
202
100
AcDbSymbolTableRecord
100
AcDbLayerTableRecord
  2
CUT_FEATURES
 70
0
 62
7
  6
CONTINUOUS
370
-3
390
F
  0
LAYER
  5
203
100
AcDbSymbolTableRecord
100
AcDbLayerTableRecord
  2
DATUM_CURVES
 70
0
 62
7
  6
CONTINUOUS
370
-3
390
F
  0
LAYER
  5
204
100
AcDbSymbolTableRecord
100
AcDbLayerTableRecord
  2
DATUM_PLANES
 70
0
 62
7
  6
CONTINUOUS
370
-3
390
F
  0
LAYER
  5
205
100
AcDbSymbolTableRecord
100
AcDbLayerTableRecord
  2
DATUM_POINTS
 70
0
 62
7
  6
CONTINUOUS
370
-3
390
F
  0
LAYER
  5
206
100
AcDbSymbolTableRecord
100
AcDbLayerTableRecord
  2
DEFAULT_COORDINATE_SYSTEM
 70
0
 62
7
  6
CONTINUOUS
370
-3
390
F
  0
LAYER
  5
207
100
AcDbSymbolTableRecord
100
AcDbLayerTableRecord
  2
DEFAULT_DATUM_AXES
 70
0
 62
7
  6
CONTINUOUS
370
-3
390
F
  0
LAYER
  5
208
100
AcDbSymbolTableRecord
100
AcDbLayerTableRecord
  2
DEFAULT_DATUM_PLANES
 70
0
 62
7
  6
CONTINUOUS
370
-3
390
F
  0
LAYER
  5
209
100
AcDbSymbolTableRecord
100
AcDbLayerTableRecord
  2
DIMENSIONS
 70
0
 62
7
  6
CONTINUOUS
370
-3
390
F
  0
LAYER
  5
20A
100
AcDbSymbolTableRecord
100
AcDbLayerTableRecord
  2
HOLE_FEATURES
 70
0
 62
7
  6
CONTINUOUS
370
-3
390
F
  0
LAYER
  5
20B
100
AcDbSymbolTableRecord
100
AcDbLayerTableRecord
  2
NONE
 70
0
 62
7
  6
CONTINUOUS
370
-3
390
F
  0
LAYER
  5
20C
100
AcDbSymbolTableRecord
100
AcDbLayerTableRecord
  2
PART_REFERENCE_DIMENSIONS
 70
0
 62
7
  6
CONTINUOUS
370
-3
390
F
  0
LAYER
  5
20D
100
AcDbSymbolTableRecord
100
AcDbLayerTableRecord
  2
POINTS
 70
0
 62
7
  6
CONTINUOUS
370
-3
390
F
  0
LAYER
  5
20E
100
AcDbSymbolTableRecord
100
AcDbLayerTableRecord
  2
PROTRUSION_FEATURES
 70
0
 62
7
  6
CONTINUOUS
370
-3
390
F
  0
LAYER
  5
20F
100
AcDbSymbolTableRecord
100
AcDbLayerTableRecord
  2
QUILTS
 70
0
 62
7
  6
CONTINUOUS
370
-3
390
F
  0
LAYER
  5
210
100
AcDbSymbolTableRecord
100
AcDbLayerTableRecord
  2
REFERENCE_DIMENSIONS
 70
0
 62
7
  6
CONTINUOUS
370
-3
390
F
  0
LAYER
  5
211
100
AcDbSymbolTableRecord
100
AcDbLayerTableRecord
  2
ROUND_FEATURES
 70
0
 62
7
  6
CONTINUOUS
370
-3
390
F
  0
LAYER
  5
212
100
AcDbSymbolTableRecord
100
AcDbLayerTableRecord
  2
SURFACE_FEATURES
 70
0
 62
7
  6
CONTINUOUS
370
-3
390
F
  0
LAYER
  5
213
100
AcDbSymbolTableRecord
100
AcDbLayerTableRecord
  2
XSEC_DATUMS
 70
0
 62
7
  6
CONTINUOUS
370
-3
390
F
  0
ENDTAB
  0
TABLE
  2
STYLE
  5
3
100
AcDbSymbolTable
 70
1
  0
STYLE
  5
11
100
AcDbSymbolTableRecord
100
AcDbTextStyleTableRecord
  2
STANDARD
 70
0
 40
0.0
 41
0.8
 50
0.0
 71
0
 42
0.2
  3
txt
  4

  0
STYLE
  5
214
100
AcDbSymbolTableRecord
100
AcDbTextStyleTableRecord
  2
TEXTSTYLE_1
 70
0
 40
0.0
 41
0.8
 50
0.0
 71
0
 42
0.2
  3
gdt
  4

  0
ENDTAB
  0
TABLE
  2
VIEW
  5
6
100
AcDbSymbolTable
 70
0
  0
ENDTAB
  0
TABLE
  2
UCS
  5
7
100
AcDbSymbolTable
 70
0
  0
ENDTAB
  0
TABLE
  2
APPID
  5
9
100
AcDbSymbolTable
 70
1
  0
APPID
  5
215
100
AcDbSymbolTableRecord
100
AcDbRegAppTableRecord
  2
ACAD
 70
0
  0
ENDTAB
  0
TABLE
  2
BLOCK_RECORD
  5
1
100
AcDbSymbolTable
 70
0
  0
BLOCK_RECORD
  5
216
100
AcDbSymbolTableRecord
100
AcDbBlockTableRecord
  2
*Model_Space
  0
BLOCK_RECORD
  5
217
100
AcDbSymbolTableRecord
100
AcDbBlockTableRecord
  2
*Paper_Space
  0
ENDTAB
  0
TABLE
  2
DIMSTYLE
  5
A
100
AcDbSymbolTable
 70
1
100
AcDbDimStyleTable
 71
0
  0
DIMSTYLE
105
218
100
AcDbSymbolTableRecord
100
AcDbDimStyleTableRecord
  2
STANDARD
 70
0
  3

  4

 40
1.0
 41
0.1
 42
0.0625
 43
0.38
 44
0.125
 45
0.0
 46
0.0
 47
0.001
 48
0.001
140
0.08
141
0.09
142
0.0
143
25.4
144
1.0
145
0.0
146
1.0
147
0.09
 71
1.0
 72
0.0
 73
1
 74
1
 75
0
 76
0
 77
0
 78
4
170
0
171
2
172
0
173
0
174
0
175
0
176
0
177
0
178
0
270
2
271
3
272
3
273
2
274
2
275
0
280
0
281
0
282
0
283
1
284
4
285
0
286
0
287
3
288
0
340
11
278
46
  0
ENDTAB
  0
ENDSEC
  0
SECTION
  2
BLOCKS
  0
BLOCK
  5
20
100
AcDbEntity
  8
0
100
AcDbBlockBegin
  2
*Model_Space
 70
0
 10
0.0
 20
0.0
 30
0.0
  3
*Model_Space
  1

  0
ENDBLK
  5
21
100
AcDbEntity
  8
0
100
AcDbBlockEnd
  0
BLOCK
  5
1C
100
AcDbEntity
  8
0
100
AcDbBlockBegin
  2
*Paper_Space
 70
0
 10
0.0
 20
0.0
 30
0.0
  3
*Paper_Space
  1

  0
ENDBLK
  5
1D
100
AcDbEntity
  8
0
100
AcDbBlockEnd
  0
ENDSEC
  0
SECTION
  2
ENTITIES
  0
LINE
  5
219
100
AcDbEntity
  8
0
100
AcDbLine
 62
7
  6
CONTINUOUS
 10
0.0
 20
0.0
 11
0.0
 21
8.5
  0
LINE
  5
21A
100
AcDbEntity
  8
0
100
AcDbLine
 62
7
  6
CONTINUOUS
 10
0.0
 20
0.0
 11
11.0
 21
0.0
  0
LINE
  5
21B
100
AcDbEntity
  8
0
100
AcDbLine
 62
7
  6
CONTINUOUS
 10
0.0
 20
8.5
 11
11.0
 21
8.5
  0
LINE
  5
21C
100
AcDbEntity
  8
0
100
AcDbLine
 62
7
  6
CONTINUOUS
 10
11.0
 20
0.0
 11
11.0
 21
8.5
  0
LINE
  5
21D
100
AcDbEntity
  8
ALL_FEATURES
100
AcDbLine
 62
7
  6
CONTINUOUS
 10
3.9445843856
 20
2.7676362444
 11
5.086316669
 21
2.7676362444
  0
LWPOLYLINE
  5
21E
100
AcDbEntity
  8
ALL_FEATURES
100
AcDbPolyline
 62
7
  6
CONTINUOUS
 90
18
 70
0
 10
3.9827690414
 20
2.8857596395
 10
3.9791757502
 20
2.8854864186
 10
3.9756170099
 20
2.8848845947
 10
3.9721229758
 20
2.8839577071
 10
3.9687230712
 20
2.8827119036
 10
3.9654470324
 20
2.8811563686
 10
3.962324468
 20
2.8793036519
 10
3.9593822704
 20
2.8771682905
 10
3.9566465107
 20
2.8747676968
 10
3.9541428961
 20
2.8721232996
 10
3.9518932706
 20
2.8692574306
 10
3.9499172484
 20
2.8661942524
 10
3.9482331005
 20
2.8629616706
 10
3.9468552024
 20
2.8595874261
 10
3.9457952975
 20
2.8561004585
 10
3.9450627319
 20
2.8525327575
 10
3.9446631788
 20
2.8489156897
 10
3.9445831101
 20
2.8464060025
  0
LINE
  5
21F
100
AcDbEntity
  8
ALL_FEATURES
100
AcDbLine
 62
9
  6
CONTINUOUS
 10
4.9379870116
 20
2.9251165594
 11
4.5872986239
 21
2.9251165594
  0
LINE
  5
220
100
AcDbEntity
  8
ALL_FEATURES
100
AcDbLine
 62
9
  6
CONTINUOUS
 10
4.4436024307
 20
2.9251165594
 11
4.092914043
 21
2.9251165594
  0
LINE
  5
221
100
AcDbEntity
  8
ALL_FEATURES
100
AcDbLine
 62
9
  6
CONTINUOUS
 10
5.0098351082
 20
3.0383055357
 11
4.9709256455
 21
3.0383055357
  0
LINE
  5
222
100
AcDbEntity
  8
ALL_FEATURES
100
AcDbLine
 62
9
  6
CONTINUOUS
 10
4.55435999
 20
3.0383055357
 11
4.4765410646
 21
3.0383055357
  0
LINE
  5
223
100
AcDbEntity
  8
ALL_FEATURES
100
AcDbLine
 62
9
  6
CONTINUOUS
 10
4.0599754091
 20
3.0383055357
 11
4.0210659464
 21
3.0383055357
  0
LINE
  5
224
100
AcDbEntity
  8
ALL_FEATURES
100
AcDbLine
 62
7
  6
CONTINUOUS
 10
4.9704650295
 20
3.0776756145
 11
4.9512406061
 21
3.0776756145
  0
LINE
  5
225
100
AcDbEntity
  8
ALL_FEATURES
100
AcDbLine
 62
7
  6
CONTINUOUS
 10
4.5346749507
 20
3.0776756145
 11
4.4962261039
 21
3.0776756145
  0
LINE
  5
226
100
AcDbEntity
  8
ALL_FEATURES
100
AcDbLine
 62
7
  6
CONTINUOUS
 10
4.0796604485
 20
3.0776756145
 11
4.0604360251
 21
3.0776756145
  0
LINE
  5
227
100
AcDbEntity
  8
ALL_FEATURES
100
AcDbLine
 62
7
  6
CONTINUOUS
 10
3.9263757241
 20
4.1543734491
 11
3.9263757241
 21
3.5856234491
  0
LINE
  5
228
100
AcDbEntity
  8
ALL_FEATURES
100
AcDbLine
 62
9
  6
CONTINUOUS
 10
4.9184032049
 20
3.243520154
 11
4.8179031193
 21
3.243520154
  0
LINE
  5
229
100
AcDbEntity
  8
ALL_FEATURES
100
AcDbLine
 62
9
  6
CONTINUOUS
 10
4.6159506129
 20
3.243520154
 11
4.4149504417
 21
3.243520154
  0
LINE
  5
22A
100
AcDbEntity
  8
ALL_FEATURES
100
AcDbLine
 62
9
  6
CONTINUOUS
 10
4.2129979353
 20
3.243520154
 11
4.1124978497
 21
3.243520154
  0
LWPOLYLINE
  5
22B
100
AcDbEntity
  8
ALL_FEATURES
100
AcDbPolyline
 62
7
  6
CONTINUOUS
 90
18
 70
0
 10
3.9445832021
 20
4.8935906933
 10
3.9446634691
 20
4.8910779064
 10
3.9450634838
 20
4.8874597596
 10
3.9457967309
 20
4.8838909728
 10
3.9468575423
 20
4.8804029637
 10
3.9482365505
 20
4.8770278061
 10
3.9499219956
 20
4.8737944679
 10
3.951899482
 20
4.870730717
 10
3.9541506792
 20
4.867864524
 10
3.9566559372
 20
4.8652200605
 10
3.9593933725
 20
4.8628196657
 10
3.9623371871
 20
4.8606848027
 10
3.9654612543
 20
4.858832869
 10
3.9687386488
 20
4.857278369
 10
3.9721396958
 20
4.8560338296
 10
3.9756346162
 20
4.8551083928
 10
3.9791939715
 20
4.8545081543
 10
3.9827875897
 20
4.8542366024
  0
LINE
  5
22C
100
AcDbEntity
  8
ALL_FEATURES
100
AcDbLine
 62
7
  6
CONTINUOUS
 10
3.9445843856
 20
4.9723606539
 11
3.9445843856
 21
4.8935684673
  0
LINE
  5
22D
100
AcDbEntity
  8
ALL_FEATURES
100
AcDbLine
 62
7
  6
CONTINUOUS
 10
3.9445843856
 20
2.8464291968
 11
3.9445843856
 21
2.7676362444
  0
LINE
  5
22E
100
AcDbEntity
  8
ALL_FEATURES
100
AcDbLine
 62
7
  6
CONTINUOUS
 10
4.0210659464
 20
4.8230679532
 11
4.0210659464
 21
4.6914079032
  0
LINE
  5
22F
100
AcDbEntity
  8
ALL_FEATURES
100
AcDbLine
 62
7
  6
CONTINUOUS
 10
4.0210659464
 20
2.9169289451
 11
4.0210659464
 21
3.0485879303
  0
LINE
  5
230
100
AcDbEntity
  8
ALL_FEATURES
100
AcDbLine
 62
9
  6
CONTINUOUS
 10
4.0407509858
 20
4.8230679532
 11
4.0407509858
 21
4.7016913625
  0
LINE
  5
231
100
AcDbEntity
  8
ALL_FEATURES
100
AcDbLine
 62
9
  6
CONTINUOUS
 10
4.0407509858
 20
3.0383055357
 11
4.0407509858
 21
2.9169289451
  0
LINE
  5
232
100
AcDbEntity
  8
ALL_ASSEMBLY_MEMBERS
100
AcDbLine
 62
7
  6
CONTINUOUS
 10
4.1563386599
 20
3.8699984491
 11
4.231299265
 21
3.9998340257
  0
LINE
  5
233
100
AcDbEntity
  8
ALL_ASSEMBLY_MEMBERS
100
AcDbLine
 62
7
  6
CONTINUOUS
 10
4.2609339885
 20
4.0511628725
 11
4.3358945936
 21
4.1809984491
  0
LINE
  5
234
100
AcDbEntity
  8
ALL_ASSEMBLY_MEMBERS
100
AcDbLine
 62
7
  6
CONTINUOUS
 10
4.3358945936
 20
3.5589984491
 11
4.4858158038
 21
3.5589984491
  0
LINE
  5
235
100
AcDbEntity
  8
ALL_ASSEMBLY_MEMBERS
100
AcDbLine
 62
7
  6
CONTINUOUS
 10
4.5450852508
 20
3.5589984491
 11
4.695006461
 21
3.5589984491
  0
LINE
  5
236
100
AcDbEntity
  8
ALL_FEATURES
100
AcDbLine
 62
7
  6
CONTINUOUS
 10
3.9263757241
 20
3.5856234491
 11
3.9702349936
 21
3.5856234491
  0
LINE
  5
237
100
AcDbEntity
  8
ALL_ASSEMBLY_MEMBERS
100
AcDbLine
 62
7
  6
CONTINUOUS
 10
4.3358945936
 20
3.5589984491
 11
4.2609339885
 21
3.6888340257
  0
LINE
  5
238
100
AcDbEntity
  8
ALL_ASSEMBLY_MEMBERS
100
AcDbLine
 62
7
  6
CONTINUOUS
 10
4.231299265
 20
3.7401628725
 11
4.1563386599
 21
3.8699984491
  0
LINE
  5
239
100
AcDbEntity
  8
ALL_ASSEMBLY_MEMBERS
100
AcDbLine
 62
7
  6
CONTINUOUS
 10
4.3268808856
 20
3.9214324845
 11
4.3234192715
 21
3.9356175321
  0
LINE
  5
23A
100
AcDbEntity
  8
ALL_FEATURES
100
AcDbLine
 62
7
  6
CONTINUOUS
 10
4.4618802378
 20
4.0244732823
 11
4.464974873
 21
4.0479793704
  0
LINE
  5
23B
100
AcDbEntity
  8
ALL_FEATURES
100
AcDbLine
 62
7
  6
CONTINUOUS
 10
4.4007067536
 20
3.7248817155
 11
4.4068430739
 21
3.7477827747
  0
LINE
  5
23C
100
AcDbEntity
  8
ALL_FEATURES
100
AcDbLine
 62
7
  6
CONTINUOUS
 10
4.5250729927
 20
4.033215048
 11
4.5369274532
 21
4.0537475761
  0
LINE
  5
23D
100
AcDbEntity
  8
ALL_FEATURES
100
AcDbLine
 62
7
  6
CONTINUOUS
 10
4.3539073335
 20
3.7798386102
 11
4.3683404103
 21
3.798648162
  0
LINE
  5
23E
100
AcDbEntity
  8
ALL_FEATURES
100
AcDbLine
 62
7
  6
CONTINUOUS
 10
4.5868008144
 20
4.0171085662
 11
4.6056103662
 21
4.0315416429
  0
LINE
  5
23F
100
AcDbEntity
  8
ALL_FEATURES
100
AcDbLine
 62
7
  6
CONTINUOUS
 10
4.3317014004
 20
3.8485215232
 11
4.3522339284
 21
3.8603759838
  0
LINE
  5
240
100
AcDbEntity
  8
ALL_FEATURES
100
AcDbLine
 62
7
  6
CONTINUOUS
 10
4.3932348529
 20
3.7613909958
 11
4.3703337936
 21
3.7552546754
  0
LINE
  5
241
100
AcDbEntity
  8
ALL_FEATURES
100
AcDbLine
 62
7
  6
CONTINUOUS
 10
4.6934314485
 20
3.8195227948
 11
4.6699253605
 21
3.8164281596
  0
LINE
  5
242
100
AcDbEntity
  8
ALL_FEATURES
100
AcDbLine
 62
7
  6
CONTINUOUS
 10
3.9263757241
 20
3.7606234491
 11
3.9415292313
 21
3.7606234491
  0
LINE
  5
243
100
AcDbEntity
  8
ALL_FEATURES
100
AcDbLine
 62
7
  6
CONTINUOUS
 10
4.3609756941
 20
3.8164281596
 11
4.3374696061
 21
3.8195227948
  0
LINE
  5
244
100
AcDbEntity
  8
ALL_FEATURES
100
AcDbLine
 62
7
  6
CONTINUOUS
 10
4.660567261
 20
3.7552546754
 11
4.6376662017
 21
3.7613909958
  0
LINE
  5
245
100
AcDbEntity
  8
ALL_FEATURES
100
AcDbLine
 62
7
  6
CONTINUOUS
 10
4.3522339284
 20
3.8796209145
 11
4.3317014004
 21
3.8914753751
  0
LINE
  5
246
100
AcDbEntity
  8
ALL_FEATURES
100
AcDbLine
 62
7
  6
CONTINUOUS
 10
4.6056103662
 20
3.7084552554
 11
4.5868008144
 21
3.7228883321
  0
LINE
  5
247
100
AcDbEntity
  8
ALL_FEATURES
100
AcDbLine
 62
7
  6
CONTINUOUS
 10
4.3683404103
 20
3.9413487362
 11
4.3539073335
 21
3.960158288
  0
LINE
  5
248
100
AcDbEntity
  8
ALL_FEATURES
100
AcDbLine
 62
7
  6
CONTINUOUS
 10
4.5369274532
 20
3.6862493222
 11
4.5250729927
 21
3.7067818502
  0
LINE
  5
249
100
AcDbEntity
  8
ALL_FEATURES
100
AcDbLine
 62
7
  6
CONTINUOUS
 10
4.4068430739
 20
3.9922141235
 11
4.4007067536
 21
4.0151151828
  0
LINE
  5
24A
100
AcDbEntity
  8
ALL_FEATURES
100
AcDbLine
 62
7
  6
CONTINUOUS
 10
4.464974873
 20
3.6920175279
 11
4.4618802378
 21
3.715523616
  0
LINE
  5
24B
100
AcDbEntity
  8
ALL_FEATURES
100
AcDbLine
 62
9
  6
CONTINUOUS
 10
4.4957654879
 20
4.8230679532
 11
4.4957654879
 21
4.7016913625
  0
LINE
  5
24C
100
AcDbEntity
  8
ALL_FEATURES
100
AcDbLine
 62
9
  6
CONTINUOUS
 10
4.4957654879
 20
3.0383055357
 11
4.4957654879
 21
2.9169289451
  0
LINE
  5
24D
100
AcDbEntity
  8
0
100
AcDbLine
 62
7
  6
CONTINUOUS
 10
4.5048415757
 20
3.8001716676
 11
4.5048415757
 21
3.8225911968
  0
LINE
  5
24E
100
AcDbEntity
  8
0
100
AcDbLine
 62
7
  6
CONTINUOUS
 10
4.5048415757
 20
3.9174057015
 11
4.5048415757
 21
3.9398252307
  0
LINE
  5
24F
100
AcDbEntity
  8
ALL_FEATURES
100
AcDbLine
 62
9
  6
CONTINUOUS
 10
4.5154505273
 20
2.9067816311
 11
4.5154505301
 21
2.8915988588
  0
LINE
  5
250
100
AcDbEntity
  8
ALL_FEATURES
100
AcDbLine
 62
9
  6
CONTINUOUS
 10
4.5154505273
 20
4.8332152671
 11
4.5154500527
 21
4.8483980375
  0
LINE
  5
251
100
AcDbEntity
  8
0
100
AcDbLine
 62
7
  6
CONTINUOUS
 10
4.5260594789
 20
3.9398252307
 11
4.5260594789
 21
3.9174057015
  0
LINE
  5
252
100
AcDbEntity
  8
0
100
AcDbLine
 62
7
  6
CONTINUOUS
 10
4.5260594789
 20
3.8225911968
 11
4.5260594789
 21
3.8001716676
  0
LINE
  5
253
100
AcDbEntity
  8
0
100
AcDbLine
 62
7
  6
CONTINUOUS
 10
4.4663427289
 20
3.8508402753
 11
4.468043275
 21
3.8593894975
  0
LINE
  5
254
100
AcDbEntity
  8
0
100
AcDbLine
 62
7
  6
CONTINUOUS
 10
4.5048415757
 20
3.9174057015
 11
4.4940636029
 21
3.8913853735
  0
LINE
  5
255
100
AcDbEntity
  8
0
100
AcDbLine
 62
7
  6
CONTINUOUS
 10
4.5435560083
 20
3.8981039302
 11
4.5368374517
 21
3.8913853735
  0
LINE
  5
256
100
AcDbEntity
  8
0
100
AcDbLine
 62
7
  6
CONTINUOUS
 10
4.4873450462
 20
3.8418929681
 11
4.4940636029
 21
3.8486115248
  0
LINE
  5
257
100
AcDbEntity
  8
0
100
AcDbLine
 62
7
  6
CONTINUOUS
 10
4.4940636029
 20
3.8913853735
 11
4.468043275
 21
3.8806074008
  0
LINE
  5
258
100
AcDbEntity
  8
0
100
AcDbLine
 62
7
  6
CONTINUOUS
 10
4.4962923535
 20
3.8208906508
 11
4.5048415757
 21
3.8225911968
  0
LINE
  5
259
100
AcDbEntity
  8
ALL_FEATURES
100
AcDbLine
 62
7
  6
CONTINUOUS
 10
3.9263757241
 20
3.8043734491
 11
3.931788553
 21
3.8043734491
  0
LINE
  5
25A
100
AcDbEntity
  8
0
100
AcDbLine
 62
7
  6
CONTINUOUS
 10
4.5852773088
 20
3.8593894975
 11
4.5628577796
 21
3.8593894975
  0
LINE
  5
25B
100
AcDbEntity
  8
0
100
AcDbLine
 62
7
  6
CONTINUOUS
 10
4.468043275
 20
3.8593894975
 11
4.4456237457
 21
3.8593894975
  0
LINE
  5
25C
100
AcDbEntity
  8
0
100
AcDbLine
 62
7
  6
CONTINUOUS
 10
4.4456237457
 20
3.8806074008
 11
4.468043275
 21
3.8806074008
  0
LINE
  5
25D
100
AcDbEntity
  8
0
100
AcDbLine
 62
7
  6
CONTINUOUS
 10
4.5628577796
 20
3.8806074008
 11
4.5852773088
 21
3.8806074008
  0
LINE
  5
25E
100
AcDbEntity
  8
0
100
AcDbLine
 62
7
  6
CONTINUOUS
 10
4.5346087011
 20
3.8208906508
 11
4.5260594789
 21
3.8225911968
  0
LINE
  5
25F
100
AcDbEntity
  8
0
100
AcDbLine
 62
7
  6
CONTINUOUS
 10
4.468043275
 20
3.8593894975
 11
4.4940636029
 21
3.8486115248
  0
LINE
  5
260
100
AcDbEntity
  8
0
100
AcDbLine
 62
7
  6
CONTINUOUS
 10
4.5435560083
 20
3.8418929681
 11
4.5368374517
 21
3.8486115248
  0
LINE
  5
261
100
AcDbEntity
  8
0
100
AcDbLine
 62
7
  6
CONTINUOUS
 10
4.4873450462
 20
3.8981039302
 11
4.4940636029
 21
3.8913853735
  0
LINE
  5
262
100
AcDbEntity
  8
0
100
AcDbLine
 62
7
  6
CONTINUOUS
 10
4.4940636029
 20
3.8486115248
 11
4.5048415757
 21
3.8225911968
  0
LINE
  5
263
100
AcDbEntity
  8
0
100
AcDbLine
 62
7
  6
CONTINUOUS
 10
4.4663427289
 20
3.8891566229
 11
4.468043275
 21
3.8806074008
  0
LINE
  5
264
100
AcDbEntity
  8
ALL_FEATURES
100
AcDbLine
 62
9
  6
CONTINUOUS
 10
4.5351355667
 20
4.8230680034
 11
4.5351355667
 21
4.7016913625
  0
LINE
  5
265
100
AcDbEntity
  8
ALL_FEATURES
100
AcDbLine
 62
9
  6
CONTINUOUS
 10
4.5351355667
 20
3.0383055357
 11
4.5351355667
 21
2.9169288949
  0
LINE
  5
266
100
AcDbEntity
  8
ALL_FEATURES
100
AcDbLine
 62
7
  6
CONTINUOUS
 10
4.5690208168
 20
3.715523616
 11
4.5659261816
 21
3.6920175279
  0
LINE
  5
267
100
AcDbEntity
  8
0
100
AcDbLine
 62
7
  6
CONTINUOUS
 10
4.5645583256
 20
3.8891566229
 11
4.5628577796
 21
3.8806074008
  0
LINE
  5
268
100
AcDbEntity
  8
ALL_FEATURES
100
AcDbLine
 62
7
  6
CONTINUOUS
 10
4.630194301
 20
4.0151151828
 11
4.6240579807
 21
3.9922141235
  0
LINE
  5
269
100
AcDbEntity
  8
0
100
AcDbLine
 62
7
  6
CONTINUOUS
 10
4.5260594789
 20
3.8225911968
 11
4.5368374517
 21
3.8486115248
  0
LINE
  5
26A
100
AcDbEntity
  8
ALL_FEATURES
100
AcDbLine
 62
7
  6
CONTINUOUS
 10
4.5058280619
 20
3.7067818502
 11
4.4939736013
 21
3.6862493222
  0
LINE
  5
26B
100
AcDbEntity
  8
ALL_FEATURES
100
AcDbLine
 62
7
  6
CONTINUOUS
 10
4.6769937211
 20
3.960158288
 11
4.6625606443
 21
3.9413487362
  0
LINE
  5
26C
100
AcDbEntity
  8
ALL_FEATURES
100
AcDbLine
 62
7
  6
CONTINUOUS
 10
4.4441002402
 20
3.7228883321
 11
4.4252906884
 21
3.7084552554
  0
LINE
  5
26D
100
AcDbEntity
  8
ALL_FEATURES
100
AcDbLine
 62
7
  6
CONTINUOUS
 10
4.6991996542
 20
3.8914753751
 11
4.6786671262
 21
3.8796209145
  0
LINE
  5
26E
100
AcDbEntity
  8
0
100
AcDbLine
 62
7
  6
CONTINUOUS
 10
4.5368374517
 20
3.8486115248
 11
4.5628577796
 21
3.8593894975
  0
LINE
  5
26F
100
AcDbEntity
  8
ALL_FEATURES
100
AcDbLine
 62
7
  6
CONTINUOUS
 10
4.6376662017
 20
3.9786059025
 11
4.660567261
 21
3.9847422228
  0
LINE
  5
270
100
AcDbEntity
  8
0
100
AcDbLine
 62
7
  6
CONTINUOUS
 10
4.5346087011
 20
3.9191062475
 11
4.5260594789
 21
3.9174057015
  0
LINE
  5
271
100
AcDbEntity
  8
ALL_FEATURES
100
AcDbLine
 62
7
  6
CONTINUOUS
 10
4.3374696061
 20
3.9204741034
 11
4.3609756941
 21
3.9235687386
  0
LINE
  5
272
100
AcDbEntity
  8
ALL_FEATURES
100
AcDbLine
 62
7
  6
CONTINUOUS
 10
4.6699253605
 20
3.9235687386
 11
4.6934314485
 21
3.9204741034
  0
LINE
  5
273
100
AcDbEntity
  8
0
100
AcDbLine
 62
7
  6
CONTINUOUS
 10
4.4962923535
 20
3.9191062475
 11
4.5048415757
 21
3.9174057015
  0
LINE
  5
274
100
AcDbEntity
  8
ALL_FEATURES
100
AcDbLine
 62
7
  6
CONTINUOUS
 10
4.3703337936
 20
3.9847422228
 11
4.3932348529
 21
3.9786059025
  0
LINE
  5
275
100
AcDbEntity
  8
0
100
AcDbLine
 62
7
  6
CONTINUOUS
 10
4.5628577796
 20
3.8806074008
 11
4.5368374517
 21
3.8913853735
  0
LINE
  5
276
100
AcDbEntity
  8
ALL_FEATURES
100
AcDbLine
 62
7
  6
CONTINUOUS
 10
4.6786671262
 20
3.8603759838
 11
4.6991996542
 21
3.8485215232
  0
LINE
  5
277
100
AcDbEntity
  8
ALL_FEATURES
100
AcDbLine
 62
7
  6
CONTINUOUS
 10
4.4252906884
 20
4.0315416429
 11
4.4441002402
 21
4.0171085662
  0
LINE
  5
278
100
AcDbEntity
  8
ALL_FEATURES
100
AcDbLine
 62
7
  6
CONTINUOUS
 10
4.6625606443
 20
3.798648162
 11
4.6769937211
 21
3.7798386102
  0
LINE
  5
279
100
AcDbEntity
  8
ALL_FEATURES
100
AcDbLine
 62
7
  6
CONTINUOUS
 10
4.4939736013
 20
4.0537475761
 11
4.5058280619
 21
4.033215048
  0
LINE
  5
27A
100
AcDbEntity
  8
0
100
AcDbLine
 62
7
  6
CONTINUOUS
 10
4.5368374517
 20
3.8913853735
 11
4.5260594789
 21
3.9174057015
  0
LINE
  5
27B
100
AcDbEntity
  8
ALL_FEATURES
100
AcDbLine
 62
7
  6
CONTINUOUS
 10
4.6240579807
 20
3.7477827747
 11
4.630194301
 21
3.7248817155
  0
LINE
  5
27C
100
AcDbEntity
  8
0
100
AcDbLine
 62
7
  6
CONTINUOUS
 10
4.5645583256
 20
3.8508402753
 11
4.5628577796
 21
3.8593894975
  0
LINE
  5
27D
100
AcDbEntity
  8
ALL_FEATURES
100
AcDbLine
 62
7
  6
CONTINUOUS
 10
4.5659261816
 20
4.0479793704
 11
4.5690208168
 21
4.0244732823
  0
LINE
  5
27E
100
AcDbEntity
  8
ALL_ASSEMBLY_MEMBERS
100
AcDbLine
 62
7
  6
CONTINUOUS
 10
4.7074817831
 20
3.9356175321
 11
4.704020169
 21
3.9214324845
  0
LINE
  5
27F
100
AcDbEntity
  8
ALL_ASSEMBLY_MEMBERS
100
AcDbLine
 62
7
  6
CONTINUOUS
 10
4.588514301
 20
4.0512529149
 11
4.6004877858
 21
4.0542349107
  0
LINE
  5
280
100
AcDbEntity
  8
ALL_FEATURES
100
AcDbLine
 62
7
  6
CONTINUOUS
 10
3.9263757241
 20
3.9793734491
 11
3.9415292294
 21
3.9793734491
  0
LINE
  5
281
100
AcDbEntity
  8
ALL_ASSEMBLY_MEMBERS
100
AcDbLine
 62
7
  6
CONTINUOUS
 10
4.4304132688
 20
4.0542349107
 11
4.4423867535
 21
4.0512529149
  0
LINE
  5
282
100
AcDbEntity
  8
ALL_ASSEMBLY_MEMBERS
100
AcDbLine
 62
7
  6
CONTINUOUS
 10
4.695006461
 20
3.5589984491
 11
4.7699670661
 21
3.6888340257
  0
LINE
  5
283
100
AcDbEntity
  8
ALL_ASSEMBLY_MEMBERS
100
AcDbLine
 62
7
  6
CONTINUOUS
 10
4.7996017896
 20
3.7401628725
 11
4.8745623947
 21
3.8699984491
  0
LINE
  5
284
100
AcDbEntity
  8
ALL_FEATURES
100
AcDbLine
 62
7
  6
CONTINUOUS
 10
3.9263757241
 20
4.1543734491
 11
3.9593724134
 21
4.1543734491
  0
LINE
  5
285
100
AcDbEntity
  8
ALL_ASSEMBLY_MEMBERS
100
AcDbLine
 62
7
  6
CONTINUOUS
 10
4.3358945936
 20
4.1809984491
 11
4.4858158038
 21
4.1809984491
  0
LINE
  5
286
100
AcDbEntity
  8
ALL_ASSEMBLY_MEMBERS
100
AcDbLine
 62
7
  6
CONTINUOUS
 10
4.5450852508
 20
4.1809984491
 11
4.695006461
 21
4.1809984491
  0
LINE
  5
287
100
AcDbEntity
  8
ALL_ASSEMBLY_MEMBERS
100
AcDbLine
 62
7
  6
CONTINUOUS
 10
4.8745623947
 20
3.8699984491
 11
4.7996017896
 21
3.9998340257
  0
LINE
  5
288
100
AcDbEntity
  8
ALL_ASSEMBLY_MEMBERS
100
AcDbLine
 62
7
  6
CONTINUOUS
 10
4.7699670661
 20
4.0511628725
 11
4.695006461
 21
4.1809984491
  0
LINE
  5
289
100
AcDbEntity
  8
ALL_FEATURES
100
AcDbLine
 62
9
  6
CONTINUOUS
 10
4.9901500688
 20
4.8230683453
 11
4.9901500688
 21
4.7016913625
  0
LINE
  5
28A
100
AcDbEntity
  8
ALL_FEATURES
100
AcDbLine
 62
9
  6
CONTINUOUS
 10
4.9901500688
 20
3.0383055357
 11
4.9901500688
 21
2.916928553
  0
LINE
  5
28B
100
AcDbEntity
  8
ALL_FEATURES
100
AcDbLine
 62
7
  6
CONTINUOUS
 10
5.0098351082
 20
3.0485879303
 11
5.0098351082
 21
2.9169288123
  0
LINE
  5
28C
100
AcDbEntity
  8
ALL_FEATURES
100
AcDbLine
 62
7
  6
CONTINUOUS
 10
5.0098351082
 20
4.6914079032
 11
5.0098351082
 21
4.823068086
  0
LWPOLYLINE
  5
28D
100
AcDbEntity
  8
ALL_FEATURES
100
AcDbPolyline
 62
7
  6
CONTINUOUS
 90
18
 70
0
 10
5.0863179445
 20
2.8464060025
 10
5.0862378757
 20
2.8489156903
 10
5.0858383225
 20
2.8525327582
 10
5.0851057568
 20
2.8561004593
 10
5.0840458518
 20
2.8595874271
 10
5.0826679536
 20
2.8629616716
 10
5.0809838056
 20
2.8661942535
 10
5.0790077832
 20
2.8692574318
 10
5.0767581574
 20
2.8721233008
 10
5.0742545427
 20
2.874767698
 10
5.0715187827
 20
2.8771682917
 10
5.0685765849
 20
2.879303653
 10
5.0654540203
 20
2.8811563696
 10
5.0621779813
 20
2.8827119045
 10
5.0587780765
 20
2.8839577078
 10
5.0552840423
 20
2.8848845952
 10
5.0517253019
 20
2.885486419
 10
5.0481320106
 20
2.8857596396
  0
LINE
  5
28E
100
AcDbEntity
  8
ALL_FEATURES
100
AcDbLine
 62
7
  6
CONTINUOUS
 10
5.086316669
 20
4.9723606539
 11
5.086316669
 21
4.8935684676
  0
LINE
  5
28F
100
AcDbEntity
  8
ALL_FEATURES
100
AcDbLine
 62
7
  6
CONTINUOUS
 10
5.086316669
 20
2.8464291965
 11
5.086316669
 21
2.7676362444
  0
LINE
  5
290
100
AcDbEntity
  8
ALL_FEATURES
100
AcDbLine
 62
9
  6
CONTINUOUS
 10
4.9184032049
 20
4.4964767443
 11
4.8179031193
 21
4.4964767443
  0
LINE
  5
291
100
AcDbEntity
  8
ALL_FEATURES
100
AcDbLine
 62
9
  6
CONTINUOUS
 10
4.6159506129
 20
4.4964767443
 11
4.4149504417
 21
4.4964767443
  0
LINE
  5
292
100
AcDbEntity
  8
ALL_FEATURES
100
AcDbLine
 62
9
  6
CONTINUOUS
 10
4.2129979353
 20
4.4964767443
 11
4.1124978497
 21
4.4964767443
  0
LINE
  5
293
100
AcDbEntity
  8
ALL_FEATURES
100
AcDbLine
 62
7
  6
CONTINUOUS
 10
4.9704650295
 20
4.6623212838
 11
4.9512406061
 21
4.6623212838
  0
LINE
  5
294
100
AcDbEntity
  8
ALL_FEATURES
100
AcDbLine
 62
7
  6
CONTINUOUS
 10
4.5346749507
 20
4.6623212838
 11
4.4962261039
 21
4.6623212838
  0
LINE
  5
295
100
AcDbEntity
  8
ALL_FEATURES
100
AcDbLine
 62
7
  6
CONTINUOUS
 10
4.0796604485
 20
4.6623212838
 11
4.0604360251
 21
4.6623212838
  0
LINE
  5
296
100
AcDbEntity
  8
ALL_FEATURES
100
AcDbLine
 62
9
  6
CONTINUOUS
 10
4.0210659464
 20
4.7016913625
 11
4.0599754091
 21
4.7016913625
  0
LINE
  5
297
100
AcDbEntity
  8
ALL_FEATURES
100
AcDbLine
 62
9
  6
CONTINUOUS
 10
4.4765410646
 20
4.7016913625
 11
4.55435999
 21
4.7016913625
  0
LINE
  5
298
100
AcDbEntity
  8
ALL_FEATURES
100
AcDbLine
 62
9
  6
CONTINUOUS
 10
4.9709256455
 20
4.7016913625
 11
5.0098351082
 21
4.7016913625
  0
LWPOLYLINE
  5
299
100
AcDbEntity
  8
ALL_FEATURES
100
AcDbPolyline
 62
7
  6
CONTINUOUS
 90
18
 70
0
 10
5.0481134619
 20
4.8542366023
 10
5.0517070803
 20
4.854508154
 10
5.0552664358
 20
4.8551083923
 10
5.0587613564
 20
4.8560338289
 10
5.0621624037
 20
4.8572783681
 10
5.0654397983
 20
4.858832868
 10
5.0685638658
 20
4.8606848016
 10
5.0715076806
 20
4.8628196645
 10
5.0742451162
 20
4.8652200592
 10
5.0767503743
 20
4.8678645228
 10
5.0790015717
 20
4.8707307158
 10
5.0809790583
 20
4.8737944668
 10
5.0826645036
 20
4.877027805
 10
5.0840435119
 20
4.8804029627
 10
5.0851043235
 20
4.883890972
 10
5.0858375707
 20
4.8874597589
 10
5.0862375854
 20
4.8910779058
 10
5.0863178524
 20
4.8935906932
  0
LINE
  5
29A
100
AcDbEntity
  8
ALL_FEATURES
100
AcDbLine
 62
9
  6
CONTINUOUS
 10
4.092914043
 20
4.8148803389
 11
4.4436024307
 21
4.8148803389
  0
LINE
  5
29B
100
AcDbEntity
  8
ALL_FEATURES
100
AcDbLine
 62
9
  6
CONTINUOUS
 10
4.5872986239
 20
4.8148803389
 11
4.9379870116
 21
4.8148803389
  0
LINE
  5
29C
100
AcDbEntity
  8
ALL_FEATURES
100
AcDbLine
 62
7
  6
CONTINUOUS
 10
5.086316669
 20
4.9723606539
 11
3.9445843856
 21
4.9723606539
  0
ARC
  5
29D
100
AcDbEntity
  8
0
100
AcDbCircle
 62
7
  6
CONTINUOUS
 10
-5.9057551036
 20
0.4034806289
 40
10.994828619
100
AcDbArc
 50
18.761957634
 51
18.8811452519
  0
ARC
  5
29E
100
AcDbEntity
  8
0
100
AcDbCircle
 62
7
  6
CONTINUOUS
 10
1.0489327073
 20
-6.5512071811
 40
10.9948286183
100
AcDbArc
 50
71.1188547481
 51
71.238042366
  0
ARC
  5
29F
100
AcDbEntity
  8
0
100
AcDbCircle
 62
7
  6
CONTINUOUS
 10
2.1346122778
 20
2.8842641907
 40
2.6135953999
100
AcDbArc
 50
22.8245146187
 51
23.3249727038
  0
ARC
  5
2A0
100
AcDbEntity
  8
0
100
AcDbCircle
 62
7
  6
CONTINUOUS
 10
2.2152335818
 20
3.8637598865
 40
2.3197712636
100
AcDbArc
 50
357.8942703704
 51
358.9411171084
  0
ARC
  5
2A1
100
AcDbEntity
  8
0
100
AcDbCircle
 62
7
  6
CONTINUOUS
 10
3.5239286724
 20
1.4755747786
 40
2.6283621125
100
AcDbArc
 50
66.6764331465
 51
67.174079531
  0
ARC
  5
2A2
100
AcDbEntity
  8
0
100
AcDbCircle
 62
7
  6
CONTINUOUS
 10
4.509212144
 20
1.5697750121
 40
2.3197777573
100
AcDbArc
 50
91.0588843569
 51
92.1057281644
  0
ARC
  5
2A3
100
AcDbEntity
  8
ALL_FEATURES
100
AcDbCircle
 62
7
  6
CONTINUOUS
 10
3.9816958677
 20
2.9251165594
 40
0.0393700787
100
AcDbArc
 50
271.6598479582
 51
360.0
  0
ARC
  5
2A4
100
AcDbEntity
  8
ALL_FEATURES
100
AcDbCircle
 62
7
  6
CONTINUOUS
 10
3.4486936753
 20
3.8127622577
 40
0.4823043679
100
AcDbArc
 50
1.9126095231
 51
3.0725176639
  0
ARC
  5
2A5
100
AcDbEntity
  8
ALL_FEATURES
100
AcDbCircle
 62
7
  6
CONTINUOUS
 10
3.4687257402
 20
3.716691685
 40
0.4748401216
100
AcDbArc
 50
5.1854352524
 51
5.3085437306
  0
ARC
  5
2A6
100
AcDbEntity
  8
ALL_FEATURES
100
AcDbCircle
 62
7
  6
CONTINUOUS
 10
4.0017774402
 20
3.186216086
 40
0.1102362195
100
AcDbArc
 50
293.0842999281
 51
30.3778978454
  0
ARC
  5
2A7
100
AcDbEntity
  8
ALL_FEATURES
100
AcDbCircle
 62
7
  6
CONTINUOUS
 10
4.0604360251
 20
3.0485884203
 40
0.0393700787
100
AcDbArc
 50
113.0842702262
 51
179.9999999966
  0
ARC
  5
2A8
100
AcDbEntity
  8
ALL_FEATURES
100
AcDbCircle
 62
7
  6
CONTINUOUS
 10
4.0604360251
 20
3.0383055357
 40
0.0393700787
100
AcDbArc
 50
90.0
 51
180.0
  0
ARC
  5
2A9
100
AcDbEntity
  8
ALL_FEATURES
100
AcDbCircle
 62
9
  6
CONTINUOUS
 10
4.0603243691
 20
3.0439784185
 40
0.0392608943
100
AcDbArc
 50
105.0999488056
 51
179.9335707054
  0
ARC
  5
2AA
100
AcDbEntity
  8
ALL_ASSEMBLY_MEMBERS
100
AcDbCircle
 62
7
  6
CONTINUOUS
 10
4.5137148601
 20
3.8659480568
 40
0.4705777038
100
AcDbArc
 50
311.3258891327
 51
311.681805092
  0
ARC
  5
2AB
100
AcDbEntity
  8
ALL_ASSEMBLY_MEMBERS
100
AcDbCircle
 62
7
  6
CONTINUOUS
 10
4.5151382589
 20
3.8659601337
 40
0.4694115355
100
AcDbArc
 50
0.4929177643
 51
12.3946301535
  0
ARC
  5
2AC
100
AcDbEntity
  8
ALL_ASSEMBLY_MEMBERS
100
AcDbCircle
 62
7
  6
CONTINUOUS
 10
4.512385684
 20
3.8555225285
 40
0.451430248
100
AcDbArc
 50
344.1221719271
 51
349.915238241
  0
ARC
  5
2AD
100
AcDbEntity
  8
ALL_ASSEMBLY_MEMBERS
100
AcDbCircle
 62
7
  6
CONTINUOUS
 10
4.5152689614
 20
3.8690140459
 40
0.4501895611
100
AcDbArc
 50
256.3484625722
 51
256.6316694654
  0
ARC
  5
2AE
100
AcDbEntity
  8
ALL_ASSEMBLY_MEMBERS
100
AcDbCircle
 62
7
  6
CONTINUOUS
 10
4.51137213
 20
3.8697625123
 40
0.4501328206
100
AcDbArc
 50
257.0722728092
 51
257.2722703433
  0
ARC
  5
2AF
100
AcDbEntity
  8
ALL_ASSEMBLY_MEMBERS
100
AcDbCircle
 62
7
  6
CONTINUOUS
 10
4.5151913503
 20
3.8686873251
 40
0.4498537488
100
AcDbArc
 50
256.6316652571
 51
256.9436590001
  0
ARC
  5
2B0
100
AcDbEntity
  8
ALL_ASSEMBLY_MEMBERS
100
AcDbCircle
 62
7
  6
CONTINUOUS
 10
4.5113006685
 20
3.86944552
 40
0.4498078731
100
AcDbArc
 50
257.2722533148
 51
257.610133009
  0
ARC
  5
2B1
100
AcDbEntity
  8
ALL_ASSEMBLY_MEMBERS
100
AcDbCircle
 62
7
  6
CONTINUOUS
 10
4.5151256369
 20
3.8684044572
 40
0.4495633482
100
AcDbArc
 50
256.9436732984
 51
257.1197982602
  0
ARC
  5
2B2
100
AcDbEntity
  8
ALL_ASSEMBLY_MEMBERS
100
AcDbCircle
 62
7
  6
CONTINUOUS
 10
4.5111996107
 20
3.8689850634
 40
0.4493364572
100
AcDbArc
 50
257.6101212026
 51
258.0089850358
  0
ARC
  5
2B3
100
AcDbEntity
  8
ALL_ASSEMBLY_MEMBERS
100
AcDbCircle
 62
7
  6
CONTINUOUS
 10
4.5150734237
 20
3.8681760351
 40
0.4493290345
100
AcDbArc
 50
257.1197958506
 51
257.3218350683
  0
ARC
  5
2B4
100
AcDbEntity
  8
ALL_ASSEMBLY_MEMBERS
100
AcDbCircle
 62
7
  6
CONTINUOUS
 10
4.5150048319
 20
3.867870777
 40
0.4490161651
100
AcDbArc
 50
257.3218252474
 51
257.6056519668
  0
ARC
  5
2B5
100
AcDbEntity
  8
ALL_ASSEMBLY_MEMBERS
100
AcDbCircle
 62
7
  6
CONTINUOUS
 10
4.5110637572
 20
3.8683439038
 40
0.4486810629
100
AcDbArc
 50
258.0089445581
 51
258.5642939375
  0
ARC
  5
2B6
100
AcDbEntity
  8
ALL_ASSEMBLY_MEMBERS
100
AcDbCircle
 62
7
  6
CONTINUOUS
 10
4.5148976562
 20
3.8673818886
 40
0.4485156669
100
AcDbArc
 50
257.6056191811
 51
258.0598818575
  0
ARC
  5
2B7
100
AcDbEntity
  8
ALL_ASSEMBLY_MEMBERS
100
AcDbCircle
 62
7
  6
CONTINUOUS
 10
4.5146576704
 20
3.869446135
 40
0.255463086
100
AcDbArc
 50
33.3924673485
 51
35.5118876125
  0
ARC
  5
2B8
100
AcDbEntity
  8
ALL_ASSEMBLY_MEMBERS
100
AcDbCircle
 62
7
  6
CONTINUOUS
 10
4.5147645952
 20
3.8695169805
 40
0.2553348273
100
AcDbArc
 50
33.2278356159
 51
33.3923224819
  0
ARC
  5
2B9
100
AcDbEntity
  8
ALL_ASSEMBLY_MEMBERS
100
AcDbCircle
 62
7
  6
CONTINUOUS
 10
4.5147874409
 20
3.8695397967
 40
0.255303048
100
AcDbArc
 50
35.5116945758
 51
37.38483492
  0
ARC
  5
2BA
100
AcDbEntity
  8
ALL_ASSEMBLY_MEMBERS
100
AcDbCircle
 62
7
  6
CONTINUOUS
 10
4.5150006842
 20
3.8696698926
 40
0.2550535481
100
AcDbArc
 50
31.3530596019
 51
33.2281633697
  0
ARC
  5
2BB
100
AcDbEntity
  8
ALL_ASSEMBLY_MEMBERS
100
AcDbCircle
 62
7
  6
CONTINUOUS
 10
4.5150235265
 20
3.86971843
 40
0.2550070002
100
AcDbArc
 50
37.3851507016
 51
37.550332772
  0
ARC
  5
2BC
100
AcDbEntity
  8
ALL_ASSEMBLY_MEMBERS
100
AcDbCircle
 62
7
  6
CONTINUOUS
 10
4.5122321136
 20
3.8660350317
 40
0.2537054115
100
AcDbArc
 50
311.1026028544
 51
311.383605767
  0
ARC
  5
2BD
100
AcDbEntity
  8
ALL_ASSEMBLY_MEMBERS
100
AcDbCircle
 62
7
  6
CONTINUOUS
 10
4.5126220907
 20
3.8655947346
 40
0.2531172436
100
AcDbArc
 50
311.3832615351
 51
312.5393153794
  0
ARC
  5
2BE
100
AcDbEntity
  8
ALL_ASSEMBLY_MEMBERS
100
AcDbCircle
 62
7
  6
CONTINUOUS
 10
4.3286999863
 20
3.7452555514
 40
0.08
100
AcDbArc
 50
329.5991727472
 51
334.9781223057
  0
ARC
  5
2BF
100
AcDbEntity
  8
ALL_ASSEMBLY_MEMBERS
100
AcDbCircle
 62
7
  6
CONTINUOUS
 10
4.3286999863
 20
3.7452555514
 40
0.04
100
AcDbArc
 50
341.025124619
 51
354.1157018122
  0
ARC
  5
2C0
100
AcDbEntity
  8
0
100
AcDbCircle
 62
7
  6
CONTINUOUS
 10
-5.9057551018
 20
7.3365162687
 40
10.994828617
100
AcDbArc
 50
341.1188547481
 51
341.238042366
  0
ARC
  5
2C1
100
AcDbEntity
  8
0
100
AcDbCircle
 62
7
  6
CONTINUOUS
 10
2.1210204805
 20
4.8615230204
 40
2.6283690432
100
AcDbArc
 50
336.6764338026
 51
337.1740788749
  0
ARC
  5
2C2
100
AcDbEntity
  8
0
100
AcDbCircle
 62
7
  6
CONTINUOUS
 10
2.2152335818
 20
3.8762370117
 40
2.3197712636
100
AcDbArc
 50
1.0588828916
 51
2.1057296296
  0
ARC
  5
2C3
100
AcDbEntity
  8
ALL_FEATURES
100
AcDbCircle
 62
7
  6
CONTINUOUS
 10
3.8626140354
 20
3.8699984491
 40
1.241911295
100
AcDbArc
 50
329.6221104037
 51
30.3778299633
  0
ARC
  5
2C4
100
AcDbEntity
  8
ALL_FEATURES
100
AcDbCircle
 62
7
  6
CONTINUOUS
 10
3.4486979818
 20
3.9272344073
 40
0.4823000727
100
AcDbArc
 50
356.9274794053
 51
358.0873894684
  0
ARC
  5
2C5
100
AcDbEntity
  8
ALL_ASSEMBLY_MEMBERS
100
AcDbCircle
 62
7
  6
CONTINUOUS
 10
4.5140011214
 20
3.870470757
 40
0.4527101645
100
AcDbArc
 50
341.3329732707
 51
342.2445019305
  0
ARC
  5
2C6
100
AcDbEntity
  8
ALL_ASSEMBLY_MEMBERS
100
AcDbCircle
 62
7
  6
CONTINUOUS
 10
4.5140818059
 20
3.8704451222
 40
0.4526255058
100
AcDbArc
 50
342.2444776996
 51
343.2318748968
  0
ARC
  5
2C7
100
AcDbEntity
  8
ALL_ASSEMBLY_MEMBERS
100
AcDbCircle
 62
7
  6
CONTINUOUS
 10
4.5141187429
 20
3.8704308591
 40
0.4525859604
100
AcDbArc
 50
340.42116425
 51
341.3329925478
  0
ARC
  5
2C8
100
AcDbEntity
  8
ALL_ASSEMBLY_MEMBERS
100
AcDbCircle
 62
7
  6
CONTINUOUS
 10
4.5147105219
 20
3.8702596205
 40
0.4519700056
100
AcDbArc
 50
343.2313969885
 51
345.1332629375
  0
ARC
  5
2C9
100
AcDbEntity
  8
ALL_ASSEMBLY_MEMBERS
100
AcDbCircle
 62
7
  6
CONTINUOUS
 10
4.5116134971
 20
3.8707833119
 40
0.45118178
100
AcDbArc
 50
256.0902117104
 51
256.2842132644
  0
ARC
  5
2CA
100
AcDbEntity
  8
ALL_ASSEMBLY_MEMBERS
100
AcDbCircle
 62
7
  6
CONTINUOUS
 10
4.5115526652
 20
3.8705336271
 40
0.4509247916
100
AcDbArc
 50
256.2841999855
 51
256.6136838045
  0
ARC
  5
2CB
100
AcDbEntity
  8
ALL_ASSEMBLY_MEMBERS
100
AcDbCircle
 62
7
  6
CONTINUOUS
 10
4.5114758325
 20
3.8702108578
 40
0.4505930036
100
AcDbArc
 50
256.6136862312
 51
256.9171919423
  0
ARC
  5
2CC
100
AcDbEntity
  8
ALL_FEATURES
100
AcDbCircle
 62
7
  6
CONTINUOUS
 10
4.3368383282
 20
3.8716110708
 40
0.4105925208
100
AcDbArc
 50
189.4250651301
 51
195.4350438437
  0
ARC
  5
2CD
100
AcDbEntity
  8
ALL_ASSEMBLY_MEMBERS
100
AcDbCircle
 62
7
  6
CONTINUOUS
 10
4.5137128355
 20
3.874824621
 40
0.2644114265
100
AcDbArc
 50
181.0458151047
 51
218.4823216086
  0
ARC
  5
2CE
100
AcDbEntity
  8
ALL_ASSEMBLY_MEMBERS
100
AcDbCircle
 62
7
  6
CONTINUOUS
 10
4.5149127234
 20
3.8707701804
 40
0.2554374992
100
AcDbArc
 50
303.9413493742
 51
305.9712587116
  0
ARC
  5
2CF
100
AcDbEntity
  8
ALL_ASSEMBLY_MEMBERS
100
AcDbCircle
 62
7
  6
CONTINUOUS
 10
4.5149454445
 20
3.8707199365
 40
0.2553775589
100
AcDbArc
 50
303.255256798
 51
303.9413575796
  0
ARC
  5
2D0
100
AcDbEntity
  8
ALL_ASSEMBLY_MEMBERS
100
AcDbCircle
 62
7
  6
CONTINUOUS
 10
4.5149746159
 20
3.8706849763
 40
0.2553321881
100
AcDbArc
 50
305.9712490037
 51
306.6575841626
  0
ARC
  5
2D1
100
AcDbEntity
  8
ALL_ASSEMBLY_MEMBERS
100
AcDbCircle
 62
7
  6
CONTINUOUS
 10
4.5150243873
 20
3.8705995117
 40
0.2552335655
100
AcDbArc
 50
302.596578085
 51
303.2552618545
  0
ARC
  5
2D2
100
AcDbEntity
  8
ALL_ASSEMBLY_MEMBERS
100
AcDbCircle
 62
7
  6
CONTINUOUS
 10
4.5150743789
 20
3.8705509627
 40
0.2551651184
100
AcDbArc
 50
306.6575793887
 51
307.3164476868
  0
ARC
  5
2D3
100
AcDbEntity
  8
ALL_ASSEMBLY_MEMBERS
100
AcDbCircle
 62
7
  6
CONTINUOUS
 10
4.5152131095
 20
3.870369049
 40
0.2549363417
100
AcDbArc
 50
307.3164357153
 51
308.003718466
  0
ARC
  5
2D4
100
AcDbEntity
  8
ALL_ASSEMBLY_MEMBERS
100
AcDbCircle
 62
7
  6
CONTINUOUS
 10
4.5153958685
 20
3.8701352195
 40
0.2546395639
100
AcDbArc
 50
308.0037101392
 51
308.6919322758
  0
ARC
  5
2D5
100
AcDbEntity
  8
ALL_ASSEMBLY_MEMBERS
100
AcDbCircle
 62
7
  6
CONTINUOUS
 10
4.5154420198
 20
3.8700448093
 40
0.2544762966
100
AcDbArc
 50
37.549498511
 51
39.4285860426
  0
ARC
  5
2D6
100
AcDbEntity
  8
ALL_FEATURES
100
AcDbCircle
 62
7
  6
CONTINUOUS
 10
4.0017771176
 20
4.5537802443
 40
0.1102362158
100
AcDbArc
 50
329.6221298328
 51
66.9155566817
  0
ARC
  5
2D7
100
AcDbEntity
  8
ALL_FEATURES
100
AcDbCircle
 62
7
  6
CONTINUOUS
 10
3.843642377
 20
3.9770905975
 40
0.0979134683
100
AcDbArc
 50
1.3359716334
 51
1.6338662331
  0
ARC
  5
2D8
100
AcDbEntity
  8
ALL_ASSEMBLY_MEMBERS
100
AcDbCircle
 62
7
  6
CONTINUOUS
 10
4.3947732809
 20
3.980667336
 40
0.04
100
AcDbArc
 50
150.1388857293
 51
178.853228133
  0
ARC
  5
2D9
100
AcDbEntity
  8
ALL_ASSEMBLY_MEMBERS
100
AcDbCircle
 62
7
  6
CONTINUOUS
 10
4.3947732809
 20
3.980667336
 40
0.04
100
AcDbArc
 50
96.1252274213
 51
124.5963507672
  0
ARC
  5
2DA
100
AcDbEntity
  8
ALL_FEATURES
100
AcDbCircle
 62
7
  6
CONTINUOUS
 10
4.0604360251
 20
4.6914077888
 40
0.0393700787
100
AcDbArc
 50
180.000000001
 51
246.915628511
  0
ARC
  5
2DB
100
AcDbEntity
  8
ALL_FEATURES
100
AcDbCircle
 62
7
  6
CONTINUOUS
 10
4.0604360251
 20
4.7016913625
 40
0.0393700787
100
AcDbArc
 50
180.0
 51
270.0
  0
ARC
  5
2DC
100
AcDbEntity
  8
ALL_FEATURES
100
AcDbCircle
 62
7
  6
CONTINUOUS
 10
3.9816958677
 20
4.814885381
 40
0.0393650367
100
AcDbArc
 50
359.9926622203
 51
88.3414362243
  0
ARC
  5
2DD
100
AcDbEntity
  8
ALL_FEATURES
100
AcDbCircle
 62
9
  6
CONTINUOUS
 10
4.0603244326
 20
4.6960191409
 40
0.0392609571
100
AcDbArc
 50
180.0665055264
 51
254.899951244
  0
ARC
  5
2DE
100
AcDbEntity
  8
0
100
AcDbCircle
 62
7
  6
CONTINUOUS
 10
3.5297134824
 20
6.2508432392
 40
2.6136025092
100
AcDbArc
 50
292.8245152994
 51
293.3249720232
  0
ARC
  5
2DF
100
AcDbEntity
  8
0
100
AcDbCircle
 62
7
  6
CONTINUOUS
 10
4.509212144
 20
6.1702218861
 40
2.3197777573
100
AcDbArc
 50
267.8942718356
 51
268.9411156431
  0
ARC
  5
2E0
100
AcDbEntity
  8
0
100
AcDbCircle
 62
7
  6
CONTINUOUS
 10
1.0489327069
 20
14.2912040804
 40
10.9948286194
100
AcDbArc
 50
288.761957634
 51
288.8811452519
  0
ARC
  5
2E1
100
AcDbEntity
  8
0
100
AcDbCircle
 62
7
  6
CONTINUOUS
 10
7.9819683476
 20
-6.551207182
 40
10.9948286192
100
AcDbArc
 50
108.761957634
 51
108.8811452519
  0
ARC
  5
2E2
100
AcDbEntity
  8
0
100
AcDbCircle
 62
7
  6
CONTINUOUS
 10
6.9098805741
 20
2.8784738779
 40
2.6283690432
100
AcDbArc
 50
156.6764338026
 51
157.1740788749
  0
ARC
  5
2E3
100
AcDbEntity
  8
0
100
AcDbCircle
 62
7
  6
CONTINUOUS
 10
5.5011875722
 20
1.489153659
 40
2.6136025093
100
AcDbArc
 50
112.8245152994
 51
113.3249720231
  0
ARC
  5
2E4
100
AcDbEntity
  8
0
100
AcDbCircle
 62
7
  6
CONTINUOUS
 10
4.5216889106
 20
1.5697750121
 40
2.3197777573
100
AcDbArc
 50
87.8942718356
 51
88.9411156431
  0
ARC
  5
2E5
100
AcDbEntity
  8
0
100
AcDbCircle
 62
7
  6
CONTINUOUS
 10
6.8156674728
 20
3.8637598865
 40
2.3197712636
100
AcDbArc
 50
181.0588828916
 51
182.1057296296
  0
ARC
  5
2E6
100
AcDbEntity
  8
ALL_FEATURES
100
AcDbCircle
 62
7
  6
CONTINUOUS
 10
5.1642153043
 20
3.8699514704
 40
1.2341702371
100
AcDbArc
 50
181.9080407715
 51
183.045863561
  0
ARC
  5
2E7
100
AcDbEntity
  8
ALL_FEATURES
100
AcDbCircle
 62
7
  6
CONTINUOUS
 10
5.1545665143
 20
3.8697368706
 40
1.2179333262
100
AcDbArc
 50
185.1879530747
 51
193.4899629162
  0
ARC
  5
2E8
100
AcDbEntity
  8
ALL_FEATURES
100
AcDbCircle
 62
9
  6
CONTINUOUS
 10
4.5986121814
 20
3.841546636
 40
0.6714995331
100
AcDbArc
 50
168.1557307632
 51
174.0514474731
  0
ARC
  5
2E9
100
AcDbEntity
  8
ALL_FEATURES
100
AcDbCircle
 62
9
  6
CONTINUOUS
 10
4.5158821158
 20
3.8372154229
 40
0.5890837543
100
AcDbArc
 50
166.0963795671
 51
173.7464588428
  0
ARC
  5
2EA
100
AcDbEntity
  8
ALL_ASSEMBLY_MEMBERS
100
AcDbCircle
 62
7
  6
CONTINUOUS
 10
4.5191329231
 20
3.868468539
 40
0.4644220265
100
AcDbArc
 50
75.1829666854
 51
75.3794954337
  0
ARC
  5
2EB
100
AcDbEntity
  8
ALL_ASSEMBLY_MEMBERS
100
AcDbCircle
 62
7
  6
CONTINUOUS
 10
4.5154607187
 20
3.8697963936
 40
0.4509950647
100
AcDbArc
 50
254.7204341752
 51
256.3482474624
  0
ARC
  5
2EC
100
AcDbEntity
  8
ALL_ASSEMBLY_MEMBERS
100
AcDbCircle
 62
7
  6
CONTINUOUS
 10
4.5157891441
 20
3.8699740231
 40
0.4508542138
100
AcDbArc
 50
345.1331731101
 51
346.5051492564
  0
ARC
  5
2ED
100
AcDbEntity
  8
ALL_ASSEMBLY_MEMBERS
100
AcDbCircle
 62
7
  6
CONTINUOUS
 10
4.5167619093
 20
3.8697382211
 40
0.4498532796
100
AcDbArc
 50
346.5054408211
 51
347.0412273654
  0
ARC
  5
2EE
100
AcDbEntity
  8
ALL_ASSEMBLY_MEMBERS
100
AcDbCircle
 62
7
  6
CONTINUOUS
 10
4.5173239026
 20
3.8696087109
 40
0.4492765566
100
AcDbArc
 50
347.0412509352
 51
347.4551468974
  0
ARC
  5
2EF
100
AcDbEntity
  8
ALL_ASSEMBLY_MEMBERS
100
AcDbCircle
 62
7
  6
CONTINUOUS
 10
4.5177487671
 20
3.8695139697
 40
0.4488412571
100
AcDbArc
 50
347.4551720751
 51
347.708138209
  0
ARC
  5
2F0
100
AcDbEntity
  8
ALL_ASSEMBLY_MEMBERS
100
AcDbCircle
 62
7
  6
CONTINUOUS
 10
4.5180621778
 20
3.8694456485
 40
0.448520486
100
AcDbArc
 50
347.7081423582
 51
347.9238284221
  0
ARC
  5
2F1
100
AcDbEntity
  8
ALL_ASSEMBLY_MEMBERS
100
AcDbCircle
 62
7
  6
CONTINUOUS
 10
4.517492078
 20
3.8651441204
 40
0.2800153644
100
AcDbArc
 50
7.4635343055
 51
7.6384540522
  0
ARC
  5
2F2
100
AcDbEntity
  8
ALL_ASSEMBLY_MEMBERS
100
AcDbCircle
 62
7
  6
CONTINUOUS
 10
4.5177535922
 20
3.8651781149
 40
0.27975165
100
AcDbArc
 50
6.9507069526
 51
7.4635881619
  0
ARC
  5
2F3
100
AcDbEntity
  8
ALL_ASSEMBLY_MEMBERS
100
AcDbCircle
 62
7
  6
CONTINUOUS
 10
4.5265223481
 20
3.8544518741
 40
0.2571873692
100
AcDbArc
 50
37.6662385117
 51
37.8524176968
  0
ARC
  5
2F4
100
AcDbEntity
  8
ALL_ASSEMBLY_MEMBERS
100
AcDbCircle
 62
7
  6
CONTINUOUS
 10
4.5275846743
 20
3.8553036798
 40
0.2558258705
100
AcDbArc
 50
37.8477803561
 51
45.6696871123
  0
ARC
  5
2F5
100
AcDbEntity
  8
ALL_ASSEMBLY_MEMBERS
100
AcDbCircle
 62
7
  6
CONTINUOUS
 10
4.5155479695
 20
3.8699448541
 40
0.2543958968
100
AcDbArc
 50
308.6919966999
 51
308.9616523448
  0
ARC
  5
2F6
100
AcDbEntity
  8
ALL_ASSEMBLY_MEMBERS
100
AcDbCircle
 62
7
  6
CONTINUOUS
 10
4.5156701217
 20
3.869793943
 40
0.254201744
100
AcDbArc
 50
308.9616323803
 51
309.3806079557
  0
ARC
  5
2F7
100
AcDbEntity
  8
ALL_ASSEMBLY_MEMBERS
100
AcDbCircle
 62
7
  6
CONTINUOUS
 10
4.5159083272
 20
3.8695046336
 40
0.2538269878
100
AcDbArc
 50
309.4974498619
 51
310.0432055507
  0
ARC
  5
2F8
100
AcDbEntity
  8
ALL_ASSEMBLY_MEMBERS
100
AcDbCircle
 62
7
  6
CONTINUOUS
 10
4.5161886218
 20
3.8691714274
 40
0.2533915669
100
AcDbArc
 50
310.0431583054
 51
310.7347593636
  0
ARC
  5
2F9
100
AcDbEntity
  8
ALL_ASSEMBLY_MEMBERS
100
AcDbCircle
 62
7
  6
CONTINUOUS
 10
4.5165362686
 20
3.8687677312
 40
0.2528588109
100
AcDbArc
 50
310.7347615942
 51
311.399648039
  0
ARC
  5
2FA
100
AcDbEntity
  8
ALL_FEATURES
100
AcDbCircle
 62
7
  6
CONTINUOUS
 10
5.0291236144
 20
3.186216086
 40
0.1102362195
100
AcDbArc
 50
149.6221021546
 51
246.9157000719
  0
ARC
  5
2FB
100
AcDbEntity
  8
ALL_ASSEMBLY_MEMBERS
100
AcDbCircle
 62
7
  6
CONTINUOUS
 10
4.7022010683
 20
3.7452555514
 40
0.08
100
AcDbArc
 50
205.0218776943
 51
210.4008272528
  0
ARC
  5
2FC
100
AcDbEntity
  8
ALL_ASSEMBLY_MEMBERS
100
AcDbCircle
 62
7
  6
CONTINUOUS
 10
4.7022010683
 20
3.7452555514
 40
0.04
100
AcDbArc
 50
185.8842981878
 51
198.974875381
  0
ARC
  5
2FD
100
AcDbEntity
  8
ALL_FEATURES
100
AcDbCircle
 62
7
  6
CONTINUOUS
 10
4.9704650295
 20
3.0485884203
 40
0.0393700787
100
AcDbArc
 50
0.0000000034
 51
66.9157297738
  0
ARC
  5
2FE
100
AcDbEntity
  8
ALL_FEATURES
100
AcDbCircle
 62
7
  6
CONTINUOUS
 10
4.9704650295
 20
3.0383055357
 40
0.0393700787
100
AcDbArc
 50
0.0
 51
90.0
  0
ARC
  5
2FF
100
AcDbEntity
  8
ALL_FEATURES
100
AcDbCircle
 62
7
  6
CONTINUOUS
 10
5.0492051869
 20
2.9251117121
 40
0.0393652315
100
AcDbArc
 50
179.9929457427
 51
268.3401523315
  0
ARC
  5
300
100
AcDbEntity
  8
ALL_FEATURES
100
AcDbCircle
 62
9
  6
CONTINUOUS
 10
4.9705704301
 20
3.0439859396
 40
0.0392670776
100
AcDbArc
 50
0.0628698835
 51
74.8618831003
  0
ARC
  5
301
100
AcDbEntity
  8
0
100
AcDbCircle
 62
7
  6
CONTINUOUS
 10
14.9366561581
 20
0.4034806289
 40
10.9948286189
100
AcDbArc
 50
161.1188547481
 51
161.238042366
  0
ARC
  5
302
100
AcDbEntity
  8
ALL_FEATURES
100
AcDbCircle
 62
7
  6
CONTINUOUS
 10
4.5154505273
 20
3.8699984491
 40
0.5859879698
100
AcDbArc
 50
176.9298408478
 51
183.0701617712
  0
CIRCLE
  5
303
100
AcDbEntity
  8
ALL_FEATURES
100
AcDbCircle
 62
7
  6
CONTINUOUS
 10
4.5154505273
 20
3.8699984491
 40
0.531496063
  0
ARC
  5
304
100
AcDbEntity
  8
ALL_ASSEMBLY_MEMBERS
100
AcDbCircle
 62
7
  6
CONTINUOUS
 10
4.5154505273
 20
3.8699984491
 40
0.4725
100
AcDbArc
 50
311.0065992274
 51
310.6997096313
  0
ARC
  5
305
100
AcDbEntity
  8
ALL_ASSEMBLY_MEMBERS
100
AcDbCircle
 62
7
  6
CONTINUOUS
 10
4.5163662643
 20
3.8739037144
 40
0.4575345872
100
AcDbArc
 50
165.6751141129
 51
180.4890515209
  0
ARC
  5
306
100
AcDbEntity
  8
ALL_ASSEMBLY_MEMBERS
100
AcDbCircle
 62
7
  6
CONTINUOUS
 10
4.5159231826
 20
3.8714498744
 40
0.4527121509
100
AcDbArc
 50
251.3984663316
 51
252.8158479581
  0
ARC
  5
307
100
AcDbEntity
  8
ALL_ASSEMBLY_MEMBERS
100
AcDbCircle
 62
7
  6
CONTINUOUS
 10
4.5159039377
 20
3.8713926399
 40
0.4526517675
100
AcDbArc
 50
250.9125243169
 51
251.3984641348
  0
ARC
  5
308
100
AcDbEntity
  8
ALL_ASSEMBLY_MEMBERS
100
AcDbCircle
 62
7
  6
CONTINUOUS
 10
4.5158657941
 20
3.8712824805
 40
0.4525351913
100
AcDbArc
 50
250.4260647399
 51
250.9125272472
  0
ARC
  5
309
100
AcDbEntity
  8
ALL_ASSEMBLY_MEMBERS
100
AcDbCircle
 62
7
  6
CONTINUOUS
 10
4.5157762448
 20
3.8709646271
 40
0.4522051531
100
AcDbArc
 50
252.8154697701
 51
254.720876455
  0
ARC
  5
30A
100
AcDbEntity
  8
ALL_ASSEMBLY_MEMBERS
100
AcDbCircle
 62
7
  6
CONTINUOUS
 10
4.5154505273
 20
3.8699984491
 40
0.4511899996
100
AcDbArc
 50
258.0599363234
 51
348.0368826088
  0
CIRCLE
  5
30B
100
AcDbEntity
  8
ALL_ASSEMBLY_MEMBERS
100
AcDbCircle
 62
7
  6
CONTINUOUS
 10
4.5154505273
 20
3.8699984491
 40
0.4425
  0
ARC
  5
30C
100
AcDbEntity
  8
ALL_ASSEMBLY_MEMBERS
100
AcDbCircle
 62
7
  6
CONTINUOUS
 10
4.5154505273
 20
3.8699984491
 40
0.3191118674
100
AcDbArc
 50
282.9464553575
 51
317.0535446425
  0
ARC
  5
30D
100
AcDbEntity
  8
ALL_ASSEMBLY_MEMBERS
100
AcDbCircle
 62
7
  6
CONTINUOUS
 10
4.5154505273
 20
3.8699984491
 40
0.3191118674
100
AcDbArc
 50
222.9464553575
 51
257.0535446425
  0
ARC
  5
30E
100
AcDbEntity
  8
ALL_ASSEMBLY_MEMBERS
100
AcDbCircle
 62
7
  6
CONTINUOUS
 10
4.5154505273
 20
3.8699984491
 40
0.3191118674
100
AcDbArc
 50
102.9464553575
 51
137.0535446425
  0
ARC
  5
30F
100
AcDbEntity
  8
ALL_ASSEMBLY_MEMBERS
100
AcDbCircle
 62
7
  6
CONTINUOUS
 10
4.5154505273
 20
3.8699984491
 40
0.3191118674
100
AcDbArc
 50
42.9464553575
 51
77.0535446425
  0
ARC
  5
310
100
AcDbEntity
  8
ALL_ASSEMBLY_MEMBERS
100
AcDbCircle
 62
7
  6
CONTINUOUS
 10
4.5154505273
 20
3.8699984491
 40
0.3191118674
100
AcDbArc
 50
162.9464553575
 51
197.0535446425
  0
ARC
  5
311
100
AcDbEntity
  8
ALL_ASSEMBLY_MEMBERS
100
AcDbCircle
 62
7
  6
CONTINUOUS
 10
4.5154505273
 20
3.8699984491
 40
0.3191118674
100
AcDbArc
 50
342.9464553575
 51
17.0535446425
  0
CIRCLE
  5
312
100
AcDbEntity
  8
ALL_ASSEMBLY_MEMBERS
100
AcDbCircle
 62
7
  6
CONTINUOUS
 10
4.5154505273
 20
3.8699984491
 40
0.3125
  0
ARC
  5
313
100
AcDbEntity
  8
ALL_ASSEMBLY_MEMBERS
100
AcDbCircle
 62
7
  6
CONTINUOUS
 10
4.5154505273
 20
3.8699984491
 40
0.2815
100
AcDbArc
 50
7.9667569308
 51
5.9200164875
  0
ARC
  5
314
100
AcDbEntity
  8
ALL_ASSEMBLY_MEMBERS
100
AcDbCircle
 62
7
  6
CONTINUOUS
 10
4.5154505273
 20
3.8699984491
 40
0.2544999998
100
AcDbArc
 50
311.3997714769
 51
41.3998569654
  0
ARC
  5
315
100
AcDbEntity
  8
ALL_ASSEMBLY_MEMBERS
100
AcDbCircle
 62
7
  6
CONTINUOUS
 10
4.5159259676
 20
3.8704414916
 40
0.2538505474
100
AcDbArc
 50
39.5647368833
 51
39.8806581591
  0
ARC
  5
316
100
AcDbEntity
  8
ALL_ASSEMBLY_MEMBERS
100
AcDbCircle
 62
7
  6
CONTINUOUS
 10
4.516191588
 20
3.8706639302
 40
0.2535040896
100
AcDbArc
 50
39.8805718253
 51
40.5641213843
  0
ARC
  5
317
100
AcDbEntity
  8
ALL_ASSEMBLY_MEMBERS
100
AcDbCircle
 62
7
  6
CONTINUOUS
 10
4.516592442
 20
3.8710071259
 40
0.2529763896
100
AcDbArc
 50
40.5641114892
 51
41.2546387893
  0
CIRCLE
  5
318
100
AcDbEntity
  8
ALL_ASSEMBLY_MEMBERS
100
AcDbCircle
 62
7
  6
CONTINUOUS
 10
4.5154505273
 20
3.8699984491
 40
0.2415
  0
CIRCLE
  5
319
100
AcDbEntity
  8
ALL_ASSEMBLY_MEMBERS
100
AcDbCircle
 62
7
  6
CONTINUOUS
 10
4.5154505273
 20
3.8699984491
 40
0.203
  0
CIRCLE
  5
31A
100
AcDbEntity
  8
ALL_FEATURES
100
AcDbCircle
 62
7
  6
CONTINUOUS
 10
4.5154505273
 20
3.8699984491
 40
0.1955
  0
ARC
  5
31B
100
AcDbEntity
  8
ALL_FEATURES
100
AcDbCircle
 62
7
  6
CONTINUOUS
 10
4.5154505273
 20
3.8699984491
 40
0.185
100
AcDbArc
 50
141.6665846093
 51
150.8334153907
  0
ARC
  5
31C
100
AcDbEntity
  8
ALL_FEATURES
100
AcDbCircle
 62
7
  6
CONTINUOUS
 10
4.5154505273
 20
3.8699984491
 40
0.185
100
AcDbArc
 50
119.1665846093
 51
128.3334153907
  0
ARC
  5
31D
100
AcDbEntity
  8
ALL_FEATURES
100
AcDbCircle
 62
7
  6
CONTINUOUS
 10
4.5154505273
 20
3.8699984491
 40
0.185
100
AcDbArc
 50
96.6665846093
 51
105.8334153907
  0
ARC
  5
31E
100
AcDbEntity
  8
ALL_FEATURES
100
AcDbCircle
 62
7
  6
CONTINUOUS
 10
4.5154505273
 20
3.8699984491
 40
0.185
100
AcDbArc
 50
74.1665846093
 51
83.3334153907
  0
ARC
  5
31F
100
AcDbEntity
  8
ALL_FEATURES
100
AcDbCircle
 62
7
  6
CONTINUOUS
 10
4.5154505273
 20
3.8699984491
 40
0.185
100
AcDbArc
 50
51.6665846093
 51
60.8334153907
  0
ARC
  5
320
100
AcDbEntity
  8
ALL_FEATURES
100
AcDbCircle
 62
7
  6
CONTINUOUS
 10
4.5154505273
 20
3.8699984491
 40
0.185
100
AcDbArc
 50
29.1665846093
 51
38.3334153907
  0
ARC
  5
321
100
AcDbEntity
  8
ALL_FEATURES
100
AcDbCircle
 62
7
  6
CONTINUOUS
 10
4.5154505273
 20
3.8699984491
 40
0.185
100
AcDbArc
 50
6.6665846093
 51
15.8334153907
  0
ARC
  5
322
100
AcDbEntity
  8
ALL_FEATURES
100
AcDbCircle
 62
7
  6
CONTINUOUS
 10
4.5154505273
 20
3.8699984491
 40
0.185
100
AcDbArc
 50
164.1665846093
 51
173.3334153907
  0
ARC
  5
323
100
AcDbEntity
  8
ALL_FEATURES
100
AcDbCircle
 62
7
  6
CONTINUOUS
 10
4.5154505273
 20
3.8699984491
 40
0.185
100
AcDbArc
 50
344.1665846093
 51
353.3334153907
  0
ARC
  5
324
100
AcDbEntity
  8
ALL_FEATURES
100
AcDbCircle
 62
7
  6
CONTINUOUS
 10
4.5154505273
 20
3.8699984491
 40
0.185
100
AcDbArc
 50
321.6665846093
 51
330.8334153907
  0
ARC
  5
325
100
AcDbEntity
  8
ALL_FEATURES
100
AcDbCircle
 62
7
  6
CONTINUOUS
 10
4.5154505273
 20
3.8699984491
 40
0.185
100
AcDbArc
 50
299.1665846093
 51
308.3334153907
  0
ARC
  5
326
100
AcDbEntity
  8
ALL_FEATURES
100
AcDbCircle
 62
7
  6
CONTINUOUS
 10
4.5154505273
 20
3.8699984491
 40
0.185
100
AcDbArc
 50
276.6665846093
 51
285.8334153907
  0
ARC
  5
327
100
AcDbEntity
  8
ALL_FEATURES
100
AcDbCircle
 62
7
  6
CONTINUOUS
 10
4.5154505273
 20
3.8699984491
 40
0.185
100
AcDbArc
 50
254.1665846093
 51
263.3334153907
  0
ARC
  5
328
100
AcDbEntity
  8
ALL_FEATURES
100
AcDbCircle
 62
7
  6
CONTINUOUS
 10
4.5154505273
 20
3.8699984491
 40
0.185
100
AcDbArc
 50
231.6665846093
 51
240.8334153907
  0
ARC
  5
329
100
AcDbEntity
  8
ALL_FEATURES
100
AcDbCircle
 62
7
  6
CONTINUOUS
 10
4.5154505273
 20
3.8699984491
 40
0.185
100
AcDbArc
 50
209.1665846093
 51
218.3334153907
  0
ARC
  5
32A
100
AcDbEntity
  8
ALL_FEATURES
100
AcDbCircle
 62
7
  6
CONTINUOUS
 10
4.5154505273
 20
3.8699984491
 40
0.185
100
AcDbArc
 50
186.6665846093
 51
195.8334153907
  0
ARC
  5
32B
100
AcDbEntity
  8
ALL_FEATURES
100
AcDbCircle
 62
7
  6
CONTINUOUS
 10
4.5154505273
 20
3.8699984491
 40
0.1635
100
AcDbArc
 50
154.1260218921
 51
160.8739781079
  0
ARC
  5
32C
100
AcDbEntity
  8
ALL_FEATURES
100
AcDbCircle
 62
7
  6
CONTINUOUS
 10
4.5154505273
 20
3.8699984491
 40
0.1635
100
AcDbArc
 50
131.6260218921
 51
138.3739781079
  0
ARC
  5
32D
100
AcDbEntity
  8
ALL_FEATURES
100
AcDbCircle
 62
7
  6
CONTINUOUS
 10
4.5154505273
 20
3.8699984491
 40
0.1635
100
AcDbArc
 50
109.1260218921
 51
115.8739781079
  0
ARC
  5
32E
100
AcDbEntity
  8
ALL_FEATURES
100
AcDbCircle
 62
7
  6
CONTINUOUS
 10
4.5154505273
 20
3.8699984491
 40
0.1635
100
AcDbArc
 50
86.6260218921
 51
93.3739781079
  0
ARC
  5
32F
100
AcDbEntity
  8
ALL_FEATURES
100
AcDbCircle
 62
7
  6
CONTINUOUS
 10
4.5154505273
 20
3.8699984491
 40
0.1635
100
AcDbArc
 50
64.1260218921
 51
70.8739781079
  0
ARC
  5
330
100
AcDbEntity
  8
ALL_FEATURES
100
AcDbCircle
 62
7
  6
CONTINUOUS
 10
4.5154505273
 20
3.8699984491
 40
0.1635
100
AcDbArc
 50
41.6260218921
 51
48.3739781079
  0
ARC
  5
331
100
AcDbEntity
  8
ALL_FEATURES
100
AcDbCircle
 62
7
  6
CONTINUOUS
 10
4.5154505273
 20
3.8699984491
 40
0.1635
100
AcDbArc
 50
19.1260218921
 51
25.8739781079
  0
ARC
  5
332
100
AcDbEntity
  8
ALL_FEATURES
100
AcDbCircle
 62
7
  6
CONTINUOUS
 10
4.5154505273
 20
3.8699984491
 40
0.1635
100
AcDbArc
 50
356.6260218921
 51
3.3739781079
  0
ARC
  5
333
100
AcDbEntity
  8
ALL_FEATURES
100
AcDbCircle
 62
7
  6
CONTINUOUS
 10
4.5154505273
 20
3.8699984491
 40
0.1635
100
AcDbArc
 50
334.1260218921
 51
340.8739781079
  0
ARC
  5
334
100
AcDbEntity
  8
ALL_FEATURES
100
AcDbCircle
 62
7
  6
CONTINUOUS
 10
4.5154505273
 20
3.8699984491
 40
0.1635
100
AcDbArc
 50
311.6260218921
 51
318.3739781079
  0
ARC
  5
335
100
AcDbEntity
  8
ALL_FEATURES
100
AcDbCircle
 62
7
  6
CONTINUOUS
 10
4.5154505273
 20
3.8699984491
 40
0.1635
100
AcDbArc
 50
289.1260218921
 51
295.8739781079
  0
ARC
  5
336
100
AcDbEntity
  8
ALL_FEATURES
100
AcDbCircle
 62
7
  6
CONTINUOUS
 10
4.5154505273
 20
3.8699984491
 40
0.1635
100
AcDbArc
 50
266.6260218921
 51
273.3739781079
  0
ARC
  5
337
100
AcDbEntity
  8
ALL_FEATURES
100
AcDbCircle
 62
7
  6
CONTINUOUS
 10
4.5154505273
 20
3.8699984491
 40
0.1635
100
AcDbArc
 50
244.1260218921
 51
250.8739781079
  0
ARC
  5
338
100
AcDbEntity
  8
ALL_FEATURES
100
AcDbCircle
 62
7
  6
CONTINUOUS
 10
4.5154505273
 20
3.8699984491
 40
0.1635
100
AcDbArc
 50
221.6260218921
 51
228.3739781079
  0
ARC
  5
339
100
AcDbEntity
  8
ALL_FEATURES
100
AcDbCircle
 62
7
  6
CONTINUOUS
 10
4.5154505273
 20
3.8699984491
 40
0.1635
100
AcDbArc
 50
199.1260218921
 51
205.8739781079
  0
ARC
  5
33A
100
AcDbEntity
  8
ALL_FEATURES
100
AcDbCircle
 62
7
  6
CONTINUOUS
 10
4.5154505273
 20
3.8699984491
 40
0.1635
100
AcDbArc
 50
176.6260218921
 51
183.3739781079
  0
CIRCLE
  5
33B
100
AcDbEntity
  8
0
100
AcDbCircle
 62
7
  6
CONTINUOUS
 10
4.5154505273
 20
3.8699984491
 40
0.157480315
  0
CIRCLE
  5
33C
100
AcDbEntity
  8
0
100
AcDbCircle
 62
9
  6
CONTINUOUS
 10
4.5154505273
 20
3.8699984491
 40
0.1495712214
  0
ARC
  5
33D
100
AcDbEntity
  8
0
100
AcDbCircle
 62
7
  6
CONTINUOUS
 10
4.5154505273
 20
3.8699984491
 40
0.0932272086
100
AcDbArc
 50
168.8752303572
 51
191.1247696428
  0
ARC
  5
33E
100
AcDbEntity
  8
0
100
AcDbCircle
 62
7
  6
CONTINUOUS
 10
4.5154505273
 20
3.8699984491
 40
0.0932272086
100
AcDbArc
 50
258.8752303572
 51
281.1247696428
  0
ARC
  5
33F
100
AcDbEntity
  8
0
100
AcDbCircle
 62
7
  6
CONTINUOUS
 10
4.5154505273
 20
3.8699984491
 40
0.0932272086
100
AcDbArc
 50
78.8752303572
 51
101.1247696428
  0
ARC
  5
340
100
AcDbEntity
  8
0
100
AcDbCircle
 62
7
  6
CONTINUOUS
 10
4.5154505273
 20
3.8699984491
 40
0.0932272086
100
AcDbArc
 50
348.8752303572
 51
11.1247696428
  0
ARC
  5
341
100
AcDbEntity
  8
0
100
AcDbCircle
 62
7
  6
CONTINUOUS
 10
4.5154505273
 20
3.8699984491
 40
0.0706281054
100
AcDbArc
 50
351.3609822788
 51
8.6390177212
  0
ARC
  5
342
100
AcDbEntity
  8
0
100
AcDbCircle
 62
7
  6
CONTINUOUS
 10
4.5154505273
 20
3.8699984491
 40
0.0706281054
100
AcDbArc
 50
81.3609822788
 51
98.6390177212
  0
ARC
  5
343
100
AcDbEntity
  8
0
100
AcDbCircle
 62
7
  6
CONTINUOUS
 10
4.5154505273
 20
3.8699984491
 40
0.0706281054
100
AcDbArc
 50
171.3609822788
 51
188.6390177212
  0
ARC
  5
344
100
AcDbEntity
  8
0
100
AcDbCircle
 62
7
  6
CONTINUOUS
 10
4.5154505273
 20
3.8699984491
 40
0.0706281054
100
AcDbArc
 50
261.3609822788
 51
278.6390177212
  0
ARC
  5
345
100
AcDbEntity
  8
ALL_FEATURES
100
AcDbCircle
 62
9
  6
CONTINUOUS
 10
4.5984497846
 20
3.8984400979
 40
0.6713369645
100
AcDbArc
 50
185.9491341724
 51
191.69719859
  0
ARC
  5
346
100
AcDbEntity
  8
ALL_FEATURES
100
AcDbCircle
 62
7
  6
CONTINUOUS
 10
4.6193843378
 20
3.9986725673
 40
0.6781286788
100
AcDbArc
 50
166.7262565167
 51
181.5878074466
  0
ARC
  5
347
100
AcDbEntity
  8
ALL_FEATURES
100
AcDbCircle
 62
7
  6
CONTINUOUS
 10
4.5794745573
 20
3.9385477713
 40
0.6622924606
100
AcDbArc
 50
195.4303621071
 51
195.5839006081
  0
ARC
  5
348
100
AcDbEntity
  8
ALL_ASSEMBLY_MEMBERS
100
AcDbCircle
 62
7
  6
CONTINUOUS
 10
4.6361277737
 20
3.980667336
 40
0.04
100
AcDbArc
 50
55.4036492329
 51
83.8747725787
  0
ARC
  5
349
100
AcDbEntity
  8
ALL_ASSEMBLY_MEMBERS
100
AcDbCircle
 62
7
  6
CONTINUOUS
 10
4.6361277737
 20
3.980667336
 40
0.04
100
AcDbArc
 50
1.146771867
 51
29.8611142707
  0
ARC
  5
34A
100
AcDbEntity
  8
ALL_FEATURES
100
AcDbCircle
 62
7
  6
CONTINUOUS
 10
5.1682870192
 20
3.8699984491
 40
1.241911295
100
AcDbArc
 50
149.6221700367
 51
166.7628704932
  0
ARC
  5
34B
100
AcDbEntity
  8
ALL_FEATURES
100
AcDbCircle
 62
7
  6
CONTINUOUS
 10
5.1682870192
 20
3.8699984491
 40
1.241911295
100
AcDbArc
 50
193.2396196815
 51
210.3778895963
  0
ARC
  5
34C
100
AcDbEntity
  8
ALL_FEATURES
100
AcDbCircle
 62
7
  6
CONTINUOUS
 10
5.1643612433
 20
3.8700049678
 40
1.234317426
100
AcDbArc
 50
174.9165579354
 51
178.0903122543
  0
ARC
  5
34D
100
AcDbEntity
  8
ALL_FEATURES
100
AcDbCircle
 62
7
  6
CONTINUOUS
 10
5.029123937
 20
4.5537802443
 40
0.1102362158
100
AcDbArc
 50
113.0844433183
 51
210.3778701672
  0
ARC
  5
34E
100
AcDbEntity
  8
ALL_FEATURES
100
AcDbCircle
 62
7
  6
CONTINUOUS
 10
4.9704650295
 20
4.6914077888
 40
0.0393700787
100
AcDbArc
 50
293.084371489
 51
359.999999999
  0
ARC
  5
34F
100
AcDbEntity
  8
ALL_FEATURES
100
AcDbCircle
 62
7
  6
CONTINUOUS
 10
4.9704650295
 20
4.7016913625
 40
0.0393700787
100
AcDbArc
 50
270.0
 51
360.0
  0
ARC
  5
350
100
AcDbEntity
  8
ALL_FEATURES
100
AcDbCircle
 62
7
  6
CONTINUOUS
 10
5.0492051869
 20
4.8148803389
 40
0.0393700787
100
AcDbArc
 50
91.6585634729
 51
180.0
  0
ARC
  5
351
100
AcDbEntity
  8
ALL_FEATURES
100
AcDbCircle
 62
9
  6
CONTINUOUS
 10
4.9705704255
 20
4.6960108523
 40
0.0392670337
100
AcDbArc
 50
285.1381643248
 51
359.9372851346
  0
ARC
  5
352
100
AcDbEntity
  8
0
100
AcDbCircle
 62
7
  6
CONTINUOUS
 10
5.5069723822
 20
6.2644221196
 40
2.6283621125
100
AcDbArc
 50
246.6764331465
 51
247.174079531
  0
ARC
  5
353
100
AcDbEntity
  8
0
100
AcDbCircle
 62
7
  6
CONTINUOUS
 10
4.5216889106
 20
6.1702218861
 40
2.3197777573
100
AcDbArc
 50
271.0588843569
 51
272.1057281644
  0
ARC
  5
354
100
AcDbEntity
  8
0
100
AcDbCircle
 62
7
  6
CONTINUOUS
 10
6.8962887768
 20
4.8557327076
 40
2.6135953999
100
AcDbArc
 50
202.8245146187
 51
203.3249727038
  0
ARC
  5
355
100
AcDbEntity
  8
0
100
AcDbCircle
 62
7
  6
CONTINUOUS
 10
6.8156674728
 20
3.8762370117
 40
2.3197712636
100
AcDbArc
 50
177.8942703704
 51
178.9411171084
  0
ARC
  5
356
100
AcDbEntity
  8
0
100
AcDbCircle
 62
7
  6
CONTINUOUS
 10
7.9819683475
 20
14.2912040799
 40
10.9948286189
100
AcDbArc
 50
251.1188547481
 51
251.238042366
  0
ARC
  5
357
100
AcDbEntity
  8
0
100
AcDbCircle
 62
7
  6
CONTINUOUS
 10
14.9366561596
 20
7.3365162699
 40
10.9948286205
100
AcDbArc
 50
198.761957634
 51
198.8811452519
  0
SPLINE
  5
358
100
AcDbEntity
  8
ALL_ASSEMBLY_MEMBERS
100
AcDbSpline
 62
7
  6
CONTINUOUS
 70
0
 71
3
 72
46
 73
42
 74
0
 42
0.0000001
 43
0.0000001
 44
0.0000000001
 40
0.0
 40
0.0
 40
0.0
 40
0.0
 40
0.0312369306
 40
0.0625031157
 40
0.0937593051
 40
0.1250054223
 40
0.1562518233
 40
0.1875005377
 40
0.2031287725
 40
0.2187566459
 40
0.2500033858
 40
0.2656308716
 40
0.2812586556
 40
0.3125068131
 40
0.3437554065
 40
0.3750048334
 40
0.4062538062
 40
0.4375022783
 40
0.468749725
 40
0.4999962838
 40
0.5312426675
 40
0.5624896739
 40
0.5937372381
 40
0.6249842839
 40
0.6406121947
 40
0.6562398864
 40
0.6718673364
 40
0.6874947789
 40
0.7187406971
 40
0.734367903
 40
0.749995202
 40
0.7812416898
 40
0.796869953
 40
0.8124989315
 40
0.84374899
 40
0.8749963124
 40
0.8906234612
 40
0.9062514829
 40
0.9375068079
 40
0.9687711486
 40
1.0
 40
1.0
 40
1.0
 40
1.0
 10
4.7950227409
 20
3.9023642147
 30
0.0
 10
4.7938761877
 20
3.9109134664
 30
0.0
 10
4.790790129
 20
3.9279241643
 30
0.0
 10
4.7838444174
 20
3.9529021706
 30
0.0
 10
4.7746160244
 20
3.9771352111
 30
0.0
 10
4.7631937553
 20
4.0004082244
 30
0.0
 10
4.7496657146
 20
4.0225204295
 30
0.0
 10
4.7367326273
 20
4.0398288052
 30
0.0
 10
4.7254603759
 20
4.0529069837
 30
0.0
 10
4.7135911399
 20
4.0654443862
 30
0.0
 10
4.7008584966
 20
4.0771401472
 30
0.0
 10
4.6873596696
 20
4.0879030473
 30
0.0
 10
4.6733714443
 20
4.0980233123
 30
0.0
 10
4.655021803
 20
4.1094325025
 30
0.0
 10
4.6318244307
 20
4.121006207
 30
0.0
 10
4.6076424141
 20
4.1303530981
 30
0.0
 10
4.5826922735
 20
4.1373972355
 30
0.0
 10
4.5571898412
 20
4.1420594375
 30
0.0
 10
4.5313630402
 20
4.1443080941
 30
0.0
 10
4.5054396958
 20
4.1441058856
 30
0.0
 10
4.4796507896
 20
4.1414626188
 30
0.0
 10
4.4542278446
 20
4.1363862511
 30
0.0
 10
4.4293998119
 20
4.1289288181
 30
0.0
 10
4.409389352
 20
4.1207736577
 30
0.0
 10
4.3939069904
 20
4.1131334628
 30
0.0
 10
4.3825782892
 20
4.1068566505
 30
0.0
 10
4.3715618327
 20
4.1000466251
 30
0.0
 10
4.357328339
 20
4.0902766232
 30
0.0
 10
4.3438096625
 20
4.079497062
 30
0.0
 10
4.3311175344
 20
4.0677938248
 30
0.0
 10
4.319001827
 20
4.0554945791
 30
0.0
 10
4.3077839389
 20
4.0423366448
 30
0.0
 10
4.2975566286
 20
4.028426686
 30
0.0
 10
4.2880109241
 20
4.0140384141
 30
0.0
 10
4.2773943633
 20
3.9952170422
 30
0.0
 10
4.268636099
 20
3.9754624769
 30
0.0
 10
4.262802426
 20
3.9592124297
 30
0.0
 10
4.2577590195
 20
3.9426980103
 30
0.0
 10
4.252961018
 20
3.9216200404
 30
0.0
 10
4.2496889868
 20
3.8959019315
 30
0.0
 10
4.2491726136
 20
3.8786204491
 30
0.0
 10
4.2493366893
 20
3.8699984491
 30
0.0
  0
SPLINE
  5
359
100
AcDbEntity
  8
ALL_ASSEMBLY_MEMBERS
100
AcDbSpline
 62
7
  6
CONTINUOUS
 70
0
 71
3
 72
23
 73
19
 74
0
 42
0.0000001
 43
0.0000001
 44
0.0000000001
 40
0.0
 40
0.0
 40
0.0
 40
0.0
 40
0.0624949166
 40
0.1249896385
 40
0.1874879247
 40
0.2499875159
 40
0.3124893136
 40
0.3749906003
 40
0.4374915061
 40
0.4999891104
 40
0.5624834888
 40
0.6249785147
 40
0.6874787801
 40
0.7499775084
 40
0.8124700803
 40
0.8749757442
 40
0.9375108679
 40
1.0
 40
1.0
 40
1.0
 40
1.0
 10
4.3067373666
 20
3.7102931413
 30
0.0
 10
4.3121588954
 20
3.7034846457
 30
0.0
 10
4.323686795
 20
3.69039715
 30
0.0
 10
4.3428378459
 20
3.6725882748
 30
0.0
 10
4.3636722251
 20
3.6567762838
 30
0.0
 10
4.3859790043
 20
3.6431186899
 30
0.0
 10
4.4095432257
 20
3.6317659472
 30
0.0
 10
4.4341245891
 20
3.6228253651
 30
0.0
 10
4.4594809292
 20
3.6164058569
 30
0.0
 10
4.4853524908
 20
3.6125621382
 30
0.0
 10
4.5114794476
 20
3.6113530788
 30
0.0
 10
4.5375958562
 20
3.6127825853
 30
0.0
 10
4.5634329438
 20
3.6168560245
 30
0.0
 10
4.5887259135
 20
3.6235196621
 30
0.0
 10
4.6132096236
 20
3.6327245986
 30
0.0
 10
4.6366362338
 20
3.6443734432
 30
0.0
 10
4.6587443329
 20
3.6583580329
 30
0.0
 10
4.6724627864
 20
3.6691383497
 30
0.0
 10
4.6790204558
 20
3.6748594979
 30
0.0
  0
LINE
  5
35A
100
AcDbEntity
  8
ALL_ASSEMBLY_MEMBERS
100
AcDbLine
 62
7
  6
CONTINUOUS
 10
4.6773534284
 20
3.673638304
 11
4.6769532331
 21
3.6733091226
  0
LINE
  5
35B
100
AcDbEntity
  8
ALL_ASSEMBLY_MEMBERS
100
AcDbLine
 62
7
  6
CONTINUOUS
 10
4.7063542146
 20
4.0383018422
 11
4.706776657
 21
4.037821448
  0
LINE
  5
35C
100
AcDbEntity
  8
ALL_ASSEMBLY_MEMBERS
100
AcDbLine
 62
7
  6
CONTINUOUS
 10
4.7116207264
 20
4.0321315091
 11
4.7120037858
 21
4.0316667684
  0
SPLINE
  5
35D
100
AcDbEntity
  8
ALL_ASSEMBLY_MEMBERS
100
AcDbSpline
 62
7
  6
CONTINUOUS
 70
0
 71
3
 72
23
 73
19
 74
0
 42
0.0000001
 43
0.0000001
 44
0.0000000001
 40
0.0
 40
0.0
 40
0.0
 40
0.0
 40
0.0624645169
 40
0.124997643
 40
0.1875327755
 40
0.250041383
 40
0.3125362485
 40
0.3750349654
 40
0.43753743
 40
0.5000377748
 40
0.5625361106
 40
0.6250315702
 40
0.6875279031
 40
0.7500220473
 40
0.8125073017
 40
0.874988363
 40
0.9374806951
 40
1.0
 40
1.0
 40
1.0
 40
1.0
 10
4.7323493061
 20
3.690562751
 30
0.0
 10
4.7365307066
 20
3.6963777377
 30
0.0
 10
4.7444533903
 20
3.7083412852
 30
0.0
 10
4.7549273833
 20
3.7271437639
 30
0.0
 10
4.7639204396
 20
3.7467054201
 30
0.0
 10
4.7713595777
 20
3.7669042785
 30
0.0
 10
4.7771996383
 20
3.7876181002
 30
0.0
 10
4.7813903811
 20
3.808727033
 30
0.0
 10
4.7839041531
 20
3.8301013374
 30
0.0
 10
4.7847136881
 20
3.8516081582
 30
0.0
 10
4.7837984893
 20
3.8731100721
 30
0.0
 10
4.7811636159
 20
3.8944693694
 30
0.0
 10
4.776807106
 20
3.915544901
 30
0.0
 10
4.770754794
 20
3.9361962843
 30
0.0
 10
4.7630379762
 20
3.9562836236
 30
0.0
 10
4.7536921212
 20
3.9756672144
 30
0.0
 10
4.7427764203
 20
3.9942153463
 30
0.0
 10
4.7344881106
 20
4.0059344566
 30
0.0
 10
4.730107687
 20
4.0116089696
 30
0.0
  0
SPLINE
  5
35E
100
AcDbEntity
  8
ALL_ASSEMBLY_MEMBERS
100
AcDbSpline
 62
7
  6
CONTINUOUS
 70
0
 71
3
 72
23
 73
19
 74
0
 42
0.0000001
 43
0.0000001
 44
0.0000000001
 40
0.0
 40
0.0
 40
0.0
 40
0.0
 40
0.0625079444
 40
0.1250026546
 40
0.1874968257
 40
0.2499981504
 40
0.3125026248
 40
0.375005594
 40
0.4375066111
 40
0.5000060831
 40
0.56250473
 40
0.6250039647
 40
0.6875027749
 40
0.75000106
 40
0.8124999549
 40
0.8749989832
 40
0.9374989355
 40
1.0
 40
1.0
 40
1.0
 40
1.0
 10
4.9736089378
 20
3.9667164052
 30
0.0
 10
4.9713237778
 20
3.9771062224
 30
0.0
 10
4.9660420368
 20
3.9977343491
 30
0.0
 10
4.9560330988
 20
4.0280586049
 30
0.0
 10
4.9439788387
 20
4.0576300619
 30
0.0
 10
4.9299315949
 20
4.08630974
 30
0.0
 10
4.9139640774
 20
4.113968165
 30
0.0
 10
4.8961431635
 20
4.1404705658
 30
0.0
 10
4.8765496682
 20
4.1656894892
 30
0.0
 10
4.8552818605
 20
4.1895124319
 30
0.0
 10
4.8324317179
 20
4.2118220067
 30
0.0
 10
4.8081068386
 20
4.2325132557
 30
0.0
 10
4.7824249347
 20
4.2514940145
 30
0.0
 10
4.7554997409
 20
4.2686658518
 30
0.0
 10
4.7274604566
 20
4.2839504589
 30
0.0
 10
4.6984394739
 20
4.29727933
 30
0.0
 10
4.6685707173
 20
4.3085781698
 30
0.0
 10
4.6481843137
 20
4.3147270997
 30
0.0
 10
4.6379010407
 20
4.317447328
 30
0.0
  0
SPLINE
  5
35F
100
AcDbEntity
  8
ALL_ASSEMBLY_MEMBERS
100
AcDbSpline
 62
7
  6
CONTINUOUS
 70
0
 71
3
 72
30
 73
26
 74
0
 42
0.0000001
 43
0.0000001
 44
0.0000000001
 40
0.0
 40
0.0
 40
0.0
 40
0.0
 40
0.0312557184
 40
0.0625111802
 40
0.1250035242
 40
0.1562586741
 40
0.1875137011
 40
0.250005716
 40
0.2812610318
 40
0.3125164286
 40
0.375009273
 40
0.4062647398
 40
0.4375198475
 40
0.5000111844
 40
0.531265998
 40
0.5625208226
 40
0.6250124232
 40
0.6562674908
 40
0.6875224325
 40
0.750014506
 40
0.7812707237
 40
0.8125278712
 40
0.8750241225
 40
0.9375129374
 40
1.0
 40
1.0
 40
1.0
 40
1.0
 10
4.6363603147
 20
4.3178520694
 30
0.0
 10
4.629053986
 20
4.3197580176
 30
0.0
 10
4.6143454019
 20
4.3232143007
 30
0.0
 10
4.5846362211
 20
4.3286766379
 30
0.0
 10
4.554557933
 20
4.3319522087
 30
0.0
 10
4.524368541
 20
4.3330160212
 30
0.0
 10
4.494163188
 20
4.3325990549
 30
0.0
 10
4.4640227899
 20
4.3299614113
 30
0.0
 10
4.434203507
 20
4.3251290098
 30
0.0
 10
4.4046571606
 20
4.3188384344
 30
0.0
 10
4.3756078248
 20
4.3103786056
 30
0.0
 10
4.3473026443
 20
4.2998253911
 30
0.0
 10
4.3195508975
 20
4.2878932314
 30
0.0
 10
4.2927114873
 20
4.2739270202
 30
0.0
 10
4.2670126859
 20
4.258049624
 30
0.0
 10
4.2421270966
 20
4.2409255031
 30
0.0
 10
4.2185355298
 20
4.2219818677
 30
0.0
 10
4.1964386958
 20
4.2013842572
 30
0.0
 10
4.1753849773
 20
4.1797213301
 30
0.0
 10
4.155958851
 20
4.1565245293
 30
0.0
 10
4.1383260015
 20
4.1319957157
 30
0.0
 10
4.1219269277
 20
4.1066231504
 30
0.0
 10
4.1038076173
 20
4.0734344368
 30
0.0
 10
4.0861003792
 20
4.0316749612
 30
0.0
 10
4.0771042706
 20
4.002792818
 30
0.0
 10
4.0733324508
 20
3.988175846
 30
0.0
  0
LINE
  5
360
100
AcDbEntity
  8
ALL_ASSEMBLY_MEMBERS
100
AcDbLine
 62
7
  6
CONTINUOUS
 10
4.0733324508
 20
3.988175846
 11
4.0730579318
 21
3.9871066712
  0
SPLINE
  5
361
100
AcDbEntity
  8
ALL_ASSEMBLY_MEMBERS
100
AcDbSpline
 62
7
  6
CONTINUOUS
 70
0
 71
3
 72
23
 73
19
 74
0
 42
0.0000001
 43
0.0000001
 44
0.0000000001
 40
0.0
 40
0.0
 40
0.0
 40
0.0
 40
0.0624578189
 40
0.1249811651
 40
0.1874990301
 40
0.2499957437
 40
0.3124881367
 40
0.3749871307
 40
0.437486977
 40
0.4999828746
 40
0.5624770725
 40
0.6249727275
 40
0.6874701203
 40
0.7499632778
 40
0.8124551864
 40
0.8749623012
 40
0.9374947475
 40
1.0
 40
1.0
 40
1.0
 40
1.0
 10
4.0588484509
 20
3.8699984491
 30
0.0
 10
4.058956909
 20
3.8575320364
 30
0.0
 10
4.0602024215
 20
3.8325832458
 30
0.0
 10
4.0651183346
 20
3.7954416274
 30
0.0
 10
4.0730697904
 20
3.7588185349
 30
0.0
 10
4.0840011866
 20
3.7229792922
 30
0.0
 10
4.0978364908
 20
3.6881615053
 30
0.0
 10
4.1144910645
 20
3.6546003709
 30
0.0
 10
4.133841688
 20
3.622516981
 30
0.0
 10
4.1557737528
 20
3.5921407429
 30
0.0
 10
4.1801287811
 20
3.5636715911
 30
0.0
 10
4.2067507185
 20
3.5373091925
 30
0.0
 10
4.2354558347
 20
3.5132325486
 30
0.0
 10
4.2660467451
 20
3.4916030774
 30
0.0
 10
4.2983244053
 20
3.4725788555
 30
0.0
 10
4.332069979
 20
3.4562797697
 30
0.0
 10
4.3670524136
 20
3.4428387833
 30
0.0
 10
4.3910416719
 20
3.4358314822
 30
0.0
 10
4.4031521611
 20
3.4328322448
 30
0.0
  0
LINE
  5
362
100
AcDbEntity
  8
ALL_ASSEMBLY_MEMBERS
100
AcDbLine
 62
7
  6
CONTINUOUS
 10
4.4094800283
 20
3.4313134771
 11
4.4106676021
 21
3.4310391892
  0
LINE
  5
363
100
AcDbEntity
  8
ALL_ASSEMBLY_MEMBERS
100
AcDbLine
 62
7
  6
CONTINUOUS
 10
4.8235652077
 20
3.5117784138
 11
4.8244566397
 21
3.5125602787
  0
SPLINE
  5
364
100
AcDbEntity
  8
ALL_ASSEMBLY_MEMBERS
100
AcDbSpline
 62
7
  6
CONTINUOUS
 70
0
 71
3
 72
17
 73
13
 74
0
 42
0.0000001
 43
0.0000001
 44
0.0000000001
 40
0.0
 40
0.0
 40
0.0
 40
0.0
 40
0.1249689826
 40
0.1875084669
 40
0.250033759
 40
0.375012106
 40
0.5000012925
 40
0.624990417
 40
0.7499748201
 40
0.8125050157
 40
0.875046281
 40
1.0
 40
1.0
 40
1.0
 40
1.0
 10
4.8266458416
 20
3.5144973831
 30
0.0
 10
4.8391165159
 20
3.5256012367
 30
0.0
 10
4.8569606914
 20
3.543275588
 30
0.0
 10
4.8787642001
 20
3.5686027479
 30
0.0
 10
4.8991917196
 20
3.5950575407
 30
0.0
 10
4.9220456863
 20
3.6301030924
 30
0.0
 10
4.9448368434
 20
3.6748231192
 30
0.0
 10
4.9627571596
 20
3.7217088755
 30
0.0
 10
4.9734471283
 20
3.7621611226
 30
0.0
 10
4.9793776348
 20
3.7950562935
 30
0.0
 10
4.9835411548
 20
3.8282142469
 30
0.0
 10
4.9846738066
 20
3.8533033842
 30
0.0
 10
4.9845324234
 20
3.8699984491
 30
0.0
  0
LINE
  5
365
100
AcDbEntity
  8
ALL_ASSEMBLY_MEMBERS
100
AcDbLine
 62
7
  6
CONTINUOUS
 10
4.9568412377
 20
3.7764748873
 11
4.9566570532
 21
3.7756098254
  0
SPLINE
  5
366
100
AcDbEntity
  8
ALL_ASSEMBLY_MEMBERS
100
AcDbSpline
 62
7
  6
CONTINUOUS
 70
0
 71
3
 72
15
 73
11
 74
0
 42
0.0000001
 43
0.0000001
 44
0.0000000001
 40
0.0
 40
0.0
 40
0.0
 40
0.0
 40
0.1250519163
 40
0.2500715525
 40
0.3750559176
 40
0.5000329618
 40
0.6250201973
 40
0.7500141729
 40
0.8750070073
 40
1.0
 40
1.0
 40
1.0
 40
1.0
 10
4.9465926277
 20
3.7320170676
 30
0.0
 10
4.9437168907
 20
3.7219017386
 30
0.0
 10
4.9372612208
 20
3.701866379
 30
0.0
 10
4.9255107615
 20
3.6725707237
 30
0.0
 10
4.9117593281
 20
3.6441649144
 30
0.0
 10
4.8960777185
 20
3.6167809357
 30
0.0
 10
4.8785407546
 20
3.5905457108
 30
0.0
 10
4.8592419628
 20
3.5655759346
 30
0.0
 10
4.8382710137
 20
3.5419943855
 30
0.0
 10
4.8232424702
 20
3.5272668021
 30
0.0
 10
4.815488177
 20
3.5201705716
 30
0.0
  0
SPLINE
  5
367
100
AcDbEntity
  8
ALL_ASSEMBLY_MEMBERS
100
AcDbSpline
 62
7
  6
CONTINUOUS
 70
0
 71
3
 72
19
 73
15
 74
0
 42
0.0000001
 43
0.0000001
 44
0.0000000001
 40
0.0
 40
0.0
 40
0.0
 40
0.0
 40
0.0625079279
 40
0.1250162636
 40
0.1875259869
 40
0.2500372928
 40
0.3125495687
 40
0.3750624886
 40
0.5000482883
 40
0.5625536601
 40
0.6250552036
 40
0.7500379529
 40
0.8750654926
 40
1.0
 40
1.0
 40
1.0
 40
1.0
 10
4.815488177
 20
3.5201705716
 30
0.0
 10
4.8098603923
 20
3.515020385
 30
0.0
 10
4.7983471898
 20
3.504997416
 30
0.0
 10
4.7803532675
 20
3.4908408745
 30
0.0
 10
4.7616794821
 20
3.4775923648
 30
0.0
 10
4.7423745552
 20
3.4652815375
 30
0.0
 10
4.72248468
 20
3.4539375273
 30
0.0
 10
4.6952575407
 20
3.4401448005
 30
0.0
 10
4.6670435639
 20
3.428376821
 30
0.0
 10
4.6380885936
 20
3.4187302924
 30
0.0
 10
4.6086949335
 20
3.4105150947
 30
0.0
 10
4.5712441455
 20
3.4029523416
 30
0.0
 10
4.5256533923
 20
3.3983095902
 30
0.0
 10
4.4950907303
 20
3.3981697332
 30
0.0
 10
4.4798581268
 20
3.3988409054
 30
0.0
  0
SPLINE
  5
368
100
AcDbEntity
  8
ALL_FEATURES
100
AcDbSpline
 62
9
  6
CONTINUOUS
 70
0
 71
3
 72
9
 73
5
 74
0
 42
0.0000001
 43
0.0000001
 44
0.0000000001
 40
0.0
 40
0.0
 40
0.0
 40
0.0
 40
0.5001893146
 40
1.0
 40
1.0
 40
1.0
 40
1.0
 10
4.6486595221
 20
3.0440274614
 30
0.0
 10
4.6329695395
 20
3.0425923757
 30
0.0
 10
4.6016003224
 20
3.0397531786
 30
0.0
 10
4.5701035396
 20
3.038305344
 30
0.0
 10
4.55435999
 20
3.0383055357
 30
0.0
  0
SPLINE
  5
369
100
AcDbEntity
  8
ALL_FEATURES
100
AcDbSpline
 62
9
  6
CONTINUOUS
 70
0
 71
3
 72
13
 73
9
 74
0
 42
0.0000001
 43
0.0000001
 44
0.0000000001
 40
0.0
 40
0.0
 40
0.0
 40
0.0
 40
0.1250552808
 40
0.2500595965
 40
0.5000001616
 40
0.7499407025
 40
0.8749452594
 40
1.0
 40
1.0
 40
1.0
 40
1.0
 10
4.8766213428
 20
3.0440252252
 30
0.0
 10
4.8671504486
 20
3.0449182364
 30
0.0
 10
4.8481744208
 20
3.0463030022
 30
0.0
 10
4.8101791497
 20
3.0480776389
 30
0.0
 10
4.7626406049
 20
3.0489277963
 30
0.0
 10
4.7151017076
 20
3.0480808095
 30
0.0
 10
4.6771070147
 20
3.0462962642
 30
0.0
 10
4.6581305433
 20
3.0449186862
 30
0.0
 10
4.6486595221
 20
3.0440274614
 30
0.0
  0
SPLINE
  5
36A
100
AcDbEntity
  8
ALL_FEATURES
100
AcDbSpline
 62
9
  6
CONTINUOUS
 70
0
 71
3
 72
9
 73
5
 74
0
 42
0.0000001
 43
0.0000001
 44
0.0000000001
 40
0.0
 40
0.0
 40
0.0
 40
0.0
 40
0.4998110944
 40
1.0
 40
1.0
 40
1.0
 40
1.0
 10
4.9709256455
 20
3.0383055357
 30
0.0
 10
4.9551813242
 20
3.0383053708
 30
0.0
 10
4.9236831597
 20
3.0397551721
 30
0.0
 10
4.8923120774
 20
3.0425901668
 30
0.0
 10
4.8766213428
 20
3.0440252252
 30
0.0
  0
SPLINE
  5
36B
100
AcDbEntity
  8
ALL_FEATURES
100
AcDbSpline
 62
9
  6
CONTINUOUS
 70
0
 71
3
 72
21
 73
17
 74
0
 42
0.0000001
 43
0.0000001
 44
0.0000000001
 40
0.0
 40
0.0
 40
0.0
 40
0.0
 40
0.2421483422
 40
0.4474651464
 40
0.6184948516
 40
0.7568604612
 40
0.8141224822
 40
0.8635916216
 40
0.9053675142
 40
0.93949541
 40
0.9659994982
 40
0.9849032308
 40
0.9915121102
 40
0.9962293808
 40
0.9990577796
 40
1.0
 40
1.0
 40
1.0
 40
1.0
 10
4.1124978497
 20
4.4964767443
 30
0.0
 10
4.1112287996
 20
4.496469725
 30
0.0
 10
4.1088828008
 20
4.4965157654
 30
0.0
 10
4.1056482843
 20
4.4967428029
 30
0.0
 10
4.1029661478
 20
4.4970351849
 30
0.0
 10
4.1010625926
 20
4.4972999642
 30
0.0
 10
4.0997942323
 20
4.4975030934
 30
0.0
 10
4.0990269875
 20
4.4976342621
 30
0.0
 10
4.0983801421
 20
4.4977486958
 30
0.0
 10
4.0978517874
 20
4.4978457892
 30
0.0
 10
4.0974431233
 20
4.4979212628
 30
0.0
 10
4.097173476
 20
4.4979766007
 30
0.0
 10
4.0970207816
 20
4.4980028117
 30
0.0
 10
4.0969436202
 20
4.498025067
 30
0.0
 10
4.0969078657
 20
4.498020527
 30
0.0
 10
4.096880407
 20
4.4980384266
 30
0.0
 10
4.0968788999
 20
4.4980337242
 30
0.0
  0
SPLINE
  5
36C
100
AcDbEntity
  8
ALL_FEATURES
100
AcDbSpline
 62
9
  6
CONTINUOUS
 70
0
 71
3
 72
14
 73
10
 74
0
 42
0.0000001
 43
0.0000001
 44
0.0000000001
 40
0.0
 40
0.0
 40
0.0
 40
0.0
 40
0.140237671
 40
0.2769895668
 40
0.5386501539
 40
0.6627742645
 40
0.7816876325
 40
0.8945509863
 40
1.0
 40
1.0
 40
1.0
 40
1.0
 10
4.4149504417
 20
4.4964767443
 30
0.0
 10
4.4055087192
 20
4.4964623122
 30
0.0
 10
4.3868600862
 20
4.496730419
 30
0.0
 10
4.3506058531
 20
4.4975929268
 30
0.0
 10
4.3154261194
 20
4.4981661259
 30
0.0
 10
4.2814459977
 20
4.4979157153
 30
0.0
 10
4.2574890993
 20
4.4974066361
 30
0.0
 10
4.2347949328
 20
4.4967572628
 30
0.0
 10
4.2200974446
 20
4.4964597754
 30
0.0
 10
4.2129979353
 20
4.4964767443
 30
0.0
  0
SPLINE
  5
36D
100
AcDbEntity
  8
ALL_FEATURES
100
AcDbSpline
 62
9
  6
CONTINUOUS
 70
0
 71
3
 72
16
 73
12
 74
0
 42
0.0000001
 43
0.0000001
 44
0.0000000001
 40
0.0
 40
0.0
 40
0.0
 40
0.0
 40
0.0678453954
 40
0.1353970453
 40
0.2684368996
 40
0.3980866713
 40
0.5240669479
 40
0.6466681901
 40
0.7664357214
 40
0.884000706
 40
1.0
 40
1.0
 40
1.0
 40
1.0
 10
4.5154505273
 20
4.4837397644
 30
0.0
 10
4.4968250782
 20
4.4837391156
 30
0.0
 10
4.4596192883
 20
4.4816731492
 30
0.0
 10
4.3868103915
 20
4.4695568438
 30
0.0
 10
4.3001909647
 20
4.4405436605
 30
0.0
 10
4.2068473046
 20
4.3876898453
 30
0.0
 10
4.1262812093
 20
4.3214246996
 30
0.0
 10
4.0591851214
 20
4.2452254989
 30
0.0
 10
4.0056931624
 20
4.1617031296
 30
0.0
 10
3.9657819082
 20
4.0729380524
 30
0.0
 10
3.9480761491
 20
4.0110443749
 30
0.0
 10
3.9415159523
 20
3.9798823784
 30
0.0
  0
SPLINE
  5
36E
100
AcDbEntity
  8
ALL_FEATURES
100
AcDbSpline
 62
9
  6
CONTINUOUS
 70
0
 71
3
 72
9
 73
5
 74
0
 42
0.0000001
 43
0.0000001
 44
0.0000000001
 40
0.0
 40
0.0
 40
0.0
 40
0.0
 40
0.2359225408
 40
1.0
 40
1.0
 40
1.0
 40
1.0
 10
4.9808255791
 20
4.6581039753
 30
0.0
 10
4.98012136
 20
4.6586421725
 30
0.0
 10
4.9770679111
 20
4.6607931824
 30
0.0
 10
4.9733355677
 20
4.6623214623
 30
0.0
 10
4.9704650295
 20
4.6623212838
 30
0.0
  0
SPLINE
  5
36F
100
AcDbEntity
  8
ALL_FEATURES
100
AcDbSpline
 62
9
  6
CONTINUOUS
 70
0
 71
3
 72
15
 73
11
 74
0
 42
0.0000001
 43
0.0000001
 44
0.0000000001
 40
0.0
 40
0.0
 40
0.0
 40
0.0
 40
0.1222682824
 40
0.2454998703
 40
0.3698530093
 40
0.4952560541
 40
0.6214273692
 40
0.747934777
 40
0.8742810178
 40
1.0
 40
1.0
 40
1.0
 40
1.0
 10
4.9808255791
 20
4.6581039753
 30
0.0
 10
4.9730880925
 20
4.6558095307
 30
0.0
 10
4.9580413185
 20
4.6493348911
 30
0.0
 10
4.9382856336
 20
4.6346429365
 30
0.0
 10
4.9222300204
 20
4.6156980322
 30
0.0
 10
4.9107073323
 20
4.5934906899
 30
0.0
 10
4.9042930466
 20
4.5691651427
 30
0.0
 10
4.9033120759
 20
4.5439639533
 30
0.0
 10
4.9078051117
 20
4.5191887393
 30
0.0
 10
4.9143419978
 20
4.5037133232
 30
0.0
 10
4.9184032049
 20
4.4964767443
 30
0.0
  0
SPLINE
  5
370
100
AcDbEntity
  8
ALL_FEATURES
100
AcDbSpline
 62
9
  6
CONTINUOUS
 70
0
 71
3
 72
13
 73
9
 74
0
 42
0.0000001
 43
0.0000001
 44
0.0000000001
 40
0.0
 40
0.0
 40
0.0
 40
0.0
 40
0.1197675319
 40
0.2414467999
 40
0.4890927791
 40
0.7417850253
 40
0.8700912522
 40
1.0
 40
1.0
 40
1.0
 40
1.0
 10
4.8647401424
 20
4.6581134317
 30
0.0
 10
4.8554482572
 20
4.6574549494
 30
0.0
 10
4.8366889014
 20
4.6565138834
 30
0.0
 10
4.798662427
 20
4.6554581808
 30
0.0
 10
4.7502818406
 20
4.6550111855
 30
0.0
 10
4.7013860286
 20
4.6554643432
 30
0.0
 10
4.6616628763
 20
4.6565391498
 30
0.0
 10
4.6415978931
 20
4.6574645226
 30
0.0
 10
4.6315145303
 20
4.6581090977
 30
0.0
  0
SPLINE
  5
371
100
AcDbEntity
  8
ALL_FEATURES
100
AcDbSpline
 62
9
  6
CONTINUOUS
 70
0
 71
3
 72
14
 73
10
 74
0
 42
0.0000001
 43
0.0000001
 44
0.0000000001
 40
0.0
 40
0.0
 40
0.0
 40
0.0
 40
0.1044350692
 40
0.2167075737
 40
0.3375344357
 40
0.4659170051
 40
0.5995956759
 40
0.7355361427
 40
1.0
 40
1.0
 40
1.0
 40
1.0
 10
4.864756796
 20
4.6581039783
 30
0.0
 10
4.8587924579
 20
4.655747641
 30
0.0
 10
4.8471239198
 20
4.6489309433
 30
0.0
 10
4.8323934769
 20
4.6340874765
 30
0.0
 10
4.8205104705
 20
4.6151488839
 30
0.0
 10
4.8120196858
 20
4.5930881674
 30
0.0
 10
4.8073035839
 20
4.5689771589
 30
0.0
 10
4.806341964
 20
4.5361158278
 30
0.0
 10
4.8115989176
 20
4.5114428035
 30
0.0
 10
4.8179031193
 20
4.4964767443
 30
0.0
  0
SPLINE
  5
372
100
AcDbEntity
  8
ALL_FEATURES
100
AcDbSpline
 62
9
  6
CONTINUOUS
 70
0
 71
3
 72
9
 73
5
 74
0
 42
0.0000001
 43
0.0000001
 44
0.0000000001
 40
0.0
 40
0.0
 40
0.0
 40
0.0
 40
0.4978704668
 40
1.0
 40
1.0
 40
1.0
 40
1.0
 10
4.631519345
 20
4.6581039758
 30
0.0
 10
4.615463472
 20
4.6591393729
 30
0.0
 10
4.5832158092
 20
4.6612188487
 30
0.0
 10
4.5509018102
 20
4.6623214098
 30
0.0
 10
4.5346749507
 20
4.6623212838
 30
0.0
  0
SPLINE
  5
373
100
AcDbEntity
  8
ALL_FEATURES
100
AcDbSpline
 62
9
  6
CONTINUOUS
 70
0
 71
3
 72
17
 73
13
 74
0
 42
0.0000001
 43
0.0000001
 44
0.0000000001
 40
0.0
 40
0.0
 40
0.0
 40
0.0
 40
0.0303448056
 40
0.067233671
 40
0.1106681508
 40
0.1603883869
 40
0.2768346509
 40
0.4116702904
 40
0.5585943226
 40
0.7105259699
 40
0.8600757018
 40
1.0
 40
1.0
 40
1.0
 40
1.0
 10
4.631519345
 20
4.6581039758
 30
0.0
 10
4.630446604
 20
4.6568285346
 30
0.0
 10
4.6283931385
 20
4.653732899
 30
0.0
 10
4.6257321684
 20
4.6482582307
 30
0.0
 10
4.6232311052
 20
4.6415586651
 30
0.0
 10
4.6199801537
 20
4.6305086131
 30
0.0
 10
4.6166868483
 20
4.614280013
 30
0.0
 10
4.6139512591
 20
4.592568238
 30
0.0
 10
4.6124246871
 20
4.5687842672
 30
0.0
 10
4.6121899643
 20
4.5441462889
 30
0.0
 10
4.6132626194
 20
4.5199160732
 30
0.0
 10
4.6148853452
 20
4.5040874432
 30
0.0
 10
4.6159506129
 20
4.4964767443
 30
0.0
  0
SPLINE
  5
374
100
AcDbEntity
  8
ALL_FEATURES
100
AcDbSpline
 62
9
  6
CONTINUOUS
 70
0
 71
3
 72
9
 73
5
 74
0
 42
0.0000001
 43
0.0000001
 44
0.0000000001
 40
0.0
 40
0.0
 40
0.0
 40
0.0
 40
0.5021295256
 40
1.0
 40
1.0
 40
1.0
 40
1.0
 10
4.4962261039
 20
4.6623212838
 30
0.0
 10
4.4799992456
 20
4.6623214116
 30
0.0
 10
4.4476852489
 20
4.6612188435
 30
0.0
 10
4.4154375874
 20
4.6591393783
 30
0.0
 10
4.3993817155
 20
4.6581039761
 30
0.0
  0
SPLINE
  5
375
100
AcDbEntity
  8
ALL_FEATURES
100
AcDbSpline
 62
9
  6
CONTINUOUS
 70
0
 71
3
 72
16
 73
12
 74
0
 42
0.0000001
 43
0.0000001
 44
0.0000000001
 40
0.0
 40
0.0
 40
0.0
 40
0.0
 40
0.1159985114
 40
0.2335657571
 40
0.3533366134
 40
0.4759411817
 40
0.601923582
 40
0.7315730745
 40
0.864609367
 40
0.9321580139
 40
1.0
 40
1.0
 40
1.0
 40
1.0
 10
3.9416224447
 20
3.759607424
 30
0.0
 10
3.9482024357
 20
3.728470237
 30
0.0
 10
3.9659428205
 20
3.6666283821
 30
0.0
 10
4.0058860448
 20
3.5779436532
 30
0.0
 10
4.0593921674
 20
3.4945017993
 30
0.0
 10
4.126483738
 20
3.4183808475
 30
0.0
 10
4.2070262025
 20
3.3521884947
 30
0.0
 10
4.30032678
 20
3.2993972714
 30
0.0
 10
4.3868953477
 20
3.2704211377
 30
0.0
 10
4.459657053
 20
3.2583209483
 30
0.0
 10
4.4968376969
 20
3.2562577883
 30
0.0
 10
4.5154505273
 20
3.2562571339
 30
0.0
  0
SPLINE
  5
376
100
AcDbEntity
  8
ALL_FEATURES
100
AcDbSpline
 62
9
  6
CONTINUOUS
 70
0
 71
3
 72
13
 73
9
 74
0
 42
0.0000001
 43
0.0000001
 44
0.0000000001
 40
0.0
 40
0.0
 40
0.0
 40
0.0
 40
0.1299087133
 40
0.2582153233
 40
0.5109071378
 40
0.7585515987
 40
0.8802324705
 40
1.0
 40
1.0
 40
1.0
 40
1.0
 10
4.39938654
 20
4.6581091233
 30
0.0
 10
4.3893031841
 20
4.6574645029
 30
0.0
 10
4.3692381769
 20
4.6565390675
 30
0.0
 10
4.3295150345
 20
4.6554645193
 30
0.0
 10
4.2806193378
 20
4.6550104882
 30
0.0
 10
4.2322388397
 20
4.6554597471
 30
0.0
 10
4.194212269
 20
4.6565125858
 30
0.0
 10
4.175452859
 20
4.6574550937
 30
0.0
 10
4.1661609737
 20
4.6581135536
 30
0.0
  0
SPLINE
  5
377
100
AcDbEntity
  8
ALL_FEATURES
100
AcDbSpline
 62
9
  6
CONTINUOUS
 70
0
 71
3
 72
17
 73
13
 74
0
 42
0.0000001
 43
0.0000001
 44
0.0000000001
 40
0.0
 40
0.0
 40
0.0
 40
0.0
 40
0.0303448294
 40
0.0672337046
 40
0.1106681838
 40
0.1603884153
 40
0.2768346577
 40
0.41167027
 40
0.5585942824
 40
0.7105259218
 40
0.8600756732
 40
1.0
 40
1.0
 40
1.0
 40
1.0
 10
4.3993817155
 20
4.6581039761
 30
0.0
 10
4.4004544595
 20
4.6568285355
 30
0.0
 10
4.4025079308
 20
4.6537329011
 30
0.0
 10
4.4051689079
 20
4.6482582334
 30
0.0
 10
4.4076699769
 20
4.641558669
 30
0.0
 10
4.4109209349
 20
4.6305086192
 30
0.0
 10
4.4142142457
 20
4.6142800214
 30
0.0
 10
4.4169498365
 20
4.5925682483
 30
0.0
 10
4.4184764055
 20
4.5687842778
 30
0.0
 10
4.4187111208
 20
4.5441462975
 30
0.0
 10
4.4176384531
 20
4.5199160778
 30
0.0
 10
4.4160157162
 20
4.5040874446
 30
0.0
 10
4.4149504417
 20
4.4964767443
 30
0.0
  0
SPLINE
  5
378
100
AcDbEntity
  8
ALL_FEATURES
100
AcDbSpline
 62
9
  6
CONTINUOUS
 70
0
 71
3
 72
9
 73
5
 74
0
 42
0.0000001
 43
0.0000001
 44
0.0000000001
 40
0.0
 40
0.0
 40
0.0
 40
0.0
 40
0.2633035686
 40
1.0
 40
1.0
 40
1.0
 40
1.0
 10
4.0604360251
 20
4.6623212838
 30
0.0
 10
4.0594424555
 20
4.6623213465
 30
0.0
 10
4.0556619562
 20
4.6617956635
 30
0.0
 10
4.0522842007
 20
4.6597920044
 30
0.0
 10
4.05007548
 20
4.6581039787
 30
0.0
  0
SPLINE
  5
379
100
AcDbEntity
  8
ALL_FEATURES
100
AcDbSpline
 62
9
  6
CONTINUOUS
 70
0
 71
3
 72
9
 73
5
 74
0
 42
0.0000001
 43
0.0000001
 44
0.0000000001
 40
0.0
 40
0.0
 40
0.0
 40
0.0
 40
0.5036167185
 40
1.0
 40
1.0
 40
1.0
 40
1.0
 10
4.1661443069
 20
4.6581039749
 30
0.0
 10
4.1516426109
 20
4.6591253295
 30
0.0
 10
4.1228522595
 20
4.6611892134
 30
0.0
 10
4.0939892635
 20
4.6623214109
 30
0.0
 10
4.0796604485
 20
4.6623212838
 30
0.0
  0
SPLINE
  5
37A
100
AcDbEntity
  8
ALL_FEATURES
100
AcDbSpline
 62
9
  6
CONTINUOUS
 70
0
 71
3
 72
14
 73
10
 74
0
 42
0.0000001
 43
0.0000001
 44
0.0000000001
 40
0.0
 40
0.0
 40
0.0
 40
0.0
 40
0.1044352298
 40
0.2167078211
 40
0.337534698
 40
0.4659172343
 40
0.59959584
 40
0.7355362363
 40
1.0
 40
1.0
 40
1.0
 40
1.0
 10
4.1661443069
 20
4.6581039749
 30
0.0
 10
4.1721086581
 20
4.6557476376
 30
0.0
 10
4.1837772201
 20
4.6489309408
 30
0.0
 10
4.1985076928
 20
4.6340874691
 30
0.0
 10
4.2103907134
 20
4.6151488699
 30
0.0
 10
4.2188814971
 20
4.5930881486
 30
0.0
 10
4.2235975832
 20
4.5689771378
 30
0.0
 10
4.2245591648
 20
4.5361158071
 30
0.0
 10
4.2193021674
 20
4.5114427909
 30
0.0
 10
4.2129979353
 20
4.4964767443
 30
0.0
  0
SPLINE
  5
37B
100
AcDbEntity
  8
ALL_FEATURES
100
AcDbSpline
 62
9
  6
CONTINUOUS
 70
0
 71
3
 72
8
 73
4
 74
0
 42
0.0000001
 43
0.0000001
 44
0.0000000001
 40
0.0
 40
0.0
 40
0.0
 40
0.0
 40
1.0
 40
1.0
 40
1.0
 40
1.0
 10
4.0500960402
 20
4.6581111627
 30
0.0
 10
4.0484814049
 20
4.6570034567
 30
0.0
 10
4.0467561277
 20
4.6560553071
 30
0.0
 10
4.0449995606
 20
4.6551901296
 30
0.0
  0
SPLINE
  5
37C
100
AcDbEntity
  8
ALL_FEATURES
100
AcDbSpline
 62
9
  6
CONTINUOUS
 70
0
 71
3
 72
15
 73
11
 74
0
 42
0.0000001
 43
0.0000001
 44
0.0000000001
 40
0.0
 40
0.0
 40
0.0
 40
0.0
 40
0.1222683116
 40
0.2454998953
 40
0.3698530152
 40
0.4952560282
 40
0.6214273156
 40
0.7479347087
 40
0.8742809717
 40
1.0
 40
1.0
 40
1.0
 40
1.0
 10
4.05007548
 20
4.6581039787
 30
0.0
 10
4.0578129708
 20
4.6558095355
 30
0.0
 10
4.0728597522
 20
4.6493348998
 30
0.0
 10
4.0926154476
 20
4.6346429494
 30
0.0
 10
4.108671069
 20
4.6156980494
 30
0.0
 10
4.1201937615
 20
4.5934907086
 30
0.0
 10
4.1266080468
 20
4.5691651603
 30
0.0
 10
4.1275890123
 20
4.5439639659
 30
0.0
 10
4.1230959625
 20
4.5191887448
 30
0.0
 10
4.1165590641
 20
4.5037133247
 30
0.0
 10
4.1124978497
 20
4.4964767443
 30
0.0
  0
SPLINE
  5
37D
100
AcDbEntity
  8
ALL_FEATURES
100
AcDbSpline
 62
9
  6
CONTINUOUS
 70
0
 71
3
 72
18
 73
14
 74
0
 42
0.0000001
 43
0.0000001
 44
0.0000000001
 40
0.0
 40
0.0
 40
0.0
 40
0.0
 40
0.1097038613
 40
0.2185575333
 40
0.2704740443
 40
0.3193066128
 40
0.3650497918
 40
0.4108956975
 40
0.4627392813
 40
0.5235733718
 40
0.6671674836
 40
0.8285141526
 40
1.0
 40
1.0
 40
1.0
 40
1.0
 10
4.0210659464
 20
4.8230679532
 30
0.0
 10
4.021065503
 20
4.8241745355
 30
0.0
 10
4.0212631364
 20
4.826381188
 30
0.0
 10
4.0219698909
 20
4.8290386138
 30
0.0
 10
4.0228962938
 20
4.8309479113
 30
0.0
 10
4.0237821716
 20
4.8321450015
 30
0.0
 10
4.0249398997
 20
4.8330171357
 30
0.0
 10
4.0264057489
 20
4.8333224929
 30
0.0
 10
4.0279972773
 20
4.8329591116
 30
0.0
 10
4.0303028733
 20
4.831765479
 30
0.0
 10
4.033202268
 20
4.8294537109
 30
0.0
 10
4.0368169363
 20
4.8262964763
 30
0.0
 10
4.0393912768
 20
4.8241372147
 30
0.0
 10
4.0407509858
 20
4.8230679532
 30
0.0
  0
SPLINE
  5
37E
100
AcDbEntity
  8
ALL_FEATURES
100
AcDbSpline
 62
9
  6
CONTINUOUS
 70
0
 71
3
 72
14
 73
10
 74
0
 42
0.0000001
 43
0.0000001
 44
0.0000000001
 40
0.0
 40
0.0
 40
0.0
 40
0.0
 40
0.1402375572
 40
0.2769893418
 40
0.5386499983
 40
0.6627740898
 40
0.7816874903
 40
0.8945510202
 40
1.0
 40
1.0
 40
1.0
 40
1.0
 10
4.4149504417
 20
3.243520154
 30
0.0
 10
4.405508727
 20
3.2435346271
 30
0.0
 10
4.3868601103
 20
3.2432663592
 30
0.0
 10
4.350605887
 20
3.2424039278
 30
0.0
 10
4.3154261563
 20
3.2418308379
 30
0.0
 10
4.2814460294
 20
3.2420811886
 30
0.0
 10
4.257489117
 20
3.242590241
 30
0.0
 10
4.2347949407
 20
3.2432396144
 30
0.0
 10
4.220097442
 20
3.2435372333
 30
0.0
 10
4.2129979353
 20
3.243520154
 30
0.0
  0
SPLINE
  5
37F
100
AcDbEntity
  8
ALL_FEATURES
100
AcDbSpline
 62
9
  6
CONTINUOUS
 70
0
 71
3
 72
18
 73
14
 74
0
 42
0.0000001
 43
0.0000001
 44
0.0000000001
 40
0.0
 40
0.0
 40
0.0
 40
0.0
 40
0.1096918746
 40
0.218555243
 40
0.2704764246
 40
0.3193149746
 40
0.365058915
 40
0.4109018244
 40
0.4627462816
 40
0.5235814462
 40
0.6671718703
 40
0.8285139985
 40
1.0
 40
1.0
 40
1.0
 40
1.0
 10
5.0098351082
 20
2.9169288123
 30
0.0
 10
5.0098355525
 20
2.9158223337
 30
0.0
 10
5.0096377881
 20
2.9136156888
 30
0.0
 10
5.008931167
 20
2.9109581611
 30
0.0
 10
5.0080047376
 20
2.9090486252
 30
0.0
 10
5.0071190571
 20
2.9078512255
 30
0.0
 10
5.0059613269
 20
2.9069789248
 30
0.0
 10
5.0044953899
 20
2.9066737554
 30
0.0
 10
5.0029039394
 20
2.9070375281
 30
0.0
 10
5.0005984557
 20
2.9082313545
 30
0.0
 10
4.9976988901
 20
2.9105428466
 30
0.0
 10
4.9940839963
 20
2.9136998452
 30
0.0
 10
4.9915093596
 20
2.915858714
 30
0.0
 10
4.9901500688
 20
2.916928553
 30
0.0
  0
SPLINE
  5
380
100
AcDbEntity
  8
ALL_FEATURES
100
AcDbSpline
 62
9
  6
CONTINUOUS
 70
0
 71
3
 72
21
 73
17
 74
0
 42
0.0000001
 43
0.0000001
 44
0.0000000001
 40
0.0
 40
0.0
 40
0.0
 40
0.0
 40
0.2421527611
 40
0.4474711291
 40
0.6185072168
 40
0.7568819562
 40
0.8141455523
 40
0.8636122815
 40
0.9053825317
 40
0.939505413
 40
0.9660053629
 40
0.9849059606
 40
0.9915136898
 40
0.9962301106
 40
0.9990579771
 40
1.0
 40
1.0
 40
1.0
 40
1.0
 10
4.1124978497
 20
3.243520154
 30
0.0
 10
4.1112287912
 20
3.243527221
 30
0.0
 10
4.1088827852
 20
3.2434812012
 30
0.0
 10
4.1056482446
 20
3.2432540894
 30
0.0
 10
4.1029660508
 20
3.2429617623
 30
0.0
 10
4.1010623729
 20
3.2426973231
 30
0.0
 10
4.0997939929
 20
3.2424941934
 30
0.0
 10
4.099026765
 20
3.2423630457
 30
0.0
 10
4.0983801795
 20
3.2422479336
 30
0.0
 10
4.0978515828
 20
3.2421517186
 30
0.0
 10
4.0974439434
 20
3.2420733604
 30
0.0
 10
4.0971724455
 20
3.2420235913
 30
0.0
 10
4.0970223632
 20
3.2419897294
 30
0.0
 10
4.0969409998
 20
3.2419799189
 30
0.0
 10
4.096912706
 20
3.2419624411
 30
0.0
 10
4.0968775439
 20
3.2419673061
 30
0.0
 10
4.0968792034
 20
3.2419626564
 30
0.0
  0
SPLINE
  5
381
100
AcDbEntity
  8
ALL_FEATURES
100
AcDbSpline
 62
9
  6
CONTINUOUS
 70
0
 71
3
 72
14
 73
10
 74
0
 42
0.0000001
 43
0.0000001
 44
0.0000000001
 40
0.0
 40
0.0
 40
0.0
 40
0.0
 40
0.1054489696
 40
0.2183125039
 40
0.3372258977
 40
0.4613499902
 40
0.7230106597
 40
0.8597624423
 40
1.0
 40
1.0
 40
1.0
 40
1.0
 10
4.8179031193
 20
3.243520154
 30
0.0
 10
4.8108036133
 20
3.2435372378
 30
0.0
 10
4.7961061148
 20
3.2432396226
 30
0.0
 10
4.7734119397
 20
3.242590238
 30
0.0
 10
4.7494550272
 20
3.2420811876
 30
0.0
 10
4.7154748999
 20
3.2418308412
 30
0.0
 10
4.6802951683
 20
3.242403925
 30
0.0
 10
4.6440409443
 20
3.243266359
 30
0.0
 10
4.6253923276
 20
3.2435346271
 30
0.0
 10
4.6159506129
 20
3.243520154
 30
0.0
  0
SPLINE
  5
382
100
AcDbEntity
  8
ALL_FEATURES
100
AcDbSpline
 62
9
  6
CONTINUOUS
 70
0
 71
3
 72
17
 73
13
 74
0
 42
0.0000001
 43
0.0000001
 44
0.0000000001
 40
0.0
 40
0.0
 40
0.0
 40
0.0
 40
0.0685243214
 40
0.1366545326
 40
0.2040593171
 40
0.2705244818
 40
0.4001049286
 40
0.5255474064
 40
0.647438083
 40
0.7665816012
 40
0.8838231007
 40
1.0
 40
1.0
 40
1.0
 40
1.0
 10
4.5154505273
 20
3.2562571339
 30
0.0
 10
4.5367911471
 20
3.2562579109
 30
0.0
 10
4.579398611
 20
3.2589675953
 30
0.0
 10
4.6419692782
 20
3.2709190935
 30
0.0
 10
4.7020461843
 20
3.2900817103
 30
0.0
 10
4.777024068
 20
3.3237454191
 30
0.0
 10
4.8613795615
 20
3.379055764
 30
0.0
 10
4.9459535835
 20
3.4613708078
 30
0.0
 10
5.0127083611
 20
3.5546536182
 30
0.0
 10
5.0615751144
 20
3.6555451102
 30
0.0
 10
5.0926740257
 20
3.761336158
 30
0.0
 10
5.1016474999
 20
3.8338502836
 30
0.0
 10
5.1031915717
 20
3.869998446
 30
0.0
  0
SPLINE
  5
383
100
AcDbEntity
  8
ALL_FEATURES
100
AcDbSpline
 62
9
  6
CONTINUOUS
 70
0
 71
3
 72
17
 73
13
 74
0
 42
0.0000001
 43
0.0000001
 44
0.0000000001
 40
0.0
 40
0.0
 40
0.0
 40
0.0
 40
0.1161768578
 40
0.2334183561
 40
0.3525618778
 40
0.4744525602
 40
0.5998950229
 40
0.7294754781
 40
0.7959406472
 40
0.8633454277
 40
0.9314756527
 40
1.0
 40
1.0
 40
1.0
 40
1.0
 10
5.1031915717
 20
3.869998446
 30
0.0
 10
5.101647548
 20
3.9061465978
 30
0.0
 10
5.0926740069
 20
3.9786607074
 30
0.0
 10
5.0615751381
 20
4.0844517486
 30
0.0
 10
5.0127083801
 20
4.1853432454
 30
0.0
 10
4.9459536107
 20
4.278626059
 30
0.0
 10
4.8613795926
 20
4.3609411073
 30
0.0
 10
4.7770241045
 20
4.4162514605
 30
0.0
 10
4.7020462189
 20
4.4499151735
 30
0.0
 10
4.6419693099
 20
4.4690777963
 30
0.0
 10
4.5793986317
 20
4.4810293018
 30
0.0
 10
4.5367911553
 20
4.4837389806
 30
0.0
 10
4.5154505273
 20
4.4837397644
 30
0.0
  0
SPLINE
  5
384
100
AcDbEntity
  8
ALL_FEATURES
100
AcDbSpline
 62
9
  6
CONTINUOUS
 70
0
 71
3
 72
14
 73
10
 74
0
 42
0.0000001
 43
0.0000001
 44
0.0000000001
 40
0.0
 40
0.0
 40
0.0
 40
0.0
 40
0.1054490658
 40
0.2183123908
 40
0.3372257869
 40
0.4613498931
 40
0.7230104167
 40
0.8597623273
 40
1.0
 40
1.0
 40
1.0
 40
1.0
 10
4.8179031193
 20
4.4964767443
 30
0.0
 10
4.8108036065
 20
4.4964597981
 30
0.0
 10
4.7961061177
 20
4.4967573054
 30
0.0
 10
4.7734119461
 20
4.4974066228
 30
0.0
 10
4.7494550484
 20
4.4979157089
 30
0.0
 10
4.7154749294
 20
4.4981661424
 30
0.0
 10
4.6802951997
 20
4.4975929133
 30
0.0
 10
4.6440409696
 20
4.4967304148
 30
0.0
 10
4.6253923354
 20
4.4964623113
 30
0.0
 10
4.6159506129
 20
4.4964767443
 30
0.0
  0
SPLINE
  5
385
100
AcDbEntity
  8
ALL_FEATURES
100
AcDbSpline
 62
9
  6
CONTINUOUS
 70
0
 71
3
 72
9
 73
5
 74
0
 42
0.0000001
 43
0.0000001
 44
0.0000000001
 40
0.0
 40
0.0
 40
0.0
 40
0.0
 40
0.5014958118
 40
1.0
 40
1.0
 40
1.0
 40
1.0
 10
4.0407509858
 20
4.8230679532
 30
0.0
 10
4.0489991263
 20
4.8198247478
 30
0.0
 10
4.0664230364
 20
4.8158556207
 30
0.0
 10
4.0841040589
 20
4.814877156
 30
0.0
 10
4.092914043
 20
4.8148803389
 30
0.0
  0
SPLINE
  5
386
100
AcDbEntity
  8
ALL_FEATURES
100
AcDbSpline
 62
9
  6
CONTINUOUS
 70
0
 71
3
 72
9
 73
5
 74
0
 42
0.0000001
 43
0.0000001
 44
0.0000000001
 40
0.0
 40
0.0
 40
0.0
 40
0.0
 40
0.4985029605
 40
1.0
 40
1.0
 40
1.0
 40
1.0
 10
4.4436024307
 20
4.8148803389
 30
0.0
 10
4.4524123978
 20
4.8148771742
 30
0.0
 10
4.4700939021
 20
4.8158541862
 30
0.0
 10
4.4875164388
 20
4.8198269877
 30
0.0
 10
4.4957654879
 20
4.8230679532
 30
0.0
  0
SPLINE
  5
387
100
AcDbEntity
  8
ALL_FEATURES
100
AcDbSpline
 62
9
  6
CONTINUOUS
 70
0
 71
3
 72
9
 73
5
 74
0
 42
0.0000001
 43
0.0000001
 44
0.0000000001
 40
0.0
 40
0.0
 40
0.0
 40
0.0
 40
0.7498416301
 40
1.0
 40
1.0
 40
1.0
 40
1.0
 10
4.4765410646
 20
4.7016913625
 30
0.0
 10
4.4529878636
 20
4.7016918759
 30
0.0
 10
4.4215939363
 20
4.6995453913
 30
0.0
 10
4.390318712
 20
4.6967054778
 30
0.0
 10
4.3824936697
 20
4.6959898263
 30
0.0
  0
SPLINE
  5
388
100
AcDbEntity
  8
ALL_FEATURES
100
AcDbSpline
 62
9
  6
CONTINUOUS
 70
0
 71
3
 72
13
 73
9
 74
0
 42
0.0000001
 43
0.0000001
 44
0.0000000001
 40
0.0
 40
0.0
 40
0.0
 40
0.0
 40
0.1250557388
 40
0.2500600629
 40
0.4999961854
 40
0.7499314348
 40
0.8749433636
 40
1.0
 40
1.0
 40
1.0
 40
1.0
 10
4.3824936697
 20
4.6959898263
 30
0.0
 10
4.3730013919
 20
4.6950987549
 30
0.0
 10
4.3539834781
 20
4.6937108334
 30
0.0
 10
4.315905079
 20
4.6919160305
 30
0.0
 10
4.2682614756
 20
4.6910676386
 30
0.0
 10
4.2206181007
 20
4.6919264946
 30
0.0
 10
4.1825379536
 20
4.6936989176
 30
0.0
 10
4.1635199955
 20
4.6950970262
 30
0.0
 10
4.1540279484
 20
4.6959912818
 30
0.0
  0
SPLINE
  5
389
100
AcDbEntity
  8
ALL_FEATURES
100
AcDbSpline
 62
9
  6
CONTINUOUS
 70
0
 71
3
 72
9
 73
5
 74
0
 42
0.0000001
 43
0.0000001
 44
0.0000000001
 40
0.0
 40
0.0
 40
0.0
 40
0.0
 40
0.5001886197
 40
1.0
 40
1.0
 40
1.0
 40
1.0
 10
4.1540279484
 20
4.6959912818
 30
0.0
 10
4.138379131
 20
4.6974223949
 30
0.0
 10
4.1070919238
 20
4.7002516223
 30
0.0
 10
4.0756776778
 20
4.7016916999
 30
0.0
 10
4.0599754091
 20
4.7016913625
 30
0.0
  0
SPLINE
  5
38A
100
AcDbEntity
  8
ALL_FEATURES
100
AcDbSpline
 62
9
  6
CONTINUOUS
 70
0
 71
3
 72
9
 73
5
 74
0
 42
0.0000001
 43
0.0000001
 44
0.0000000001
 40
0.0
 40
0.0
 40
0.0
 40
0.0
 40
0.4998113893
 40
1.0
 40
1.0
 40
1.0
 40
1.0
 10
4.9709256455
 20
4.7016913625
 30
0.0
 10
4.9552233839
 20
4.7016917048
 30
0.0
 10
4.9238091565
 20
4.700251571
 30
0.0
 10
4.8925219538
 20
4.6974224631
 30
0.0
 10
4.8768731501
 20
4.6959912845
 30
0.0
  0
SPLINE
  5
38B
100
AcDbEntity
  8
ALL_FEATURES
100
AcDbSpline
 62
9
  6
CONTINUOUS
 70
0
 71
3
 72
13
 73
9
 74
0
 42
0.0000001
 43
0.0000001
 44
0.0000000001
 40
0.0
 40
0.0
 40
0.0
 40
0.0
 40
0.1250566186
 40
0.2500679995
 40
0.5000036989
 40
0.7499399928
 40
0.8749442274
 40
1.0
 40
1.0
 40
1.0
 40
1.0
 10
4.8768731501
 20
4.6959912845
 30
0.0
 10
4.8673810073
 20
4.6950980107
 30
0.0
 10
4.8483630692
 20
4.6937006877
 30
0.0
 10
4.8102830877
 20
4.6919242513
 30
0.0
 10
4.7626395798
 20
4.6910686334
 30
0.0
 10
4.7149959281
 20
4.6919159801
 30
0.0
 10
4.6769175279
 20
4.6937109696
 30
0.0
 10
4.6578995029
 20
4.6950978187
 30
0.0
 10
4.6484073071
 20
4.6959898395
 30
0.0
  0
SPLINE
  5
38C
100
AcDbEntity
  8
ALL_FEATURES
100
AcDbSpline
 62
9
  6
CONTINUOUS
 70
0
 71
3
 72
9
 73
5
 74
0
 42
0.0000001
 43
0.0000001
 44
0.0000000001
 40
0.0
 40
0.0
 40
0.0
 40
0.0
 40
0.2501583754
 40
1.0
 40
1.0
 40
1.0
 40
1.0
 10
4.6484073071
 20
4.6959898395
 30
0.0
 10
4.6405822683
 20
4.6967054589
 30
0.0
 10
4.6093070742
 20
4.6995454138
 30
0.0
 10
4.5779131711
 20
4.7016918686
 30
0.0
 10
4.55435999
 20
4.7016913625
 30
0.0
  0
SPLINE
  5
38D
100
AcDbEntity
  8
ALL_FEATURES
100
AcDbSpline
 62
9
  6
CONTINUOUS
 70
0
 71
3
 72
9
 73
5
 74
0
 42
0.0000001
 43
0.0000001
 44
0.0000000001
 40
0.0
 40
0.0
 40
0.0
 40
0.0
 40
0.4963833052
 40
1.0
 40
1.0
 40
1.0
 40
1.0
 10
4.9512406061
 20
4.6623212838
 30
0.0
 10
4.9369117984
 20
4.6623214128
 30
0.0
 10
4.9080488188
 20
4.6611892103
 30
0.0
 10
4.879258483
 20
4.6591253361
 30
0.0
 10
4.864756796
 20
4.6581039783
 30
0.0
  0
SPLINE
  5
38E
100
AcDbEntity
  8
ALL_FEATURES
100
AcDbSpline
 62
9
  6
CONTINUOUS
 70
0
 71
3
 72
11
 73
7
 74
0
 42
0.0000001
 43
0.0000001
 44
0.0000000001
 40
0.0
 40
0.0
 40
0.0
 40
0.0
 40
0.0552927545
 40
0.2243971404
 40
0.5245075635
 40
1.0
 40
1.0
 40
1.0
 40
1.0
 10
4.985901494
 20
4.6551901296
 30
0.0
 10
4.9860015234
 20
4.6551484892
 30
0.0
 10
4.9851217726
 20
4.6555640839
 30
0.0
 10
4.9846929717
 20
4.6558106378
 30
0.0
 10
4.98275177
 20
4.6568297525
 30
0.0
 10
4.9815740743
 20
4.6575854318
 30
0.0
 10
4.9808049198
 20
4.6581113452
 30
0.0
  0
SPLINE
  5
38F
100
AcDbEntity
  8
ALL_FEATURES
100
AcDbSpline
 62
9
  6
CONTINUOUS
 70
0
 71
3
 72
21
 73
17
 74
0
 42
0.0000001
 43
0.0000001
 44
0.0000000001
 40
0.0
 40
0.0
 40
0.0
 40
0.0
 40
0.0009422403
 40
0.0037707494
 40
0.0084881921
 40
0.015097276
 40
0.0340013924
 40
0.0605056186
 40
0.0946331393
 40
0.1364078849
 40
0.1858758734
 40
0.2431371253
 40
0.3815016764
 40
0.5525301153
 40
0.7578480878
 40
1.0
 40
1.0
 40
1.0
 40
1.0
 10
4.9340221547
 20
4.4980337242
 30
0.0
 10
4.9340236258
 20
4.4980290102
 30
0.0
 10
4.9339889123
 20
4.4980340433
 30
0.0
 10
4.9339601639
 20
4.4980164313
 30
0.0
 10
4.9338790261
 20
4.4980067411
 30
0.0
 10
4.9337287445
 20
4.4979728952
 30
0.0
 10
4.933457286
 20
4.4979232781
 30
0.0
 10
4.9330494899
 20
4.4978450613
 30
0.0
 10
4.9325208029
 20
4.4977490373
 30
0.0
 10
4.931874104
 20
4.4976341598
 30
0.0
 10
4.9311068392
 20
4.4975030847
 30
0.0
 10
4.9298385164
 20
4.4972998678
 30
0.0
 10
4.927934967
 20
4.4970351072
 30
0.0
 10
4.925252848
 20
4.4967426205
 30
0.0
 10
4.9220183015
 20
4.4965156538
 30
0.0
 10
4.9196722747
 20
4.4964696863
 30
0.0
 10
4.9184032049
 20
4.4964767443
 30
0.0
  0
SPLINE
  5
390
100
AcDbEntity
  8
ALL_FEATURES
100
AcDbSpline
 62
9
  6
CONTINUOUS
 70
0
 71
3
 72
21
 73
17
 74
0
 42
0.0000001
 43
0.0000001
 44
0.0000000001
 40
0.0
 40
0.0
 40
0.0
 40
0.0
 40
0.0009420252
 40
0.0037698749
 40
0.0084862656
 40
0.0150939573
 40
0.0339944828
 40
0.0604944072
 40
0.0946173637
 40
0.1363878383
 40
0.1858547795
 40
0.2431185175
 40
0.3814934583
 40
0.5525298001
 40
0.7578479495
 40
1.0
 40
1.0
 40
1.0
 40
1.0
 10
4.9340218512
 20
3.2419626564
 30
0.0
 10
4.9340200916
 20
3.2419580436
 30
0.0
 10
4.9339932579
 20
3.2419757395
 30
0.0
 10
4.9339569177
 20
3.2419714199
 30
0.0
 10
4.9338801155
 20
3.2419935858
 30
0.0
 10
4.9337272558
 20
3.2420199232
 30
0.0
 10
4.93345783
 20
3.2420753049
 30
0.0
 10
4.9330491904
 20
3.2421509544
 30
0.0
 10
4.9325209832
 20
3.2422482272
 30
0.0
 10
4.9318742514
 20
3.2423629446
 30
0.0
 10
4.931107068
 20
3.2424942168
 30
0.0
 10
4.9298386634
 20
3.242697284
 30
0.0
 10
4.9279349952
 20
3.2429617552
 30
0.0
 10
4.9252527935
 20
3.2432540501
 30
0.0
 10
4.9220182603
 20
3.2434811798
 30
0.0
 10
4.9196722595
 20
3.2435272131
 30
0.0
 10
4.9184032049
 20
3.243520154
 30
0.0
  0
SPLINE
  5
391
100
AcDbEntity
  8
ALL_FEATURES
100
AcDbSpline
 62
9
  6
CONTINUOUS
 70
0
 71
3
 72
18
 73
14
 74
0
 42
0.0000001
 43
0.0000001
 44
0.0000000001
 40
0.0
 40
0.0
 40
0.0
 40
0.0
 40
0.0034587517
 40
0.0138123203
 40
0.031079435
 40
0.0553192438
 40
0.0866026169
 40
0.1251101428
 40
0.2248230056
 40
0.3566737228
 40
0.5241942306
 40
0.7351914104
 40
1.0
 40
1.0
 40
1.0
 40
1.0
 10
4.9859013881
 20
3.0848061122
 30
0.0
 10
4.9859017879
 20
3.0847993467
 30
0.0
 10
4.9858619737
 20
3.0847961132
 30
0.0
 10
4.9858225687
 20
3.0847603173
 30
0.0
 10
4.9857229471
 20
3.0847200237
 30
0.0
 10
4.9855990143
 20
3.0846544236
 30
0.0
 10
4.9854324577
 20
3.0845734176
 30
0.0
 10
4.9851361143
 20
3.084424456
 30
0.0
 10
4.9846650931
 20
3.0841825257
 30
0.0
 10
4.9839753987
 20
3.0838142303
 30
0.0
 10
4.9830998214
 20
3.0833307688
 30
0.0
 10
4.9820159216
 20
3.0826867887
 30
0.0
 10
4.9812329915
 20
3.0821797919
 30
0.0
 10
4.9808050493
 20
3.0818863597
 30
0.0
  0
SPLINE
  5
392
100
AcDbEntity
  8
ALL_FEATURES
100
AcDbSpline
 62
9
  6
CONTINUOUS
 70
0
 71
3
 72
9
 73
5
 74
0
 42
0.0000001
 43
0.0000001
 44
0.0000000001
 40
0.0
 40
0.0
 40
0.0
 40
0.0
 40
0.5014970461
 40
1.0
 40
1.0
 40
1.0
 40
1.0
 10
4.5351355667
 20
4.8230680034
 30
0.0
 10
4.5433838729
 20
4.8198251153
 30
0.0
 10
4.5608074162
 20
4.8158550113
 30
0.0
 10
4.5784886457
 20
4.8148761263
 30
0.0
 10
4.5872986239
 20
4.8148803389
 30
0.0
  0
SPLINE
  5
393
100
AcDbEntity
  8
ALL_FEATURES
100
AcDbSpline
 62
9
  6
CONTINUOUS
 70
0
 71
3
 72
9
 73
5
 74
0
 42
0.0000001
 43
0.0000001
 44
0.0000000001
 40
0.0
 40
0.0
 40
0.0
 40
0.0
 40
0.4985030808
 40
1.0
 40
1.0
 40
1.0
 40
1.0
 10
4.9379870116
 20
4.8148803389
 30
0.0
 10
4.9467970146
 20
4.8148761209
 30
0.0
 10
4.964478765
 20
4.8158533418
 30
0.0
 10
4.9819009941
 20
4.8198273566
 30
0.0
 10
4.9901500688
 20
4.8230683453
 30
0.0
  0
SPLINE
  5
394
100
AcDbEntity
  8
ALL_FEATURES
100
AcDbSpline
 62
9
  6
CONTINUOUS
 70
0
 71
3
 72
12
 73
8
 74
0
 42
0.0000001
 43
0.0000001
 44
0.0000000001
 40
0.0
 40
0.0
 40
0.0
 40
0.0
 40
0.1896308948
 40
0.3029406702
 40
0.427574189
 40
0.7039053348
 40
1.0
 40
1.0
 40
1.0
 40
1.0
 10
4.3993865433
 20
4.6581091734
 30
0.0
 10
4.3969794215
 20
4.6593672643
 30
0.0
 10
4.393701801
 20
4.6624400679
 30
0.0
 10
4.3902357608
 20
4.6674815206
 30
0.0
 10
4.3868431049
 20
4.6740456757
 30
0.0
 10
4.383730091
 20
4.683595104
 30
0.0
 10
4.382500767
 20
4.6917410824
 30
0.0
 10
4.3822024843
 20
4.6959715205
 30
0.0
  0
SPLINE
  5
395
100
AcDbEntity
  8
ALL_FEATURES
100
AcDbSpline
 62
9
  6
CONTINUOUS
 70
0
 71
3
 72
12
 73
8
 74
0
 42
0.0000001
 43
0.0000001
 44
0.0000000001
 40
0.0
 40
0.0
 40
0.0
 40
0.0
 40
0.1840952671
 40
0.2948258052
 40
0.4178889082
 40
0.6955383393
 40
1.0
 40
1.0
 40
1.0
 40
1.0
 10
4.1661442987
 20
4.6581040171
 30
0.0
 10
4.1639375321
 20
4.6593506408
 30
0.0
 10
4.1610461936
 20
4.6624596559
 30
0.0
 10
4.1582933158
 20
4.6675039905
 30
0.0
 10
4.1558005732
 20
4.6741184442
 30
0.0
 10
4.154029614
 20
4.6837332434
 30
0.0
 10
4.1539490263
 20
4.6917860039
 30
0.0
 10
4.1542357646
 20
4.6959678737
 30
0.0
  0
SPLINE
  5
396
100
AcDbEntity
  8
ALL_FEATURES
100
AcDbSpline
 62
9
  6
CONTINUOUS
 70
0
 71
3
 72
14
 73
10
 74
0
 42
0.0000001
 43
0.0000001
 44
0.0000000001
 40
0.0
 40
0.0
 40
0.0
 40
0.0
 40
0.0821972619
 40
0.1730393166
 40
0.2777243335
 40
0.3982276275
 40
0.5337253203
 40
0.6817667319
 40
1.0
 40
1.0
 40
1.0
 40
1.0
 10
4.0796604485
 20
4.6623212838
 30
0.0
 10
4.0783567288
 20
4.6623212838
 30
0.0
 10
4.0755920802
 20
4.6629008805
 30
0.0
 10
4.0718173047
 20
4.6653018764
 30
0.0
 10
4.0684277836
 20
4.6690551378
 30
0.0
 10
4.065495736
 20
4.6739996306
 30
0.0
 10
4.0630948188
 20
4.6799639246
 30
0.0
 10
4.0606679397
 20
4.6892120518
 30
0.0
 10
4.0599754091
 20
4.6966439074
 30
0.0
 10
4.0599754091
 20
4.7016913625
 30
0.0
  0
SPLINE
  5
397
100
AcDbEntity
  8
ALL_FEATURES
100
AcDbSpline
 62
9
  6
CONTINUOUS
 70
0
 71
3
 72
14
 73
10
 74
0
 42
0.0000001
 43
0.0000001
 44
0.0000000001
 40
0.0
 40
0.0
 40
0.0
 40
0.0
 40
0.0822351312
 40
0.1730419992
 40
0.277723838
 40
0.3982143994
 40
0.5337498712
 40
0.6817840261
 40
1.0
 40
1.0
 40
1.0
 40
1.0
 10
4.5154505273
 20
4.6623212838
 30
0.0
 10
4.5167548592
 20
4.6623212838
 30
0.0
 10
4.5195202263
 20
4.6628987295
 30
0.0
 10
4.5232933901
 20
4.6653030349
 30
0.0
 10
4.5266821705
 20
4.6690551484
 30
0.0
 10
4.5296172678
 20
4.6739985776
 30
0.0
 10
4.5320151711
 20
4.6799645552
 30
0.0
 10
4.5344435118
 20
4.6892123845
 30
0.0
 10
4.5351355667
 20
4.6966441371
 30
0.0
 10
4.5351355667
 20
4.7016913625
 30
0.0
  0
SPLINE
  5
398
100
AcDbEntity
  8
ALL_FEATURES
100
AcDbSpline
 62
9
  6
CONTINUOUS
 70
0
 71
3
 72
14
 73
10
 74
0
 42
0.0000001
 43
0.0000001
 44
0.0000000001
 40
0.0
 40
0.0
 40
0.0
 40
0.0
 40
0.0821972618
 40
0.1730393165
 40
0.2777243334
 40
0.3982276275
 40
0.5337253203
 40
0.6817667319
 40
1.0
 40
1.0
 40
1.0
 40
1.0
 10
4.5346749507
 20
4.6623212838
 30
0.0
 10
4.5359786704
 20
4.6623212838
 30
0.0
 10
4.538743319
 20
4.6629008805
 30
0.0
 10
4.5425180945
 20
4.6653018764
 30
0.0
 10
4.5459076156
 20
4.6690551378
 30
0.0
 10
4.5488396632
 20
4.6739996306
 30
0.0
 10
4.5512405804
 20
4.6799639246
 30
0.0
 10
4.5536674595
 20
4.6892120518
 30
0.0
 10
4.55435999
 20
4.6966439074
 30
0.0
 10
4.55435999
 20
4.7016913625
 30
0.0
  0
SPLINE
  5
399
100
AcDbEntity
  8
ALL_FEATURES
100
AcDbSpline
 62
9
  6
CONTINUOUS
 70
0
 71
3
 72
12
 73
8
 74
0
 42
0.0000001
 43
0.0000001
 44
0.0000000001
 40
0.0
 40
0.0
 40
0.0
 40
0.0
 40
0.1895964957
 40
0.3028834418
 40
0.4274992138
 40
0.7038305887
 40
1.0
 40
1.0
 40
1.0
 40
1.0
 10
4.6315193316
 20
4.6581040175
 30
0.0
 10
4.6339226068
 20
4.6593640295
 30
0.0
 10
4.6371928556
 20
4.6624389113
 30
0.0
 10
4.6406471443
 20
4.6674816061
 30
0.0
 10
4.6440252114
 20
4.6740464721
 30
0.0
 10
4.6471178369
 20
4.6835955961
 30
0.0
 10
4.6483304051
 20
4.6917389548
 30
0.0
 10
4.6486203771
 20
4.6959678741
 30
0.0
  0
SPLINE
  5
39A
100
AcDbEntity
  8
ALL_FEATURES
100
AcDbSpline
 62
9
  6
CONTINUOUS
 70
0
 71
3
 72
12
 73
8
 74
0
 42
0.0000001
 43
0.0000001
 44
0.0000000001
 40
0.0
 40
0.0
 40
0.0
 40
0.0
 40
0.1839631413
 40
0.2946368737
 40
0.4176689428
 40
0.6953579088
 40
1.0
 40
1.0
 40
1.0
 40
1.0
 10
4.8647401169
 20
4.6581135553
 30
0.0
 10
4.8669451749
 20
4.6593575027
 30
0.0
 10
4.8698332468
 20
4.6624652009
 30
0.0
 10
4.872577397
 20
4.6675082714
 30
0.0
 10
4.8750586247
 20
4.6741235478
 30
0.0
 10
4.8768105554
 20
4.6837408732
 30
0.0
 10
4.8768739878
 20
4.6917937229
 30
0.0
 10
4.8765782372
 20
4.6959758208
 30
0.0
  0
SPLINE
  5
39B
100
AcDbEntity
  8
ALL_FEATURES
100
AcDbSpline
 62
9
  6
CONTINUOUS
 70
0
 71
3
 72
14
 73
10
 74
0
 42
0.0000001
 43
0.0000001
 44
0.0000000001
 40
0.0
 40
0.0
 40
0.0
 40
0.0
 40
0.0821970713
 40
0.1730390385
 40
0.27772405
 40
0.3982273856
 40
0.5337251448
 40
0.6817666244
 40
1.0
 40
1.0
 40
1.0
 40
1.0
 10
4.9512406061
 20
4.6623212838
 30
0.0
 10
4.9525443224
 20
4.6623212838
 30
0.0
 10
4.9553089655
 20
4.6629008818
 30
0.0
 10
4.9590837335
 20
4.6653018781
 30
0.0
 10
4.962473251
 20
4.6690551393
 30
0.0
 10
4.9654052986
 20
4.6739996317
 30
0.0
 10
4.9678062186
 20
4.6799639255
 30
0.0
 10
4.9702331042
 20
4.6892120518
 30
0.0
 10
4.9709256408
 20
4.6966439072
 30
0.0
 10
4.9709256455
 20
4.7016913625
 30
0.0
  0
SPLINE
  5
39C
100
AcDbEntity
  8
ALL_FEATURES
100
AcDbSpline
 62
9
  6
CONTINUOUS
 70
0
 71
3
 72
14
 73
10
 74
0
 42
0.0000001
 43
0.0000001
 44
0.0000000001
 40
0.0
 40
0.0
 40
0.0
 40
0.0
 40
0.0822351312
 40
0.1730419992
 40
0.277723838
 40
0.3982143994
 40
0.5337498712
 40
0.6817840261
 40
1.0
 40
1.0
 40
1.0
 40
1.0
 10
4.9704650295
 20
4.6623212838
 30
0.0
 10
4.9717693613
 20
4.6623212838
 30
0.0
 10
4.9745347285
 20
4.6628987295
 30
0.0
 10
4.9783078923
 20
4.6653030349
 30
0.0
 10
4.9816966727
 20
4.6690551484
 30
0.0
 10
4.9846317699
 20
4.6739985776
 30
0.0
 10
4.9870296733
 20
4.6799645552
 30
0.0
 10
4.9894580139
 20
4.6892123845
 30
0.0
 10
4.9901500688
 20
4.6966441371
 30
0.0
 10
4.9901500688
 20
4.7016913625
 30
0.0
  0
SPLINE
  5
39D
100
AcDbEntity
  8
ALL_FEATURES
100
AcDbSpline
 62
9
  6
CONTINUOUS
 70
0
 71
3
 72
14
 73
10
 74
0
 42
0.0000001
 43
0.0000001
 44
0.0000000001
 40
0.0
 40
0.0
 40
0.0
 40
0.0
 40
0.0822341684
 40
0.1730402674
 40
0.2777222702
 40
0.3982128569
 40
0.5337485827
 40
0.6817830857
 40
1.0
 40
1.0
 40
1.0
 40
1.0
 10
4.0604360251
 20
4.6623212838
 30
0.0
 10
4.0591317084
 20
4.6623212838
 30
0.0
 10
4.0563663599
 20
4.662898686
 30
0.0
 10
4.0525932302
 20
4.6653030055
 30
0.0
 10
4.0492044245
 20
4.6690550773
 30
0.0
 10
4.046269317
 20
4.6739985138
 30
0.0
 10
4.0438713993
 20
4.6799644955
 30
0.0
 10
4.0414430443
 20
4.6892123481
 30
0.0
 10
4.0407509858
 20
4.6966441218
 30
0.0
 10
4.0407509858
 20
4.7016913625
 30
0.0
  0
SPLINE
  5
39E
100
AcDbEntity
  8
ALL_FEATURES
100
AcDbSpline
 62
9
  6
CONTINUOUS
 70
0
 71
3
 72
14
 73
10
 74
0
 42
0.0000001
 43
0.0000001
 44
0.0000000001
 40
0.0
 40
0.0
 40
0.0
 40
0.0
 40
0.0821974577
 40
0.1730396119
 40
0.2777246456
 40
0.3982279033
 40
0.5337255343
 40
0.681766871
 40
1.0
 40
1.0
 40
1.0
 40
1.0
 10
4.4962261039
 20
4.6623212838
 30
0.0
 10
4.4949223807
 20
4.6623212838
 30
0.0
 10
4.4921577264
 20
4.6629008796
 30
0.0
 10
4.488382943
 20
4.6653018752
 30
0.0
 10
4.4849934183
 20
4.6690551375
 30
0.0
 10
4.4820613708
 20
4.6739996309
 30
0.0
 10
4.4796604565
 20
4.6799639254
 30
0.0
 10
4.4772335843
 20
4.6892120529
 30
0.0
 10
4.4765410599
 20
4.6966439081
 30
0.0
 10
4.4765410646
 20
4.7016913625
 30
0.0
  0
SPLINE
  5
39F
100
AcDbEntity
  8
ALL_FEATURES
100
AcDbSpline
 62
9
  6
CONTINUOUS
 70
0
 71
3
 72
14
 73
10
 74
0
 42
0.0000001
 43
0.0000001
 44
0.0000000001
 40
0.0
 40
0.0
 40
0.0
 40
0.0
 40
0.3182169143
 40
0.4662514173
 40
0.6017871431
 40
0.7222777298
 40
0.8269597326
 40
0.9177658316
 40
1.0
 40
1.0
 40
1.0
 40
1.0
 10
4.4957654879
 20
3.0383055357
 30
0.0
 10
4.4957654879
 20
3.0433527764
 30
0.0
 10
4.4964575465
 20
3.0507845502
 30
0.0
 10
4.4988859015
 20
3.0600324027
 30
0.0
 10
4.5012838192
 20
3.0659983845
 30
0.0
 10
4.5042189266
 20
3.0709418209
 30
0.0
 10
4.5076077323
 20
3.0746938927
 30
0.0
 10
4.5113808621
 20
3.0770982123
 30
0.0
 10
4.5141462106
 20
3.0776756145
 30
0.0
 10
4.5154505273
 20
3.0776756145
 30
0.0
  0
SPLINE
  5
3A0
100
AcDbEntity
  8
ALL_FEATURES
100
AcDbSpline
 62
9
  6
CONTINUOUS
 70
0
 71
3
 72
14
 73
10
 74
0
 42
0.0000001
 43
0.0000001
 44
0.0000000001
 40
0.0
 40
0.0
 40
0.0
 40
0.0
 40
0.3182330377
 40
0.4662743256
 40
0.6017719167
 40
0.722275151
 40
0.8269601959
 40
0.9178024152
 40
1.0
 40
1.0
 40
1.0
 40
1.0
 10
4.4765410646
 20
3.0383055357
 30
0.0
 10
4.4765410569
 20
3.0433529897
 30
0.0
 10
4.4772335773
 20
3.0507848446
 30
0.0
 10
4.4796604449
 20
3.0600329723
 30
0.0
 10
4.4820613573
 20
3.0659972671
 30
0.0
 10
4.4849934049
 20
3.070941761
 30
0.0
 10
4.4883829318
 20
3.0746950239
 30
0.0
 10
4.4921577204
 20
3.0770960193
 30
0.0
 10
4.4949223784
 20
3.0776756145
 30
0.0
 10
4.4962261039
 20
3.0776756145
 30
0.0
  0
SPLINE
  5
3A1
100
AcDbEntity
  8
ALL_FEATURES
100
AcDbSpline
 62
9
  6
CONTINUOUS
 70
0
 71
3
 72
12
 73
8
 74
0
 42
0.0000001
 43
0.0000001
 44
0.0000000001
 40
0.0
 40
0.0
 40
0.0
 40
0.0
 40
0.296093996
 40
0.5724247966
 40
0.6970583134
 40
0.8103682365
 40
1.0
 40
1.0
 40
1.0
 40
1.0
 10
4.3822022343
 20
3.0440258973
 30
0.0
 10
4.3825005305
 20
3.048256336
 30
0.0
 10
4.3837298829
 20
3.0564023175
 30
0.0
 10
4.3868429405
 20
3.0659517448
 30
0.0
 10
4.3902356377
 20
3.0725158972
 30
0.0
 10
4.3937017246
 20
3.0775573557
 30
0.0
 10
4.3969793867
 20
3.0806301536
 30
0.0
 10
4.3993865329
 20
3.0818882402
 30
0.0
  0
SPLINE
  5
3A2
100
AcDbEntity
  8
ALL_FEATURES
100
AcDbSpline
 62
9
  6
CONTINUOUS
 70
0
 71
3
 72
12
 73
8
 74
0
 42
0.0000001
 43
0.0000001
 44
0.0000000001
 40
0.0
 40
0.0
 40
0.0
 40
0.0
 40
0.3044617998
 40
0.5821112237
 40
0.7051742928
 40
0.815904793
 40
1.0
 40
1.0
 40
1.0
 40
1.0
 10
4.1542357403
 20
3.0440290246
 30
0.0
 10
4.1539490082
 20
3.048210892
 30
0.0
 10
4.1540296074
 20
3.0562636452
 30
0.0
 10
4.1558005791
 20
3.0658784325
 30
0.0
 10
4.158293328
 20
3.0724928742
 30
0.0
 10
4.1610462088
 20
3.0775371979
 30
0.0
 10
4.1639375457
 20
3.0806462053
 30
0.0
 10
4.1661443097
 20
3.0818928261
 30
0.0
  0
SPLINE
  5
3A3
100
AcDbEntity
  8
ALL_FEATURES
100
AcDbSpline
 62
9
  6
CONTINUOUS
 70
0
 71
3
 72
17
 73
13
 74
0
 42
0.0000001
 43
0.0000001
 44
0.0000000001
 40
0.0
 40
0.0
 40
0.0
 40
0.0
 40
0.1416521389
 40
0.2112894836
 40
0.279615768
 40
0.4115887337
 40
0.5375461394
 40
0.5985515086
 40
0.6583848982
 40
0.7749971406
 40
0.8885466509
 40
1.0
 40
1.0
 40
1.0
 40
1.0
 10
4.5154505273
 20
4.4253715679
 30
0.0
 10
4.4785865581
 20
4.4253712422
 30
0.0
 10
4.423417698
 20
4.4201828776
 30
0.0
 10
4.352559067
 20
4.4033064225
 30
0.0
 10
4.2859016937
 20
4.3808534472
 30
0.0
 10
4.2093210707
 20
4.3431237837
 30
0.0
 10
4.1418922938
 20
4.2940234294
 30
0.0
 10
4.095014497
 20
4.2500290462
 30
0.0
 10
4.0534534331
 20
4.2042226918
 30
0.0
 10
4.0094447837
 20
4.1425023645
 30
0.0
 10
3.9693386358
 20
4.0628073763
 30
0.0
 10
3.95102742
 20
4.006921111
 30
0.0
 10
3.9440577498
 20
3.978765993
 30
0.0
  0
SPLINE
  5
3A4
100
AcDbEntity
  8
ALL_FEATURES
100
AcDbSpline
 62
9
  6
CONTINUOUS
 70
0
 71
3
 72
19
 73
15
 74
0
 42
0.0000001
 43
0.0000001
 44
0.0000000001
 40
0.0
 40
0.0
 40
0.0
 40
0.0
 40
0.1118653476
 40
0.2250797581
 40
0.2826093107
 40
0.340930219
 40
0.4002128677
 40
0.4606447076
 40
0.5855668563
 40
0.7171888024
 40
0.7858045222
 40
0.8560886306
 40
0.927683655
 40
1.0
 40
1.0
 40
1.0
 40
1.0
 10
5.1031915391
 20
3.8699984491
 30
0.0
 10
5.1013360911
 20
3.9031635569
 30
0.0
 10
5.0919533175
 20
3.969707375
 30
0.0
 10
5.066141894
 20
4.0500097958
 30
0.0
 10
5.0371173744
 20
4.1116055041
 30
0.0
 10
5.0108757827
 20
4.156583297
 30
0.0
 10
4.9802253033
 20
4.1997469983
 30
0.0
 10
4.9329183243
 20
4.2549850028
 30
0.0
 10
4.8618273693
 20
4.3175792036
 30
0.0
 10
4.7777692342
 20
4.366471325
 30
0.0
 10
4.702918933
 20
4.3959564712
 30
0.0
 10
4.6425664255
 20
4.4126839212
 30
0.0
 10
4.5796936354
 20
4.4230358742
 30
0.0
 10
4.5369239315
 20
4.4253713739
 30
0.0
 10
4.5154505273
 20
4.4253715679
 30
0.0
  0
SPLINE
  5
3A5
100
AcDbEntity
  8
ALL_FEATURES
100
AcDbSpline
 62
9
  6
CONTINUOUS
 70
0
 71
3
 72
14
 73
10
 74
0
 42
0.0000001
 43
0.0000001
 44
0.0000000001
 40
0.0
 40
0.0
 40
0.0
 40
0.0
 40
0.3182169143
 40
0.4662514173
 40
0.6017871431
 40
0.7222777298
 40
0.8269597326
 40
0.9177658316
 40
1.0
 40
1.0
 40
1.0
 40
1.0
 10
4.0407509858
 20
3.0383055357
 30
0.0
 10
4.0407509858
 20
3.0433527764
 30
0.0
 10
4.0414430443
 20
3.0507845502
 30
0.0
 10
4.0438713993
 20
3.0600324027
 30
0.0
 10
4.046269317
 20
3.0659983845
 30
0.0
 10
4.0492044245
 20
3.0709418209
 30
0.0
 10
4.0525932302
 20
3.0746938927
 30
0.0
 10
4.0563663599
 20
3.0770982123
 30
0.0
 10
4.0591317084
 20
3.0776756145
 30
0.0
 10
4.0604360251
 20
3.0776756145
 30
0.0
  0
SPLINE
  5
3A6
100
AcDbEntity
  8
ALL_FEATURES
100
AcDbSpline
 62
9
  6
CONTINUOUS
 70
0
 71
3
 72
14
 73
10
 74
0
 42
0.0000001
 43
0.0000001
 44
0.0000000001
 40
0.0
 40
0.0
 40
0.0
 40
0.0
 40
0.3182332681
 40
0.4662746797
 40
0.6017723725
 40
0.7222756665
 40
0.8269606834
 40
0.9178027381
 40
1.0
 40
1.0
 40
1.0
 40
1.0
 10
4.0599754091
 20
3.0383055357
 30
0.0
 10
4.0599754091
 20
3.0433529909
 30
0.0
 10
4.0606679397
 20
3.0507848465
 30
0.0
 10
4.0630948188
 20
3.0600329736
 30
0.0
 10
4.065495736
 20
3.0659972677
 30
0.0
 10
4.0684277836
 20
3.0709417604
 30
0.0
 10
4.0718173047
 20
3.0746950218
 30
0.0
 10
4.0755920802
 20
3.0770960177
 30
0.0
 10
4.0783567288
 20
3.0776756145
 30
0.0
 10
4.0796604485
 20
3.0776756145
 30
0.0
  0
SPLINE
  5
3A7
100
AcDbEntity
  8
ALL_FEATURES
100
AcDbSpline
 62
9
  6
CONTINUOUS
 70
0
 71
3
 72
14
 73
10
 74
0
 42
0.0000001
 43
0.0000001
 44
0.0000000001
 40
0.0
 40
0.0
 40
0.0
 40
0.0
 40
0.3182159739
 40
0.4662501288
 40
0.6017856006
 40
0.722276162
 40
0.8269580008
 40
0.9177648688
 40
1.0
 40
1.0
 40
1.0
 40
1.0
 10
4.5351355667
 20
3.0383055357
 30
0.0
 10
4.5351355667
 20
3.0433527611
 30
0.0
 10
4.5344435118
 20
3.0507845138
 30
0.0
 10
4.5320151711
 20
3.0600323431
 30
0.0
 10
4.5296172678
 20
3.0659983207
 30
0.0
 10
4.5266821705
 20
3.0709417499
 30
0.0
 10
4.5232933901
 20
3.0746938633
 30
0.0
 10
4.5195202263
 20
3.0770981687
 30
0.0
 10
4.5167548592
 20
3.0776756145
 30
0.0
 10
4.5154505273
 20
3.0776756145
 30
0.0
  0
SPLINE
  5
3A8
100
AcDbEntity
  8
ALL_FEATURES
100
AcDbSpline
 62
9
  6
CONTINUOUS
 70
0
 71
3
 72
14
 73
10
 74
0
 42
0.0000001
 43
0.0000001
 44
0.0000000001
 40
0.0
 40
0.0
 40
0.0
 40
0.0
 40
0.3182332681
 40
0.4662746797
 40
0.6017723725
 40
0.7222756666
 40
0.8269606835
 40
0.9178027382
 40
1.0
 40
1.0
 40
1.0
 40
1.0
 10
4.55435999
 20
3.0383055357
 30
0.0
 10
4.55435999
 20
3.0433529909
 30
0.0
 10
4.5536674595
 20
3.0507848465
 30
0.0
 10
4.5512405804
 20
3.0600329736
 30
0.0
 10
4.5488396632
 20
3.0659972677
 30
0.0
 10
4.5459076156
 20
3.0709417604
 30
0.0
 10
4.5425180945
 20
3.0746950218
 30
0.0
 10
4.538743319
 20
3.0770960177
 30
0.0
 10
4.5359786704
 20
3.0776756145
 30
0.0
 10
4.5346749507
 20
3.0776756145
 30
0.0
  0
SPLINE
  5
3A9
100
AcDbEntity
  8
ALL_FEATURES
100
AcDbSpline
 62
9
  6
CONTINUOUS
 70
0
 71
3
 72
12
 73
8
 74
0
 42
0.0000001
 43
0.0000001
 44
0.0000000001
 40
0.0
 40
0.0
 40
0.0
 40
0.0
 40
0.2961695091
 40
0.5725008294
 40
0.6971165518
 40
0.8104034605
 40
1.0
 40
1.0
 40
1.0
 40
1.0
 10
4.6486204006
 20
3.0440290241
 30
0.0
 10
4.648330425
 20
3.0482579409
 30
0.0
 10
4.6471178507
 20
3.0564012921
 30
0.0
 10
4.6440252179
 20
3.0659504046
 30
0.0
 10
4.6406471462
 20
3.0725152588
 30
0.0
 10
4.6371928536
 20
3.0775579439
 30
0.0
 10
4.6339226026
 20
3.0806328174
 30
0.0
 10
4.6315193274
 20
3.0818928257
 30
0.0
  0
SPLINE
  5
3AA
100
AcDbEntity
  8
ALL_FEATURES
100
AcDbSpline
 62
9
  6
CONTINUOUS
 70
0
 71
3
 72
12
 73
8
 74
0
 42
0.0000001
 43
0.0000001
 44
0.0000000001
 40
0.0
 40
0.0
 40
0.0
 40
0.0
 40
0.3046437268
 40
0.5823331046
 40
0.7053649111
 40
0.8160381306
 40
1.0
 40
1.0
 40
1.0
 40
1.0
 10
4.876577367
 20
3.0440214302
 30
0.0
 10
4.8768732168
 20
3.0482035342
 30
0.0
 10
4.8768099715
 20
3.056256396
 30
0.0
 10
4.875058248
 20
3.0658737642
 30
0.0
 10
4.8725771467
 20
3.0724890671
 30
0.0
 10
4.8698330922
 20
3.0775321426
 30
0.0
 10
4.8669450597
 20
3.080639844
 30
0.0
 10
4.8647400202
 20
3.081883777
 30
0.0
  0
SPLINE
  5
3AB
100
AcDbEntity
  8
ALL_FEATURES
100
AcDbSpline
 62
9
  6
CONTINUOUS
 70
0
 71
3
 72
14
 73
10
 74
0
 42
0.0000001
 43
0.0000001
 44
0.0000000001
 40
0.0
 40
0.0
 40
0.0
 40
0.0
 40
0.3182334443
 40
0.4662749678
 40
0.6017727702
 40
0.7222761328
 40
0.8269611412
 40
0.9178030522
 40
1.0
 40
1.0
 40
1.0
 40
1.0
 10
4.9709256455
 20
3.0383055357
 30
0.0
 10
4.9709256378
 20
3.0433529911
 30
0.0
 10
4.9702330973
 20
3.0507848464
 30
0.0
 10
4.9678062074
 20
3.0600329722
 30
0.0
 10
4.9654052857
 20
3.0659972658
 30
0.0
 10
4.9624732381
 20
3.070941758
 30
0.0
 10
4.9590837229
 20
3.074695019
 30
0.0
 10
4.9553089598
 20
3.0770960156
 30
0.0
 10
4.9525443202
 20
3.0776756145
 30
0.0
 10
4.9512406061
 20
3.0776756145
 30
0.0
  0
SPLINE
  5
3AC
100
AcDbEntity
  8
ALL_FEATURES
100
AcDbSpline
 62
9
  6
CONTINUOUS
 70
0
 71
3
 72
14
 73
10
 74
0
 42
0.0000001
 43
0.0000001
 44
0.0000000001
 40
0.0
 40
0.0
 40
0.0
 40
0.0
 40
0.3182159739
 40
0.4662501288
 40
0.6017856006
 40
0.722276162
 40
0.8269580008
 40
0.9177648688
 40
1.0
 40
1.0
 40
1.0
 40
1.0
 10
4.9901500688
 20
3.0383055357
 30
0.0
 10
4.9901500688
 20
3.0433527611
 30
0.0
 10
4.9894580139
 20
3.0507845138
 30
0.0
 10
4.9870296733
 20
3.0600323431
 30
0.0
 10
4.9846317699
 20
3.0659983207
 30
0.0
 10
4.9816966727
 20
3.0709417499
 30
0.0
 10
4.9783078923
 20
3.0746938633
 30
0.0
 10
4.9745347285
 20
3.0770981687
 30
0.0
 10
4.9717693613
 20
3.0776756145
 30
0.0
 10
4.9704650295
 20
3.0776756145
 30
0.0
  0
SPLINE
  5
3AD
100
AcDbEntity
  8
ALL_FEATURES
100
AcDbSpline
 62
9
  6
CONTINUOUS
 70
0
 71
3
 72
22
 73
18
 74
0
 42
0.0000001
 43
0.0000001
 44
0.0000000001
 40
0.0
 40
0.0
 40
0.0
 40
0.0
 40
0.0009869196
 40
0.0038664405
 40
0.0086387818
 40
0.0153032474
 40
0.0238592454
 40
0.0343065279
 40
0.0608757296
 40
0.0950169703
 40
0.1367430302
 40
0.1860812587
 40
0.2430890406
 40
0.3805028981
 40
0.5503484523
 40
0.7552846308
 40
1.0
 40
1.0
 40
1.0
 40
1.0
 10
3.9445844703
 20
4.8935899336
 30
0.0
 10
3.944595994
 20
4.8935805142
 30
0.0
 10
3.9446621946
 20
4.8935976283
 30
0.0
 10
3.9447848812
 20
4.8935754807
 30
0.0
 10
3.9450049824
 20
4.8935805297
 30
0.0
 10
3.9453044898
 20
4.8935672894
 30
0.0
 10
3.9456920879
 20
4.8935559371
 30
0.0
 10
3.946378457
 20
4.8935272839
 30
0.0
 10
3.9474504026
 20
4.8934721259
 30
0.0
 10
3.9489916881
 20
4.8933678794
 30
0.0
 10
3.950873523
 20
4.8932112362
 30
0.0
 10
3.9530942855
 20
4.8929746821
 30
0.0
 10
3.9567376347
 20
4.8924819383
 30
0.0
 10
3.9621444856
 20
4.891484246
 30
0.0
 10
3.9696170479
 20
4.8894918646
 30
0.0
 10
3.9783985825
 20
4.8862573937
 30
0.0
 10
3.9844575391
 20
4.8831600216
 30
0.0
 10
3.987628284
 20
4.8812715481
 30
0.0
  0
SPLINE
  5
3AE
100
AcDbEntity
  8
ALL_FEATURES
100
AcDbSpline
 62
9
  6
CONTINUOUS
 70
0
 71
3
 72
22
 73
18
 74
0
 42
0.0000001
 43
0.0000001
 44
0.0000000001
 40
0.0
 40
0.0
 40
0.0
 40
0.0
 40
0.0009917657
 40
0.0038757732
 40
0.0086523035
 40
0.0153206942
 40
0.023880328
 40
0.0343309315
 40
0.0609057779
 40
0.0950513785
 40
0.1367807315
 40
0.186121084
 40
0.2431296777
 40
0.3805418514
 40
0.5503802484
 40
0.7553039871
 40
1.0
 40
1.0
 40
1.0
 40
1.0
 10
5.086316573
 20
2.8464067884
 30
0.0
 10
5.0863044996
 20
2.8464156164
 30
0.0
 10
5.0862393193
 20
2.8464000631
 30
0.0
 10
5.0861153212
 20
2.8464209386
 30
0.0
 10
5.0858956662
 20
2.8464167991
 30
0.0
 10
5.0855957044
 20
2.8464296929
 30
0.0
 10
5.0852080512
 20
2.8464411517
 30
0.0
 10
5.0845214404
 20
2.8464696454
 30
0.0
 10
5.0834493265
 20
2.8465247291
 30
0.0
 10
5.0819078399
 20
2.8466290727
 30
0.0
 10
5.0800258989
 20
2.8467860231
 30
0.0
 10
5.0778050473
 20
2.8470225007
 30
0.0
 10
5.0741616797
 20
2.8475151232
 30
0.0
 10
5.068755045
 20
2.848513146
 30
0.0
 10
5.0612827778
 20
2.8505052238
 30
0.0
 10
5.0525020689
 20
2.8537400963
 30
0.0
 10
5.0464434673
 20
2.8568369634
 30
0.0
 10
5.0432729592
 20
2.8587252246
 30
0.0
  0
SPLINE
  5
3AF
100
AcDbEntity
  8
ALL_FEATURES
100
AcDbSpline
 62
9
  6
CONTINUOUS
 70
0
 71
3
 72
19
 73
15
 74
0
 42
0.0000001
 43
0.0000001
 44
0.0000000001
 40
0.0
 40
0.0
 40
0.0
 40
0.0
 40
0.0723163131
 40
0.1439113175
 40
0.2141954274
 40
0.2828111394
 40
0.4144330714
 40
0.5393552312
 40
0.5997870618
 40
0.6590697086
 40
0.7173906163
 40
0.7749201647
 40
0.8881345673
 40
1.0
 40
1.0
 40
1.0
 40
1.0
 10
4.5154505273
 20
3.3146253304
 30
0.0
 10
4.536923922
 20
3.3146255201
 30
0.0
 10
4.5796936106
 20
3.3169610218
 30
0.0
 10
4.642566386
 20
3.3273129687
 30
0.0
 10
4.7029188877
 20
3.3440404106
 30
0.0
 10
4.7777691848
 20
3.3735255504
 30
0.0
 10
4.8618273227
 20
3.42241766
 30
0.0
 10
4.9329182805
 20
3.4850118522
 30
0.0
 10
4.9802252659
 20
3.5402498511
 30
0.0
 10
5.0108757473
 20
3.5834135465
 30
0.0
 10
5.0371173429
 20
3.6283913353
 30
0.0
 10
5.0661418617
 20
3.6899870379
 30
0.0
 10
5.0919533394
 20
3.770289472
 30
0.0
 10
5.1013360323
 20
3.8368333191
 30
0.0
 10
5.1031915337
 20
3.8699984491
 30
0.0
  0
SPLINE
  5
3B0
100
AcDbEntity
  8
ALL_FEATURES
100
AcDbSpline
 62
9
  6
CONTINUOUS
 70
0
 71
3
 72
18
 73
14
 74
0
 42
0.0000001
 43
0.0000001
 44
0.0000000001
 40
0.0
 40
0.0
 40
0.0
 40
0.0
 40
0.1116764218
 40
0.2249356814
 40
0.3408956762
 40
0.4003295628
 40
0.4609269139
 40
0.5861687098
 40
0.7179430445
 40
0.7865068647
 40
0.856637366
 40
0.9279863439
 40
1.0
 40
1.0
 40
1.0
 40
1.0
 10
3.9303036421
 20
3.838613551
 30
0.0
 10
3.9337880135
 20
3.8068158117
 30
0.0
 10
3.9460580623
 20
3.7432193363
 30
0.0
 10
3.9801507573
 20
3.6512759045
 30
0.0
 10
4.0216603528
 20
3.5792638063
 30
0.0
 10
4.0626906533
 20
3.5254523008
 30
0.0
 10
4.1100725287
 20
3.473470929
 30
0.0
 10
4.1803254304
 20
3.414823937
 30
0.0
 10
4.2623895262
 20
3.3692284559
 30
0.0
 10
4.3349715397
 20
3.3418343319
 30
0.0
 10
4.393221947
 20
3.3263457728
 30
0.0
 10
4.4537262658
 20
3.3167810746
 30
0.0
 10
4.4948232692
 20
3.3146255168
 30
0.0
 10
4.5154505273
 20
3.3146253304
 30
0.0
  0
SPLINE
  5
3B1
100
AcDbEntity
  8
ALL_FEATURES
100
AcDbSpline
 62
9
  6
CONTINUOUS
 70
0
 71
3
 72
11
 73
7
 74
0
 42
0.0000001
 43
0.0000001
 44
0.0000000001
 40
0.0
 40
0.0
 40
0.0
 40
0.0
 40
0.2592644028
 40
0.5117157265
 40
0.7578325878
 40
1.0
 40
1.0
 40
1.0
 40
1.0
 10
5.0432736985
 20
4.8812716758
 30
0.0
 10
5.0435785854
 20
4.8779748675
 30
0.0
 10
5.0433778771
 20
4.871361672
 30
0.0
 10
5.0405825458
 20
4.8619771379
 30
0.0
 10
5.0354313891
 20
4.8538971199
 30
0.0
 10
5.0306456179
 20
4.8497392784
 30
0.0
 10
5.0280380611
 20
4.8480766088
 30
0.0
  0
SPLINE
  5
3B2
100
AcDbEntity
  8
ALL_FEATURES
100
AcDbSpline
 62
9
  6
CONTINUOUS
 70
0
 71
3
 72
9
 73
5
 74
0
 42
0.0000001
 43
0.0000001
 44
0.0000000001
 40
0.0
 40
0.0
 40
0.0
 40
0.0
 40
0.5147241454
 40
1.0
 40
1.0
 40
1.0
 40
1.0
 10
5.020528479
 20
4.8671280793
 30
0.0
 10
5.0211872412
 20
4.8633167608
 30
0.0
 10
5.0214253409
 20
4.8556746256
 30
0.0
 10
5.0191600845
 20
4.8483250236
 30
0.0
 10
5.0174557247
 20
4.8451012911
 30
0.0
  0
SPLINE
  5
3B3
100
AcDbEntity
  8
ALL_FEATURES
100
AcDbSpline
 62
9
  6
CONTINUOUS
 70
0
 71
3
 72
9
 73
5
 74
0
 42
0.0000001
 43
0.0000001
 44
0.0000000001
 40
0.0
 40
0.0
 40
0.0
 40
0.0
 40
0.4946469897
 40
1.0
 40
1.0
 40
1.0
 40
1.0
 10
4.998395493
 20
4.8671303863
 30
0.0
 10
4.9976026633
 20
4.8631189884
 30
0.0
 10
4.9948484737
 20
4.8552086582
 30
0.0
 10
4.99020141
 20
4.8482542141
 30
0.0
 10
4.9874622437
 20
4.845100097
 30
0.0
  0
SPLINE
  5
3B4
100
AcDbEntity
  8
ALL_FEATURES
100
AcDbSpline
 62
9
  6
CONTINUOUS
 70
0
 71
3
 72
9
 73
5
 74
0
 42
0.0000001
 43
0.0000001
 44
0.0000000001
 40
0.0
 40
0.0
 40
0.0
 40
0.0
 40
0.5117861309
 40
1.0
 40
1.0
 40
1.0
 40
1.0
 10
4.967693073
 20
4.8812717216
 30
0.0
 10
4.9666943753
 20
4.8745328055
 30
0.0
 10
4.9619940831
 20
4.8616660371
 30
0.0
 10
4.9525720031
 20
4.8515657899
 30
0.0
 10
4.9470896637
 20
4.8480761505
 30
0.0
  0
SPLINE
  5
3B5
100
AcDbEntity
  8
ALL_FEATURES
100
AcDbSpline
 62
9
  6
CONTINUOUS
 70
0
 71
3
 72
11
 73
7
 74
0
 42
0.0000001
 43
0.0000001
 44
0.0000000001
 40
0.0
 40
0.0
 40
0.0
 40
0.0
 40
0.3019814939
 40
0.5814784433
 40
0.8192898655
 40
1.0
 40
1.0
 40
1.0
 40
1.0
 10
4.5910302803
 20
4.8812716659
 30
0.0
 10
4.5918237736
 20
4.8779757122
 30
0.0
 10
4.5932466002
 20
4.8716036088
 30
0.0
 10
4.5949361788
 20
4.8625592332
 30
0.0
 10
4.5960255432
 20
4.8547985161
 30
0.0
 10
4.5963948074
 20
4.8501049486
 30
0.0
 10
4.5964007552
 20
4.8480762575
 30
0.0
  0
SPLINE
  5
3B6
100
AcDbEntity
  8
ALL_FEATURES
100
AcDbSpline
 62
9
  6
CONTINUOUS
 70
0
 71
3
 72
14
 73
10
 74
0
 42
0.0000001
 43
0.0000001
 44
0.0000000001
 40
0.0
 40
0.0
 40
0.0
 40
0.0
 40
0.0822341684
 40
0.1730402674
 40
0.2777222702
 40
0.3982128569
 40
0.5337485827
 40
0.6817830857
 40
1.0
 40
1.0
 40
1.0
 40
1.0
 10
4.5154505273
 20
4.6623212838
 30
0.0
 10
4.5141462106
 20
4.6623212838
 30
0.0
 10
4.5113808621
 20
4.662898686
 30
0.0
 10
4.5076077323
 20
4.6653030055
 30
0.0
 10
4.5042189266
 20
4.6690550773
 30
0.0
 10
4.5012838192
 20
4.6739985138
 30
0.0
 10
4.4988859015
 20
4.6799644955
 30
0.0
 10
4.4964575465
 20
4.6892123481
 30
0.0
 10
4.4957654879
 20
4.6966441218
 30
0.0
 10
4.4957654879
 20
4.7016913625
 30
0.0
  0
LINE
  5
3B7
100
AcDbEntity
  8
ALL_FEATURES
100
AcDbLine
 62
9
  6
CONTINUOUS
 10
4.5375822128
 20
4.8671285322
 11
4.5454387895
 21
4.8451014629
  0
LINE
  5
3B8
100
AcDbEntity
  8
ALL_FEATURES
100
AcDbLine
 62
9
  6
CONTINUOUS
 10
4.5154505273
 20
4.8635807775
 11
4.5154500543
 21
4.8483980928
  0
LINE
  5
3B9
100
AcDbEntity
  8
ALL_FEATURES
100
AcDbLine
 62
9
  6
CONTINUOUS
 10
4.4933176027
 20
4.8671293298
 11
4.4854625534
 21
4.8450993676
  0
SPLINE
  5
3BA
100
AcDbEntity
  8
ALL_FEATURES
100
AcDbSpline
 62
9
  6
CONTINUOUS
 70
0
 71
3
 72
11
 73
7
 74
0
 42
0.0000001
 43
0.0000001
 44
0.0000000001
 40
0.0
 40
0.0
 40
0.0
 40
0.0
 40
0.3019758791
 40
0.5814705988
 40
0.8192838948
 40
1.0
 40
1.0
 40
1.0
 40
1.0
 10
4.4398712217
 20
4.8812715481
 30
0.0
 10
4.4390777573
 20
4.8779756464
 30
0.0
 10
4.4376549784
 20
4.8716036112
 30
0.0
 10
4.4359654386
 20
4.8625592817
 30
0.0
 10
4.434876046
 20
4.8547984908
 30
0.0
 10
4.4345067152
 20
4.850104837
 30
0.0
 10
4.4345006965
 20
4.8480760756
 30
0.0
  0
SPLINE
  5
3BB
100
AcDbEntity
  8
ALL_FEATURES
100
AcDbSpline
 62
9
  6
CONTINUOUS
 70
0
 71
3
 72
9
 73
5
 74
0
 42
0.0000001
 43
0.0000001
 44
0.0000000001
 40
0.0
 40
0.0
 40
0.0
 40
0.0
 40
0.5117867172
 40
1.0
 40
1.0
 40
1.0
 40
1.0
 10
4.0632075874
 20
4.881271553
 30
0.0
 10
4.0642065714
 20
4.8745325232
 30
0.0
 10
4.0689075317
 20
4.8616656736
 30
0.0
 10
4.0783302858
 20
4.8515656373
 30
0.0
 10
4.0838129105
 20
4.8480762001
 30
0.0
  0
SPLINE
  5
3BC
100
AcDbEntity
  8
ALL_FEATURES
100
AcDbSpline
 62
9
  6
CONTINUOUS
 70
0
 71
3
 72
9
 73
5
 74
0
 42
0.0000001
 43
0.0000001
 44
0.0000000001
 40
0.0
 40
0.0
 40
0.0
 40
0.0
 40
0.4946351774
 40
1.0
 40
1.0
 40
1.0
 40
1.0
 10
4.0325026063
 20
4.8671282651
 30
0.0
 10
4.0332950599
 20
4.8631175061
 30
0.0
 10
4.0360485242
 20
4.8552082016
 30
0.0
 10
4.0406947763
 20
4.8482546915
 30
0.0
 10
4.0434335195
 20
4.8451008922
 30
0.0
  0
SPLINE
  5
3BD
100
AcDbEntity
  8
ALL_FEATURES
100
AcDbSpline
 62
9
  6
CONTINUOUS
 70
0
 71
3
 72
9
 73
5
 74
0
 42
0.0000001
 43
0.0000001
 44
0.0000000001
 40
0.0
 40
0.0
 40
0.0
 40
0.0
 40
0.5001888601
 40
1.0
 40
1.0
 40
1.0
 40
1.0
 10
4.1542796617
 20
3.0440252508
 30
0.0
 10
4.1385889439
 20
3.0425901131
 30
0.0
 10
4.1072178666
 20
3.0397552649
 30
0.0
 10
4.0757197236
 20
3.038305344
 30
0.0
 10
4.0599754091
 20
3.0383055357
 30
0.0
  0
SPLINE
  5
3BE
100
AcDbEntity
  8
ALL_FEATURES
100
AcDbSpline
 62
9
  6
CONTINUOUS
 70
0
 71
3
 72
9
 73
5
 74
0
 42
0.0000001
 43
0.0000001
 44
0.0000000001
 40
0.0
 40
0.0
 40
0.0
 40
0.0
 40
0.5147130435
 40
1.0
 40
1.0
 40
1.0
 40
1.0
 10
4.0103706807
 20
4.8671296527
 30
0.0
 10
4.0097126081
 20
4.8633175027
 30
0.0
 10
4.0094764058
 20
4.8556736766
 30
0.0
 10
4.0117446388
 20
4.8483232876
 30
0.0
 10
4.013450547
 20
4.845099442
 30
0.0
  0
SPLINE
  5
3BF
100
AcDbEntity
  8
ALL_FEATURES
100
AcDbSpline
 62
9
  6
CONTINUOUS
 70
0
 71
3
 72
11
 73
7
 74
0
 42
0.0000001
 43
0.0000001
 44
0.0000000001
 40
0.0
 40
0.0
 40
0.0
 40
0.0
 40
0.2592650816
 40
0.5117171772
 40
0.7578340271
 40
1.0
 40
1.0
 40
1.0
 40
1.0
 10
3.9876282746
 20
4.8812715481
 30
0.0
 10
3.9873232166
 20
4.8779748031
 30
0.0
 10
3.9875235469
 20
4.8713616937
 30
0.0
 10
3.990318247
 20
4.8619771287
 30
0.0
 10
3.9954687843
 20
4.8538969187
 30
0.0
 10
4.000254204
 20
4.8497388583
 30
0.0
 10
4.0028616049
 20
4.8480760756
 30
0.0
  0
SPLINE
  5
3C0
100
AcDbEntity
  8
ALL_FEATURES
100
AcDbSpline
 62
9
  6
CONTINUOUS
 70
0
 71
3
 72
11
 73
7
 74
0
 42
0.0000001
 43
0.0000001
 44
0.0000000001
 40
0.0
 40
0.0
 40
0.0
 40
0.0
 40
0.2592649024
 40
0.5117171482
 40
0.7578341777
 40
1.0
 40
1.0
 40
1.0
 40
1.0
 10
5.0432729644
 20
2.8587252246
 30
0.0
 10
5.0435779984
 20
2.8620219766
 30
0.0
 10
5.043377622
 20
2.8686350971
 30
0.0
 10
5.0405828735
 20
2.8780196689
 30
0.0
 10
5.0354323149
 20
2.8860998888
 30
0.0
 10
5.0306468933
 20
2.8902579654
 30
0.0
 10
5.0280394927
 20
2.8919207572
 30
0.0
  0
SPLINE
  5
3C1
100
AcDbEntity
  8
ALL_FEATURES
100
AcDbSpline
 62
9
  6
CONTINUOUS
 70
0
 71
3
 72
13
 73
9
 74
0
 42
0.0000001
 43
0.0000001
 44
0.0000000001
 40
0.0
 40
0.0
 40
0.0
 40
0.0
 40
0.1250545669
 40
0.2500588889
 40
0.499999157
 40
0.7499398475
 40
0.8749444806
 40
1.0
 40
1.0
 40
1.0
 40
1.0
 10
4.3822414658
 20
3.0440274607
 30
0.0
 10
4.3727703458
 20
3.0449174758
 30
0.0
 10
4.3537940467
 20
3.046296376
 30
0.0
 10
4.3157993794
 20
3.0480810982
 30
0.0
 10
4.2682605409
 20
3.0489272322
 30
0.0
 10
4.2207219341
 20
3.0480779103
 30
0.0
 10
4.1827267336
 20
3.0463019172
 30
0.0
 10
4.1637504441
 20
3.0449196207
 30
0.0
 10
4.1542796617
 20
3.0440252508
 30
0.0
  0
SPLINE
  5
3C2
100
AcDbEntity
  8
ALL_FEATURES
100
AcDbSpline
 62
9
  6
CONTINUOUS
 70
0
 71
3
 72
11
 73
7
 74
0
 42
0.0000001
 43
0.0000001
 44
0.0000000001
 40
0.0
 40
0.0
 40
0.0
 40
0.0
 40
0.259264534
 40
0.5117158607
 40
0.7578326562
 40
1.0
 40
1.0
 40
1.0
 40
1.0
 10
3.9876275137
 20
2.8587253323
 30
0.0
 10
3.9873226202
 20
2.862022134
 30
0.0
 10
3.9875233145
 20
2.8686353165
 30
0.0
 10
3.9903186251
 20
2.8780198344
 30
0.0
 10
3.995469762
 20
2.8860998374
 30
0.0
 10
4.0002555202
 20
2.8902576694
 30
0.0
 10
4.0028630702
 20
2.8919203346
 30
0.0
  0
SPLINE
  5
3C3
100
AcDbEntity
  8
ALL_FEATURES
100
AcDbSpline
 62
9
  6
CONTINUOUS
 70
0
 71
3
 72
9
 73
5
 74
0
 42
0.0000001
 43
0.0000001
 44
0.0000000001
 40
0.0
 40
0.0
 40
0.0
 40
0.0
 40
0.5147192273
 40
1.0
 40
1.0
 40
1.0
 40
1.0
 10
4.0103706374
 20
2.8728672243
 30
0.0
 10
4.0097121898
 20
2.8766787162
 30
0.0
 10
4.0094747303
 20
2.8843211598
 30
0.0
 10
4.0117404561
 20
2.8916708967
 30
0.0
 10
4.0134449975
 20
2.8948947395
 30
0.0
  0
SPLINE
  5
3C4
100
AcDbEntity
  8
ALL_FEATURES
100
AcDbSpline
 62
9
  6
CONTINUOUS
 70
0
 71
3
 72
9
 73
5
 74
0
 42
0.0000001
 43
0.0000001
 44
0.0000000001
 40
0.0
 40
0.0
 40
0.0
 40
0.0
 40
0.4946420738
 40
1.0
 40
1.0
 40
1.0
 40
1.0
 10
4.0325026758
 20
2.8728686599
 30
0.0
 10
4.0332957355
 20
2.876880067
 30
0.0
 10
4.0360506426
 20
2.8847903944
 30
0.0
 10
4.0406986945
 20
2.8917444424
 30
0.0
 10
4.0434383822
 20
2.894898288
 30
0.0
  0
SPLINE
  5
3C5
100
AcDbEntity
  8
ALL_FEATURES
100
AcDbSpline
 62
9
  6
CONTINUOUS
 70
0
 71
3
 72
9
 73
5
 74
0
 42
0.0000001
 43
0.0000001
 44
0.0000000001
 40
0.0
 40
0.0
 40
0.0
 40
0.0
 40
0.4998106775
 40
1.0
 40
1.0
 40
1.0
 40
1.0
 10
4.4765410646
 20
3.0383055357
 30
0.0
 10
4.4607975039
 20
3.0383053708
 30
0.0
 10
4.4293006918
 20
3.0397530649
 30
0.0
 10
4.3979314679
 20
3.0425924609
 30
0.0
 10
4.3822414658
 20
3.0440274607
 30
0.0
  0
SPLINE
  5
3C6
100
AcDbEntity
  8
ALL_FEATURES
100
AcDbSpline
 62
9
  6
CONTINUOUS
 70
0
 71
3
 72
9
 73
5
 74
0
 42
0.0000001
 43
0.0000001
 44
0.0000000001
 40
0.0
 40
0.0
 40
0.0
 40
0.0
 40
0.5014970241
 40
1.0
 40
1.0
 40
1.0
 40
1.0
 10
4.4957654879
 20
2.9169289451
 30
0.0
 10
4.4875164476
 20
2.9201699321
 30
0.0
 10
4.4700938979
 20
2.9241426998
 30
0.0
 10
4.452412398
 20
2.9251197232
 30
0.0
 10
4.4436024307
 20
2.9251165594
 30
0.0
  0
SPLINE
  5
3C7
100
AcDbEntity
  8
ALL_FEATURES
100
AcDbSpline
 62
9
  6
CONTINUOUS
 70
0
 71
3
 72
9
 73
5
 74
0
 42
0.0000001
 43
0.0000001
 44
0.0000000001
 40
0.0
 40
0.0
 40
0.0
 40
0.0
 40
0.5117851755
 40
1.0
 40
1.0
 40
1.0
 40
1.0
 10
4.0632075723
 20
2.8587253636
 30
0.0
 10
4.0642063512
 20
2.8654642758
 30
0.0
 10
4.0689068284
 20
2.8783310199
 30
0.0
 10
4.0783290247
 20
2.888431198
 30
0.0
 10
4.0838114123
 20
2.8919208221
 30
0.0
  0
SPLINE
  5
3C8
100
AcDbEntity
  8
ALL_FEATURES
100
AcDbSpline
 62
9
  6
CONTINUOUS
 70
0
 71
3
 72
11
 73
7
 74
0
 42
0.0000001
 43
0.0000001
 44
0.0000000001
 40
0.0
 40
0.0
 40
0.0
 40
0.0
 40
0.3019816192
 40
0.5814786136
 40
0.8192899993
 40
1.0
 40
1.0
 40
1.0
 40
1.0
 10
4.4398711239
 20
2.8587253322
 30
0.0
 10
4.4390776137
 20
2.8620212801
 30
0.0
 10
4.4376547547
 20
2.868393372
 30
0.0
 10
4.4359651292
 20
2.8774377318
 30
0.0
 10
4.4348757212
 20
2.8851984341
 30
0.0
 10
4.4345064262
 20
2.8898919926
 30
0.0
 10
4.4345004619
 20
2.8919206803
 30
0.0
  0
LINE
  5
3C9
100
AcDbEntity
  8
ALL_FEATURES
100
AcDbLine
 62
9
  6
CONTINUOUS
 10
4.4933175514
 20
2.8728675461
 11
4.4854628993
 21
2.8948948919
  0
SPLINE
  5
3CA
100
AcDbEntity
  8
ALL_FEATURES
100
AcDbSpline
 62
9
  6
CONTINUOUS
 70
0
 71
3
 72
9
 73
5
 74
0
 42
0.0000001
 43
0.0000001
 44
0.0000000001
 40
0.0
 40
0.0
 40
0.0
 40
0.0
 40
0.4985041764
 40
1.0
 40
1.0
 40
1.0
 40
1.0
 10
4.092914043
 20
2.9251165594
 30
0.0
 10
4.084104059
 20
2.9251197431
 30
0.0
 10
4.0664230339
 20
2.924141285
 30
0.0
 10
4.0489991314
 20
2.9201721379
 30
0.0
 10
4.0407509858
 20
2.9169289451
 30
0.0
  0
LINE
  5
3CB
100
AcDbEntity
  8
ALL_FEATURES
100
AcDbLine
 62
9
  6
CONTINUOUS
 10
4.5154505273
 20
2.8764161409
 11
4.5154505285
 21
2.8915988023
  0
LINE
  5
3CC
100
AcDbEntity
  8
ALL_FEATURES
100
AcDbLine
 62
9
  6
CONTINUOUS
 10
4.5375821393
 20
2.8728683961
 11
4.5454383083
 21
2.8948978756
  0
SPLINE
  5
3CD
100
AcDbEntity
  8
ALL_FEATURES
100
AcDbSpline
 62
9
  6
CONTINUOUS
 70
0
 71
3
 72
11
 73
7
 74
0
 42
0.0000001
 43
0.0000001
 44
0.0000000001
 40
0.0
 40
0.0
 40
0.0
 40
0.0
 40
0.3019755214
 40
0.5814700812
 40
0.8192834924
 40
1.0
 40
1.0
 40
1.0
 40
1.0
 10
4.5910302151
 20
2.8587252429
 30
0.0
 10
4.5918236303
 20
2.8620211498
 30
0.0
 10
4.5932463139
 20
2.8683931954
 30
0.0
 10
4.5949357199
 20
2.8774375382
 30
0.0
 10
4.5960250039
 20
2.8851983427
 30
0.0
 10
4.5963942753
 20
2.8898920029
 30
0.0
 10
4.5964002735
 20
2.8919207674
 30
0.0
  0
SPLINE
  5
3CE
100
AcDbEntity
  8
ALL_FEATURES
100
AcDbSpline
 62
9
  6
CONTINUOUS
 70
0
 71
3
 72
9
 73
5
 74
0
 42
0.0000001
 43
0.0000001
 44
0.0000000001
 40
0.0
 40
0.0
 40
0.0
 40
0.0
 40
0.5117871396
 40
1.0
 40
1.0
 40
1.0
 40
1.0
 10
4.9676931675
 20
2.8587251997
 30
0.0
 10
4.9666942181
 20
2.8654642398
 30
0.0
 10
4.961993325
 20
2.8783311138
 30
0.0
 10
4.9525706124
 20
2.8884311914
 30
0.0
 10
4.9470880042
 20
2.891920643
 30
0.0
  0
SPLINE
  5
3CF
100
AcDbEntity
  8
ALL_FEATURES
100
AcDbSpline
 62
9
  6
CONTINUOUS
 70
0
 71
3
 72
9
 73
5
 74
0
 42
0.0000001
 43
0.0000001
 44
0.0000000001
 40
0.0
 40
0.0
 40
0.0
 40
0.0
 40
0.4946426015
 40
1.0
 40
1.0
 40
1.0
 40
1.0
 10
4.9983955627
 20
2.8728664923
 30
0.0
 10
4.9976035882
 20
2.876877123
 30
0.0
 10
4.9948513463
 20
2.8847862211
 30
0.0
 10
4.9902064054
 20
2.8917399169
 30
0.0
 10
4.9874683315
 20
2.894893837
 30
0.0
  0
SPLINE
  5
3D0
100
AcDbEntity
  8
ALL_FEATURES
100
AcDbSpline
 62
9
  6
CONTINUOUS
 70
0
 71
3
 72
9
 73
5
 74
0
 42
0.0000001
 43
0.0000001
 44
0.0000000001
 40
0.0
 40
0.0
 40
0.0
 40
0.0
 40
0.5147205442
 40
1.0
 40
1.0
 40
1.0
 40
1.0
 10
5.020528422
 20
2.8728688507
 30
0.0
 10
5.0211866515
 20
2.8766808595
 30
0.0
 10
5.0214232343
 20
2.8843243407
 30
0.0
 10
5.0191553655
 20
2.8916745189
 30
0.0
 10
5.0174496116
 20
2.8948982023
 30
0.0
  0
SPLINE
  5
3D1
100
AcDbEntity
  8
ALL_FEATURES
100
AcDbSpline
 62
9
  6
CONTINUOUS
 70
0
 71
3
 72
9
 73
5
 74
0
 42
0.0000001
 43
0.0000001
 44
0.0000000001
 40
0.0
 40
0.0
 40
0.0
 40
0.0
 40
0.4973735214
 40
1.0
 40
1.0
 40
1.0
 40
1.0
 10
4.0210552188
 20
2.9169289412
 30
0.0
 10
4.0210565019
 20
2.9130108108
 30
0.0
 10
4.0197225956
 20
2.9050774717
 30
0.0
 10
4.0158679517
 20
2.8980259557
 30
0.0
 10
4.0134444065
 20
2.8948947961
 30
0.0
  0
SPLINE
  5
3D2
100
AcDbEntity
  8
ALL_FEATURES
100
AcDbSpline
 62
9
  6
CONTINUOUS
 70
0
 71
3
 72
9
 73
5
 74
0
 42
0.0000001
 43
0.0000001
 44
0.0000000001
 40
0.0
 40
0.0
 40
0.0
 40
0.0
 40
0.5005519915
 40
1.0
 40
1.0
 40
1.0
 40
1.0
 10
4.0134444065
 20
2.8948947961
 30
0.0
 10
4.0115957361
 20
2.895098382
 30
0.0
 10
4.0077913088
 20
2.8945835321
 30
0.0
 10
4.0044263956
 20
2.8929182196
 30
0.0
 10
4.0028615179
 20
2.8919207495
 30
0.0
  0
SPLINE
  5
3D3
100
AcDbEntity
  8
ALL_FEATURES
100
AcDbSpline
 62
9
  6
CONTINUOUS
 70
0
 71
3
 72
9
 73
5
 74
0
 42
0.0000001
 43
0.0000001
 44
0.0000000001
 40
0.0
 40
0.0
 40
0.0
 40
0.0
 40
0.5314207243
 40
1.0
 40
1.0
 40
1.0
 40
1.0
 10
4.0407512743
 20
2.916928945
 30
0.0
 10
4.0418675024
 20
2.9131419546
 30
0.0
 10
4.0434541189
 20
2.9058534189
 30
0.0
 10
4.04375767
 20
2.8983645814
 30
0.0
 10
4.0434376388
 20
2.8948981188
 30
0.0
  0
SPLINE
  5
3D4
100
AcDbEntity
  8
ALL_FEATURES
100
AcDbSpline
 62
9
  6
CONTINUOUS
 70
0
 71
3
 72
14
 73
10
 74
0
 42
0.0000001
 43
0.0000001
 44
0.0000000001
 40
0.0
 40
0.0
 40
0.0
 40
0.0
 40
0.1907191572
 40
0.360412109
 40
0.6438717585
 40
0.7594643381
 40
0.8582397086
 40
0.9391680218
 40
1.0
 40
1.0
 40
1.0
 40
1.0
 10
4.0434376388
 20
2.8948981188
 30
0.0
 10
4.0415121171
 20
2.8944454509
 30
0.0
 10
4.0378612645
 20
2.8936343186
 30
0.0
 10
4.0313281986
 20
2.8922895369
 30
0.0
 10
4.0254479681
 20
2.8914199362
 30
0.0
 10
4.0202787771
 20
2.8917386413
 30
0.0
 10
4.0172682957
 20
2.8924274192
 30
0.0
 10
4.0149885329
 20
2.893404077
 30
0.0
 10
4.0137506731
 20
2.8943422359
 30
0.0
 10
4.0134506794
 20
2.8948972589
 30
0.0
  0
SPLINE
  5
3D5
100
AcDbEntity
  8
ALL_FEATURES
100
AcDbSpline
 62
9
  6
CONTINUOUS
 70
0
 71
3
 72
10
 73
6
 74
0
 42
0.0000001
 43
0.0000001
 44
0.0000000001
 40
0.0
 40
0.0
 40
0.0
 40
0.0
 40
0.5466707205
 40
0.789635642
 40
1.0
 40
1.0
 40
1.0
 40
1.0
 10
4.092914043
 20
2.9251165594
 30
0.0
 10
4.0929140124
 20
2.9187551584
 30
0.0
 10
4.0918490653
 20
2.9094770494
 30
0.0
 10
4.087989731
 20
2.898462995
 30
0.0
 10
4.0853229693
 20
2.8938471274
 30
0.0
 10
4.083812467
 20
2.8919207974
 30
0.0
  0
SPLINE
  5
3D6
100
AcDbEntity
  8
ALL_FEATURES
100
AcDbSpline
 62
9
  6
CONTINUOUS
 70
0
 71
3
 72
10
 73
6
 74
0
 42
0.0000001
 43
0.0000001
 44
0.0000000001
 40
0.0
 40
0.0
 40
0.0
 40
0.0
 40
0.5047307412
 40
0.7535162174
 40
1.0
 40
1.0
 40
1.0
 40
1.0
 10
4.0838117498
 20
2.8919207603
 30
0.0
 10
4.0770673487
 20
2.8929272451
 30
0.0
 10
4.0669510529
 20
2.8941665769
 30
0.0
 10
4.0534601437
 20
2.8949463532
 30
0.0
 10
4.046763511
 20
2.8950018036
 30
0.0
 10
4.0434351112
 20
2.8948959849
 30
0.0
  0
SPLINE
  5
3D7
100
AcDbEntity
  8
ALL_FEATURES
100
AcDbSpline
 62
9
  6
CONTINUOUS
 70
0
 71
3
 72
10
 73
6
 74
0
 42
0.0000001
 43
0.0000001
 44
0.0000000001
 40
0.0
 40
0.0
 40
0.0
 40
0.0
 40
0.5466705704
 40
0.7896354894
 40
1.0
 40
1.0
 40
1.0
 40
1.0
 10
4.4436024307
 20
2.9251165594
 30
0.0
 10
4.4436024314
 20
2.9187551593
 30
0.0
 10
4.4425375147
 20
2.9094770438
 30
0.0
 10
4.4386781896
 20
2.8984629838
 30
0.0
 10
4.4360114217
 20
2.8938471158
 30
0.0
 10
4.4345009142
 20
2.8919207872
 30
0.0
  0
SPLINE
  5
3D8
100
AcDbEntity
  8
ALL_FEATURES
100
AcDbSpline
 62
9
  6
CONTINUOUS
 70
0
 71
3
 72
9
 73
5
 74
0
 42
0.0000001
 43
0.0000001
 44
0.0000000001
 40
0.0
 40
0.0
 40
0.0
 40
0.0
 40
0.501496885
 40
1.0
 40
1.0
 40
1.0
 40
1.0
 10
4.9901500688
 20
2.916928553
 30
0.0
 10
4.9819010033
 20
2.9201695633
 30
0.0
 10
4.9644787604
 20
2.9241435391
 30
0.0
 10
4.9467970151
 20
2.9251207782
 30
0.0
 10
4.9379870116
 20
2.9251165594
 30
0.0
  0
SPLINE
  5
3D9
100
AcDbEntity
  8
ALL_FEATURES
100
AcDbSpline
 62
9
  6
CONTINUOUS
 70
0
 71
3
 72
17
 73
13
 74
0
 42
0.0000001
 43
0.0000001
 44
0.0000000001
 40
0.0
 40
0.0
 40
0.0
 40
0.0
 40
0.0686313746
 40
0.1365671151
 40
0.2702801586
 40
0.4009829773
 40
0.5284589872
 40
0.6524452043
 40
0.7726145524
 40
0.8885691593
 40
0.9448542329
 40
1.0
 40
1.0
 40
1.0
 40
1.0
 10
4.4345009142
 20
2.8919207872
 30
0.0
 10
4.4265397809
 20
2.8908414722
 30
0.0
 10
4.4106323083
 20
2.8891740391
 30
0.0
 10
4.3790566553
 20
2.8871107943
 30
0.0
 10
4.3401557557
 20
2.8860596497
 30
0.0
 10
4.2942824827
 20
2.8857737599
 30
0.0
 10
4.249546227
 20
2.8857575999
 30
0.0
 10
4.2060426343
 20
2.8857715052
 30
0.0
 10
4.1638906657
 20
2.8860438981
 30
0.0
 10
4.1296631118
 20
2.8870664098
 30
0.0
 10
4.1031212245
 20
2.889143587
 30
0.0
 10
4.0901742197
 20
2.890825555
 30
0.0
 10
4.083812467
 20
2.8919207974
 30
0.0
  0
SPLINE
  5
3DA
100
AcDbEntity
  8
ALL_FEATURES
100
AcDbSpline
 62
9
  6
CONTINUOUS
 70
0
 71
3
 72
9
 73
5
 74
0
 42
0.0000001
 43
0.0000001
 44
0.0000000001
 40
0.0
 40
0.0
 40
0.0
 40
0.0
 40
0.5081417152
 40
1.0
 40
1.0
 40
1.0
 40
1.0
 10
4.4957601251
 20
2.9169289412
 30
0.0
 10
4.4945924948
 20
2.9129655201
 30
0.0
 10
4.4916969793
 20
2.9053326491
 30
0.0
 10
4.4877127599
 20
2.8981994768
 30
0.0
 10
4.4854598508
 20
2.8948949574
 30
0.0
  0
SPLINE
  5
3DB
100
AcDbEntity
  8
ALL_FEATURES
100
AcDbSpline
 62
9
  6
CONTINUOUS
 70
0
 71
3
 72
10
 73
6
 74
0
 42
0.0000001
 43
0.0000001
 44
0.0000000001
 40
0.0
 40
0.0
 40
0.0
 40
0.0
 40
0.251114544
 40
0.501485366
 40
1.0
 40
1.0
 40
1.0
 40
1.0
 10
4.4854598508
 20
2.8948949574
 30
0.0
 10
4.4811852455
 20
2.895000882
 30
0.0
 10
4.4726418538
 20
2.8949488503
 30
0.0
 10
4.4556291416
 20
2.8941767356
 30
0.0
 10
4.4429274024
 20
2.8929398853
 30
0.0
 10
4.4345002166
 20
2.8919207495
 30
0.0
  0
SPLINE
  5
3DC
100
AcDbEntity
  8
ALL_FEATURES
100
AcDbSpline
 62
9
  6
CONTINUOUS
 70
0
 71
3
 72
10
 73
6
 74
0
 42
0.0000001
 43
0.0000001
 44
0.0000000001
 40
0.0
 40
0.0
 40
0.0
 40
0.0
 40
0.5090440093
 40
0.7587140328
 40
1.0
 40
1.0
 40
1.0
 40
1.0
 10
4.5154505301
 20
2.8915988588
 30
0.0
 10
4.5103252869
 20
2.8915865803
 30
0.0
 10
4.5026812326
 20
2.8921374307
 30
0.0
 10
4.4927140463
 20
2.89355106
 30
0.0
 10
4.4878416914
 20
2.8944004475
 30
0.0
 10
4.4854636813
 20
2.8948973112
 30
0.0
  0
SPLINE
  5
3DD
100
AcDbEntity
  8
ALL_FEATURES
100
AcDbSpline
 62
9
  6
CONTINUOUS
 70
0
 71
3
 72
9
 73
5
 74
0
 42
0.0000001
 43
0.0000001
 44
0.0000000001
 40
0.0
 40
0.0
 40
0.0
 40
0.0
 40
0.50815253
 40
1.0
 40
1.0
 40
1.0
 40
1.0
 10
4.5351354137
 20
2.9169288948
 30
0.0
 10
4.5363036354
 20
2.9129658899
 30
0.0
 10
4.539199855
 20
2.9053339936
 30
0.0
 10
4.5431843436
 20
2.8982017119
 30
0.0
 10
4.5454372586
 20
2.8948976779
 30
0.0
  0
SPLINE
  5
3DE
100
AcDbEntity
  8
ALL_FEATURES
100
AcDbSpline
 62
9
  6
CONTINUOUS
 70
0
 71
3
 72
10
 73
6
 74
0
 42
0.0000001
 43
0.0000001
 44
0.0000000001
 40
0.0
 40
0.0
 40
0.0
 40
0.0
 40
0.2412762162
 40
0.4909587731
 40
1.0
 40
1.0
 40
1.0
 40
1.0
 10
4.5454372586
 20
2.8948976779
 30
0.0
 10
4.5430592058
 20
2.8944014715
 30
0.0
 10
4.5381877241
 20
2.8935469741
 30
0.0
 10
4.5282196236
 20
2.8921394537
 30
0.0
 10
4.5205757516
 20
2.8915844129
 30
0.0
 10
4.5154505303
 20
2.8915988627
 30
0.0
  0
SPLINE
  5
3DF
100
AcDbEntity
  8
ALL_FEATURES
100
AcDbSpline
 62
9
  6
CONTINUOUS
 70
0
 71
3
 72
10
 73
6
 74
0
 42
0.0000001
 43
0.0000001
 44
0.0000000001
 40
0.0
 40
0.0
 40
0.0
 40
0.0
 40
0.5466706387
 40
0.7896354949
 40
1.0
 40
1.0
 40
1.0
 40
1.0
 10
4.5872986239
 20
2.9251165594
 30
0.0
 10
4.5872986046
 20
2.9187551558
 30
0.0
 10
4.5883635043
 20
2.9094770319
 30
0.0
 10
4.5922228285
 20
2.8984629658
 30
0.0
 10
4.5948896027
 20
2.893847099
 30
0.0
 10
4.5964001144
 20
2.8919207724
 30
0.0
  0
SPLINE
  5
3E0
100
AcDbEntity
  8
ALL_FEATURES
100
AcDbSpline
 62
9
  6
CONTINUOUS
 70
0
 71
3
 72
10
 73
6
 74
0
 42
0.0000001
 43
0.0000001
 44
0.0000000001
 40
0.0
 40
0.0
 40
0.0
 40
0.0
 40
0.4985166034
 40
0.748880239
 40
1.0
 40
1.0
 40
1.0
 40
1.0
 10
4.5964008086
 20
2.8919206968
 30
0.0
 10
4.5879736036
 20
2.8929397217
 30
0.0
 10
4.5752720423
 20
2.8941782775
 30
0.0
 10
4.5582593139
 20
2.8949462999
 30
0.0
 10
4.5497159543
 20
2.8950027772
 30
0.0
 10
4.5454413086
 20
2.894895467
 30
0.0
  0
SPLINE
  5
3E1
100
AcDbEntity
  8
ALL_FEATURES
100
AcDbSpline
 62
9
  6
CONTINUOUS
 70
0
 71
3
 72
10
 73
6
 74
0
 42
0.0000001
 43
0.0000001
 44
0.0000000001
 40
0.0
 40
0.0
 40
0.0
 40
0.0
 40
0.5466707108
 40
0.789635603
 40
1.0
 40
1.0
 40
1.0
 40
1.0
 10
4.9379870116
 20
2.9251165594
 30
0.0
 10
4.9379870125
 20
2.9187551511
 30
0.0
 10
4.9390519311
 20
2.9094770245
 30
0.0
 10
4.9429112653
 20
2.8984629546
 30
0.0
 10
4.9455780399
 20
2.8938470856
 30
0.0
 10
4.947088551
 20
2.8919207583
 30
0.0
  0
SPLINE
  5
3E2
100
AcDbEntity
  8
ALL_FEATURES
100
AcDbSpline
 62
9
  6
CONTINUOUS
 70
0
 71
3
 72
17
 73
13
 74
0
 42
0.0000001
 43
0.0000001
 44
0.0000000001
 40
0.0
 40
0.0
 40
0.0
 40
0.0
 40
0.0551461768
 40
0.1114313997
 40
0.2273862367
 40
0.3475557738
 40
0.471542119
 40
0.5990181676
 40
0.7297208823
 40
0.8634336404
 40
0.9313690781
 40
1.0
 40
1.0
 40
1.0
 40
1.0
 10
4.947088551
 20
2.8919207583
 30
0.0
 10
4.9407267628
 20
2.8908254418
 30
0.0
 10
4.9277796679
 20
2.8891436221
 30
0.0
 10
4.9012376952
 20
2.8870664604
 30
0.0
 10
4.8670100776
 20
2.8860438428
 30
0.0
 10
4.8248580471
 20
2.885771456
 30
0.0
 10
4.7813544153
 20
2.8857576089
 30
0.0
 10
4.7366181542
 20
2.8857738151
 30
0.0
 10
4.6907449271
 20
2.8860597247
 30
0.0
 10
4.6518441029
 20
2.8871106976
 30
0.0
 10
4.6202685829
 20
2.8891740982
 30
0.0
 10
4.6043611999
 20
2.8908415027
 30
0.0
 10
4.5964001144
 20
2.8919207724
 30
0.0
  0
SPLINE
  5
3E3
100
AcDbEntity
  8
ALL_FEATURES
100
AcDbSpline
 62
9
  6
CONTINUOUS
 70
0
 71
3
 72
9
 73
5
 74
0
 42
0.0000001
 43
0.0000001
 44
0.0000000001
 40
0.0
 40
0.0
 40
0.0
 40
0.0
 40
0.5314195693
 40
1.0
 40
1.0
 40
1.0
 40
1.0
 10
4.9901557915
 20
2.9169285483
 30
0.0
 10
4.989038667
 20
2.913141035
 30
0.0
 10
4.9874505861
 20
2.9058513276
 30
0.0
 10
4.9871460549
 20
2.8983610471
 30
0.0
 10
4.9874658478
 20
2.8948938776
 30
0.0
  0
SPLINE
  5
3E4
100
AcDbEntity
  8
ALL_FEATURES
100
AcDbSpline
 62
9
  6
CONTINUOUS
 70
0
 71
3
 72
10
 73
6
 74
0
 42
0.0000001
 43
0.0000001
 44
0.0000000001
 40
0.0
 40
0.0
 40
0.0
 40
0.0
 40
0.246494983
 40
0.4952792743
 40
1.0
 40
1.0
 40
1.0
 40
1.0
 10
4.9874658478
 20
2.8948938776
 30
0.0
 10
4.9841373077
 20
2.8949997724
 30
0.0
 10
4.9774405444
 20
2.8949465276
 30
0.0
 10
4.9639496883
 20
2.8941654842
 30
0.0
 10
4.9538335286
 20
2.8929269876
 30
0.0
 10
4.9470892575
 20
2.8919206688
 30
0.0
  0
SPLINE
  5
3E5
100
AcDbEntity
  8
ALL_FEATURES
100
AcDbSpline
 62
9
  6
CONTINUOUS
 70
0
 71
3
 72
11
 73
7
 74
0
 42
0.0000001
 43
0.0000001
 44
0.0000000001
 40
0.0
 40
0.0
 40
0.0
 40
0.0
 40
0.2500694146
 40
0.500111683
 40
0.7501021767
 40
1.0
 40
1.0
 40
1.0
 40
1.0
 10
4.5154505273
 20
2.8764161409
 30
0.0
 10
4.5135747061
 20
2.8764102174
 30
0.0
 10
4.5098214945
 20
2.8762668809
 30
0.0
 10
4.5042302226
 20
2.8755828397
 30
0.0
 10
4.4987095352
 20
2.8744842087
 30
0.0
 10
4.4950892888
 20
2.8734798063
 30
0.0
 10
4.4933175524
 20
2.8728675461
 30
0.0
  0
SPLINE
  5
3E6
100
AcDbEntity
  8
ALL_FEATURES
100
AcDbSpline
 62
9
  6
CONTINUOUS
 70
0
 71
3
 72
9
 73
5
 74
0
 42
0.0000001
 43
0.0000001
 44
0.0000000001
 40
0.0
 40
0.0
 40
0.0
 40
0.0
 40
0.4973741495
 40
1.0
 40
1.0
 40
1.0
 40
1.0
 10
5.0098345299
 20
2.9169288122
 30
0.0
 10
5.0098346239
 20
2.9130110219
 30
0.0
 10
5.0111705971
 20
2.9050788967
 30
0.0
 10
5.0150258622
 20
2.8980286564
 30
0.0
 10
5.0174494888
 20
2.8948980075
 30
0.0
  0
SPLINE
  5
3E7
100
AcDbEntity
  8
ALL_FEATURES
100
AcDbSpline
 62
9
  6
CONTINUOUS
 70
0
 71
3
 72
14
 73
10
 74
0
 42
0.0000001
 43
0.0000001
 44
0.0000000001
 40
0.0
 40
0.0
 40
0.0
 40
0.0
 40
0.0608375948
 40
0.1417749108
 40
0.2405575502
 40
0.3561480851
 40
0.6396135068
 40
0.8093126679
 40
1.0
 40
1.0
 40
1.0
 40
1.0
 10
5.0174494888
 20
2.8948980075
 30
0.0
 10
5.0171499706
 20
2.8943426563
 30
0.0
 10
5.0159130949
 20
2.8934027799
 30
0.0
 10
5.013632564
 20
2.8924267505
 30
0.0
 10
5.0106220462
 20
2.8917379508
 30
0.0
 10
5.0054526273
 20
2.8914193103
 30
0.0
 10
4.9995723433
 20
2.8922896737
 30
0.0
 10
4.9930396024
 20
2.8936351415
 30
0.0
 10
4.9893885674
 20
2.894444346
 30
0.0
 10
4.9874632655
 20
2.8948965686
 30
0.0
  0
SPLINE
  5
3E8
100
AcDbEntity
  8
ALL_FEATURES
100
AcDbSpline
 62
9
  6
CONTINUOUS
 70
0
 71
3
 72
9
 73
5
 74
0
 42
0.0000001
 43
0.0000001
 44
0.0000000001
 40
0.0
 40
0.0
 40
0.0
 40
0.0
 40
0.4994808695
 40
1.0
 40
1.0
 40
1.0
 40
1.0
 10
5.0280395952
 20
2.8919206826
 30
0.0
 10
5.0264744312
 20
2.8929180965
 30
0.0
 10
5.0231094369
 20
2.8945827914
 30
0.0
 10
5.0193048046
 20
2.8951000039
 30
0.0
 10
5.0174562538
 20
2.8948956321
 30
0.0
  0
SPLINE
  5
3E9
100
AcDbEntity
  8
ALL_FEATURES
100
AcDbSpline
 62
9
  6
CONTINUOUS
 70
0
 71
3
 72
9
 73
5
 74
0
 42
0.0000001
 43
0.0000001
 44
0.0000000001
 40
0.0
 40
0.0
 40
0.0
 40
0.0
 40
0.2359222843
 40
1.0
 40
1.0
 40
1.0
 40
1.0
 10
4.9808255789
 20
3.0818929228
 30
0.0
 10
4.9801213863
 20
3.0813546919
 30
0.0
 10
4.9770679008
 20
3.079203707
 30
0.0
 10
4.9733355701
 20
3.0776755242
 30
0.0
 10
4.9704650295
 20
3.0776756145
 30
0.0
  0
SPLINE
  5
3EA
100
AcDbEntity
  8
ALL_FEATURES
100
AcDbSpline
 62
9
  6
CONTINUOUS
 70
0
 71
3
 72
23
 73
19
 74
0
 42
0.0000001
 43
0.0000001
 44
0.0000000001
 40
0.0
 40
0.0
 40
0.0
 40
0.0
 40
0.2448032922
 40
0.4498358319
 40
0.6197362864
 40
0.692388489
 40
0.757140737
 40
0.8141357401
 40
0.8634570999
 40
0.9051601304
 40
0.9392767253
 40
0.9658178639
 40
0.976248015
 40
0.9847847981
 40
0.991428339
 40
0.9961786932
 40
0.9990358647
 40
1.0
 40
1.0
 40
1.0
 40
1.0
 10
3.9876282517
 20
2.8587253322
 30
0.0
 10
3.9844561389
 20
2.8568363393
 30
0.0
 10
3.9783992664
 20
2.8537270735
 30
0.0
 10
3.9696082051
 20
2.850507409
 30
0.0
 10
3.9630793369
 20
2.8487601219
 30
0.0
 10
3.9585346058
 20
2.8478470109
 30
0.0
 10
3.9556413101
 20
2.8473703576
 30
0.0
 10
3.953084547
 20
2.8470228854
 30
0.0
 10
3.9508650671
 20
2.8467816765
 30
0.0
 10
3.948984158
 20
2.8466233929
 30
0.0
 10
3.9474436112
 20
2.846526872
 30
0.0
 10
3.946372327
 20
2.846472401
 30
0.0
 10
3.9456874582
 20
2.8464432536
 30
0.0
 10
3.9452998883
 20
2.8464251111
 30
0.0
 10
3.9450037215
 20
2.8464214762
 30
0.0
 10
3.9447793164
 20
2.8463990993
 30
0.0
 10
3.944666933
 20
2.8464240016
 30
0.0
 10
3.9445917351
 20
2.8463941508
 30
0.0
 10
3.9445844619
 20
2.8464067415
 30
0.0
  0
SPLINE
  5
3EB
100
AcDbEntity
  8
ALL_FEATURES
100
AcDbSpline
 62
9
  6
CONTINUOUS
 70
0
 71
3
 72
9
 73
5
 74
0
 42
0.0000001
 43
0.0000001
 44
0.0000000001
 40
0.0
 40
0.0
 40
0.0
 40
0.0
 40
0.5284755228
 40
1.0
 40
1.0
 40
1.0
 40
1.0
 10
4.0103706573
 20
2.8728672243
 30
0.0
 10
4.0065775017
 20
2.8700603722
 30
0.0
 10
3.9989641419
 20
2.8653582225
 30
0.0
 10
3.9912486892
 20
2.8608743759
 30
0.0
 10
3.9876282517
 20
2.8587253322
 30
0.0
  0
SPLINE
  5
3EC
100
AcDbEntity
  8
ALL_FEATURES
100
AcDbSpline
 62
9
  6
CONTINUOUS
 70
0
 71
3
 72
11
 73
7
 74
0
 42
0.0000001
 43
0.0000001
 44
0.0000000001
 40
0.0
 40
0.0
 40
0.0
 40
0.0
 40
0.13924401
 40
0.2709469935
 40
0.5178629351
 40
1.0
 40
1.0
 40
1.0
 40
1.0
 10
4.0325026745
 20
2.87286866
 30
0.0
 10
4.0315920985
 20
2.8734581948
 30
0.0
 10
4.0297185003
 20
2.8744501878
 30
0.0
 10
4.0259479955
 20
2.8759039116
 30
0.0
 10
4.0192618608
 20
2.8770790659
 30
0.0
 10
4.0133887073
 20
2.8751030669
 30
0.0
 10
4.0103706573
 20
2.8728672243
 30
0.0
  0
SPLINE
  5
3ED
100
AcDbEntity
  8
ALL_FEATURES
100
AcDbSpline
 62
9
  6
CONTINUOUS
 70
0
 71
3
 72
10
 73
6
 74
0
 42
0.0000001
 43
0.0000001
 44
0.0000000001
 40
0.0
 40
0.0
 40
0.0
 40
0.0
 40
0.5083720693
 40
0.7550477101
 40
1.0
 40
1.0
 40
1.0
 40
1.0
 10
4.0632075899
 20
2.8587253636
 30
0.0
 10
4.0578272339
 20
2.8607188706
 30
0.0
 10
4.0498887484
 20
2.8638410893
 30
0.0
 10
4.0396716411
 20
2.8686444453
 30
0.0
 10
4.0348238106
 20
2.8713667332
 30
0.0
 10
4.0325026745
 20
2.87286866
 30
0.0
  0
SPLINE
  5
3EE
100
AcDbEntity
  8
ALL_FEATURES
100
AcDbSpline
 62
9
  6
CONTINUOUS
 70
0
 71
3
 72
19
 73
15
 74
0
 42
0.0000001
 43
0.0000001
 44
0.0000000001
 40
0.0
 40
0.0
 40
0.0
 40
0.0
 40
0.0730192625
 40
0.1453924987
 40
0.2874709627
 40
0.4248975354
 40
0.4914501091
 40
0.5563473215
 40
0.6805558989
 40
0.7963361698
 40
0.8507473697
 40
0.9027388593
 40
0.9523732957
 40
1.0
 40
1.0
 40
1.0
 40
1.0
 10
4.439871139
 20
2.8587253322
 30
0.0
 10
4.4308883661
 20
2.8566753241
 30
0.0
 10
4.4128112805
 20
2.853415898
 30
0.0
 10
4.3767623764
 20
2.849260877
 30
0.0
 10
4.332382107
 20
2.8470493337
 30
0.0
 10
4.288719822
 20
2.84652829
 30
0.0
 10
4.2547923366
 20
2.8464188746
 30
0.0
 10
4.2225326284
 20
2.8464005666
 30
0.0
 10
4.184063182
 20
2.8464301164
 30
0.0
 10
4.1469102055
 20
2.8468814221
 30
0.0
 10
4.1189067015
 20
2.8483211237
 30
0.0
 10
4.0992971387
 20
2.8502072323
 30
0.0
 10
4.0807036221
 20
2.8533132686
 30
0.0
 10
4.0688427969
 20
2.8566372544
 30
0.0
 10
4.0632075899
 20
2.8587253636
 30
0.0
  0
SPLINE
  5
3EF
100
AcDbEntity
  8
ALL_FEATURES
100
AcDbSpline
 62
9
  6
CONTINUOUS
 70
0
 71
3
 72
10
 73
6
 74
0
 42
0.0000001
 43
0.0000001
 44
0.0000000001
 40
0.0
 40
0.0
 40
0.0
 40
0.0
 40
0.2506409306
 40
0.5009555435
 40
1.0
 40
1.0
 40
1.0
 40
1.0
 10
4.4933175524
 20
2.8728675461
 30
0.0
 10
4.4889496678
 20
2.87136005
 30
0.0
 10
4.480110925
 20
2.8686631357
 30
0.0
 10
4.462292006
 20
2.8639316734
 30
0.0
 10
4.4488408665
 20
2.8607715847
 30
0.0
 10
4.439871139
 20
2.8587253322
 30
0.0
  0
SPLINE
  5
3F0
100
AcDbEntity
  8
ALL_FEATURES
100
AcDbSpline
 62
9
  6
CONTINUOUS
 70
0
 71
3
 72
11
 73
7
 74
0
 42
0.0000001
 43
0.0000001
 44
0.0000000001
 40
0.0
 40
0.0
 40
0.0
 40
0.0
 40
0.4821179046
 40
0.7290359665
 40
0.8607467307
 40
1.0
 40
1.0
 40
1.0
 40
1.0
 10
5.0205284232
 20
2.8728688507
 30
0.0
 10
5.0175103483
 20
2.8751046132
 30
0.0
 10
5.0116363367
 20
2.8770779314
 30
0.0
 10
5.0049501327
 20
2.8759033453
 30
0.0
 10
5.0011796541
 20
2.8744485922
 30
0.0
 10
4.999306102
 20
2.8734561455
 30
0.0
 10
4.998395475
 20
2.8728664923
 30
0.0
  0
SPLINE
  5
3F1
100
AcDbEntity
  8
ALL_FEATURES
100
AcDbSpline
 62
9
  6
CONTINUOUS
 70
0
 71
3
 72
9
 73
5
 74
0
 42
0.0000001
 43
0.0000001
 44
0.0000000001
 40
0.0
 40
0.0
 40
0.0
 40
0.0
 40
0.471507077
 40
1.0
 40
1.0
 40
1.0
 40
1.0
 10
5.0432729592
 20
2.8587252246
 30
0.0
 10
5.0396521483
 20
2.8608741822
 30
0.0
 10
5.0319357332
 20
2.8653581705
 30
0.0
 10
5.0243217009
 20
2.8700610876
 30
0.0
 10
5.0205284232
 20
2.8728688507
 30
0.0
  0
SPLINE
  5
3F2
100
AcDbEntity
  8
ALL_FEATURES
100
AcDbSpline
 62
9
  6
CONTINUOUS
 70
0
 71
3
 72
9
 73
5
 74
0
 42
0.0000001
 43
0.0000001
 44
0.0000000001
 40
0.0
 40
0.0
 40
0.0
 40
0.0
 40
0.4973741837
 40
1.0
 40
1.0
 40
1.0
 40
1.0
 10
5.0098470299
 20
4.82306809
 30
0.0
 10
5.0098455996
 20
4.8269859767
 30
0.0
 10
5.0111790797
 20
4.8349188574
 30
0.0
 10
5.0150330746
 20
4.8419701299
 30
0.0
 10
5.0174562638
 20
4.8451012403
 30
0.0
  0
SPLINE
  5
3F3
100
AcDbEntity
  8
ALL_FEATURES
100
AcDbSpline
 62
9
  6
CONTINUOUS
 70
0
 71
3
 72
9
 73
5
 74
0
 42
0.0000001
 43
0.0000001
 44
0.0000000001
 40
0.0
 40
0.0
 40
0.0
 40
0.0
 40
0.5005902919
 40
1.0
 40
1.0
 40
1.0
 40
1.0
 10
5.0174562638
 20
4.8451012403
 30
0.0
 10
5.0193053207
 20
4.8448991507
 30
0.0
 10
5.0231094868
 20
4.8454134195
 30
0.0
 10
5.0264746914
 20
4.8470789159
 30
0.0
 10
5.0280396009
 20
4.8480762172
 30
0.0
  0
SPLINE
  5
3F4
100
AcDbEntity
  8
ALL_FEATURES
100
AcDbSpline
 62
9
  6
CONTINUOUS
 70
0
 71
3
 72
9
 73
5
 74
0
 42
0.0000001
 43
0.0000001
 44
0.0000000001
 40
0.0
 40
0.0
 40
0.0
 40
0.0
 40
0.5314253848
 40
1.0
 40
1.0
 40
1.0
 40
1.0
 10
4.9901496879
 20
4.8230683454
 30
0.0
 10
4.9890333686
 20
4.8268555652
 30
0.0
 10
4.9874466573
 20
4.8341444916
 30
0.0
 10
4.9871431918
 20
4.8416337496
 30
0.0
 10
4.9874633518
 20
4.8451003524
 30
0.0
  0
SPLINE
  5
3F5
100
AcDbEntity
  8
ALL_FEATURES
100
AcDbSpline
 62
9
  6
CONTINUOUS
 70
0
 71
3
 72
14
 73
10
 74
0
 42
0.0000001
 43
0.0000001
 44
0.0000000001
 40
0.0
 40
0.0
 40
0.0
 40
0.0
 40
0.1906802199
 40
0.3603895143
 40
0.6438496023
 40
0.7594428912
 40
0.8582254244
 40
0.9391632346
 40
1.0
 40
1.0
 40
1.0
 40
1.0
 10
4.9874633518
 20
4.8451003524
 30
0.0
 10
4.9893885989
 20
4.845552436
 30
0.0
 10
4.9930397535
 20
4.8463610824
 30
0.0
 10
4.9995721865
 20
4.8477079433
 30
0.0
 10
5.0054527065
 20
4.8485764774
 30
0.0
 10
5.0106219767
 20
4.8482594097
 30
0.0
 10
5.0136328561
 20
4.8475699183
 30
0.0
 10
5.0159119453
 20
4.8465934381
 30
0.0
 10
5.0171517674
 20
4.8456551587
 30
0.0
 10
5.0174495048
 20
4.8450988645
 30
0.0
  0
SPLINE
  5
3F6
100
AcDbEntity
  8
ALL_FEATURES
100
AcDbSpline
 62
9
  6
CONTINUOUS
 70
0
 71
3
 72
10
 73
6
 74
0
 42
0.0000001
 43
0.0000001
 44
0.0000000001
 40
0.0
 40
0.0
 40
0.0
 40
0.0
 40
0.5466710162
 40
0.7896358192
 40
1.0
 40
1.0
 40
1.0
 40
1.0
 10
4.9379870116
 20
4.8148803389
 30
0.0
 10
4.9379870001
 20
4.8212417494
 30
0.0
 10
4.9390518992
 20
4.8305198787
 30
0.0
 10
4.9429112103
 20
4.8415339541
 30
0.0
 10
4.9455779745
 20
4.8461498239
 30
0.0
 10
4.9470884809
 20
4.848076151
 30
0.0
  0
SPLINE
  5
3F7
100
AcDbEntity
  8
ALL_FEATURES
100
AcDbSpline
 62
9
  6
CONTINUOUS
 70
0
 71
3
 72
10
 73
6
 74
0
 42
0.0000001
 43
0.0000001
 44
0.0000000001
 40
0.0
 40
0.0
 40
0.0
 40
0.0
 40
0.5047226327
 40
0.7534976875
 40
1.0
 40
1.0
 40
1.0
 40
1.0
 10
4.9470891845
 20
4.84807624
 30
0.0
 10
4.9538335054
 20
4.8470698222
 30
0.0
 10
4.9639496452
 20
4.8458309779
 30
0.0
 10
4.9774404535
 20
4.8450502269
 30
0.0
 10
4.9841373673
 20
4.8449944759
 30
0.0
 10
4.9874659389
 20
4.8451030506
 30
0.0
  0
SPLINE
  5
3F8
100
AcDbEntity
  8
ALL_FEATURES
100
AcDbSpline
 62
9
  6
CONTINUOUS
 70
0
 71
3
 72
10
 73
6
 74
0
 42
0.0000001
 43
0.0000001
 44
0.0000000001
 40
0.0
 40
0.0
 40
0.0
 40
0.0
 40
0.5466706602
 40
0.7896355625
 40
1.0
 40
1.0
 40
1.0
 40
1.0
 10
4.5872986239
 20
4.8148803389
 30
0.0
 10
4.587298623
 20
4.8212417448
 30
0.0
 10
4.5883635415
 20
4.8305198685
 30
0.0
 10
4.5922228738
 20
4.8415339354
 30
0.0
 10
4.5948896467
 20
4.8461498042
 30
0.0
 10
4.5964001569
 20
4.848076132
 30
0.0
  0
SPLINE
  5
3F9
100
AcDbEntity
  8
ALL_FEATURES
100
AcDbSpline
 62
9
  6
CONTINUOUS
 70
0
 71
3
 72
11
 73
7
 74
0
 42
0.0000001
 43
0.0000001
 44
0.0000000001
 40
0.0
 40
0.0
 40
0.0
 40
0.0
 40
0.2498991002
 40
0.4998899882
 40
0.7499313514
 40
1.0
 40
1.0
 40
1.0
 40
1.0
 10
4.5375821394
 20
2.8728683961
 30
0.0
 10
4.5358104809
 20
2.873480474
 30
0.0
 10
4.5321902289
 20
2.8744838976
 30
0.0
 10
4.5266698908
 20
2.8755818851
 30
0.0
 10
4.5210790798
 20
2.8762662488
 30
0.0
 10
4.517326197
 20
2.876409393
 30
0.0
 10
4.5154505273
 20
2.8764161233
 30
0.0
  0
SPLINE
  5
3FA
100
AcDbEntity
  8
ALL_FEATURES
100
AcDbSpline
 62
9
  6
CONTINUOUS
 70
0
 71
3
 72
10
 73
6
 74
0
 42
0.0000001
 43
0.0000001
 44
0.0000000001
 40
0.0
 40
0.0
 40
0.0
 40
0.0
 40
0.4990397061
 40
0.7493524302
 40
1.0
 40
1.0
 40
1.0
 40
1.0
 10
4.5910302143
 20
2.8587252429
 30
0.0
 10
4.5820602001
 20
2.8607712625
 30
0.0
 10
4.5686086059
 20
2.8639309878
 30
0.0
 10
4.5507891756
 20
2.868662992
 30
0.0
 10
4.5419501568
 20
2.8713604245
 30
0.0
 10
4.5375821394
 20
2.8728683961
 30
0.0
  0
SPLINE
  5
3FB
100
AcDbEntity
  8
ALL_FEATURES
100
AcDbSpline
 62
9
  6
CONTINUOUS
 70
0
 71
3
 72
19
 73
15
 74
0
 42
0.0000001
 43
0.0000001
 44
0.0000000001
 40
0.0
 40
0.0
 40
0.0
 40
0.0
 40
0.047627192
 40
0.0972621869
 40
0.1492542634
 40
0.2036660063
 40
0.3194472039
 40
0.4436563212
 40
0.5085536489
 40
0.5751062308
 40
0.7125324687
 40
0.8546098954
 40
0.9269822329
 40
1.0
 40
1.0
 40
1.0
 40
1.0
 10
4.9676931117
 20
2.8587251997
 30
0.0
 10
4.9620580007
 20
2.8566366863
 30
0.0
 10
4.9501968294
 20
2.8533133121
 30
0.0
 10
4.9316031865
 20
2.8502073052
 30
0.0
 10
4.9119934283
 20
2.8483212394
 30
0.0
 10
4.8839897253
 20
2.8468814889
 30
0.0
 10
4.8468365602
 20
2.8464301873
 30
0.0
 10
4.8083669873
 20
2.8464006422
 30
0.0
 10
4.7761072549
 20
2.8464189273
 30
0.0
 10
4.7421798604
 20
2.84652831
 30
0.0
 10
4.6985178184
 20
2.8470492323
 30
0.0
 10
4.6541379485
 20
2.8492608418
 30
0.0
 10
4.6180894772
 20
2.8534156475
 30
0.0
 10
4.6000129178
 20
2.8566758561
 30
0.0
 10
4.5910302143
 20
2.8587252429
 30
0.0
  0
SPLINE
  5
3FC
100
AcDbEntity
  8
ALL_FEATURES
100
AcDbSpline
 62
9
  6
CONTINUOUS
 70
0
 71
3
 72
10
 73
6
 74
0
 42
0.0000001
 43
0.0000001
 44
0.0000000001
 40
0.0
 40
0.0
 40
0.0
 40
0.0
 40
0.2449498303
 40
0.4916314316
 40
1.0
 40
1.0
 40
1.0
 40
1.0
 10
4.998395475
 20
2.8728664923
 30
0.0
 10
4.9960742401
 20
2.8713652487
 30
0.0
 10
4.9912267561
 20
2.8686434563
 30
0.0
 10
4.9810110812
 20
2.8638395131
 30
0.0
 10
4.9730730419
 20
2.8607181863
 30
0.0
 10
4.9676931117
 20
2.8587251997
 30
0.0
  0
SPLINE
  5
3FD
100
AcDbEntity
  8
ALL_FEATURES
100
AcDbSpline
 62
9
  6
CONTINUOUS
 70
0
 71
3
 72
17
 73
13
 74
0
 42
0.0000001
 43
0.0000001
 44
0.0000000001
 40
0.0
 40
0.0
 40
0.0
 40
0.0
 40
0.0686313287
 40
0.1365670639
 40
0.2702800933
 40
0.4009829018
 40
0.5284589052
 40
0.6524451191
 40
0.7726144668
 40
0.8885690752
 40
0.944854149
 40
1.0
 40
1.0
 40
1.0
 40
1.0
 10
4.5964001569
 20
4.848076132
 30
0.0
 10
4.6043612825
 20
4.8491554416
 30
0.0
 10
4.6202687457
 20
4.8508228481
 30
0.0
 10
4.6518443777
 20
4.8528861091
 30
0.0
 10
4.69074526
 20
4.8539372462
 30
0.0
 10
4.736618512
 20
4.8542231389
 30
0.0
 10
4.7813547486
 20
4.8542392987
 30
0.0
 10
4.824858324
 20
4.8542253947
 30
0.0
 10
4.8670102761
 20
4.8539529989
 30
0.0
 10
4.901237819
 20
4.8529305027
 30
0.0
 10
4.9277797036
 20
4.8508533073
 30
0.0
 10
4.9407267204
 20
4.8491713916
 30
0.0
 10
4.9470884809
 20
4.848076151
 30
0.0
  0
SPLINE
  5
3FE
100
AcDbEntity
  8
ALL_FEATURES
100
AcDbSpline
 62
9
  6
CONTINUOUS
 70
0
 71
3
 72
11
 73
7
 74
0
 42
0.0000001
 43
0.0000001
 44
0.0000000001
 40
0.0
 40
0.0
 40
0.0
 40
0.0
 40
0.2498987935
 40
0.4998899119
 40
0.7499315215
 40
1.0
 40
1.0
 40
1.0
 40
1.0
 10
4.4933176026
 20
4.8671293298
 30
0.0
 10
4.4950893665
 20
4.8665171364
 30
0.0
 10
4.4987095725
 20
4.8655125766
 30
0.0
 10
4.5042302856
 20
4.864414112
 30
0.0
 10
4.5098215082
 20
4.8637297017
 30
0.0
 10
4.5135747168
 20
4.8635868098
 30
0.0
 10
4.5154505273
 20
4.8635807548
 30
0.0
  0
SPLINE
  5
3FF
100
AcDbEntity
  8
ALL_FEATURES
100
AcDbSpline
 62
9
  6
CONTINUOUS
 70
0
 71
3
 72
10
 73
6
 74
0
 42
0.0000001
 43
0.0000001
 44
0.0000000001
 40
0.0
 40
0.0
 40
0.0
 40
0.0
 40
0.4990396056
 40
0.7493524363
 40
1.0
 40
1.0
 40
1.0
 40
1.0
 10
4.439871223
 20
4.8812715481
 30
0.0
 10
4.4488408856
 20
4.8792254215
 30
0.0
 10
4.4622920441
 20
4.8760659366
 30
0.0
 10
4.4801108323
 20
4.871333965
 30
0.0
 10
4.4889495898
 20
4.8686368261
 30
0.0
 10
4.4933176026
 20
4.8671293298
 30
0.0
  0
SPLINE
  5
400
100
AcDbEntity
  8
ALL_FEATURES
100
AcDbSpline
 62
9
  6
CONTINUOUS
 70
0
 71
3
 72
19
 73
15
 74
0
 42
0.0000001
 43
0.0000001
 44
0.0000000001
 40
0.0
 40
0.0
 40
0.0
 40
0.0
 40
0.0476271814
 40
0.0972621466
 40
0.1492541965
 40
0.2036659178
 40
0.3194470887
 40
0.443656198
 40
0.5085535282
 40
0.5751061168
 40
0.7125323808
 40
0.8546098444
 40
0.9269822035
 40
1.0
 40
1.0
 40
1.0
 40
1.0
 10
4.0632076432
 20
4.881271553
 30
0.0
 10
4.0688427576
 20
4.8833600862
 30
0.0
 10
4.0807039248
 20
4.8866835452
 30
0.0
 10
4.0992975984
 20
4.8897895545
 30
0.0
 10
4.1189073812
 20
4.891675644
 30
0.0
 10
4.1469111287
 20
4.893115405
 30
0.0
 10
4.1840643576
 20
4.8935667112
 30
0.0
 10
4.2225340003
 20
4.8935962564
 30
0.0
 10
4.2547937946
 20
4.8935779717
 30
0.0
 10
4.2887212585
 20
4.8934685884
 30
0.0
 10
4.3323833934
 20
4.8929476667
 30
0.0
 10
4.3767633572
 20
4.8907360317
 30
0.0
 10
4.4128119098
 20
4.8865812177
 30
0.0
 10
4.4308885018
 20
4.8833209532
 30
0.0
 10
4.439871223
 20
4.8812715481
 30
0.0
  0
SPLINE
  5
401
100
AcDbEntity
  8
ALL_FEATURES
100
AcDbSpline
 62
9
  6
CONTINUOUS
 70
0
 71
3
 72
10
 73
6
 74
0
 42
0.0000001
 43
0.0000001
 44
0.0000000001
 40
0.0
 40
0.0
 40
0.0
 40
0.0
 40
0.2449540226
 40
0.4916314345
 40
1.0
 40
1.0
 40
1.0
 40
1.0
 10
4.0325027073
 20
4.8671282652
 30
0.0
 10
4.034823642
 20
4.8686305429
 30
0.0
 10
4.0396719091
 20
4.8713522053
 30
0.0
 10
4.0498885831
 20
4.8761563992
 30
0.0
 10
4.0578272953
 20
4.8792781253
 30
0.0
 10
4.0632076432
 20
4.881271553
 30
0.0
  0
SPLINE
  5
402
100
AcDbEntity
  8
ALL_FEATURES
100
AcDbSpline
 62
9
  6
CONTINUOUS
 70
0
 71
3
 72
11
 73
7
 74
0
 42
0.0000001
 43
0.0000001
 44
0.0000000001
 40
0.0
 40
0.0
 40
0.0
 40
0.0
 40
0.4821389673
 40
0.7290558637
 40
0.8607562233
 40
1.0
 40
1.0
 40
1.0
 40
1.0
 10
4.0103706789
 20
4.8671296527
 30
0.0
 10
4.0133890587
 20
4.8648941915
 30
0.0
 10
4.0192618749
 20
4.8629168593
 30
0.0
 10
4.0259479443
 20
4.8640933217
 30
0.0
 10
4.0297185654
 20
4.8655466462
 30
0.0
 10
4.0315921625
 20
4.8665386732
 30
0.0
 10
4.0325027073
 20
4.8671282652
 30
0.0
  0
SPLINE
  5
403
100
AcDbEntity
  8
ALL_FEATURES
100
AcDbSpline
 62
9
  6
CONTINUOUS
 70
0
 71
3
 72
9
 73
5
 74
0
 42
0.0000001
 43
0.0000001
 44
0.0000000001
 40
0.0
 40
0.0
 40
0.0
 40
0.0
 40
0.4715124389
 40
1.0
 40
1.0
 40
1.0
 40
1.0
 10
3.987628284
 20
4.8812715481
 30
0.0
 10
3.9912486682
 20
4.8791226222
 30
0.0
 10
3.9989646082
 20
4.8746395361
 30
0.0
 10
4.0065771536
 20
4.8699361888
 30
0.0
 10
4.0103706789
 20
4.8671296527
 30
0.0
  0
SPLINE
  5
404
100
AcDbEntity
  8
ALL_FEATURES
100
AcDbSpline
 62
9
  6
CONTINUOUS
 70
0
 71
3
 72
9
 73
5
 74
0
 42
0.0000001
 43
0.0000001
 44
0.0000000001
 40
0.0
 40
0.0
 40
0.0
 40
0.0
 40
0.5081392307
 40
1.0
 40
1.0
 40
1.0
 40
1.0
 10
4.5351415608
 20
4.8230680075
 30
0.0
 10
4.53630914
 20
4.8270312977
 30
0.0
 10
4.5392045546
 20
4.8346639538
 30
0.0
 10
4.5431886127
 20
4.8417969406
 30
0.0
 10
4.5454414293
 20
4.8451014072
 30
0.0
  0
SPLINE
  5
405
100
AcDbEntity
  8
ALL_FEATURES
100
AcDbSpline
 62
9
  6
CONTINUOUS
 70
0
 71
3
 72
10
 73
6
 74
0
 42
0.0000001
 43
0.0000001
 44
0.0000000001
 40
0.0
 40
0.0
 40
0.0
 40
0.0
 40
0.2511104825
 40
0.501486199
 40
1.0
 40
1.0
 40
1.0
 40
1.0
 10
4.5454414293
 20
4.8451014072
 30
0.0
 10
4.5497159442
 20
4.8449953308
 30
0.0
 10
4.5582593343
 20
4.8450475499
 30
0.0
 10
4.5752718885
 20
4.8458211966
 30
0.0
 10
4.5879737272
 20
4.8470569771
 30
0.0
 10
4.5964008523
 20
4.848076207
 30
0.0
  0
SPLINE
  5
406
100
AcDbEntity
  8
ALL_FEATURES
100
AcDbSpline
 62
9
  6
CONTINUOUS
 70
0
 71
3
 72
10
 73
6
 74
0
 42
0.0000001
 43
0.0000001
 44
0.0000000001
 40
0.0
 40
0.0
 40
0.0
 40
0.0
 40
0.509046792
 40
0.7587203848
 40
1.0
 40
1.0
 40
1.0
 40
1.0
 10
4.5154500527
 20
4.8483980375
 30
0.0
 10
4.5205754378
 20
4.8484115753
 30
0.0
 10
4.5282199214
 20
4.8478611802
 30
0.0
 10
4.5381870859
 20
4.8464464271
 30
0.0
 10
4.5430598568
 20
4.8455983299
 30
0.0
 10
4.5454373831
 20
4.845099197
 30
0.0
  0
SPLINE
  5
407
100
AcDbEntity
  8
ALL_FEATURES
100
AcDbSpline
 62
9
  6
CONTINUOUS
 70
0
 71
3
 72
9
 73
5
 74
0
 42
0.0000001
 43
0.0000001
 44
0.0000000001
 40
0.0
 40
0.0
 40
0.0
 40
0.0
 40
0.5081537071
 40
1.0
 40
1.0
 40
1.0
 40
1.0
 10
4.4957656947
 20
4.8230679532
 30
0.0
 10
4.4945974812
 20
4.8270310466
 30
0.0
 10
4.4917012625
 20
4.8346630985
 30
0.0
 10
4.4877167275
 20
4.8417955225
 30
0.0
 10
4.4854637776
 20
4.8450996066
 30
0.0
  0
SPLINE
  5
408
100
AcDbEntity
  8
ALL_FEATURES
100
AcDbSpline
 62
9
  6
CONTINUOUS
 70
0
 71
3
 72
10
 73
6
 74
0
 42
0.0000001
 43
0.0000001
 44
0.0000000001
 40
0.0
 40
0.0
 40
0.0
 40
0.0
 40
0.2412836472
 40
0.4909613105
 40
1.0
 40
1.0
 40
1.0
 40
1.0
 10
4.4854637776
 20
4.8450996066
 30
0.0
 10
4.4878419794
 20
4.8455952045
 30
0.0
 10
4.4927136427
 20
4.8464480553
 30
0.0
 10
4.5026813571
 20
4.8478567875
 30
0.0
 10
4.5103249653
 20
4.8484111765
 30
0.0
 10
4.5154500526
 20
4.8483980375
 30
0.0
  0
SPLINE
  5
409
100
AcDbEntity
  8
ALL_FEATURES
100
AcDbSpline
 62
9
  6
CONTINUOUS
 70
0
 71
3
 72
10
 73
6
 74
0
 42
0.0000001
 43
0.0000001
 44
0.0000000001
 40
0.0
 40
0.0
 40
0.0
 40
0.0
 40
0.5466705119
 40
0.7896353701
 40
1.0
 40
1.0
 40
1.0
 40
1.0
 10
4.4436024307
 20
4.8148803389
 30
0.0
 10
4.4436024604
 20
4.8212417345
 30
0.0
 10
4.4425375749
 20
4.8305198496
 30
0.0
 10
4.4386782655
 20
4.8415339085
 30
0.0
 10
4.4360114967
 20
4.846149774
 30
0.0
 10
4.4345009872
 20
4.848076101
 30
0.0
  0
SPLINE
  5
40A
100
AcDbEntity
  8
ALL_FEATURES
100
AcDbSpline
 62
9
  6
CONTINUOUS
 70
0
 71
3
 72
10
 73
6
 74
0
 42
0.0000001
 43
0.0000001
 44
0.0000000001
 40
0.0
 40
0.0
 40
0.0
 40
0.0
 40
0.4985168587
 40
0.7488761785
 40
1.0
 40
1.0
 40
1.0
 40
1.0
 10
4.4345002909
 20
4.8480761396
 30
0.0
 10
4.442927538
 20
4.8470572257
 30
0.0
 10
4.4556290052
 20
4.8458179268
 30
0.0
 10
4.4726418484
 20
4.8450509586
 30
0.0
 10
4.4811852122
 20
4.844994808
 30
0.0
 10
4.4854599431
 20
4.8451019616
 30
0.0
  0
SPLINE
  5
40B
100
AcDbEntity
  8
ALL_FEATURES
100
AcDbSpline
 62
9
  6
CONTINUOUS
 70
0
 71
3
 72
23
 73
19
 74
0
 42
0.0000001
 43
0.0000001
 44
0.0000000001
 40
0.0
 40
0.0
 40
0.0
 40
0.0
 40
0.2448009511
 40
0.4498320768
 40
0.6197304301
 40
0.6923829747
 40
0.7571362732
 40
0.81413202
 40
0.8634538802
 40
0.9051574628
 40
0.9392746039
 40
0.9658161077
 40
0.976246469
 40
0.9847835027
 40
0.9914273346
 40
0.9961780133
 40
0.9990355276
 40
1.0
 40
1.0
 40
1.0
 40
1.0
 10
5.0432729648
 20
4.8812716759
 30
0.0
 10
5.0464450608
 20
4.8831605912
 30
0.0
 10
5.0525020731
 20
4.8862693462
 30
0.0
 10
5.0612927753
 20
4.8894895123
 30
0.0
 10
5.0678215655
 20
4.8912368729
 30
0.0
 10
5.0723663136
 20
4.8921497074
 30
0.0
 10
5.0752595891
 20
4.892626571
 30
0.0
 10
5.0778163587
 20
4.892974176
 30
0.0
 10
5.0800358771
 20
4.8932151937
 30
0.0
 10
5.0819168149
 20
4.8933732958
 30
0.0
 10
5.0834573794
 20
4.8934697696
 30
0.0
 10
5.0845286468
 20
4.8935246468
 30
0.0
 10
5.0852135351
 20
4.8935538299
 30
0.0
 10
5.0856010922
 20
4.89357191
 30
0.0
 10
5.0858973359
 20
4.8935754999
 30
0.0
 10
5.0861216169
 20
4.8935976848
 30
0.0
 10
5.0862342626
 20
4.8935728685
 30
0.0
 10
5.086309217
 20
4.8936025097
 30
0.0
 10
5.0863165989
 20
4.8935899766
 30
0.0
  0
SPLINE
  5
40C
100
AcDbEntity
  8
ALL_FEATURES
100
AcDbSpline
 62
9
  6
CONTINUOUS
 70
0
 71
3
 72
9
 73
5
 74
0
 42
0.0000001
 43
0.0000001
 44
0.0000000001
 40
0.0
 40
0.0
 40
0.0
 40
0.0
 40
0.5284818075
 40
1.0
 40
1.0
 40
1.0
 40
1.0
 10
5.020528459
 20
4.8671280793
 30
0.0
 10
5.024321357
 20
4.869936172
 30
0.0
 10
5.031936145
 20
4.8746379593
 30
0.0
 10
5.0396521251
 20
4.8791225898
 30
0.0
 10
5.0432729648
 20
4.8812716759
 30
0.0
  0
SPLINE
  5
40D
100
AcDbEntity
  8
ALL_FEATURES
100
AcDbSpline
 62
9
  6
CONTINUOUS
 70
0
 71
3
 72
11
 73
7
 74
0
 42
0.0000001
 43
0.0000001
 44
0.0000000001
 40
0.0
 40
0.0
 40
0.0
 40
0.0
 40
0.1392524595
 40
0.2709634407
 40
0.5178817495
 40
1.0
 40
1.0
 40
1.0
 40
1.0
 10
4.9983954948
 20
4.8671303863
 30
0.0
 10
4.9993061931
 20
4.8665408384
 30
0.0
 10
5.0011796591
 20
4.8655482427
 30
0.0
 10
5.0049501481
 20
4.8640933953
 30
0.0
 10
5.0116363624
 20
4.8629185466
 30
0.0
 10
5.0175105236
 20
4.8648920726
 30
0.0
 10
5.020528459
 20
4.8671280793
 30
0.0
  0
SPLINE
  5
40E
100
AcDbEntity
  8
ALL_FEATURES
100
AcDbSpline
 62
9
  6
CONTINUOUS
 70
0
 71
3
 72
10
 73
6
 74
0
 42
0.0000001
 43
0.0000001
 44
0.0000000001
 40
0.0
 40
0.0
 40
0.0
 40
0.0
 40
0.5083729027
 40
0.7550505726
 40
1.0
 40
1.0
 40
1.0
 40
1.0
 10
4.9676930537
 20
4.8812717216
 30
0.0
 10
4.9730730046
 20
4.8792786122
 30
0.0
 10
4.9810107013
 20
4.8761565089
 30
0.0
 10
4.991227067
 20
4.871353874
 30
0.0
 10
4.9960740822
 20
4.8686313582
 30
0.0
 10
4.9983954948
 20
4.8671303863
 30
0.0
  0
SPLINE
  5
40F
100
AcDbEntity
  8
ALL_FEATURES
100
AcDbSpline
 62
9
  6
CONTINUOUS
 70
0
 71
3
 72
19
 73
15
 74
0
 42
0.0000001
 43
0.0000001
 44
0.0000000001
 40
0.0
 40
0.0
 40
0.0
 40
0.0
 40
0.0730192203
 40
0.1453924269
 40
0.2874708364
 40
0.4248973733
 40
0.4914499373
 40
0.5563471458
 40
0.6805557355
 40
0.7963360465
 40
0.8507472769
 40
0.9027388032
 40
0.9523732791
 40
1.0
 40
1.0
 40
1.0
 40
1.0
 10
4.5910302653
 20
4.8812716659
 30
0.0
 10
4.6000130168
 20
4.8833216552
 30
0.0
 10
4.6180900625
 20
4.8865810273
 30
0.0
 10
4.6541388723
 20
4.8907360402
 30
0.0
 10
4.6985190331
 20
4.8929475639
 30
0.0
 10
4.7421812117
 20
4.8934686086
 30
0.0
 10
4.7761086183
 20
4.8935780243
 30
0.0
 10
4.8083682574
 20
4.8935963331
 30
0.0
 10
4.8468376275
 20
4.8935667834
 30
0.0
 10
4.8839905353
 20
4.893115484
 30
0.0
 10
4.9119939929
 20
4.8916757985
 30
0.0
 10
4.9316035307
 20
4.889789718
 30
0.0
 10
4.950197018
 20
4.886683698
 30
0.0
 10
4.9620578483
 20
4.8833598042
 30
0.0
 10
4.9676930537
 20
4.8812717216
 30
0.0
  0
SPLINE
  5
410
100
AcDbEntity
  8
ALL_FEATURES
100
AcDbSpline
 62
9
  6
CONTINUOUS
 70
0
 71
3
 72
10
 73
6
 74
0
 42
0.0000001
 43
0.0000001
 44
0.0000000001
 40
0.0
 40
0.0
 40
0.0
 40
0.0
 40
0.2506410147
 40
0.5009555721
 40
1.0
 40
1.0
 40
1.0
 40
1.0
 10
4.5375822118
 20
4.8671285322
 30
0.0
 10
4.5419500866
 20
4.8686365355
 30
0.0
 10
4.5507890936
 20
4.8713337136
 30
0.0
 10
4.5686086024
 20
4.876065334
 30
0.0
 10
4.582060203
 20
4.8792254974
 30
0.0
 10
4.5910302653
 20
4.8812716659
 30
0.0
  0
SPLINE
  5
411
100
AcDbEntity
  8
ALL_FEATURES
100
AcDbSpline
 62
9
  6
CONTINUOUS
 70
0
 71
3
 72
11
 73
7
 74
0
 42
0.0000001
 43
0.0000001
 44
0.0000000001
 40
0.0
 40
0.0
 40
0.0
 40
0.0
 40
0.2500696243
 40
0.5001116177
 40
0.7501018866
 40
1.0
 40
1.0
 40
1.0
 40
1.0
 10
4.5154505273
 20
4.8635807775
 30
0.0
 10
4.5173262103
 20
4.8635873629
 30
0.0
 10
4.5210790997
 20
4.8637309697
 30
0.0
 10
4.5266699714
 20
4.8644149198
 30
0.0
 10
4.5321902859
 20
4.8655131144
 30
0.0
 10
4.535810568
 20
4.8665164181
 30
0.0
 10
4.5375822118
 20
4.8671285322
 30
0.0
  0
SPLINE
  5
412
100
AcDbEntity
  8
ALL_FEATURES
100
AcDbSpline
 62
9
  6
CONTINUOUS
 70
0
 71
3
 72
10
 73
6
 74
0
 42
0.0000001
 43
0.0000001
 44
0.0000000001
 40
0.0
 40
0.0
 40
0.0
 40
0.0
 40
0.5466705824
 40
0.7896354978
 40
1.0
 40
1.0
 40
1.0
 40
1.0
 10
4.092914043
 20
4.8148803389
 30
0.0
 10
4.0929140423
 20
4.8212417391
 30
0.0
 10
4.091849126
 20
4.8305198544
 30
0.0
 10
4.0879898017
 20
4.8415339148
 30
0.0
 10
4.0853230337
 20
4.8461497826
 30
0.0
 10
4.0838125262
 20
4.8480761111
 30
0.0
  0
SPLINE
  5
413
100
AcDbEntity
  8
ALL_FEATURES
100
AcDbSpline
 62
9
  6
CONTINUOUS
 70
0
 71
3
 72
17
 73
13
 74
0
 42
0.0000001
 43
0.0000001
 44
0.0000000001
 40
0.0
 40
0.0
 40
0.0
 40
0.0
 40
0.0551460919
 40
0.1114313225
 40
0.2273861647
 40
0.3475557062
 40
0.4715420558
 40
0.5990181095
 40
0.7297208311
 40
0.8634335974
 40
0.9313690387
 40
1.0
 40
1.0
 40
1.0
 40
1.0
 10
4.0838125262
 20
4.8480761111
 30
0.0
 10
4.0901743041
 20
4.8491714318
 30
0.0
 10
4.103121386
 20
4.8508532917
 30
0.0
 10
4.1296633555
 20
4.8529304293
 30
0.0
 10
4.1638909767
 20
4.8539530587
 30
0.0
 10
4.2060430131
 20
4.8542254413
 30
0.0
 10
4.2495466503
 20
4.8542392902
 30
0.0
 10
4.2942829172
 20
4.8542230831
 30
0.0
 10
4.340156151
 20
4.8539371762
 30
0.0
 10
4.37905698
 20
4.852886193
 30
0.0
 10
4.4106325104
 20
4.8508228082
 30
0.0
 10
4.4265398967
 20
4.8491553728
 30
0.0
 10
4.4345009872
 20
4.848076101
 30
0.0
  0
SPLINE
  5
414
100
AcDbEntity
  8
ALL_FEATURES
100
AcDbSpline
 62
9
  6
CONTINUOUS
 70
0
 71
3
 72
9
 73
5
 74
0
 42
0.0000001
 43
0.0000001
 44
0.0000000001
 40
0.0
 40
0.0
 40
0.0
 40
0.0
 40
0.5314144118
 40
1.0
 40
1.0
 40
1.0
 40
1.0
 10
4.0407454244
 20
4.8230679565
 30
0.0
 10
4.0418624041
 20
4.8268551448
 30
0.0
 10
4.0434503023
 20
4.8341442816
 30
0.0
 10
4.0437548733
 20
4.8416339437
 30
0.0
 10
4.0434352168
 20
4.8451008859
 30
0.0
  0
SPLINE
  5
415
100
AcDbEntity
  8
ALL_FEATURES
100
AcDbSpline
 62
9
  6
CONTINUOUS
 70
0
 71
3
 72
10
 73
6
 74
0
 42
0.0000001
 43
0.0000001
 44
0.0000000001
 40
0.0
 40
0.0
 40
0.0
 40
0.0
 40
0.2464767946
 40
0.4952667574
 40
1.0
 40
1.0
 40
1.0
 40
1.0
 10
4.0434352168
 20
4.8451008859
 30
0.0
 10
4.0467635997
 20
4.8449978338
 30
0.0
 10
4.0534600427
 20
4.8450505627
 30
0.0
 10
4.066951021
 20
4.8458310121
 30
0.0
 10
4.0770673684
 20
4.8470698176
 30
0.0
 10
4.0838118075
 20
4.8480761473
 30
0.0
  0
SPLINE
  5
416
100
AcDbEntity
  8
ALL_FEATURES
100
AcDbSpline
 62
9
  6
CONTINUOUS
 70
0
 71
3
 72
9
 73
5
 74
0
 42
0.0000001
 43
0.0000001
 44
0.0000000001
 40
0.0
 40
0.0
 40
0.0
 40
0.0
 40
0.497373423
 40
1.0
 40
1.0
 40
1.0
 40
1.0
 10
4.021066707
 20
4.8230679533
 30
0.0
 10
4.0210665727
 20
4.8269859456
 30
0.0
 10
4.0197303622
 20
4.834918484
 30
0.0
 10
4.0158745996
 20
4.8419689585
 30
0.0
 10
4.0134506891
 20
4.8450996605
 30
0.0
  0
SPLINE
  5
417
100
AcDbEntity
  8
ALL_FEATURES
100
AcDbSpline
 62
9
  6
CONTINUOUS
 70
0
 71
3
 72
14
 73
10
 74
0
 42
0.0000001
 43
0.0000001
 44
0.0000000001
 40
0.0
 40
0.0
 40
0.0
 40
0.0
 40
0.0608298803
 40
0.1417557361
 40
0.2405317944
 40
0.3561266861
 40
0.6395879903
 40
0.809279767
 40
1.0
 40
1.0
 40
1.0
 40
1.0
 10
4.0134506891
 20
4.8450996605
 30
0.0
 10
4.0137507983
 20
4.8456545932
 30
0.0
 10
4.0149889931
 20
4.8465921145
 30
0.0
 10
4.0172680802
 20
4.847570029
 30
0.0
 10
4.0202788619
 20
4.8482580947
 30
0.0
 10
4.0254479849
 20
4.8485763206
 30
0.0
 10
4.0313283437
 20
4.8477073976
 30
0.0
 10
4.0378612222
 20
4.8463618717
 30
0.0
 10
4.0415125394
 20
4.8455527957
 30
0.0
 10
4.0434377406
 20
4.845098756
 30
0.0
  0
SPLINE
  5
418
100
AcDbEntity
  8
ALL_FEATURES
100
AcDbSpline
 62
9
  6
CONTINUOUS
 70
0
 71
3
 72
9
 73
5
 74
0
 42
0.0000001
 43
0.0000001
 44
0.0000000001
 40
0.0
 40
0.0
 40
0.0
 40
0.0
 40
0.4963830087
 40
1.0
 40
1.0
 40
1.0
 40
1.0
 10
4.9512406061
 20
3.0776756145
 30
0.0
 10
4.9369118065
 20
3.0776755601
 30
0.0
 10
4.9080488257
 20
3.0788076384
 30
0.0
 10
4.8792584889
 20
3.0808715516
 30
0.0
 10
4.8647567936
 20
3.0818929201
 30
0.0
  0
SPLINE
  5
419
100
AcDbEntity
  8
ALL_FEATURES
100
AcDbSpline
 62
9
  6
CONTINUOUS
 70
0
 71
3
 72
9
 73
5
 74
0
 42
0.0000001
 43
0.0000001
 44
0.0000000001
 40
0.0
 40
0.0
 40
0.0
 40
0.0
 40
0.4995085941
 40
1.0
 40
1.0
 40
1.0
 40
1.0
 10
4.0028615361
 20
4.8480761396
 30
0.0
 10
4.004426618
 20
4.8470785692
 30
0.0
 10
4.00779138
 20
4.8454143207
 30
0.0
 10
4.0115962254
 20
4.8448961809
 30
0.0
 10
4.0134444094
 20
4.8451021242
 30
0.0
  0
SPLINE
  5
41A
100
AcDbEntity
  8
ALL_FEATURES
100
AcDbSpline
 62
9
  6
CONTINUOUS
 70
0
 71
3
 72
15
 73
11
 74
0
 42
0.0000001
 43
0.0000001
 44
0.0000000001
 40
0.0
 40
0.0
 40
0.0
 40
0.0
 40
0.1257189815
 40
0.2520652214
 40
0.3785726284
 40
0.5047439428
 40
0.6301469871
 40
0.7545001262
 40
0.8777317152
 40
1.0
 40
1.0
 40
1.0
 40
1.0
 10
4.9184032049
 20
3.243520154
 30
0.0
 10
4.9143419978
 20
3.2362835751
 30
0.0
 10
4.9078051117
 20
3.2208081591
 30
0.0
 10
4.9033120758
 20
3.1960329453
 30
0.0
 10
4.9042930463
 20
3.1708317559
 30
0.0
 10
4.9107073317
 20
3.1465062087
 30
0.0
 10
4.9222300196
 20
3.1242988664
 30
0.0
 10
4.9382856327
 20
3.1053539619
 30
0.0
 10
4.9580413179
 20
3.0906620071
 30
0.0
 10
4.9730880922
 20
3.0841873674
 30
0.0
 10
4.9808255789
 20
3.0818929228
 30
0.0
  0
SPLINE
  5
41B
100
AcDbEntity
  8
ALL_FEATURES
100
AcDbSpline
 62
9
  6
CONTINUOUS
 70
0
 71
3
 72
18
 73
14
 74
0
 42
0.0000001
 43
0.0000001
 44
0.0000000001
 40
0.0
 40
0.0
 40
0.0
 40
0.0
 40
0.1714860193
 40
0.3328281456
 40
0.4764185535
 40
0.5372537195
 40
0.589098174
 40
0.6349410812
 40
0.6806850222
 40
0.7295235818
 40
0.7814447601
 40
0.8903081293
 40
1.0
 40
1.0
 40
1.0
 40
1.0
 10
4.9901500688
 20
4.8230683453
 30
0.0
 10
4.9915093588
 20
4.8241381855
 30
0.0
 10
4.9940839963
 20
4.8262970535
 30
0.0
 10
4.9976988903
 20
4.8294540519
 30
0.0
 10
5.0005984561
 20
4.8317655434
 30
0.0
 10
5.0029039393
 20
4.8329593704
 30
0.0
 10
5.0044953899
 20
4.8333231429
 30
0.0
 10
5.0059613268
 20
4.8330179735
 30
0.0
 10
5.0071190573
 20
4.832145673
 30
0.0
 10
5.0080047374
 20
4.8309482728
 30
0.0
 10
5.0089311671
 20
4.8290387372
 30
0.0
 10
5.0096377881
 20
4.8263812094
 30
0.0
 10
5.0098355523
 20
4.8241745645
 30
0.0
 10
5.0098351082
 20
4.823068086
 30
0.0
  0
SPLINE
  5
41C
100
AcDbEntity
  8
ALL_FEATURES
100
AcDbSpline
 62
9
  6
CONTINUOUS
 70
0
 71
3
 72
11
 73
7
 74
0
 42
0.0000001
 43
0.0000001
 44
0.0000000001
 40
0.0
 40
0.0
 40
0.0
 40
0.0
 40
0.2569535617
 40
0.5108591149
 40
0.7593049799
 40
1.0
 40
1.0
 40
1.0
 40
1.0
 10
4.5154505273
 20
4.8332152671
 30
0.0
 10
4.5173788781
 20
4.8332266365
 30
0.0
 10
4.5212227098
 20
4.8323694743
 30
0.0
 10
4.5262639764
 20
4.8296664784
 30
0.0
 10
4.5308242372
 20
4.8264461431
 30
0.0
 10
4.5337154331
 20
4.8241843293
 30
0.0
 10
4.5351355667
 20
4.8230680034
 30
0.0
  0
SPLINE
  5
41D
100
AcDbEntity
  8
ALL_FEATURES
100
AcDbSpline
 62
9
  6
CONTINUOUS
 70
0
 71
3
 72
11
 73
7
 74
0
 42
0.0000001
 43
0.0000001
 44
0.0000000001
 40
0.0
 40
0.0
 40
0.0
 40
0.0
 40
0.2406945849
 40
0.4891385339
 40
0.7430440967
 40
1.0
 40
1.0
 40
1.0
 40
1.0
 10
4.4957654879
 20
4.8230679532
 30
0.0
 10
4.4971853122
 20
4.824184629
 30
0.0
 10
4.5000767793
 20
4.8264460207
 30
0.0
 10
4.504637296
 20
4.8296657492
 30
0.0
 10
4.5096786317
 20
4.8323686907
 30
0.0
 10
4.5135221784
 20
4.833225624
 30
0.0
 10
4.5154505273
 20
4.8332152671
 30
0.0
  0
SPLINE
  5
41E
100
AcDbEntity
  8
ALL_FEATURES
100
AcDbSpline
 62
9
  6
CONTINUOUS
 70
0
 71
3
 72
11
 73
7
 74
0
 42
0.0000001
 43
0.0000001
 44
0.0000000001
 40
0.0
 40
0.0
 40
0.0
 40
0.0
 40
0.2569559173
 40
0.5108614827
 40
0.7593054253
 40
1.0
 40
1.0
 40
1.0
 40
1.0
 10
4.5154505273
 20
2.9067816311
 30
0.0
 10
4.5135221783
 20
2.9067712807
 30
0.0
 10
4.5096786317
 20
2.9076282052
 30
0.0
 10
4.5046372955
 20
2.9103311496
 30
0.0
 10
4.500076779
 20
2.9135508774
 30
0.0
 10
4.4971853121
 20
2.9158122694
 30
0.0
 10
4.4957654879
 20
2.9169289451
 30
0.0
  0
SPLINE
  5
41F
100
AcDbEntity
  8
ALL_FEATURES
100
AcDbSpline
 62
9
  6
CONTINUOUS
 70
0
 71
3
 72
18
 73
14
 74
0
 42
0.0000001
 43
0.0000001
 44
0.0000000001
 40
0.0
 40
0.0
 40
0.0
 40
0.0
 40
0.1714858525
 40
0.3328325218
 40
0.4764266249
 40
0.5372607151
 40
0.5891042974
 40
0.6349502046
 40
0.6806933839
 40
0.7295259609
 40
0.7814424708
 40
0.8902961488
 40
1.0
 40
1.0
 40
1.0
 40
1.0
 10
4.0407509858
 20
2.9169289451
 30
0.0
 10
4.0393912771
 20
2.9158596832
 30
0.0
 10
4.0368169362
 20
2.913700422
 30
0.0
 10
4.033202268
 20
2.9105431873
 30
0.0
 10
4.0303028733
 20
2.9082314195
 30
0.0
 10
4.0279972774
 20
2.9070377866
 30
0.0
 10
4.026405749
 20
2.9066744054
 30
0.0
 10
4.0249398998
 20
2.9069797626
 30
0.0
 10
4.0237821714
 20
2.9078518967
 30
0.0
 10
4.0228962938
 20
2.909048987
 30
0.0
 10
4.0219698908
 20
2.9109582846
 30
0.0
 10
4.0212631364
 20
2.9136157104
 30
0.0
 10
4.0210655032
 20
2.9158223629
 30
0.0
 10
4.0210659464
 20
2.9169289451
 30
0.0
  0
SPLINE
  5
420
100
AcDbEntity
  8
ALL_FEATURES
100
AcDbSpline
 62
9
  6
CONTINUOUS
 70
0
 71
3
 72
11
 73
7
 74
0
 42
0.0000001
 43
0.0000001
 44
0.0000000001
 40
0.0
 40
0.0
 40
0.0
 40
0.0
 40
0.2406950169
 40
0.4891408809
 40
0.7430464409
 40
1.0
 40
1.0
 40
1.0
 40
1.0
 10
4.5351355667
 20
2.9169288949
 30
0.0
 10
4.5337154328
 20
2.9158125695
 30
0.0
 10
4.5308242373
 20
2.9135507553
 30
0.0
 10
4.5262639763
 20
2.9103304191
 30
0.0
 10
4.5212227099
 20
2.9076274272
 30
0.0
 10
4.5173788781
 20
2.9067702544
 30
0.0
 10
4.5154505273
 20
2.9067816311
 30
0.0
  0
SPLINE
  5
421
100
AcDbEntity
  8
ALL_FEATURES
100
AcDbSpline
 62
9
  6
CONTINUOUS
 70
0
 71
3
 72
13
 73
9
 74
0
 42
0.0000001
 43
0.0000001
 44
0.0000000001
 40
0.0
 40
0.0
 40
0.0
 40
0.0
 40
0.1197565543
 40
0.2414392806
 40
0.4890862906
 40
0.7417891064
 40
0.87009044
 40
1.0
 40
1.0
 40
1.0
 40
1.0
 10
4.8647400216
 20
3.0818837842
 30
0.0
 10
4.8554490773
 20
3.0825433539
 30
0.0
 10
4.8366899954
 20
3.0834783517
 30
0.0
 10
4.7986643993
 20
3.0845430643
 30
0.0
 10
4.750282497
 20
3.0849853775
 30
0.0
 10
4.7013862752
 20
3.0845313226
 30
0.0
 10
4.6616626497
 20
3.0834573967
 30
0.0
 10
4.641597887
 20
3.0825338201
 30
0.0
 10
4.6315145317
 20
3.0818882701
 30
0.0
  0
SPLINE
  5
422
100
AcDbEntity
  8
ALL_FEATURES
100
AcDbSpline
 62
9
  6
CONTINUOUS
 70
0
 71
3
 72
14
 73
10
 74
0
 42
0.0000001
 43
0.0000001
 44
0.0000000001
 40
0.0
 40
0.0
 40
0.0
 40
0.0
 40
0.264463855
 40
0.4004043191
 40
0.5340829871
 40
0.6624655546
 40
0.7832924163
 40
0.8955649236
 40
1.0
 40
1.0
 40
1.0
 40
1.0
 10
4.8179031192
 20
3.243520154
 30
0.0
 10
4.8115989163
 20
3.2285540952
 30
0.0
 10
4.806341961
 20
3.2038810712
 30
0.0
 10
4.8073035794
 20
3.1710197401
 30
0.0
 10
4.8120196806
 20
3.1469087316
 30
0.0
 10
4.8205104652
 20
3.124848015
 30
0.0
 10
4.832393472
 20
3.1059094223
 30
0.0
 10
4.847123916
 20
3.0910659553
 30
0.0
 10
4.858792455
 20
3.0842492575
 30
0.0
 10
4.8647567936
 20
3.0818929201
 30
0.0
  0
SPLINE
  5
423
100
AcDbEntity
  8
ALL_FEATURES
100
AcDbSpline
 62
9
  6
CONTINUOUS
 70
0
 71
3
 72
9
 73
5
 74
0
 42
0.0000001
 43
0.0000001
 44
0.0000000001
 40
0.0
 40
0.0
 40
0.0
 40
0.0
 40
0.4978704236
 40
1.0
 40
1.0
 40
1.0
 40
1.0
 10
4.6315193441
 20
3.0818929224
 30
0.0
 10
4.6154634775
 20
3.0808574499
 30
0.0
 10
4.5832158078
 20
3.0787780536
 30
0.0
 10
4.5509018115
 20
3.0776755508
 30
0.0
 10
4.5346749507
 20
3.0776756145
 30
0.0
  0
SPLINE
  5
424
100
AcDbEntity
  8
ALL_FEATURES
100
AcDbSpline
 62
9
  6
CONTINUOUS
 70
0
 71
3
 72
9
 73
5
 74
0
 42
0.0000001
 43
0.0000001
 44
0.0000000001
 40
0.0
 40
0.0
 40
0.0
 40
0.0
 40
0.4985029569
 40
1.0
 40
1.0
 40
1.0
 40
1.0
 10
4.5872986239
 20
2.9251165594
 30
0.0
 10
4.5784886456
 20
2.9251207734
 30
0.0
 10
4.5608074124
 20
2.9241418965
 30
0.0
 10
4.5433838798
 20
2.9201717653
 30
0.0
 10
4.5351355667
 20
2.9169288949
 30
0.0
  0
SPLINE
  5
425
100
AcDbEntity
  8
ALL_FEATURES
100
AcDbSpline
 62
9
  6
CONTINUOUS
 70
0
 71
3
 72
9
 73
5
 74
0
 42
0.0000001
 43
0.0000001
 44
0.0000000001
 40
0.0
 40
0.0
 40
0.0
 40
0.0
 40
0.5021296009
 40
1.0
 40
1.0
 40
1.0
 40
1.0
 10
4.4962261039
 20
3.0776756145
 30
0.0
 10
4.4799992423
 20
3.0776755606
 30
0.0
 10
4.4476852434
 20
3.0787780035
 30
0.0
 10
4.4154375803
 20
3.0808575111
 30
0.0
 10
4.3993817105
 20
3.0818929224
 30
0.0
  0
SPLINE
  5
426
100
AcDbEntity
  8
ALL_FEATURES
100
AcDbSpline
 62
9
  6
CONTINUOUS
 70
0
 71
3
 72
17
 73
13
 74
0
 42
0.0000001
 43
0.0000001
 44
0.0000000001
 40
0.0
 40
0.0
 40
0.0
 40
0.0
 40
0.1399242981
 40
0.2894740298
 40
0.4414056769
 40
0.5883297089
 40
0.7231653482
 40
0.8396116119
 40
0.889331848
 40
0.932766328
 40
0.9696551939
 40
1.0
 40
1.0
 40
1.0
 40
1.0
 10
4.6159506129
 20
3.243520154
 30
0.0
 10
4.6148853452
 20
3.2359094551
 30
0.0
 10
4.6132626193
 20
3.2200808251
 30
0.0
 10
4.6121899641
 20
3.1958506094
 30
0.0
 10
4.6124246867
 20
3.1712126311
 30
0.0
 10
4.6139512583
 20
3.1474286603
 30
0.0
 10
4.6166868473
 20
3.1257168853
 30
0.0
 10
4.6199801525
 20
3.1094882853
 30
0.0
 10
4.6232311041
 20
3.0984382332
 30
0.0
 10
4.6257321673
 20
3.0917386676
 30
0.0
 10
4.6283931375
 20
3.0862639993
 30
0.0
 10
4.630446603
 20
3.0831683637
 30
0.0
 10
4.6315193441
 20
3.0818929224
 30
0.0
  0
SPLINE
  5
427
100
AcDbEntity
  8
ALL_FEATURES
100
AcDbSpline
 62
9
  6
CONTINUOUS
 70
0
 71
3
 72
13
 73
9
 74
0
 42
0.0000001
 43
0.0000001
 44
0.0000000001
 40
0.0
 40
0.0
 40
0.0
 40
0.0
 40
0.1299096458
 40
0.2582098142
 40
0.5109124952
 40
0.7585598367
 40
0.8802430834
 40
1.0
 40
1.0
 40
1.0
 40
1.0
 10
4.3993865311
 20
3.0818882661
 30
0.0
 10
4.3893031528
 20
3.0825335553
 30
0.0
 10
4.3692384965
 20
3.0834574739
 30
0.0
 10
4.3295149537
 20
3.0845311013
 30
0.0
 10
4.2806188121
 20
3.0849855412
 30
0.0
 10
4.2322368649
 20
3.0845424053
 30
0.0
 10
4.1942111615
 20
3.0834784798
 30
0.0
 10
4.1754519896
 20
3.0825436817
 30
0.0
 10
4.1661610372
 20
3.0818838321
 30
0.0
  0
SPLINE
  5
428
100
AcDbEntity
  8
ALL_FEATURES
100
AcDbSpline
 62
9
  6
CONTINUOUS
 70
0
 71
3
 72
17
 73
13
 74
0
 42
0.0000001
 43
0.0000001
 44
0.0000000001
 40
0.0
 40
0.0
 40
0.0
 40
0.0
 40
0.1399243248
 40
0.2894740767
 40
0.4414057192
 40
0.5883297357
 40
0.723165352
 40
0.8396115964
 40
0.8893318274
 40
0.9327663051
 40
0.9696551769
 40
1.0
 40
1.0
 40
1.0
 40
1.0
 10
4.4149504417
 20
3.243520154
 30
0.0
 10
4.416015714
 20
3.2359094537
 30
0.0
 10
4.4176384472
 20
3.2200808207
 30
0.0
 10
4.4187111105
 20
3.1958506014
 30
0.0
 10
4.4184763923
 20
3.1712126214
 30
0.0
 10
4.416949822
 20
3.1474286511
 30
0.0
 10
4.4142142314
 20
3.125716878
 30
0.0
 10
4.410920922
 20
3.1094882802
 30
0.0
 10
4.4076699658
 20
3.0984382302
 30
0.0
 10
4.4051688985
 20
3.0917386657
 30
0.0
 10
4.4025079234
 20
3.086263998
 30
0.0
 10
4.4004544537
 20
3.0831683632
 30
0.0
 10
4.3993817105
 20
3.0818929224
 30
0.0
  0
SPLINE
  5
429
100
AcDbEntity
  8
ALL_FEATURES
100
AcDbSpline
 62
9
  6
CONTINUOUS
 70
0
 71
3
 72
9
 73
5
 74
0
 42
0.0000001
 43
0.0000001
 44
0.0000000001
 40
0.0
 40
0.0
 40
0.0
 40
0.0
 40
0.2633038059
 40
1.0
 40
1.0
 40
1.0
 40
1.0
 10
4.0604360251
 20
3.0776756145
 30
0.0
 10
4.0594424549
 20
3.0776755881
 30
0.0
 10
4.055661961
 20
3.078201215
 30
0.0
 10
4.0522841991
 20
3.0802048968
 30
0.0
 10
4.0500754788
 20
3.0818929205
 30
0.0
  0
SPLINE
  5
42A
100
AcDbEntity
  8
ALL_FEATURES
100
AcDbSpline
 62
9
  6
CONTINUOUS
 70
0
 71
3
 72
14
 73
10
 74
0
 42
0.0000001
 43
0.0000001
 44
0.0000000001
 40
0.0
 40
0.0
 40
0.0
 40
0.0
 40
0.264463763
 40
0.400404159
 40
0.5340827645
 40
0.6624653009
 40
0.7832921778
 40
0.8955647691
 40
1.0
 40
1.0
 40
1.0
 40
1.0
 10
4.2129979353
 20
3.243520154
 30
0.0
 10
4.2193021674
 20
3.2285541074
 30
0.0
 10
4.2245591647
 20
3.2038810912
 30
0.0
 10
4.223597583
 20
3.1710197606
 30
0.0
 10
4.2188814967
 20
3.1469087498
 30
0.0
 10
4.2103907129
 20
3.1248480285
 30
0.0
 10
4.1985076923
 20
3.1059094293
 30
0.0
 10
4.1837772195
 20
3.0910659576
 30
0.0
 10
4.1721086575
 20
3.0842492607
 30
0.0
 10
4.1661443063
 20
3.0818929233
 30
0.0
  0
SPLINE
  5
42B
100
AcDbEntity
  8
ALL_FEATURES
100
AcDbSpline
 62
9
  6
CONTINUOUS
 70
0
 71
3
 72
9
 73
5
 74
0
 42
0.0000001
 43
0.0000001
 44
0.0000000001
 40
0.0
 40
0.0
 40
0.0
 40
0.0
 40
0.5036169096
 40
1.0
 40
1.0
 40
1.0
 40
1.0
 10
4.1661443063
 20
3.0818929233
 30
0.0
 10
4.1516426099
 20
3.0808714964
 30
0.0
 10
4.1228522512
 20
3.078807687
 30
0.0
 10
4.0939892579
 20
3.0776755502
 30
0.0
 10
4.0796604485
 20
3.0776756145
 30
0.0
  0
SPLINE
  5
42C
100
AcDbEntity
  8
ALL_FEATURES
100
AcDbSpline
 62
9
  6
CONTINUOUS
 70
0
 71
3
 72
14
 73
10
 74
0
 42
0.0000001
 43
0.0000001
 44
0.0000000001
 40
0.0
 40
0.0
 40
0.0
 40
0.0
 40
0.4755976217
 40
0.6431876078
 40
0.7748780956
 40
0.8747126815
 40
0.9445102465
 40
0.9860873612
 40
1.0
 40
1.0
 40
1.0
 40
1.0
 10
4.0500960724
 20
3.0818863059
 30
0.0
 10
4.0493273168
 20
3.0824129299
 30
0.0
 10
4.0482555373
 20
3.0830797937
 30
0.0
 10
4.0469265552
 20
3.0838132243
 30
0.0
 10
4.0462372472
 20
3.0841835316
 30
0.0
 10
4.0457108167
 20
3.0844485533
 30
0.0
 10
4.0453435216
 20
3.0846441667
 30
0.0
 10
4.04511733
 20
3.0847322449
 30
0.0
 10
4.0450267349
 20
3.0848028854
 30
0.0
 10
4.0449996676
 20
3.0848061124
 30
0.0
  0
SPLINE
  5
42D
100
AcDbEntity
  8
ALL_FEATURES
100
AcDbSpline
 62
9
  6
CONTINUOUS
 70
0
 71
3
 72
15
 73
11
 74
0
 42
0.0000001
 43
0.0000001
 44
0.0000000001
 40
0.0
 40
0.0
 40
0.0
 40
0.0
 40
0.1257190232
 40
0.2520652862
 40
0.3785726837
 40
0.5047439769
 40
0.6301469947
 40
0.7545001159
 40
0.8777316963
 40
1.0
 40
1.0
 40
1.0
 40
1.0
 10
4.1124978497
 20
3.243520154
 30
0.0
 10
4.1165590625
 20
3.2362835736
 30
0.0
 10
4.1230959582
 20
3.2208081537
 30
0.0
 10
4.1275890046
 20
3.1960329335
 30
0.0
 10
4.1266080372
 20
3.1708317399
 30
0.0
 10
4.1201937514
 20
3.1465061921
 30
0.0
 10
4.1086710597
 20
3.1242988516
 30
0.0
 10
4.0926154404
 20
3.1053539514
 30
0.0
 10
4.0728597479
 20
3.0906620004
 30
0.0
 10
4.0578129685
 20
3.084187364
 30
0.0
 10
4.0500754788
 20
3.0818929205
 30
0.0
  0
ENDSEC
  0
SECTION
  2
OBJECTS
  0
DICTIONARY
  5
C
100
AcDbDictionary
280
0
281
1
  3
ACAD_GROUP
350
D
  3
ACAD_MLINESTYLE
350
17
  3
ACAD_LAYOUT
350
1A
  3
ACAD_PLOTSETTINGS
350
19
  3
ACAD_PLOTSTYLENAME
350
E
  0
DICTIONARY
  5
D
102
{ACAD_REACTORS
330
C
102
}
100
AcDbDictionary
280
0
281
1
  0
ACDBDICTIONARYWDFLT
  5
E
102
{ACAD_REACTORS
330
C
102
}
100
AcDbDictionary
281
1
  3
Normal
350
F
100
AcDbDictionaryWithDefault
340
F
  0
DICTIONARY
  5
17
102
{ACAD_REACTORS
330
C
102
}
100
AcDbDictionary
280
0
281
1
  3
Standard
350
18
  0
DICTIONARY
  5
19
102
{ACAD_REACTORS
330
C
102
}
100
AcDbDictionary
281
1
  0
DICTIONARY
  5
1A
102
{ACAD_REACTORS
330
C
102
}
100
AcDbDictionary
281
1
  3
Model
350
42E
  3
Layout1
350
42F
  0
ACDBPLACEHOLDER
  5
F
102
{ACAD_REACTORS
330
E
102
}
  0
MLINESTYLE
  5
18
102
{ACAD_REACTORS
330
17
102
}
100
AcDbMlineStyle
  2
STANDARD
 70
0
  3

 62
256
 51
90.0
 52
90.0
 71
2
 49
0.5
 62
256
  6
BYLAYER
 49
-0.5
 62
256
  6
BYLAYER
  0
LAYOUT
  5
42E
102
{ACAD_REACTORS
330
1A
102
}
100
AcDbPlotSettings
  1

  2
none_device
  4
ANSI_A_(11.00_x_8.50_Inches)
  6

 40
0.0
 41
0.0
 42
0.0
 43
0.0
 44
279.4
 45
215.9
 46
0.0
 47
0.0
 48
0.0
 49
0.0
140
0.0
141
0.0
142
1.0
143
1.0
 70
1024
 72
0
 73
0
 74
0
  7

 75
0
147
1.0
148
0.0
149
0.0
100
AcDbLayout
  1
Model
 70
0
 71
0
 10
0.0
 20
0.0
 11
11.0
 21
8.5
 12
0.0
 22
0.0
 32
0.0
 14
0.0
 24
0.0
 34
0.0
 15
0.0
 25
0.0
 35
0.0
146
0.0
 13
0.0
 23
0.0
 33
0.0
 16
1.0
 26
0.0
 36
0.0
 17
0.0
 27
1.0
 37
0.0
 76
0
330
216
345
0
346
0
  0
LAYOUT
  5
42F
102
{ACAD_REACTORS
330
1A
102
}
100
AcDbPlotSettings
  1

  2
none_device
  4
ANSI_A_(11.00_x_8.50_Inches)
  6

 40
0.0
 41
0.0
 42
0.0
 43
0.0
 44
279.4
 45
215.9
 46
0.0
 47
0.0
 48
0.0
 49
0.0
140
0.0
141
0.0
142
1.0
143
1.0
 70
0
 72
0
 73
0
 74
0
  7

 75
0
147
1.0
148
0.0
149
0.0
100
AcDbLayout
  1
Layout1
 70
0
 71
1
 10
0.0
 20
0.0
 11
11.0
 21
8.5
 12
0.0
 22
0.0
 32
0.0
 14
0.0
 24
0.0
 34
0.0
 15
0.0
 25
0.0
 35
0.0
146
0.0
 13
0.0
 23
0.0
 33
0.0
 16
1.0
 26
0.0
 36
0.0
 17
0.0
 27
1.0
 37
0.0
 76
0
330
217
345
0
346
0
  0
ENDSEC
  0
EOF
