999
DXF file: 1-607u_front.dxf
999
Pro/ENGINEER 2018400 by Parametric Technology Corporation
  0
SECTION
  2
HEADER
  9
$ACADVER
  1
AC1027
  9
$DWGCODEPAGE
  3
ANSI_1252
  9
$EXTMAX
 10
11.0
 20
8.5
 30
0.0
  9
$EXTMIN
 10
0.0
 20
0.0
 30
0.0
  9
$LIMMIN
 10
0.0
 20
0.0
  9
$LIMMAX
 10
11.0
 20
8.5
  9
$VIEWCTR
 10
5.5
 20
4.25
  9
$VIEWSIZE
 40
8.5
  9
$CLAYER
  8
0
  9
$LTSCALE
 40
0.605
  9
$CELTYPE
  6
BYLAYER
  9
$DIMSCALE
 40
1.0
  9
$DIMASZ
 40
0.1
  9
$DIMEXO
 40
0.0625
  9
$DIMDLI
 40
0.418
  9
$DIMEXE
 40
0.125
  9
$DIMCEN
 40
0.099
  9
$DIMLFAC
 40
1.0
  9
$DIMBLK
  1
_FILLED
  9
$DIMALT
 70
1
  9
$DIMALTD
 70
1
  9
$DIMALTTD
 70
2
  9
$DIMALTF
 40
25.4
  9
$DIMTXT
 40
0.08
  9
$DIMTOL
 70
1
  9
$DIMLIM
 70
0
  9
$DIMTFAC
 40
1.0
  9
$DIMTP
 40
0.01
  9
$DIMTM
 40
0.01
  9
$DIMGAP
 40
0.09
  9
$DIMDSEP
 70
46
  9
$AUNITS
 70
0
  9
$PDMODE
 70
3
  9
$PDSIZE
 40
0.3125
  9
$HANDSEED
  5
2F5
  9
$TILEMODE
 70
1
  9
$MEASUREMENT
 70
0
  9
$INSUNITS
 70
1
  0
ENDSEC
  0
SECTION
  2
CLASSES
  0
CLASS
  1
ACDBDICTIONARYWDFLT
  2
AcDbDictionaryWithDefault
  3
AutoCAD 2000
 90
0
 91
1
280
0
281
0
  0
CLASS
  1
ACDBPLACEHOLDER
  2
AcDbPlaceHolder
  3
AutoCAD 2000
 90
0
 91
1
280
0
281
0
  0
CLASS
  1
LAYOUT
  2
AcDbLayout
  3
AutoCAD 2000
 90
0
 91
0
280
0
281
0
  0
ENDSEC
  0
SECTION
  2
TABLES
  0
TABLE
  2
VPORT
  5
8
100
AcDbSymbolTable
 70
2
  0
VPORT
  5
1F4
100
AcDbSymbolTableRecord
100
AcDbViewportTableRecord
  2
*ACTIVE
 70
0
 10
0.0
 20
0.0
 11
1.0
 21
1.0
 12
5.5
 22
4.25
 13
0.0
 23
0.0
 14
1.0
 24
1.0
 15
0.0
 25
0.0
 16
0.0
 26
0.0
 36
1.0
 17
0.0
 27
0.0
 37
0.0
 40
8.5
 41
1.2941176471
 42
50.0
 43
0.0
 44
0.0
 50
0.0
 51
0.0
 71
0
 72
100
 73
1
 74
1
 75
0
 76
0
 77
0
 78
0
  0
ENDTAB
  0
TABLE
  2
LTYPE
  5
5
100
AcDbSymbolTable
 70
6
  0
LTYPE
  5
14
100
AcDbSymbolTableRecord
100
AcDbLinetypeTableRecord
  2
BYBLOCK
 70
0
  3

 72
65
 73
0
 40
0.0
  0
LTYPE
  5
15
100
AcDbSymbolTableRecord
100
AcDbLinetypeTableRecord
  2
BYLAYER
 70
0
  3

 72
65
 73
0
 40
0.0
  0
LTYPE
  5
16
100
AcDbSymbolTableRecord
100
AcDbLinetypeTableRecord
  2
CONTINUOUS
 70
64
  3
Solid line
 72
65
 73
0
 40
0.0
  0
LTYPE
  5
1F5
100
AcDbSymbolTableRecord
100
AcDbLinetypeTableRecord
  2
CENTER
 70
64
  3
____ _ ____ _ ____ _ ____ _ ____ _ ____ _ ____
 72
65
 73
4
 40
0.6
 49
0.375
 74
0
 49
-0.075
 74
0
 49
0.075
 74
0
 49
-0.075
 74
0
  0
LTYPE
  5
1F6
100
AcDbSymbolTableRecord
100
AcDbLinetypeTableRecord
  2
HIDDEN
 70
64
  3
- - - - - - - - - - - - - - - - - - - -
 72
65
 73
2
 40
0.2
 49
0.1
 74
0
 49
-0.1
 74
0
  0
LTYPE
  5
1F7
100
AcDbSymbolTableRecord
100
AcDbLinetypeTableRecord
  2
PHANTOM
 70
64
  3
_____ _ _ _____ _ _ _____ _ _ _____
 72
65
 73
6
 40
0.8
 49
0.45
 74
0
 49
-0.05
 74
0
 49
0.1
 74
0
 49
-0.05
 74
0
 49
0.1
 74
0
 49
-0.05
 74
0
  0
LTYPE
  5
1F8
100
AcDbSymbolTableRecord
100
AcDbLinetypeTableRecord
  2
DOT
 70
64
  3
. . . . . . . . . . . . . . . . . . . .
 72
65
 73
2
 40
0.2
 49
0.1
 74
0
 49
-0.1
 74
0
  0
LTYPE
  5
1F9
100
AcDbSymbolTableRecord
100
AcDbLinetypeTableRecord
  2
DASHED
 70
64
  3
- - - - - - - - - - - - - - - - - - - -
 72
65
 73
2
 40
0.2
 49
0.1
 74
0
 49
-0.1
 74
0
  0
ENDTAB
  0
TABLE
  2
LAYER
  5
2
100
AcDbSymbolTable
 70
36
  0
LAYER
  5
10
100
AcDbSymbolTableRecord
100
AcDbLayerTableRecord
  2
0
 70
0
 62
7
  6
CONTINUOUS
370
-3
390
F
  0
LAYER
  5
1FA
100
AcDbSymbolTableRecord
100
AcDbLayerTableRecord
  2
DEFAULT_1
 70
0
 62
7
  6
CENTER
370
-3
390
F
  0
LAYER
  5
1FB
100
AcDbSymbolTableRecord
100
AcDbLayerTableRecord
  2
DEFAULT_2
 70
0
 62
8
  6
HIDDEN
370
-3
390
F
  0
LAYER
  5
1FC
100
AcDbSymbolTableRecord
100
AcDbLayerTableRecord
  2
DEFAULT_3
 70
0
 62
7
  6
PHANTOM
370
-3
390
F
  0
LAYER
  5
1FD
100
AcDbSymbolTableRecord
100
AcDbLayerTableRecord
  2
DEFAULT_COORDINATE_SYSTEM
 70
0
 62
7
  6
CONTINUOUS
370
-3
390
F
  0
LAYER
  5
1FE
100
AcDbSymbolTableRecord
100
AcDbLayerTableRecord
  2
DEFAULT_DATUM_AXES
 70
0
 62
7
  6
CONTINUOUS
370
-3
390
F
  0
LAYER
  5
1FF
100
AcDbSymbolTableRecord
100
AcDbLayerTableRecord
  2
DEFAULT_DATUM_PLANES
 70
0
 62
7
  6
CONTINUOUS
370
-3
390
F
  0
ENDTAB
  0
TABLE
  2
STYLE
  5
3
100
AcDbSymbolTable
 70
1
  0
STYLE
  5
11
100
AcDbSymbolTableRecord
100
AcDbTextStyleTableRecord
  2
STANDARD
 70
0
 40
0.0
 41
0.8
 50
0.0
 71
0
 42
0.2
  3
txt
  4

  0
STYLE
  5
200
100
AcDbSymbolTableRecord
100
AcDbTextStyleTableRecord
  2
TEXTSTYLE_1
 70
0
 40
0.0
 41
0.8
 50
0.0
 71
0
 42
0.2
  3
gdt
  4

  0
ENDTAB
  0
TABLE
  2
VIEW
  5
6
100
AcDbSymbolTable
 70
0
  0
ENDTAB
  0
TABLE
  2
UCS
  5
7
100
AcDbSymbolTable
 70
0
  0
ENDTAB
  0
TABLE
  2
APPID
  5
9
100
AcDbSymbolTable
 70
1
  0
APPID
  5
201
100
AcDbSymbolTableRecord
100
AcDbRegAppTableRecord
  2
ACAD
 70
0
  0
ENDTAB
  0
TABLE
  2
BLOCK_RECORD
  5
1
100
AcDbSymbolTable
 70
0
  0
BLOCK_RECORD
  5
202
100
AcDbSymbolTableRecord
100
AcDbBlockTableRecord
  2
*Model_Space
  0
BLOCK_RECORD
  5
203
100
AcDbSymbolTableRecord
100
AcDbBlockTableRecord
  2
*Paper_Space
  0
BLOCK_RECORD
  5
204
100
AcDbSymbolTableRecord
100
AcDbBlockTableRecord
  2
_FILLED
  0
ENDTAB
  0
TABLE
  2
DIMSTYLE
  5
A
100
AcDbSymbolTable
 70
1
100
AcDbDimStyleTable
 71
0
  0
DIMSTYLE
105
205
100
AcDbSymbolTableRecord
100
AcDbDimStyleTableRecord
  2
STANDARD
 70
0
  3

  4

 40
1.0
 41
0.1
 42
0.0625
 43
0.38
 44
0.125
 45
0.0
 46
0.0
 47
0.01
 48
0.01
140
0.08
141
0.09
142
0.0
143
25.4
144
1.0
145
0.0
146
1.0
147
0.09
 71
1.0
 72
0.0
 73
1
 74
1
 75
0
 76
0
 77
0
 78
4
 79
1
170
1
171
1
172
0
173
0
174
0
175
0
176
0
177
0
178
0
270
2
179
2
271
2
272
2
273
2
274
2
275
0
280
0
281
0
282
0
283
1
284
4
285
0
286
0
287
3
288
0
340
11
278
46
341
204
342
204
343
204
344
204
  0
ENDTAB
  0
ENDSEC
  0
SECTION
  2
BLOCKS
  0
BLOCK
  5
20
100
AcDbEntity
  8
0
100
AcDbBlockBegin
  2
*Model_Space
 70
0
 10
0.0
 20
0.0
 30
0.0
  3
*Model_Space
  1

  0
ENDBLK
  5
21
100
AcDbEntity
  8
0
100
AcDbBlockEnd
  0
BLOCK
  5
1C
100
AcDbEntity
  8
0
100
AcDbBlockBegin
  2
*Paper_Space
 70
0
 10
0.0
 20
0.0
 30
0.0
  3
*Paper_Space
  1

  0
ENDBLK
  5
1D
100
AcDbEntity
  8
0
100
AcDbBlockEnd
  0
BLOCK
  5
206
100
AcDbEntity
  8
0
100
AcDbBlockBegin
  2
_FILLED
 70
64
 10
0.0
 20
0.0
  3
_FILLED
  1

  0
SOLID
  5
207
100
AcDbEntity
  8
0
  6
BYBLOCK
 62
0
100
AcDbTrace
 10
0.0
 20
0.0
 11
-1.0
 21
0.2
 12
-1.0
 22
-0.2
 13
-1.0
 23
-0.2
  0
ENDBLK
  5
208
100
AcDbEntity
  8
0
  6
BYBLOCK
 62
0
100
AcDbBlockEnd
  0
ENDSEC
  0
SECTION
  2
ENTITIES
  0
MTEXT
  5
209
100
AcDbEntity
  8
0
100
AcDbMText
 62
2
  6
CONTINUOUS
  7
STANDARD
 71
3
 72
1
 10
5.0042313665
 20
2.3086990451
 30
0.0
 11
1.0
 21
0.0
 31
0.0
 73
2
 44
0.9
  1
SCALE  1.000
 40
0.08
 41
0.768
  0
LINE
  5
20A
100
AcDbEntity
  8
0
100
AcDbLine
 62
7
  6
CONTINUOUS
 10
0.0
 20
0.0
 11
0.0
 21
8.5
  0
LINE
  5
20B
100
AcDbEntity
  8
0
100
AcDbLine
 62
7
  6
CONTINUOUS
 10
0.0
 20
0.0
 11
11.0
 21
0.0
  0
LINE
  5
20C
100
AcDbEntity
  8
0
100
AcDbLine
 62
7
  6
CONTINUOUS
 10
0.0
 20
8.5
 11
11.0
 21
8.5
  0
LINE
  5
20D
100
AcDbEntity
  8
0
100
AcDbLine
 62
7
  6
CONTINUOUS
 10
11.0
 20
0.0
 11
11.0
 21
8.5
  0
LINE
  5
20E
100
AcDbEntity
  8
0
100
AcDbLine
 62
7
  6
CONTINUOUS
 10
3.9786515137
 20
5.6859492485
 11
3.9904625373
 21
5.6927683462
  0
LINE
  5
20F
100
AcDbEntity
  8
0
100
AcDbLine
 62
7
  6
CONTINUOUS
 10
3.9904625373
 20
3.1415872438
 11
3.9786515137
 21
3.1484063415
  0
LINE
  5
210
100
AcDbEntity
  8
0
100
AcDbLine
 62
7
  6
CONTINUOUS
 10
3.9904625373
 20
3.1415872438
 11
5.2109349782
 21
3.1415872438
  0
LINE
  5
211
100
AcDbEntity
  8
0
100
AcDbLine
 62
7
  6
CONTINUOUS
 10
3.9786515137
 20
3.1984130577
 11
3.9956620869
 21
3.1984130577
  0
LINE
  5
212
100
AcDbEntity
  8
0
100
AcDbLine
 62
7
  6
CONTINUOUS
 10
4.5836881846
 20
3.1984130577
 11
4.617709331
 21
3.1984130577
  0
LINE
  5
213
100
AcDbEntity
  8
0
100
AcDbLine
 62
7
  6
CONTINUOUS
 10
5.2057354286
 20
3.1984130577
 11
5.2227460019
 21
3.1984130577
  0
LINE
  5
214
100
AcDbEntity
  8
0
100
AcDbLine
 62
7
  6
CONTINUOUS
 10
3.9786515137
 20
3.6095025021
 11
3.9956620869
 21
3.6095025021
  0
LINE
  5
215
100
AcDbEntity
  8
0
100
AcDbLine
 62
7
  6
CONTINUOUS
 10
4.5836881846
 20
3.6095025021
 11
4.617709331
 21
3.6095025021
  0
LINE
  5
216
100
AcDbEntity
  8
0
100
AcDbLine
 62
7
  6
CONTINUOUS
 10
5.2057354286
 20
3.6095025021
 11
5.2227460019
 21
3.6095025021
  0
LINE
  5
217
100
AcDbEntity
  8
0
100
AcDbLine
 62
7
  6
CONTINUOUS
 10
4.9471728964
 20
3.6587288382
 11
5.2227673806
 21
3.6587288382
  0
LINE
  5
218
100
AcDbEntity
  8
0
100
AcDbLine
 62
7
  6
CONTINUOUS
 10
3.9786516703
 20
3.6587893285
 11
4.2554572764
 21
3.6587893285
  0
LINE
  5
219
100
AcDbEntity
  8
0
100
AcDbLine
 62
7
  6
CONTINUOUS
 10
4.3243547713
 20
3.6587658055
 11
4.3798007195
 21
3.6587526179
  0
LINE
  5
21A
100
AcDbEntity
  8
0
100
AcDbLine
 62
7
  6
CONTINUOUS
 10
3.9786515137
 20
3.1484063415
 11
3.9786515137
 21
3.65952921
  0
LINE
  5
21B
100
AcDbEntity
  8
0
100
AcDbLine
 62
7
  6
CONTINUOUS
 10
3.9786515137
 20
5.1748257341
 11
3.9786515137
 21
5.6859492485
  0
LINE
  5
21C
100
AcDbEntity
  8
0
100
AcDbLine
 62
7
  6
CONTINUOUS
 10
3.9956620869
 20
3.1984130577
 11
3.9956620869
 21
3.6095025021
  0
LINE
  5
21D
100
AcDbEntity
  8
0
100
AcDbLine
 62
7
  6
CONTINUOUS
 10
3.9956620869
 20
5.2248530879
 11
3.9956620869
 21
5.6359425323
  0
LINE
  5
21E
100
AcDbEntity
  8
0
100
AcDbLine
 62
7
  6
CONTINUOUS
 10
4.0144007318
 20
3.7461566465
 11
4.1837913149
 21
3.7461636279
  0
LINE
  5
21F
100
AcDbEntity
  8
0
100
AcDbLine
 62
7
  6
CONTINUOUS
 10
4.4075750927
 20
4.751677795
 11
4.2144514277
 21
4.417177795
  0
LINE
  5
220
100
AcDbEntity
  8
0
100
AcDbLine
 62
7
  6
CONTINUOUS
 10
4.4205654738
 20
4.729177795
 11
4.2404321898
 21
4.417177795
  0
LINE
  5
221
100
AcDbEntity
  8
0
100
AcDbLine
 62
7
  6
CONTINUOUS
 10
4.4075750927
 20
4.082677795
 11
4.7938224228
 21
4.082677795
  0
LINE
  5
222
100
AcDbEntity
  8
0
100
AcDbLine
 62
7
  6
CONTINUOUS
 10
4.4205654738
 20
4.105177795
 11
4.7808320418
 21
4.105177795
  0
LWPOLYLINE
  5
223
100
AcDbEntity
  8
0
100
AcDbPolyline
 62
7
  6
CONTINUOUS
 90
29
 70
0
 10
5.2227460019
 20
3.6595267276
 10
5.2196521063
 20
3.6614948415
 10
5.2167643566
 20
3.6635228638
 10
5.2139738303
 20
3.6656754371
 10
5.2112859191
 20
3.6679476295
 10
5.2086994045
 20
3.6703404068
 10
5.2062221911
 20
3.6728468607
 10
5.2038622121
 20
3.675458631
 10
5.2016190067
 20
3.6781762031
 10
5.1994994384
 20
3.6809916912
 10
5.1975099914
 20
3.6838961078
 10
5.1956505815
 20
3.6868895518
 10
5.1939269784
 20
3.6899631752
 10
5.1923441944
 20
3.6931075354
 10
5.190902162
 20
3.6963227467
 10
5.1896054254
 20
3.6995992544
 10
5.1884576556
 20
3.7029271405
 10
5.1874588164
 20
3.7063065373
 10
5.1866121754
 20
3.7097272625
 10
5.1859200439
 20
3.713179009
 10
5.1853824095
 20
3.7166619119
 10
5.1850011864
 20
3.7201650493
 10
5.1847772339
 20
3.7236780012
 10
5.1847105259
 20
3.7272014461
 10
5.1848015157
 20
3.7307238582
 10
5.1850496355
 20
3.7342347535
 10
5.1854550463
 20
3.737735696
 10
5.1860175204
 20
3.7412193811
 10
5.1867345863
 20
3.7446703553
  0
LINE
  5
224
100
AcDbEntity
  8
0
100
AcDbLine
 62
7
  6
CONTINUOUS
 10
4.2144514277
 20
4.417177795
 11
4.4075750927
 21
4.082677795
  0
LINE
  5
225
100
AcDbEntity
  8
0
100
AcDbLine
 62
7
  6
CONTINUOUS
 10
4.2404321898
 20
4.417177795
 11
4.4205654738
 21
4.105177795
  0
LINE
  5
226
100
AcDbEntity
  8
0
100
AcDbLine
 62
7
  6
CONTINUOUS
 10
4.5836881846
 20
5.6359425323
 11
4.5836881846
 21
5.2248530879
  0
LINE
  5
227
100
AcDbEntity
  8
0
100
AcDbLine
 62
7
  6
CONTINUOUS
 10
4.5836881846
 20
3.6095025021
 11
4.5836881846
 21
3.1984130577
  0
LINE
  5
228
100
AcDbEntity
  8
0
100
AcDbLine
 62
7
  6
CONTINUOUS
 10
4.5900898061
 20
4.3473510135
 11
4.5900898061
 21
4.3697705427
  0
LINE
  5
229
100
AcDbEntity
  8
0
100
AcDbLine
 62
7
  6
CONTINUOUS
 10
4.5900898061
 20
4.4645850474
 11
4.5900898061
 21
4.4870045766
  0
LINE
  5
22A
100
AcDbEntity
  8
0
100
AcDbLine
 62
7
  6
CONTINUOUS
 10
4.6113077094
 20
4.4870045766
 11
4.6113077094
 21
4.4645850474
  0
LINE
  5
22B
100
AcDbEntity
  8
0
100
AcDbLine
 62
7
  6
CONTINUOUS
 10
4.6113077094
 20
4.3697705427
 11
4.6113077094
 21
4.3473510135
  0
LINE
  5
22C
100
AcDbEntity
  8
0
100
AcDbLine
 62
7
  6
CONTINUOUS
 10
4.5471284683
 20
4.5716526282
 11
4.5502231035
 21
4.5951587163
  0
LINE
  5
22D
100
AcDbEntity
  8
0
100
AcDbLine
 62
7
  6
CONTINUOUS
 10
4.5515909594
 20
4.3980196212
 11
4.5532915054
 21
4.4065688434
  0
LINE
  5
22E
100
AcDbEntity
  8
0
100
AcDbLine
 62
7
  6
CONTINUOUS
 10
4.485954984
 20
4.2720610614
 11
4.4920913044
 21
4.2949621206
  0
LINE
  5
22F
100
AcDbEntity
  8
0
100
AcDbLine
 62
7
  6
CONTINUOUS
 10
4.5900898061
 20
4.4645850474
 11
4.5793118334
 21
4.4385647194
  0
LINE
  5
230
100
AcDbEntity
  8
0
100
AcDbLine
 62
7
  6
CONTINUOUS
 10
4.6103212231
 20
4.5803943939
 11
4.6221756837
 21
4.600926922
  0
LINE
  5
231
100
AcDbEntity
  8
0
100
AcDbLine
 62
7
  6
CONTINUOUS
 10
4.439155564
 20
4.3270179561
 11
4.4535886407
 21
4.3458275079
  0
LINE
  5
232
100
AcDbEntity
  8
0
100
AcDbLine
 62
7
  6
CONTINUOUS
 10
4.6288042388
 20
4.4452832761
 11
4.6220856821
 21
4.4385647194
  0
LINE
  5
233
100
AcDbEntity
  8
0
100
AcDbLine
 62
7
  6
CONTINUOUS
 10
4.5725932767
 20
4.389072314
 11
4.5793118334
 21
4.3957908707
  0
LINE
  5
234
100
AcDbEntity
  8
0
100
AcDbLine
 62
7
  6
CONTINUOUS
 10
4.6720490449
 20
4.5642879121
 11
4.6908585967
 21
4.5787209888
  0
LINE
  5
235
100
AcDbEntity
  8
0
100
AcDbLine
 62
7
  6
CONTINUOUS
 10
4.4169496308
 20
4.3957008691
 11
4.4374821589
 21
4.4075553297
  0
LINE
  5
236
100
AcDbEntity
  8
0
100
AcDbLine
 62
7
  6
CONTINUOUS
 10
4.5793118334
 20
4.4385647194
 11
4.5532915054
 21
4.4277867467
  0
LINE
  5
237
100
AcDbEntity
  8
0
100
AcDbLine
 62
7
  6
CONTINUOUS
 10
4.4784830834
 20
4.3085703417
 11
4.4555820241
 21
4.3024340213
  0
LINE
  5
238
100
AcDbEntity
  8
0
100
AcDbLine
 62
7
  6
CONTINUOUS
 10
4.581540584
 20
4.3680699967
 11
4.5900898061
 21
4.3697705427
  0
LINE
  5
239
100
AcDbEntity
  8
0
100
AcDbLine
 62
7
  6
CONTINUOUS
 10
4.778679679
 20
4.3667021407
 11
4.7551735909
 21
4.3636075055
  0
LINE
  5
23A
100
AcDbEntity
  8
0
100
AcDbLine
 62
7
  6
CONTINUOUS
 10
4.6705255393
 20
4.4065688434
 11
4.6481060101
 21
4.4065688434
  0
LINE
  5
23B
100
AcDbEntity
  8
0
100
AcDbLine
 62
7
  6
CONTINUOUS
 10
4.5532915054
 20
4.4065688434
 11
4.5308719762
 21
4.4065688434
  0
LINE
  5
23C
100
AcDbEntity
  8
0
100
AcDbLine
 62
7
  6
CONTINUOUS
 10
4.5308719762
 20
4.4277867467
 11
4.5532915054
 21
4.4277867467
  0
LINE
  5
23D
100
AcDbEntity
  8
0
100
AcDbLine
 62
7
  6
CONTINUOUS
 10
4.6481060101
 20
4.4277867467
 11
4.6705255393
 21
4.4277867467
  0
LINE
  5
23E
100
AcDbEntity
  8
0
100
AcDbLine
 62
7
  6
CONTINUOUS
 10
4.4462239246
 20
4.3636075055
 11
4.4227178365
 21
4.3667021407
  0
LINE
  5
23F
100
AcDbEntity
  8
0
100
AcDbLine
 62
7
  6
CONTINUOUS
 10
4.6198569316
 20
4.3680699967
 11
4.6113077094
 21
4.3697705427
  0
LINE
  5
240
100
AcDbEntity
  8
0
100
AcDbLine
 62
7
  6
CONTINUOUS
 10
4.7458154914
 20
4.3024340213
 11
4.7229144322
 21
4.3085703417
  0
LINE
  5
241
100
AcDbEntity
  8
0
100
AcDbLine
 62
7
  6
CONTINUOUS
 10
4.5532915054
 20
4.4065688434
 11
4.5793118334
 21
4.3957908707
  0
LINE
  5
242
100
AcDbEntity
  8
0
100
AcDbLine
 62
7
  6
CONTINUOUS
 10
4.4374821589
 20
4.4268002604
 11
4.4169496308
 21
4.438654721
  0
LINE
  5
243
100
AcDbEntity
  8
0
100
AcDbLine
 62
7
  6
CONTINUOUS
 10
4.6908585967
 20
4.2556346013
 11
4.6720490449
 21
4.270067678
  0
LINE
  5
244
100
AcDbEntity
  8
0
100
AcDbLine
 62
7
  6
CONTINUOUS
 10
4.5725932767
 20
4.4452832761
 11
4.5793118334
 21
4.4385647194
  0
LINE
  5
245
100
AcDbEntity
  8
0
100
AcDbLine
 62
7
  6
CONTINUOUS
 10
4.6288042388
 20
4.389072314
 11
4.6220856821
 21
4.3957908707
  0
LINE
  5
246
100
AcDbEntity
  8
0
100
AcDbLine
 62
7
  6
CONTINUOUS
 10
4.4535886407
 20
4.4885280821
 11
4.439155564
 21
4.5073376339
  0
LINE
  5
247
100
AcDbEntity
  8
0
100
AcDbLine
 62
7
  6
CONTINUOUS
 10
4.6221756837
 20
4.2334286681
 11
4.6103212231
 21
4.2539611961
  0
LINE
  5
248
100
AcDbEntity
  8
0
100
AcDbLine
 62
7
  6
CONTINUOUS
 10
4.5793118334
 20
4.3957908707
 11
4.5900898061
 21
4.3697705427
  0
LINE
  5
249
100
AcDbEntity
  8
0
100
AcDbLine
 62
7
  6
CONTINUOUS
 10
4.4920913044
 20
4.5393934694
 11
4.485954984
 21
4.5622945287
  0
LINE
  5
24A
100
AcDbEntity
  8
0
100
AcDbLine
 62
7
  6
CONTINUOUS
 10
4.5515909594
 20
4.4363359688
 11
4.5532915054
 21
4.4277867467
  0
LINE
  5
24B
100
AcDbEntity
  8
0
100
AcDbLine
 62
7
  6
CONTINUOUS
 10
4.5502231035
 20
4.2391968738
 11
4.5471284683
 21
4.2627029619
  0
LINE
  5
24C
100
AcDbEntity
  8
0
100
AcDbLine
 62
7
  6
CONTINUOUS
 10
4.617709331
 20
3.1984130577
 11
4.617709331
 21
3.6095025021
  0
LINE
  5
24D
100
AcDbEntity
  8
0
100
AcDbLine
 62
7
  6
CONTINUOUS
 10
4.617709331
 20
5.2248530879
 11
4.617709331
 21
5.6359425323
  0
LINE
  5
24E
100
AcDbEntity
  8
0
100
AcDbLine
 62
7
  6
CONTINUOUS
 10
4.6542690472
 20
4.2627029619
 11
4.651174412
 21
4.2391968738
  0
LINE
  5
24F
100
AcDbEntity
  8
0
100
AcDbLine
 62
7
  6
CONTINUOUS
 10
4.6498065561
 20
4.4363359688
 11
4.6481060101
 21
4.4277867467
  0
LINE
  5
250
100
AcDbEntity
  8
0
100
AcDbLine
 62
7
  6
CONTINUOUS
 10
4.7154425315
 20
4.5622945287
 11
4.7093062111
 21
4.5393934694
  0
LINE
  5
251
100
AcDbEntity
  8
0
100
AcDbLine
 62
7
  6
CONTINUOUS
 10
4.6113077094
 20
4.3697705427
 11
4.6220856821
 21
4.3957908707
  0
LINE
  5
252
100
AcDbEntity
  8
0
100
AcDbLine
 62
7
  6
CONTINUOUS
 10
4.5910762924
 20
4.2539611961
 11
4.5792218318
 21
4.2334286681
  0
LINE
  5
253
100
AcDbEntity
  8
0
100
AcDbLine
 62
7
  6
CONTINUOUS
 10
4.7622419515
 20
4.5073376339
 11
4.7478088748
 21
4.4885280821
  0
LINE
  5
254
100
AcDbEntity
  8
0
100
AcDbLine
 62
7
  6
CONTINUOUS
 10
4.5293484707
 20
4.270067678
 11
4.5105389189
 21
4.2556346013
  0
LINE
  5
255
100
AcDbEntity
  8
0
100
AcDbLine
 62
7
  6
CONTINUOUS
 10
4.7844478847
 20
4.438654721
 11
4.7639153567
 21
4.4268002604
  0
LINE
  5
256
100
AcDbEntity
  8
0
100
AcDbLine
 62
7
  6
CONTINUOUS
 10
4.6220856821
 20
4.3957908707
 11
4.6481060101
 21
4.4065688434
  0
LINE
  5
257
100
AcDbEntity
  8
0
100
AcDbLine
 62
7
  6
CONTINUOUS
 10
4.7229144322
 20
4.5257852484
 11
4.7458154914
 21
4.5319215687
  0
LINE
  5
258
100
AcDbEntity
  8
0
100
AcDbLine
 62
7
  6
CONTINUOUS
 10
4.6198569316
 20
4.4662855934
 11
4.6113077094
 21
4.4645850474
  0
LINE
  5
259
100
AcDbEntity
  8
0
100
AcDbLine
 62
7
  6
CONTINUOUS
 10
4.4227178365
 20
4.4676534493
 11
4.4462239246
 21
4.4707480845
  0
LINE
  5
25A
100
AcDbEntity
  8
0
100
AcDbLine
 62
7
  6
CONTINUOUS
 10
4.7551735909
 20
4.4707480845
 11
4.778679679
 21
4.4676534493
  0
LINE
  5
25B
100
AcDbEntity
  8
0
100
AcDbLine
 62
7
  6
CONTINUOUS
 10
4.581540584
 20
4.4662855934
 11
4.5900898061
 21
4.4645850474
  0
LINE
  5
25C
100
AcDbEntity
  8
0
100
AcDbLine
 62
7
  6
CONTINUOUS
 10
4.4555820241
 20
4.5319215687
 11
4.4784830834
 21
4.5257852484
  0
LINE
  5
25D
100
AcDbEntity
  8
0
100
AcDbLine
 62
7
  6
CONTINUOUS
 10
4.6481060101
 20
4.4277867467
 11
4.6220856821
 21
4.4385647194
  0
LINE
  5
25E
100
AcDbEntity
  8
0
100
AcDbLine
 62
7
  6
CONTINUOUS
 10
4.7639153567
 20
4.4075553297
 11
4.7844478847
 21
4.3957008691
  0
LINE
  5
25F
100
AcDbEntity
  8
0
100
AcDbLine
 62
7
  6
CONTINUOUS
 10
4.5105389189
 20
4.5787209888
 11
4.5293484707
 21
4.5642879121
  0
LINE
  5
260
100
AcDbEntity
  8
0
100
AcDbLine
 62
7
  6
CONTINUOUS
 10
4.7478088748
 20
4.3458275079
 11
4.7622419515
 21
4.3270179561
  0
LINE
  5
261
100
AcDbEntity
  8
0
100
AcDbLine
 62
7
  6
CONTINUOUS
 10
4.5792218318
 20
4.600926922
 11
4.5910762924
 21
4.5803943939
  0
LINE
  5
262
100
AcDbEntity
  8
0
100
AcDbLine
 62
7
  6
CONTINUOUS
 10
4.6220856821
 20
4.4385647194
 11
4.6113077094
 21
4.4645850474
  0
LINE
  5
263
100
AcDbEntity
  8
0
100
AcDbLine
 62
7
  6
CONTINUOUS
 10
4.7093062111
 20
4.2949621206
 11
4.7154425315
 21
4.2720610614
  0
LINE
  5
264
100
AcDbEntity
  8
0
100
AcDbLine
 62
7
  6
CONTINUOUS
 10
4.6498065561
 20
4.3980196212
 11
4.6481060101
 21
4.4065688434
  0
LINE
  5
265
100
AcDbEntity
  8
0
100
AcDbLine
 62
7
  6
CONTINUOUS
 10
4.651174412
 20
4.5951587163
 11
4.6542690472
 21
4.5716526282
  0
LINE
  5
266
100
AcDbEntity
  8
0
100
AcDbLine
 62
7
  6
CONTINUOUS
 10
4.7808320418
 20
4.105177795
 11
4.9609653257
 21
4.417177795
  0
LINE
  5
267
100
AcDbEntity
  8
0
100
AcDbLine
 62
7
  6
CONTINUOUS
 10
4.7808320418
 20
4.729177795
 11
4.4205654738
 21
4.729177795
  0
LINE
  5
268
100
AcDbEntity
  8
0
100
AcDbLine
 62
7
  6
CONTINUOUS
 10
4.9609653257
 20
4.417177795
 11
4.7808320418
 21
4.729177795
  0
LINE
  5
269
100
AcDbEntity
  8
0
100
AcDbLine
 62
7
  6
CONTINUOUS
 10
4.7938224228
 20
4.082677795
 11
4.9869460879
 21
4.417177795
  0
LINE
  5
26A
100
AcDbEntity
  8
0
100
AcDbLine
 62
7
  6
CONTINUOUS
 10
4.7938224228
 20
4.751677795
 11
4.4075750927
 21
4.751677795
  0
LINE
  5
26B
100
AcDbEntity
  8
0
100
AcDbLine
 62
7
  6
CONTINUOUS
 10
4.9869460879
 20
4.417177795
 11
4.7938224228
 21
4.751677795
  0
LINE
  5
26C
100
AcDbEntity
  8
0
100
AcDbLine
 62
7
  6
CONTINUOUS
 10
5.2057354286
 20
5.6359425323
 11
5.2057354286
 21
5.2248530879
  0
LINE
  5
26D
100
AcDbEntity
  8
0
100
AcDbLine
 62
7
  6
CONTINUOUS
 10
5.2057354286
 20
3.6095025021
 11
5.2057354286
 21
3.1984130577
  0
LINE
  5
26E
100
AcDbEntity
  8
0
100
AcDbLine
 62
7
  6
CONTINUOUS
 10
5.2227460019
 20
3.1484063415
 11
5.2227460019
 21
3.6595247838
  0
LINE
  5
26F
100
AcDbEntity
  8
0
100
AcDbLine
 62
7
  6
CONTINUOUS
 10
5.2227460019
 20
5.1748308328
 11
5.2227460019
 21
5.6859492485
  0
LINE
  5
270
100
AcDbEntity
  8
0
100
AcDbLine
 62
7
  6
CONTINUOUS
 10
4.1837913252
 20
5.0881919688
 11
4.0144007064
 21
5.0881987611
  0
LWPOLYLINE
  5
271
100
AcDbEntity
  8
0
100
AcDbPolyline
 62
7
  6
CONTINUOUS
 90
4
 70
0
 10
5.227950464
 20
4.8973404381
 10
5.2192479206
 20
4.944265976
 10
5.2092361892
 20
4.9932107228
 10
5.1983543833
 20
5.0418322231
  0
LWPOLYLINE
  5
272
100
AcDbEntity
  8
0
100
AcDbPolyline
 62
7
  6
CONTINUOUS
 90
5
 70
0
 10
5.1867345863
 20
3.7446703553
 10
5.1983136229
 20
3.7923488329
 10
5.2091985437
 20
3.8409691145
 10
5.2192134247
 20
3.8899127336
 10
5.2279524778
 20
3.9370177349
  0
LINE
  5
273
100
AcDbEntity
  8
0
100
AcDbLine
 62
7
  6
CONTINUOUS
 10
3.9786516508
 20
5.1755662722
 11
4.2554572662
 21
5.1755662722
  0
LINE
  5
274
100
AcDbEntity
  8
0
100
AcDbLine
 62
7
  6
CONTINUOUS
 10
4.8760275362
 20
5.1756198686
 11
4.8215405007
 21
5.1756198686
  0
LINE
  5
275
100
AcDbEntity
  8
0
100
AcDbLine
 62
7
  6
CONTINUOUS
 10
5.2227674187
 20
5.175626767
 11
4.9471730954
 21
5.175626767
  0
LINE
  5
276
100
AcDbEntity
  8
0
100
AcDbLine
 62
7
  6
CONTINUOUS
 10
3.9786515137
 20
5.2248530879
 11
3.9956620869
 21
5.2248530879
  0
LINE
  5
277
100
AcDbEntity
  8
0
100
AcDbLine
 62
7
  6
CONTINUOUS
 10
4.5836881846
 20
5.2248530879
 11
4.617709331
 21
5.2248530879
  0
LINE
  5
278
100
AcDbEntity
  8
0
100
AcDbLine
 62
7
  6
CONTINUOUS
 10
5.2057354286
 20
5.2248530879
 11
5.2227460019
 21
5.2248530879
  0
LWPOLYLINE
  5
279
100
AcDbEntity
  8
0
100
AcDbPolyline
 62
7
  6
CONTINUOUS
 90
30
 70
0
 10
5.1983543833
 20
5.0418322231
 10
5.1867357563
 20
5.0896801551
 10
5.1860184291
 20
5.09313126
 10
5.1854557075
 20
5.0966150893
 10
5.1850500642
 20
5.1001161871
 10
5.1848017276
 20
5.1036272474
 10
5.1847105364
 20
5.1071498351
 10
5.1847770591
 20
5.1106734644
 10
5.185000843
 20
5.1141866075
 10
5.1853819141
 20
5.1176899433
 10
5.1859194135
 20
5.1211730501
 10
5.1866114272
 20
5.124625004
 10
5.1874579677
 20
5.1280459403
 10
5.1884567236
 20
5.1314255502
 10
5.1896044274
 20
5.1347536496
 10
5.1909011151
 20
5.1380303711
 10
5.1923431156
 20
5.1412457947
 10
5.1939258843
 20
5.1443903643
 10
5.1956494887
 20
5.1474641941
 10
5.1975089161
 20
5.1504578401
 10
5.199498396
 20
5.1533624526
 10
5.2016180125
 20
5.1561781305
 10
5.2038612809
 20
5.1588958849
 10
5.2062213367
 20
5.1615078287
 10
5.2086986406
 20
5.1640144472
 10
5.2112852585
 20
5.1664073789
 10
5.2139732846
 20
5.1686797145
 10
5.2167639376
 20
5.1708324197
 10
5.219651825
 20
5.1728605619
 10
5.2227460019
 20
5.1748288637
  0
LINE
  5
27A
100
AcDbEntity
  8
0
100
AcDbLine
 62
7
  6
CONTINUOUS
 10
3.9786515137
 20
5.6359425323
 11
3.9956620869
 21
5.6359425323
  0
LINE
  5
27B
100
AcDbEntity
  8
0
100
AcDbLine
 62
7
  6
CONTINUOUS
 10
4.5836881846
 20
5.6359425323
 11
4.617709331
 21
5.6359425323
  0
LINE
  5
27C
100
AcDbEntity
  8
0
100
AcDbLine
 62
7
  6
CONTINUOUS
 10
5.2057354286
 20
5.6359425323
 11
5.2227460019
 21
5.6359425323
  0
LINE
  5
27D
100
AcDbEntity
  8
0
100
AcDbLine
 62
7
  6
CONTINUOUS
 10
5.2109349782
 20
5.6927683462
 11
3.9904625373
 21
5.6927683462
  0
LINE
  5
27E
100
AcDbEntity
  8
0
100
AcDbLine
 62
7
  6
CONTINUOUS
 10
5.2109349782
 20
3.1415872438
 11
5.2227460019
 21
3.1484063415
  0
LINE
  5
27F
100
AcDbEntity
  8
0
100
AcDbLine
 62
7
  6
CONTINUOUS
 10
5.2227460019
 20
5.6859492485
 11
5.2109349782
 21
5.6927683462
  0
ARC
  5
280
100
AcDbEntity
  8
0
100
AcDbCircle
 62
7
  6
CONTINUOUS
 10
-6.0565765916
 20
0.8701961878
 40
11.2442344473
100
AcDbArc
 50
18.7632794713
 51
18.8798234146
  0
ARC
  5
281
100
AcDbEntity
  8
0
100
AcDbCircle
 62
7
  6
CONTINUOUS
 10
1.5002040447
 20
-4.9301662255
 40
9.860302233
100
AcDbArc
 50
71.1119978815
 51
71.2448992327
  0
ARC
  5
282
100
AcDbEntity
  8
0
100
AcDbCircle
 62
7
  6
CONTINUOUS
 10
3.6091752487
 20
2.0227502417
 40
2.6283663329
100
AcDbArc
 50
66.676433546
 51
67.1740791314
  0
ARC
  5
283
100
AcDbEntity
  8
0
100
AcDbCircle
 62
7
  6
CONTINUOUS
 10
2.2198580324
 20
3.4314424818
 40
2.6135980911
100
AcDbArc
 50
22.8245148764
 51
23.3249724462
  0
ARC
  5
284
100
AcDbEntity
  8
0
100
AcDbCircle
 62
7
  6
CONTINUOUS
 10
2.3004818155
 20
4.4109392323
 40
2.3197712604
100
AcDbArc
 50
357.8942703697
 51
358.9411171091
  0
ARC
  5
285
100
AcDbEntity
  8
0
100
AcDbCircle
 62
7
  6
CONTINUOUS
 10
4.5944601951
 20
2.1169608529
 40
2.3197712602
100
AcDbArc
 50
91.0588828909
 51
92.1057296304
  0
ARC
  5
286
100
AcDbEntity
  8
0
100
AcDbCircle
 62
7
  6
CONTINUOUS
 10
4.2875653804
 20
2.8136835045
 40
0.845882993
100
AcDbArc
 50
81.740291604
 51
87.5072877296
  0
ARC
  5
287
100
AcDbEntity
  8
0
100
AcDbCircle
 62
7
  6
CONTINUOUS
 10
4.2896744484
 20
2.8515671579
 40
0.807943589
100
AcDbArc
 50
87.5398680906
 51
92.427531664
  0
ARC
  5
288
100
AcDbEntity
  8
0
100
AcDbCircle
 62
7
  6
CONTINUOUS
 10
3.9380325818
 20
3.7269823264
 40
0.0787384838
100
AcDbArc
 50
301.0557183356
 51
14.0943303325
  0
ARC
  5
289
100
AcDbEntity
  8
0
100
AcDbCircle
 62
7
  6
CONTINUOUS
 10
1.0537171504
 20
15.0744531448
 40
11.2442344477
100
AcDbArc
 50
288.7632794713
 51
288.8798234146
  0
ARC
  5
28A
100
AcDbEntity
  8
0
100
AcDbCircle
 62
7
  6
CONTINUOUS
 10
-4.7466452636
 20
7.5176725084
 40
9.8603022339
100
AcDbArc
 50
341.1119978815
 51
341.2448992326
  0
ARC
  5
28B
100
AcDbEntity
  8
0
100
AcDbCircle
 62
7
  6
CONTINUOUS
 10
2.2062712044
 20
5.4087013041
 40
2.628366333
100
AcDbArc
 50
336.676433546
 51
337.1740791314
  0
ARC
  5
28C
100
AcDbEntity
  8
0
100
AcDbCircle
 62
7
  6
CONTINUOUS
 10
3.6149634445
 20
6.7980185204
 40
2.613598091
100
AcDbArc
 50
292.8245148764
 51
293.3249724462
  0
ARC
  5
28D
100
AcDbEntity
  8
0
100
AcDbCircle
 62
7
  6
CONTINUOUS
 10
2.3004818155
 20
4.4234163577
 40
2.3197712604
100
AcDbArc
 50
1.0588828909
 51
2.1057296303
  0
ARC
  5
28E
100
AcDbEntity
  8
0
100
AcDbCircle
 62
7
  6
CONTINUOUS
 10
4.5944601951
 20
6.7173947371
 40
2.3197712602
100
AcDbArc
 50
267.8942703696
 51
268.9411171091
  0
ARC
  5
28F
100
AcDbEntity
  8
0
100
AcDbCircle
 62
7
  6
CONTINUOUS
 10
4.2875601945
 20
6.0207069461
 40
0.8459181941
100
AcDbArc
 50
272.4929603798
 51
278.256242296
  0
ARC
  5
290
100
AcDbEntity
  8
0
100
AcDbCircle
 62
7
  6
CONTINUOUS
 10
4.2896743729
 20
5.9829928028
 40
0.8081479225
100
AcDbArc
 50
267.5730875034
 51
272.4595151969
  0
ARC
  5
291
100
AcDbEntity
  8
0
100
AcDbCircle
 62
7
  6
CONTINUOUS
 10
3.9380322929
 20
5.107373142
 40
0.0787387543
100
AcDbArc
 50
345.9056734665
 51
58.9441547511
  0
ARC
  5
292
100
AcDbEntity
  8
0
100
AcDbCircle
 62
7
  6
CONTINUOUS
 10
8.1476803649
 20
-6.2400975542
 40
11.2442344472
100
AcDbArc
 50
108.7632794713
 51
108.8798234146
  0
ARC
  5
293
100
AcDbEntity
  8
0
100
AcDbCircle
 62
7
  6
CONTINUOUS
 10
13.9480427783
 20
1.316683082
 40
9.860302233
100
AcDbArc
 50
161.1119978815
 51
161.2448992327
  0
ARC
  5
294
100
AcDbEntity
  8
0
100
AcDbCircle
 62
7
  6
CONTINUOUS
 10
6.9951263111
 20
3.425654286
 40
2.6283663329
100
AcDbArc
 50
156.676433546
 51
157.1740791314
  0
ARC
  5
295
100
AcDbEntity
  8
0
100
AcDbCircle
 62
7
  6
CONTINUOUS
 10
5.586434071
 20
2.0363370697
 40
2.613598091
100
AcDbArc
 50
112.8245148764
 51
113.3249724462
  0
ARC
  5
296
100
AcDbEntity
  8
0
100
AcDbCircle
 62
7
  6
CONTINUOUS
 10
6.9009157001
 20
4.4109392323
 40
2.3197712604
100
AcDbArc
 50
181.0588828909
 51
182.1057296303
  0
ARC
  5
297
100
AcDbEntity
  8
0
100
AcDbCircle
 62
7
  6
CONTINUOUS
 10
4.6069373205
 20
2.1169608529
 40
2.3197712602
100
AcDbArc
 50
87.8942703696
 51
88.9411171091
  0
ARC
  5
298
100
AcDbEntity
  8
0
100
AcDbCircle
 62
7
  6
CONTINUOUS
 10
4.9138691865
 20
2.8133413582
 40
0.8462269104
100
AcDbArc
 50
92.5622822269
 51
98.2586176626
  0
ARC
  5
299
100
AcDbEntity
  8
0
100
AcDbCircle
 62
7
  6
CONTINUOUS
 10
4.9117287898
 20
2.8678458225
 40
0.7916798501
100
AcDbArc
 50
87.4335578768
 51
92.5838770156
  0
CIRCLE
  5
29A
100
AcDbEntity
  8
0
100
AcDbCircle
 62
7
  6
CONTINUOUS
 10
4.6006987578
 20
4.417177795
 40
0.79
  0
CIRCLE
  5
29B
100
AcDbEntity
  8
0
100
AcDbCircle
 62
7
  6
CONTINUOUS
 10
4.6006987578
 20
4.417177795
 40
0.6415
  0
CIRCLE
  5
29C
100
AcDbEntity
  8
0
100
AcDbCircle
 62
7
  6
CONTINUOUS
 10
4.6006987578
 20
4.417177795
 40
0.3905
  0
ARC
  5
29D
100
AcDbEntity
  8
0
100
AcDbCircle
 62
7
  6
CONTINUOUS
 10
4.6006987578
 20
4.417177795
 40
0.360266568
100
AcDbArc
 50
351.801028739
 51
8.198971261
  0
ARC
  5
29E
100
AcDbEntity
  8
0
100
AcDbCircle
 62
7
  6
CONTINUOUS
 10
4.6006987578
 20
4.417177795
 40
0.360266568
100
AcDbArc
 50
51.801028739
 51
68.198971261
  0
ARC
  5
29F
100
AcDbEntity
  8
0
100
AcDbCircle
 62
7
  6
CONTINUOUS
 10
4.6006987578
 20
4.417177795
 40
0.360266568
100
AcDbArc
 50
291.801028739
 51
308.198971261
  0
ARC
  5
2A0
100
AcDbEntity
  8
0
100
AcDbCircle
 62
7
  6
CONTINUOUS
 10
4.6006987578
 20
4.417177795
 40
0.360266568
100
AcDbArc
 50
111.801028739
 51
128.198971261
  0
ARC
  5
2A1
100
AcDbEntity
  8
0
100
AcDbCircle
 62
7
  6
CONTINUOUS
 10
4.6006987578
 20
4.417177795
 40
0.360266568
100
AcDbArc
 50
231.801028739
 51
248.198971261
  0
ARC
  5
2A2
100
AcDbEntity
  8
0
100
AcDbCircle
 62
7
  6
CONTINUOUS
 10
4.6006987578
 20
4.417177795
 40
0.360266568
100
AcDbArc
 50
171.801028739
 51
188.198971261
  0
CIRCLE
  5
2A3
100
AcDbEntity
  8
0
100
AcDbCircle
 62
7
  6
CONTINUOUS
 10
4.6006987578
 20
4.417177795
 40
0.2985
  0
ARC
  5
2A4
100
AcDbEntity
  8
0
100
AcDbCircle
 62
7
  6
CONTINUOUS
 10
4.6006987578
 20
4.417177795
 40
0.28125
100
AcDbArc
 50
54.3733671626
 51
53.9482003141
  0
ARC
  5
2A5
100
AcDbEntity
  8
0
100
AcDbCircle
 62
7
  6
CONTINUOUS
 10
4.6007154032
 20
4.4171895043
 40
0.2541645967
100
AcDbArc
 50
359.997360296
 51
91.4629753837
  0
CIRCLE
  5
2A6
100
AcDbEntity
  8
0
100
AcDbCircle
 62
7
  6
CONTINUOUS
 10
4.6006987578
 20
4.417177795
 40
0.25125
  0
CIRCLE
  5
2A7
100
AcDbEntity
  8
0
100
AcDbCircle
 62
7
  6
CONTINUOUS
 10
4.6006987578
 20
4.417177795
 40
0.1955
  0
ARC
  5
2A8
100
AcDbEntity
  8
0
100
AcDbCircle
 62
7
  6
CONTINUOUS
 10
4.6006987578
 20
4.417177795
 40
0.185
100
AcDbArc
 50
141.6665846093
 51
150.8334153907
  0
ARC
  5
2A9
100
AcDbEntity
  8
0
100
AcDbCircle
 62
7
  6
CONTINUOUS
 10
4.6006987578
 20
4.417177795
 40
0.185
100
AcDbArc
 50
119.1665846093
 51
128.3334153907
  0
ARC
  5
2AA
100
AcDbEntity
  8
0
100
AcDbCircle
 62
7
  6
CONTINUOUS
 10
4.6006987578
 20
4.417177795
 40
0.185
100
AcDbArc
 50
96.6665846093
 51
105.8334153907
  0
ARC
  5
2AB
100
AcDbEntity
  8
0
100
AcDbCircle
 62
7
  6
CONTINUOUS
 10
4.6006987578
 20
4.417177795
 40
0.185
100
AcDbArc
 50
74.1665846093
 51
83.3334153907
  0
ARC
  5
2AC
100
AcDbEntity
  8
0
100
AcDbCircle
 62
7
  6
CONTINUOUS
 10
4.6006987578
 20
4.417177795
 40
0.185
100
AcDbArc
 50
51.6665846093
 51
60.8334153907
  0
ARC
  5
2AD
100
AcDbEntity
  8
0
100
AcDbCircle
 62
7
  6
CONTINUOUS
 10
4.6006987578
 20
4.417177795
 40
0.185
100
AcDbArc
 50
29.1665846093
 51
38.3334153907
  0
ARC
  5
2AE
100
AcDbEntity
  8
0
100
AcDbCircle
 62
7
  6
CONTINUOUS
 10
4.6006987578
 20
4.417177795
 40
0.185
100
AcDbArc
 50
6.6665846093
 51
15.8334153907
  0
ARC
  5
2AF
100
AcDbEntity
  8
0
100
AcDbCircle
 62
7
  6
CONTINUOUS
 10
4.6006987578
 20
4.417177795
 40
0.185
100
AcDbArc
 50
164.1665846093
 51
173.3334153907
  0
ARC
  5
2B0
100
AcDbEntity
  8
0
100
AcDbCircle
 62
7
  6
CONTINUOUS
 10
4.6006987578
 20
4.417177795
 40
0.185
100
AcDbArc
 50
344.1665846093
 51
353.3334153907
  0
ARC
  5
2B1
100
AcDbEntity
  8
0
100
AcDbCircle
 62
7
  6
CONTINUOUS
 10
4.6006987578
 20
4.417177795
 40
0.185
100
AcDbArc
 50
321.6665846093
 51
330.8334153907
  0
ARC
  5
2B2
100
AcDbEntity
  8
0
100
AcDbCircle
 62
7
  6
CONTINUOUS
 10
4.6006987578
 20
4.417177795
 40
0.185
100
AcDbArc
 50
299.1665846093
 51
308.3334153907
  0
ARC
  5
2B3
100
AcDbEntity
  8
0
100
AcDbCircle
 62
7
  6
CONTINUOUS
 10
4.6006987578
 20
4.417177795
 40
0.185
100
AcDbArc
 50
276.6665846093
 51
285.8334153907
  0
ARC
  5
2B4
100
AcDbEntity
  8
0
100
AcDbCircle
 62
7
  6
CONTINUOUS
 10
4.6006987578
 20
4.417177795
 40
0.185
100
AcDbArc
 50
254.1665846093
 51
263.3334153907
  0
ARC
  5
2B5
100
AcDbEntity
  8
0
100
AcDbCircle
 62
7
  6
CONTINUOUS
 10
4.6006987578
 20
4.417177795
 40
0.185
100
AcDbArc
 50
231.6665846093
 51
240.8334153907
  0
ARC
  5
2B6
100
AcDbEntity
  8
0
100
AcDbCircle
 62
7
  6
CONTINUOUS
 10
4.6006987578
 20
4.417177795
 40
0.185
100
AcDbArc
 50
209.1665846093
 51
218.3334153907
  0
ARC
  5
2B7
100
AcDbEntity
  8
0
100
AcDbCircle
 62
7
  6
CONTINUOUS
 10
4.6006987578
 20
4.417177795
 40
0.185
100
AcDbArc
 50
186.6665846093
 51
195.8334153907
  0
ARC
  5
2B8
100
AcDbEntity
  8
0
100
AcDbCircle
 62
7
  6
CONTINUOUS
 10
4.6006987578
 20
4.417177795
 40
0.1635
100
AcDbArc
 50
154.1260218921
 51
160.8739781079
  0
ARC
  5
2B9
100
AcDbEntity
  8
0
100
AcDbCircle
 62
7
  6
CONTINUOUS
 10
4.6006987578
 20
4.417177795
 40
0.1635
100
AcDbArc
 50
131.6260218921
 51
138.3739781079
  0
ARC
  5
2BA
100
AcDbEntity
  8
0
100
AcDbCircle
 62
7
  6
CONTINUOUS
 10
4.6006987578
 20
4.417177795
 40
0.1635
100
AcDbArc
 50
109.1260218921
 51
115.8739781079
  0
ARC
  5
2BB
100
AcDbEntity
  8
0
100
AcDbCircle
 62
7
  6
CONTINUOUS
 10
4.6006987578
 20
4.417177795
 40
0.1635
100
AcDbArc
 50
86.6260218921
 51
93.3739781079
  0
ARC
  5
2BC
100
AcDbEntity
  8
0
100
AcDbCircle
 62
7
  6
CONTINUOUS
 10
4.6006987578
 20
4.417177795
 40
0.1635
100
AcDbArc
 50
64.1260218921
 51
70.8739781079
  0
ARC
  5
2BD
100
AcDbEntity
  8
0
100
AcDbCircle
 62
7
  6
CONTINUOUS
 10
4.6006987578
 20
4.417177795
 40
0.1635
100
AcDbArc
 50
41.6260218921
 51
48.3739781079
  0
ARC
  5
2BE
100
AcDbEntity
  8
0
100
AcDbCircle
 62
7
  6
CONTINUOUS
 10
4.6006987578
 20
4.417177795
 40
0.1635
100
AcDbArc
 50
19.1260218921
 51
25.8739781079
  0
ARC
  5
2BF
100
AcDbEntity
  8
0
100
AcDbCircle
 62
7
  6
CONTINUOUS
 10
4.6006987578
 20
4.417177795
 40
0.1635
100
AcDbArc
 50
356.6260218921
 51
3.3739781079
  0
ARC
  5
2C0
100
AcDbEntity
  8
0
100
AcDbCircle
 62
7
  6
CONTINUOUS
 10
4.6006987578
 20
4.417177795
 40
0.1635
100
AcDbArc
 50
334.1260218921
 51
340.8739781079
  0
ARC
  5
2C1
100
AcDbEntity
  8
0
100
AcDbCircle
 62
7
  6
CONTINUOUS
 10
4.6006987578
 20
4.417177795
 40
0.1635
100
AcDbArc
 50
311.6260218921
 51
318.3739781079
  0
ARC
  5
2C2
100
AcDbEntity
  8
0
100
AcDbCircle
 62
7
  6
CONTINUOUS
 10
4.6006987578
 20
4.417177795
 40
0.1635
100
AcDbArc
 50
289.1260218921
 51
295.8739781079
  0
ARC
  5
2C3
100
AcDbEntity
  8
0
100
AcDbCircle
 62
7
  6
CONTINUOUS
 10
4.6006987578
 20
4.417177795
 40
0.1635
100
AcDbArc
 50
266.6260218921
 51
273.3739781079
  0
ARC
  5
2C4
100
AcDbEntity
  8
0
100
AcDbCircle
 62
7
  6
CONTINUOUS
 10
4.6006987578
 20
4.417177795
 40
0.1635
100
AcDbArc
 50
244.1260218921
 51
250.8739781079
  0
ARC
  5
2C5
100
AcDbEntity
  8
0
100
AcDbCircle
 62
7
  6
CONTINUOUS
 10
4.6006987578
 20
4.417177795
 40
0.1635
100
AcDbArc
 50
221.6260218921
 51
228.3739781079
  0
ARC
  5
2C6
100
AcDbEntity
  8
0
100
AcDbCircle
 62
7
  6
CONTINUOUS
 10
4.6006987578
 20
4.417177795
 40
0.1635
100
AcDbArc
 50
199.1260218921
 51
205.8739781079
  0
ARC
  5
2C7
100
AcDbEntity
  8
0
100
AcDbCircle
 62
7
  6
CONTINUOUS
 10
4.6006987578
 20
4.417177795
 40
0.1635
100
AcDbArc
 50
176.6260218921
 51
183.3739781079
  0
CIRCLE
  5
2C8
100
AcDbEntity
  8
0
100
AcDbCircle
 62
7
  6
CONTINUOUS
 10
4.6006987578
 20
4.417177795
 40
0.157480315
  0
CIRCLE
  5
2C9
100
AcDbEntity
  8
0
100
AcDbCircle
 62
7
  6
CONTINUOUS
 10
4.6006987578
 20
4.417177795
 40
0.1495712214
  0
ARC
  5
2CA
100
AcDbEntity
  8
0
100
AcDbCircle
 62
7
  6
CONTINUOUS
 10
4.6006987578
 20
4.417177795
 40
0.0932272086
100
AcDbArc
 50
348.8752303572
 51
11.1247696428
  0
ARC
  5
2CB
100
AcDbEntity
  8
0
100
AcDbCircle
 62
7
  6
CONTINUOUS
 10
4.6006987578
 20
4.417177795
 40
0.0932272086
100
AcDbArc
 50
258.8752303572
 51
281.1247696428
  0
ARC
  5
2CC
100
AcDbEntity
  8
0
100
AcDbCircle
 62
7
  6
CONTINUOUS
 10
4.6006987578
 20
4.417177795
 40
0.0932272086
100
AcDbArc
 50
168.8752303572
 51
191.1247696428
  0
ARC
  5
2CD
100
AcDbEntity
  8
0
100
AcDbCircle
 62
7
  6
CONTINUOUS
 10
4.6006987578
 20
4.417177795
 40
0.0932272086
100
AcDbArc
 50
78.8752303572
 51
101.1247696428
  0
ARC
  5
2CE
100
AcDbEntity
  8
0
100
AcDbCircle
 62
7
  6
CONTINUOUS
 10
4.6006987578
 20
4.417177795
 40
0.0706281054
100
AcDbArc
 50
171.3609822788
 51
188.6390177212
  0
ARC
  5
2CF
100
AcDbEntity
  8
0
100
AcDbCircle
 62
7
  6
CONTINUOUS
 10
4.6006987578
 20
4.417177795
 40
0.0706281054
100
AcDbArc
 50
81.3609822788
 51
98.6390177212
  0
ARC
  5
2D0
100
AcDbEntity
  8
0
100
AcDbCircle
 62
7
  6
CONTINUOUS
 10
4.6006987578
 20
4.417177795
 40
0.0706281054
100
AcDbArc
 50
351.3609822788
 51
8.6390177212
  0
ARC
  5
2D1
100
AcDbEntity
  8
0
100
AcDbCircle
 62
7
  6
CONTINUOUS
 10
4.6006987578
 20
4.417177795
 40
0.0706281054
100
AcDbArc
 50
261.3609822788
 51
278.6390177212
  0
ARC
  5
2D2
100
AcDbEntity
  8
0
100
AcDbCircle
 62
7
  6
CONTINUOUS
 10
5.5922222668
 20
6.8116053484
 40
2.628366333
100
AcDbArc
 50
246.676433546
 51
247.1740791314
  0
ARC
  5
2D3
100
AcDbEntity
  8
0
100
AcDbCircle
 62
7
  6
CONTINUOUS
 10
4.6069373205
 20
6.7173947371
 40
2.3197712602
100
AcDbArc
 50
271.0588828909
 51
272.1057296304
  0
ARC
  5
2D4
100
AcDbEntity
  8
0
100
AcDbCircle
 62
7
  6
CONTINUOUS
 10
4.9138550202
 20
6.0208964837
 40
0.8461083498
100
AcDbArc
 50
261.7411848989
 51
267.4383192813
  0
ARC
  5
2D5
100
AcDbEntity
  8
0
100
AcDbCircle
 62
7
  6
CONTINUOUS
 10
6.6869671638
 20
4.4171777948
 40
2.7555313284
100
AcDbArc
 50
165.9056734442
 51
169.9577531379
  0
ARC
  5
2D6
100
AcDbEntity
  8
0
100
AcDbCircle
 62
7
  6
CONTINUOUS
 10
6.6869671638
 20
4.4171777948
 40
2.7555313284
100
AcDbArc
 50
190.0422462691
 51
194.0943303555
  0
ARC
  5
2D7
100
AcDbEntity
  8
0
100
AcDbCircle
 62
7
  6
CONTINUOUS
 10
6.981539483
 20
5.4029131082
 40
2.613598091
100
AcDbArc
 50
202.8245148764
 51
203.3249724462
  0
ARC
  5
2D8
100
AcDbEntity
  8
0
100
AcDbCircle
 62
7
  6
CONTINUOUS
 10
6.9009157001
 20
4.4234163577
 40
2.3197712604
100
AcDbArc
 50
177.8942703697
 51
178.9411171091
  0
ARC
  5
2D9
100
AcDbEntity
  8
0
100
AcDbCircle
 62
7
  6
CONTINUOUS
 10
7.7011934714
 20
13.7645218171
 40
9.8603022346
100
AcDbArc
 50
251.1119978815
 51
251.2448992326
  0
ARC
  5
2DA
100
AcDbEntity
  8
0
100
AcDbCircle
 62
7
  6
CONTINUOUS
 10
15.2579741075
 20
7.9641594024
 40
11.2442344477
100
AcDbArc
 50
198.7632794713
 51
198.8798234146
  0
SPLINE
  5
2DB
100
AcDbEntity
  8
0
100
AcDbSpline
 62
7
  6
CONTINUOUS
 70
0
 71
3
 72
52
 73
48
 74
0
 42
0.0000001
 43
0.0000001
 44
0.0000000001
 40
0.0
 40
0.0
 40
0.0
 40
0.0
 40
0.0312468076
 40
0.0624942826
 40
0.0937413162
 40
0.1093693768
 40
0.1249973537
 40
0.1562441863
 40
0.1874910829
 40
0.2031189667
 40
0.2187468667
 40
0.2343747522
 40
0.2500026272
 40
0.2656305312
 40
0.2812584613
 40
0.2968863896
 40
0.3125143865
 40
0.3281422989
 40
0.3437701455
 40
0.3593980159
 40
0.3750258775
 40
0.3906537476
 40
0.4062816897
 40
0.4219095714
 40
0.4375374224
 40
0.4531652987
 40
0.4687931014
 40
0.4844208871
 40
0.5000487097
 40
0.5156765635
 40
0.531304478
 40
0.5469323723
 40
0.5625601751
 40
0.5938063119
 40
0.6250523679
 40
0.6562984058
 40
0.687544272
 40
0.7187900933
 40
0.750035955
 40
0.7812818312
 40
0.812527509
 40
0.8437731066
 40
0.8750187401
 40
0.9062643743
 40
0.9375096914
 40
0.9687549235
 40
1.0
 40
1.0
 40
1.0
 40
1.0
 10
4.3305485609
 20
4.417177795
 30
0.0
 10
4.3307108871
 20
4.4085995505
 30
0.0
 10
4.3318531822
 20
4.3914469594
 30
0.0
 10
4.3360023405
 20
4.3660073896
 30
0.0
 10
4.3414677218
 20
4.3452269023
 30
0.0
 10
4.3470198108
 20
4.3289816525
 30
0.0
 10
4.3533463579
 20
4.313021934
 30
0.0
 10
4.3626807836
 20
4.2936698466
 30
0.0
 10
4.3738284882
 20
4.2753019509
 30
0.0
 10
4.383773186
 20
4.2613079958
 30
0.0
 10
4.3917320128
 20
4.2511830118
 30
0.0
 10
4.4001700734
 20
4.2414541891
 30
0.0
 10
4.4090680989
 20
4.2321440965
 30
0.0
 10
4.4184047292
 20
4.223273936
 30
0.0
 10
4.4281587567
 20
4.2148648799
 30
0.0
 10
4.4383080316
 20
4.2069372769
 30
0.0
 10
4.4488300574
 20
4.1995115093
 30
0.0
 10
4.4597003426
 20
4.1926055631
 30
0.0
 10
4.4708942869
 20
4.1862376742
 30
0.0
 10
4.4823844613
 20
4.1804213772
 30
0.0
 10
4.4941437003
 20
4.1751702941
 30
0.0
 10
4.5061441661
 20
4.1704966282
 30
0.0
 10
4.5183579545
 20
4.1664127189
 30
0.0
 10
4.5307564403
 20
4.1629294057
 30
0.0
 10
4.5433107896
 20
4.1600581055
 30
0.0
 10
4.5559906546
 20
4.1578050644
 30
0.0
 10
4.5687656238
 20
4.1561757215
 30
0.0
 10
4.5816049716
 20
4.1551731596
 30
0.0
 10
4.594477994
 20
4.1547996571
 30
0.0
 10
4.6073539474
 20
4.1550563915
 30
0.0
 10
4.6202017833
 20
4.1559441299
 30
0.0
 10
4.632990805
 20
4.1574622666
 30
0.0
 10
4.6499180179
 20
4.1603247957
 30
0.0
 10
4.6707820436
 20
4.1654666614
 30
0.0
 10
4.6950837731
 20
4.1740692979
 30
0.0
 10
4.7184205186
 20
4.1850264633
 30
0.0
 10
4.7405552551
 20
4.1982444559
 30
0.0
 10
4.7612684832
 20
4.2135942467
 30
0.0
 10
4.7803600002
 20
4.2309194957
 30
0.0
 10
4.7976361915
 20
4.2500562038
 30
0.0
 10
4.8129107976
 20
4.2708258546
 30
0.0
 10
4.8260328161
 20
4.2930179179
 30
0.0
 10
4.8368737683
 20
4.3164092786
 30
0.0
 10
4.8453156881
 20
4.3407697553
 30
0.0
 10
4.8512554067
 20
4.3658590461
 30
0.0
 10
4.8546370096
 20
4.3914152037
 30
0.0
 10
4.8551763818
 20
4.4086002421
 30
0.0
 10
4.8550030094
 20
4.417177795
 30
0.0
  0
SPLINE
  5
2DC
100
AcDbEntity
  8
0
100
AcDbSpline
 62
7
  6
CONTINUOUS
 70
0
 71
3
 72
44
 73
40
 74
0
 42
0.0000001
 43
0.0000001
 44
0.0000000001
 40
0.0
 40
0.0
 40
0.0
 40
0.0
 40
0.0312473379
 40
0.0624999443
 40
0.0937485328
 40
0.1249979867
 40
0.1562476473
 40
0.18749701
 40
0.218746501
 40
0.2499960363
 40
0.28124538
 40
0.3124947036
 40
0.3437440132
 40
0.3749933516
 40
0.4062427985
 40
0.4374922524
 40
0.4687415145
 40
0.4999907734
 40
0.5312399977
 40
0.5624892938
 40
0.5937385351
 40
0.6093654368
 40
0.6249923636
 40
0.6562414596
 40
0.6874905349
 40
0.7031174448
 40
0.718744371
 40
0.7499936542
 40
0.7812427432
 40
0.7968696459
 40
0.8124965611
 40
0.8437454885
 40
0.8749946263
 40
0.8906216645
 40
0.9062484608
 40
0.9374966493
 40
0.9531241455
 40
0.9687530967
 40
1.0
 40
1.0
 40
1.0
 40
1.0
 10
4.7661061951
 20
4.6446442249
 30
0.0
 10
4.7609322687
 20
4.6482671113
 30
0.0
 10
4.7503343496
 20
4.6551647496
 30
0.0
 10
4.7337810621
 20
4.6644171383
 30
0.0
 10
4.7166406482
 20
4.6725339252
 30
0.0
 10
4.6989896058
 20
4.6794684999
 30
0.0
 10
4.680909207
 20
4.6851914722
 30
0.0
 10
4.6624828603
 20
4.6896772652
 30
0.0
 10
4.6437950973
 20
4.6929054012
 30
0.0
 10
4.624931182
 20
4.6948572319
 30
0.0
 10
4.6059780314
 20
4.6955193311
 30
0.0
 10
4.5870240069
 20
4.6948846984
 30
0.0
 10
4.5681572803
 20
4.6929608902
 30
0.0
 10
4.5494652149
 20
4.689757284
 30
0.0
 10
4.5310349649
 20
4.6852866036
 30
0.0
 10
4.5129539802
 20
4.6795644689
 30
0.0
 10
4.4953085841
 20
4.6726141751
 30
0.0
 10
4.4781829816
 20
4.6644670307
 30
0.0
 10
4.4616563594
 20
4.6551645616
 30
0.0
 10
4.4458074817
 20
4.6447499841
 30
0.0
 10
4.4332272796
 20
4.6351813666
 30
0.0
 10
4.4235805276
 20
4.627019424
 30
0.0
 10
4.4142217521
 20
4.6185288012
 30
0.0
 10
4.4030823954
 20
4.6073161831
 30
0.0
 10
4.3927437991
 20
4.5953612319
 30
0.0
 10
4.3849842269
 20
4.5853879672
 30
0.0
 10
4.3775738221
 20
4.5751525428
 30
0.0
 10
4.3689819402
 20
4.5618863687
 30
0.0
 10
4.3613323351
 20
4.5480552308
 30
0.0
 10
4.3558040621
 20
4.5366922957
 30
0.0
 10
4.3506746859
 20
4.5251438573
 30
0.0
 10
4.3450217609
 20
4.5103838501
 30
0.0
 10
4.3404086809
 20
4.4952665496
 30
0.0
 10
4.3373568474
 20
4.4830041715
 30
0.0
 10
4.3347343103
 20
4.4706433295
 30
0.0
 10
4.3327617897
 20
4.4581517945
 30
0.0
 10
4.331450225
 20
4.4455833856
 30
0.0
 10
4.3305819282
 20
4.4329771231
 30
0.0
 10
4.3304290619
 20
4.4234928113
 30
0.0
 10
4.3305485609
 20
4.417177795
 30
0.0
  0
SPLINE
  5
2DD
100
AcDbEntity
  8
0
100
AcDbSpline
 62
7
  6
CONTINUOUS
 70
0
 71
3
 72
27
 73
23
 74
0
 42
0.0000001
 43
0.0000001
 44
0.0000000001
 40
0.0
 40
0.0
 40
0.0
 40
0.0
 40
0.0628863679
 40
0.1256450408
 40
0.1882761909
 40
0.250788277
 40
0.3131940076
 40
0.3443643572
 40
0.3755160234
 40
0.4066520494
 40
0.4377761384
 40
0.5
 40
0.5622238616
 40
0.5933479506
 40
0.6244839766
 40
0.6556356428
 40
0.6868059924
 40
0.749211723
 40
0.8117238091
 40
0.8743549591
 40
0.9371136321
 40
1.0
 40
1.0
 40
1.0
 40
1.0
 10
4.617709331
 20
3.1984130577
 30
0.0
 10
4.6296680962
 20
3.194593683
 30
0.0
 10
4.6536668589
 20
3.1872874637
 30
0.0
 10
4.6899437676
 20
3.1774340289
 30
0.0
 10
4.7264589557
 20
3.168816542
 30
0.0
 10
4.7631969801
 20
3.1615550558
 30
0.0
 10
4.79399013
 20
3.156728098
 30
0.0
 10
4.8187003122
 20
3.153653268
 30
0.0
 10
4.8372615503
 20
3.1517519626
 30
0.0
 10
4.8558511773
 20
3.1502624138
 30
0.0
 10
4.8806625272
 20
3.1488373531
 30
0.0
 10
4.9117223798
 20
3.1481190379
 30
0.0
 10
4.9427822325
 20
3.1488373531
 30
0.0
 10
4.9675935824
 20
3.1502624138
 30
0.0
 10
4.9861832093
 20
3.1517519626
 30
0.0
 10
5.0047444474
 20
3.153653268
 30
0.0
 10
5.0294546296
 20
3.156728098
 30
0.0
 10
5.0602477795
 20
3.1615550558
 30
0.0
 10
5.0969858039
 20
3.168816542
 30
0.0
 10
5.133500992
 20
3.1774340289
 30
0.0
 10
5.1697779007
 20
3.1872874637
 30
0.0
 10
5.1937766634
 20
3.194593683
 30
0.0
 10
5.2057354286
 20
3.1984130577
 30
0.0
  0
SPLINE
  5
2DE
100
AcDbEntity
  8
0
100
AcDbSpline
 62
7
  6
CONTINUOUS
 70
0
 71
3
 72
15
 73
11
 74
0
 42
0.0000001
 43
0.0000001
 44
0.0000000001
 40
0.0
 40
0.0
 40
0.0
 40
0.0
 40
0.1244287916
 40
0.248960532
 40
0.3736317359
 40
0.4984794294
 40
0.6235271845
 40
0.7487912819
 40
0.8742824956
 40
1.0
 40
1.0
 40
1.0
 40
1.0
 10
4.2554533953
 20
3.6587856925
 30
0.0
 10
4.2444632116
 20
3.658321191
 30
0.0
 10
4.2224901435
 20
3.6569453943
 30
0.0
 10
4.1896237299
 20
3.6535787269
 30
0.0
 10
4.1568726617
 20
3.6489590819
 30
0.0
 10
4.1242658723
 20
3.6431516733
 30
0.0
 10
4.0918241034
 20
3.6362322214
 30
0.0
 10
4.0595615806
 20
3.628282343
 30
0.0
 10
4.0274868029
 20
3.6193856028
 30
0.0
 10
4.006249163
 20
3.6128837886
 30
0.0
 10
3.9956620869
 20
3.6095025021
 30
0.0
  0
SPLINE
  5
2DF
100
AcDbEntity
  8
0
100
AcDbSpline
 62
7
  6
CONTINUOUS
 70
0
 71
3
 72
16
 73
12
 74
0
 42
0.0000001
 43
0.0000001
 44
0.0000000001
 40
0.0
 40
0.0
 40
0.0
 40
0.0
 40
0.1458597013
 40
0.2873549978
 40
0.4235098377
 40
0.4892924477
 40
0.5533851716
 40
0.6761318278
 40
0.7915211357
 40
0.89949417
 40
1.0
 40
1.0
 40
1.0
 40
1.0
 10
4.2741762883
 20
5.136486281
 30
0.0
 10
4.2737180597
 20
5.1385679373
 30
0.0
 10
4.27270472
 20
5.1426456562
 30
0.0
 10
4.2708792124
 20
5.1485623518
 30
0.0
 10
4.2691246424
 20
5.1532678719
 30
0.0
 10
4.2675972466
 20
5.1568434822
 30
0.0
 10
4.2660380455
 20
5.1601902921
 30
0.0
 10
4.2639715857
 20
5.1640979727
 30
0.0
 10
4.2612892583
 20
5.1683913824
 30
0.0
 10
4.2584798039
 20
5.172205835
 30
0.0
 10
4.2564738162
 20
5.1745048585
 30
0.0
 10
4.2554570059
 20
5.1755646913
 30
0.0
  0
LINE
  5
2E0
100
AcDbEntity
  8
0
100
AcDbLine
 62
7
  6
CONTINUOUS
 10
4.3243474416
 20
5.1755993301
 11
4.3797839597
 21
5.1756024036
  0
SPLINE
  5
2E1
100
AcDbEntity
  8
0
100
AcDbSpline
 62
7
  6
CONTINUOUS
 70
0
 71
3
 72
11
 73
7
 74
0
 42
0.0000001
 43
0.0000001
 44
0.0000000001
 40
0.0
 40
0.0
 40
0.0
 40
0.0
 40
0.2791455716
 40
0.5389692131
 40
0.7792922528
 40
1.0
 40
1.0
 40
1.0
 40
1.0
 10
4.3327715162
 20
5.1602962943
 30
0.0
 10
4.3321629923
 20
5.1618084168
 30
0.0
 10
4.3309072337
 20
5.164696467
 30
0.0
 10
4.3288398874
 20
5.1687535402
 30
0.0
 10
4.3266819836
 20
5.1723712043
 30
0.0
 10
4.3251339268
 20
5.174577712
 30
0.0
 10
4.3243480902
 20
5.1755991467
 30
0.0
  0
SPLINE
  5
2E2
100
AcDbEntity
  8
0
100
AcDbSpline
 62
7
  6
CONTINUOUS
 70
0
 71
3
 72
13
 73
9
 74
0
 42
0.0000001
 43
0.0000001
 44
0.0000000001
 40
0.0
 40
0.0
 40
0.0
 40
0.0
 40
0.2500124936
 40
0.375008365
 40
0.4999998782
 40
0.6249911521
 40
0.7499867143
 40
1.0
 40
1.0
 40
1.0
 40
1.0
 10
4.9471789163
 20
5.1756230141
 30
0.0
 10
4.9412540423
 20
5.1753627613
 30
0.0
 10
4.9323625508
 20
5.1750633974
 30
0.0
 10
4.9205035073
 20
5.1748614573
 30
0.0
 10
4.9116085136
 20
5.1748115051
 30
0.0
 10
4.9027135347
 20
5.1748633576
 30
0.0
 10
4.8908545587
 20
5.1750706296
 30
0.0
 10
4.8819632613
 20
5.1753745503
 30
0.0
 10
4.8760383184
 20
5.1756336626
 30
0.0
  0
SPLINE
  5
2E3
100
AcDbEntity
  8
0
100
AcDbSpline
 62
7
  6
CONTINUOUS
 70
0
 71
3
 72
33
 73
29
 74
0
 42
0.0000001
 43
0.0000001
 44
0.0000000001
 40
0.0
 40
0.0
 40
0.0
 40
0.0
 40
0.0624687985
 40
0.1249443127
 40
0.1874257849
 40
0.2186757464
 40
0.2499252443
 40
0.2811743209
 40
0.3124229402
 40
0.3436723257
 40
0.3749233125
 40
0.4061754464
 40
0.4374286306
 40
0.468682131
 40
0.4999352409
 40
0.5311882413
 40
0.562440824
 40
0.5936935353
 40
0.6249476702
 40
0.6562032826
 40
0.687459984
 40
0.7499600801
 40
0.7812177006
 40
0.8124754132
 40
0.8437326752
 40
0.874989556
 40
0.9374944337
 40
1.0
 40
1.0
 40
1.0
 40
1.0
 10
4.5942261252
 20
4.6712795168
 30
0.0
 10
4.6022190729
 20
4.6720842533
 30
0.0
 10
4.6182929548
 20
4.6729360179
 30
0.0
 10
4.6424077869
 20
4.6719115665
 30
0.0
 10
4.6623386775
 20
4.6691558286
 30
0.0
 10
4.6780721824
 20
4.6658510765
 30
0.0
 10
4.6897484276
 20
4.6628317326
 30
0.0
 10
4.7012743174
 20
4.6592831101
 30
0.0
 10
4.7126261114
 20
4.6552113911
 30
0.0
 10
4.7237782089
 20
4.6506201557
 30
0.0
 10
4.7347069269
 20
4.6455189326
 30
0.0
 10
4.7453894896
 20
4.6399195231
 30
0.0
 10
4.7558045414
 20
4.6338365012
 30
0.0
 10
4.7659333639
 20
4.6272878797
 30
0.0
 10
4.7757574981
 20
4.6202906054
 30
0.0
 10
4.7852596168
 20
4.6128622123
 30
0.0
 10
4.7944221194
 20
4.6050188188
 30
0.0
 10
4.8032245608
 20
4.5967730163
 30
0.0
 10
4.8116467005
 20
4.5881387131
 30
0.0
 10
4.8196732163
 20
4.5791343526
 30
0.0
 10
4.8298240145
 20
4.5666627607
 30
0.0
 10
4.8391335227
 20
4.55352524
 30
0.0
 10
4.8475505875
 20
4.5398236181
 30
0.0
 10
4.8534129151
 20
4.5292809337
 30
0.0
 10
4.8588121301
 20
4.5184939717
 30
0.0
 10
4.8653751388
 20
4.5038125422
 30
0.0
 10
4.8723641573
 20
4.4849429944
 30
0.0
 10
4.8766256521
 20
4.4694183354
 30
0.0
 10
4.8784211188
 20
4.4615833431
 30
0.0
  0
SPLINE
  5
2E4
100
AcDbEntity
  8
0
100
AcDbSpline
 62
7
  6
CONTINUOUS
 70
0
 71
3
 72
9
 73
5
 74
0
 42
0.0000001
 43
0.0000001
 44
0.0000000001
 40
0.0
 40
0.0
 40
0.0
 40
0.0
 40
0.2504948008
 40
1.0
 40
1.0
 40
1.0
 40
1.0
 10
4.5836881846
 20
3.6095025021
 30
0.0
 10
4.5763042978
 20
3.6118607582
 30
0.0
 10
4.5467490654
 20
3.6210269887
 30
0.0
 10
4.5168598419
 20
3.629133143
 30
0.0
 10
4.4942907869
 20
3.6344755712
 30
0.0
  0
SPLINE
  5
2E5
100
AcDbEntity
  8
0
100
AcDbSpline
 62
7
  6
CONTINUOUS
 70
0
 71
3
 72
27
 73
23
 74
0
 42
0.0000001
 43
0.0000001
 44
0.0000000001
 40
0.0
 40
0.0
 40
0.0
 40
0.0
 40
0.0628863679
 40
0.1256450409
 40
0.188276191
 40
0.2507882771
 40
0.3131940077
 40
0.3443643572
 40
0.3755160235
 40
0.4066520495
 40
0.4377761384
 40
0.5
 40
0.5622238616
 40
0.5933479505
 40
0.6244839765
 40
0.6556356427
 40
0.6868059923
 40
0.7492117229
 40
0.811723809
 40
0.8743549591
 40
0.9371136321
 40
1.0
 40
1.0
 40
1.0
 40
1.0
 10
3.9956620869
 20
3.1984130577
 30
0.0
 10
4.0076208521
 20
3.194593683
 30
0.0
 10
4.0316196149
 20
3.1872874637
 30
0.0
 10
4.0678965235
 20
3.1774340289
 30
0.0
 10
4.1044117117
 20
3.1688165419
 30
0.0
 10
4.1411497361
 20
3.1615550558
 30
0.0
 10
4.171942886
 20
3.156728098
 30
0.0
 10
4.1966530682
 20
3.153653268
 30
0.0
 10
4.2152143062
 20
3.1517519626
 30
0.0
 10
4.2338039332
 20
3.1502624138
 30
0.0
 10
4.2586152831
 20
3.1488373531
 30
0.0
 10
4.2896751357
 20
3.1481190379
 30
0.0
 10
4.3207349883
 20
3.1488373531
 30
0.0
 10
4.3455463382
 20
3.1502624138
 30
0.0
 10
4.3641359652
 20
3.1517519626
 30
0.0
 10
4.3826972032
 20
3.153653268
 30
0.0
 10
4.4074073855
 20
3.156728098
 30
0.0
 10
4.4382005353
 20
3.1615550558
 30
0.0
 10
4.4749385597
 20
3.1688165419
 30
0.0
 10
4.5114537479
 20
3.1774340289
 30
0.0
 10
4.5477306566
 20
3.1872874637
 30
0.0
 10
4.5717294193
 20
3.194593683
 30
0.0
 10
4.5836881846
 20
3.1984130577
 30
0.0
  0
LINE
  5
2E6
100
AcDbEntity
  8
0
100
AcDbLine
 62
7
  6
CONTINUOUS
 10
4.8215374149
 20
3.6587311204
 11
4.8760275303
 21
3.6587357285
  0
SPLINE
  5
2E7
100
AcDbEntity
  8
0
100
AcDbSpline
 62
7
  6
CONTINUOUS
 70
0
 71
3
 72
9
 73
5
 74
0
 42
0.0000001
 43
0.0000001
 44
0.0000000001
 40
0.0
 40
0.0
 40
0.0
 40
0.0
 40
0.2495489172
 40
1.0
 40
1.0
 40
1.0
 40
1.0
 10
4.7071080027
 20
3.6344758727
 30
0.0
 10
4.6995934082
 20
3.6326970664
 30
0.0
 10
4.6695579296
 20
3.6252439213
 30
0.0
 10
4.6398310933
 20
3.6165677215
 30
0.0
 10
4.617709331
 20
3.6095025021
 30
0.0
  0
SPLINE
  5
2E8
100
AcDbEntity
  8
0
100
AcDbSpline
 62
7
  6
CONTINUOUS
 70
0
 71
3
 72
27
 73
23
 74
0
 42
0.0000001
 43
0.0000001
 44
0.0000000001
 40
0.0
 40
0.0
 40
0.0
 40
0.0
 40
0.0628863679
 40
0.1256450409
 40
0.188276191
 40
0.2507882771
 40
0.3131940077
 40
0.3443643573
 40
0.3755160235
 40
0.4066520495
 40
0.4377761384
 40
0.5
 40
0.5622238616
 40
0.5933479505
 40
0.6244839765
 40
0.6556356428
 40
0.6868059923
 40
0.7492117229
 40
0.811723809
 40
0.8743549591
 40
0.9371136321
 40
1.0
 40
1.0
 40
1.0
 40
1.0
 10
5.2057354286
 20
5.6359425323
 30
0.0
 10
5.1937766634
 20
5.639761907
 30
0.0
 10
5.1697779007
 20
5.6470681263
 30
0.0
 10
5.133500992
 20
5.6569215611
 30
0.0
 10
5.0969858038
 20
5.6655390481
 30
0.0
 10
5.0602477794
 20
5.6728005343
 30
0.0
 10
5.0294546296
 20
5.677627492
 30
0.0
 10
5.0047444473
 20
5.6807023221
 30
0.0
 10
4.9861832093
 20
5.6826036275
 30
0.0
 10
4.9675935823
 20
5.6840931762
 30
0.0
 10
4.9427822324
 20
5.6855182369
 30
0.0
 10
4.9117223798
 20
5.6862365522
 30
0.0
 10
4.8806625272
 20
5.6855182369
 30
0.0
 10
4.8558511773
 20
5.6840931762
 30
0.0
 10
4.8372615503
 20
5.6826036275
 30
0.0
 10
4.8187003123
 20
5.6807023221
 30
0.0
 10
4.7939901301
 20
5.6776274921
 30
0.0
 10
4.7631969802
 20
5.6728005343
 30
0.0
 10
4.7264589558
 20
5.6655390481
 30
0.0
 10
4.6899437676
 20
5.6569215611
 30
0.0
 10
4.6536668589
 20
5.6470681263
 30
0.0
 10
4.6296680962
 20
5.639761907
 30
0.0
 10
4.617709331
 20
5.6359425323
 30
0.0
  0
SPLINE
  5
2E9
100
AcDbEntity
  8
0
100
AcDbSpline
 62
7
  6
CONTINUOUS
 70
0
 71
3
 72
27
 73
23
 74
0
 42
0.0000001
 43
0.0000001
 44
0.0000000001
 40
0.0
 40
0.0
 40
0.0
 40
0.0
 40
0.0628863679
 40
0.1256450409
 40
0.188276191
 40
0.2507882771
 40
0.3131940077
 40
0.3443643573
 40
0.3755160235
 40
0.4066520495
 40
0.4377761384
 40
0.5
 40
0.5622238616
 40
0.5933479505
 40
0.6244839765
 40
0.6556356428
 40
0.6868059923
 40
0.7492117229
 40
0.811723809
 40
0.8743549591
 40
0.9371136321
 40
1.0
 40
1.0
 40
1.0
 40
1.0
 10
4.5836881846
 20
5.6359425323
 30
0.0
 10
4.5717294193
 20
5.639761907
 30
0.0
 10
4.5477306566
 20
5.6470681263
 30
0.0
 10
4.5114537479
 20
5.6569215611
 30
0.0
 10
4.4749385597
 20
5.6655390481
 30
0.0
 10
4.4382005353
 20
5.6728005343
 30
0.0
 10
4.4074073855
 20
5.677627492
 30
0.0
 10
4.3826972032
 20
5.6807023221
 30
0.0
 10
4.3641359652
 20
5.6826036275
 30
0.0
 10
4.3455463382
 20
5.6840931762
 30
0.0
 10
4.3207349883
 20
5.6855182369
 30
0.0
 10
4.2896751357
 20
5.6862365522
 30
0.0
 10
4.2586152831
 20
5.6855182369
 30
0.0
 10
4.2338039332
 20
5.6840931762
 30
0.0
 10
4.2152143062
 20
5.6826036275
 30
0.0
 10
4.1966530682
 20
5.6807023221
 30
0.0
 10
4.171942886
 20
5.6776274921
 30
0.0
 10
4.1411497361
 20
5.6728005343
 30
0.0
 10
4.1044117117
 20
5.6655390481
 30
0.0
 10
4.0678965235
 20
5.6569215611
 30
0.0
 10
4.0316196149
 20
5.6470681263
 30
0.0
 10
4.0076208521
 20
5.639761907
 30
0.0
 10
3.9956620869
 20
5.6359425323
 30
0.0
  0
LINE
  5
2EA
100
AcDbEntity
  8
0
100
AcDbLine
 62
7
  6
CONTINUOUS
 10
5.0176928237
 20
3.7462010271
 11
5.1871035599
 21
3.7461962882
  0
LINE
  5
2EB
100
AcDbEntity
  8
0
100
AcDbLine
 62
7
  6
CONTINUOUS
 10
5.1871052583
 20
5.088152556
 11
5.0177018143
 21
5.0881488425
  0
SPLINE
  5
2EC
100
AcDbEntity
  8
0
100
AcDbSpline
 62
7
  6
CONTINUOUS
 70
0
 71
3
 72
15
 73
11
 74
0
 42
0.0000001
 43
0.0000001
 44
0.0000000001
 40
0.0
 40
0.0
 40
0.0
 40
0.0
 40
0.1257175031
 40
0.2512087162
 40
0.3764728117
 40
0.5015205657
 40
0.6263682607
 40
0.7510394554
 40
0.875571205
 40
1.0
 40
1.0
 40
1.0
 40
1.0
 10
3.9956620869
 20
5.2248530879
 30
0.0
 10
4.0062491631
 20
5.2214718014
 30
0.0
 10
4.0274868034
 20
5.2149699874
 30
0.0
 10
4.0595615812
 20
5.2060732464
 30
0.0
 10
4.0918241045
 20
5.198123368
 30
0.0
 10
4.1242658748
 20
5.1912039217
 30
0.0
 10
4.1568726605
 20
5.1853964904
 30
0.0
 10
4.1896237371
 20
5.1807768964
 30
0.0
 10
4.2224901444
 20
5.1774101873
 30
0.0
 10
4.2444632063
 20
5.1760342498
 30
0.0
 10
4.2554533906
 20
5.1755697483
 30
0.0
  0
SPLINE
  5
2ED
100
AcDbEntity
  8
0
100
AcDbSpline
 62
7
  6
CONTINUOUS
 70
0
 71
3
 72
9
 73
5
 74
0
 42
0.0000001
 43
0.0000001
 44
0.0000000001
 40
0.0
 40
0.0
 40
0.0
 40
0.0
 40
0.2495489978
 40
1.0
 40
1.0
 40
1.0
 40
1.0
 10
4.4943097828
 20
5.199884515
 30
0.0
 10
4.5018226598
 20
5.2016630681
 30
0.0
 10
4.5318512775
 20
5.2091150368
 30
0.0
 10
4.5615713866
 20
5.2177894541
 30
0.0
 10
4.5836881846
 20
5.2248530879
 30
0.0
  0
SPLINE
  5
2EE
100
AcDbEntity
  8
0
100
AcDbSpline
 62
7
  6
CONTINUOUS
 70
0
 71
3
 72
9
 73
5
 74
0
 42
0.0000001
 43
0.0000001
 44
0.0000000001
 40
0.0
 40
0.0
 40
0.0
 40
0.0
 40
0.2504948339
 40
1.0
 40
1.0
 40
1.0
 40
1.0
 10
4.617709331
 20
5.2248530879
 30
0.0
 10
4.625093322
 20
5.2224947986
 30
0.0
 10
4.6546489686
 20
5.2133284423
 30
0.0
 10
4.6845386175
 20
5.2052221993
 30
0.0
 10
4.7071079926
 20
5.1998797196
 30
0.0
  0
SPLINE
  5
2EF
100
AcDbEntity
  8
0
100
AcDbSpline
 62
7
  6
CONTINUOUS
 70
0
 71
3
 72
15
 73
11
 74
0
 42
0.0000001
 43
0.0000001
 44
0.0000000001
 40
0.0
 40
0.0
 40
0.0
 40
0.0
 40
0.124428696
 40
0.2489613292
 40
0.373633815
 40
0.4984826562
 40
0.6235310065
 40
0.7487948629
 40
0.8742848138
 40
1.0
 40
1.0
 40
1.0
 40
1.0
 10
4.9471789163
 20
5.1756230141
 30
0.0
 10
4.9581171759
 20
5.1761018045
 30
0.0
 10
4.9799859034
 20
5.1775020974
 30
0.0
 10
5.0126952762
 20
5.1808917918
 30
0.0
 10
5.0452895505
 20
5.185520965
 30
0.0
 10
5.0777403307
 20
5.1913252327
 30
0.0
 10
5.1100273308
 20
5.1982296414
 30
0.0
 10
5.1421366201
 20
5.2061537019
 30
0.0
 10
5.174059883
 20
5.2150150091
 30
0.0
 10
5.1951978765
 20
5.2214876184
 30
0.0
 10
5.2057354286
 20
5.2248530879
 30
0.0
  0
SPLINE
  5
2F0
100
AcDbEntity
  8
0
100
AcDbSpline
 62
7
  6
CONTINUOUS
 70
0
 71
3
 72
15
 73
11
 74
0
 42
0.0000001
 43
0.0000001
 44
0.0000000001
 40
0.0
 40
0.0
 40
0.0
 40
0.0
 40
0.1257151843
 40
0.2512051339
 40
0.3764689867
 40
0.5015173346
 40
0.6263661784
 40
0.7510386461
 40
0.8755712969
 40
1.0
 40
1.0
 40
1.0
 40
1.0
 10
5.2057354286
 20
3.6095025021
 30
0.0
 10
5.1951978632
 20
3.6128679759
 30
0.0
 10
5.1740598427
 20
3.6193405926
 30
0.0
 10
5.1421365395
 20
3.6282019108
 30
0.0
 10
5.1100272086
 20
3.6361259781
 30
0.0
 10
5.0777401648
 20
3.64303038
 30
0.0
 10
5.0452893507
 20
3.6488346926
 30
0.0
 10
5.0126950183
 20
3.6534637646
 30
0.0
 10
4.9799856163
 20
3.6568535334
 30
0.0
 10
4.9581168735
 20
3.6582540938
 30
0.0
 10
4.9471785992
 20
3.6587328823
 30
0.0
  0
SPLINE
  5
2F1
100
AcDbEntity
  8
0
100
AcDbSpline
 62
7
  6
CONTINUOUS
 70
0
 71
3
 72
11
 73
7
 74
0
 42
0.0000001
 43
0.0000001
 44
0.0000000001
 40
0.0
 40
0.0
 40
0.0
 40
0.0
 40
0.2791171261
 40
0.538931143
 40
0.7792636568
 40
1.0
 40
1.0
 40
1.0
 40
1.0
 10
4.3327712466
 20
3.6740586023
 30
0.0
 10
4.3321632155
 20
3.6725477373
 30
0.0
 10
4.3309085017
 20
3.6696619748
 30
0.0
 10
4.3288430168
 20
3.6656078608
 30
0.0
 10
4.3266870866
 20
3.6619923982
 30
0.0
 10
4.3251405103
 20
3.659786983
 30
0.0
 10
4.3243554246
 20
3.6587659418
 30
0.0
  0
SPLINE
  5
2F2
100
AcDbEntity
  8
0
100
AcDbSpline
 62
7
  6
CONTINUOUS
 70
0
 71
3
 72
16
 73
12
 74
0
 42
0.0000001
 43
0.0000001
 44
0.0000000001
 40
0.0
 40
0.0
 40
0.0
 40
0.0
 40
0.1005003421
 40
0.2084694324
 40
0.3238563462
 40
0.446602141
 40
0.5106950928
 40
0.5764784006
 40
0.7126358852
 40
0.8541352197
 40
1.0
 40
1.0
 40
1.0
 40
1.0
 10
4.2554531497
 20
3.6587868778
 30
0.0
 10
4.2564701607
 20
3.6598466649
 30
0.0
 10
4.2584765561
 20
3.6621456663
 30
0.0
 10
4.2612865852
 20
3.6659602293
 30
0.0
 10
4.263969482
 20
3.6702539183
 30
0.0
 10
4.2660363856
 20
3.6741619498
 30
0.0
 10
4.2675959213
 20
3.6775091215
 30
0.0
 10
4.2691236514
 20
3.6810851822
 30
0.0
 10
4.270878595
 20
3.685791359
 30
0.0
 10
4.2727044662
 20
3.691708945
 30
0.0
 10
4.2737179848
 20
3.6957873066
 30
0.0
 10
4.2741762876
 20
3.6978692992
 30
0.0
  0
ENDSEC
  0
SECTION
  2
OBJECTS
  0
DICTIONARY
  5
C
100
AcDbDictionary
280
0
281
1
  3
ACAD_GROUP
350
D
  3
ACAD_MLINESTYLE
350
17
  3
ACAD_LAYOUT
350
1A
  3
ACAD_PLOTSETTINGS
350
19
  3
ACAD_PLOTSTYLENAME
350
E
  0
DICTIONARY
  5
D
102
{ACAD_REACTORS
330
C
102
}
100
AcDbDictionary
280
0
281
1
  0
ACDBDICTIONARYWDFLT
  5
E
102
{ACAD_REACTORS
330
C
102
}
100
AcDbDictionary
281
1
  3
Normal
350
F
100
AcDbDictionaryWithDefault
340
F
  0
DICTIONARY
  5
17
102
{ACAD_REACTORS
330
C
102
}
100
AcDbDictionary
280
0
281
1
  3
Standard
350
18
  0
DICTIONARY
  5
19
102
{ACAD_REACTORS
330
C
102
}
100
AcDbDictionary
281
1
  0
DICTIONARY
  5
1A
102
{ACAD_REACTORS
330
C
102
}
100
AcDbDictionary
281
1
  3
Model
350
2F3
  3
Layout1
350
2F4
  0
ACDBPLACEHOLDER
  5
F
102
{ACAD_REACTORS
330
E
102
}
  0
MLINESTYLE
  5
18
102
{ACAD_REACTORS
330
17
102
}
100
AcDbMlineStyle
  2
STANDARD
 70
0
  3

 62
256
 51
90.0
 52
90.0
 71
2
 49
0.5
 62
256
  6
BYLAYER
 49
-0.5
 62
256
  6
BYLAYER
  0
LAYOUT
  5
2F3
102
{ACAD_REACTORS
330
1A
102
}
100
AcDbPlotSettings
  1

  2
none_device
  4
ANSI_A_(11.00_x_8.50_Inches)
  6

 40
0.0
 41
0.0
 42
0.0
 43
0.0
 44
279.4
 45
215.9
 46
0.0
 47
0.0
 48
0.0
 49
0.0
140
0.0
141
0.0
142
1.0
143
1.0
 70
1024
 72
0
 73
0
 74
0
  7

 75
0
147
1.0
148
0.0
149
0.0
100
AcDbLayout
  1
Model
 70
0
 71
0
 10
0.0
 20
0.0
 11
11.0
 21
8.5
 12
0.0
 22
0.0
 32
0.0
 14
0.0
 24
0.0
 34
0.0
 15
0.0
 25
0.0
 35
0.0
146
0.0
 13
0.0
 23
0.0
 33
0.0
 16
1.0
 26
0.0
 36
0.0
 17
0.0
 27
1.0
 37
0.0
 76
0
330
202
345
0
346
0
  0
LAYOUT
  5
2F4
102
{ACAD_REACTORS
330
1A
102
}
100
AcDbPlotSettings
  1

  2
none_device
  4
ANSI_A_(11.00_x_8.50_Inches)
  6

 40
0.0
 41
0.0
 42
0.0
 43
0.0
 44
279.4
 45
215.9
 46
0.0
 47
0.0
 48
0.0
 49
0.0
140
0.0
141
0.0
142
1.0
143
1.0
 70
0
 72
0
 73
0
 74
0
  7

 75
0
147
1.0
148
0.0
149
0.0
100
AcDbLayout
  1
Layout1
 70
0
 71
1
 10
0.0
 20
0.0
 11
11.0
 21
8.5
 12
0.0
 22
0.0
 32
0.0
 14
0.0
 24
0.0
 34
0.0
 15
0.0
 25
0.0
 35
0.0
146
0.0
 13
0.0
 23
0.0
 33
0.0
 16
1.0
 26
0.0
 36
0.0
 17
0.0
 27
1.0
 37
0.0
 76
0
330
203
345
0
346
0
  0
ENDSEC
  0
EOF
