999
DXF file: 1-636_top.dxf
999
Pro/ENGINEER 2018400 by Parametric Technology Corporation
  0
SECTION
  2
HEADER
  9
$ACADVER
  1
AC1027
  9
$DWGCODEPAGE
  3
ANSI_1252
  9
$EXTMAX
 10
11.0
 20
8.5
 30
0.0
  9
$EXTMIN
 10
0.0
 20
0.0
 30
0.0
  9
$LIMMIN
 10
0.0
 20
0.0
  9
$LIMMAX
 10
11.0
 20
8.5
  9
$VIEWCTR
 10
5.5
 20
4.25
  9
$VIEWSIZE
 40
8.5
  9
$CLAYER
  8
0
  9
$LTSCALE
 40
0.605
  9
$CELTYPE
  6
BYLAYER
  9
$DIMSCALE
 40
1.0
  9
$DIMASZ
 40
0.1
  9
$DIMEXO
 40
0.0625
  9
$DIMDLI
 40
0.418
  9
$DIMEXE
 40
0.125
  9
$DIMCEN
 40
0.099
  9
$DIMLFAC
 40
1.0
  9
$DIMBLK
  1
_FILLED
  9
$DIMALT
 70
1
  9
$DIMALTD
 70
1
  9
$DIMALTTD
 70
2
  9
$DIMALTF
 40
25.4
  9
$DIMTXT
 40
0.08
  9
$DIMTOL
 70
1
  9
$DIMLIM
 70
0
  9
$DIMTFAC
 40
1.0
  9
$DIMTP
 40
0.01
  9
$DIMTM
 40
0.01
  9
$DIMGAP
 40
0.09
  9
$DIMDSEP
 70
46
  9
$AUNITS
 70
0
  9
$PDMODE
 70
3
  9
$PDSIZE
 40
0.3125
  9
$HANDSEED
  5
43D
  9
$TILEMODE
 70
1
  9
$MEASUREMENT
 70
0
  9
$INSUNITS
 70
1
  0
ENDSEC
  0
SECTION
  2
CLASSES
  0
CLASS
  1
ACDBDICTIONARYWDFLT
  2
AcDbDictionaryWithDefault
  3
AutoCAD 2000
 90
0
 91
1
280
0
281
0
  0
CLASS
  1
ACDBPLACEHOLDER
  2
AcDbPlaceHolder
  3
AutoCAD 2000
 90
0
 91
1
280
0
281
0
  0
CLASS
  1
LAYOUT
  2
AcDbLayout
  3
AutoCAD 2000
 90
0
 91
0
280
0
281
0
  0
ENDSEC
  0
SECTION
  2
TABLES
  0
TABLE
  2
VPORT
  5
8
100
AcDbSymbolTable
 70
2
  0
VPORT
  5
1F4
100
AcDbSymbolTableRecord
100
AcDbViewportTableRecord
  2
*ACTIVE
 70
0
 10
0.0
 20
0.0
 11
1.0
 21
1.0
 12
5.5
 22
4.25
 13
0.0
 23
0.0
 14
1.0
 24
1.0
 15
0.0
 25
0.0
 16
0.0
 26
0.0
 36
1.0
 17
0.0
 27
0.0
 37
0.0
 40
8.5
 41
1.2941176471
 42
50.0
 43
0.0
 44
0.0
 50
0.0
 51
0.0
 71
0
 72
100
 73
1
 74
1
 75
0
 76
0
 77
0
 78
0
  0
ENDTAB
  0
TABLE
  2
LTYPE
  5
5
100
AcDbSymbolTable
 70
6
  0
LTYPE
  5
14
100
AcDbSymbolTableRecord
100
AcDbLinetypeTableRecord
  2
BYBLOCK
 70
0
  3

 72
65
 73
0
 40
0.0
  0
LTYPE
  5
15
100
AcDbSymbolTableRecord
100
AcDbLinetypeTableRecord
  2
BYLAYER
 70
0
  3

 72
65
 73
0
 40
0.0
  0
LTYPE
  5
16
100
AcDbSymbolTableRecord
100
AcDbLinetypeTableRecord
  2
CONTINUOUS
 70
64
  3
Solid line
 72
65
 73
0
 40
0.0
  0
LTYPE
  5
1F5
100
AcDbSymbolTableRecord
100
AcDbLinetypeTableRecord
  2
CENTER
 70
64
  3
____ _ ____ _ ____ _ ____ _ ____ _ ____ _ ____
 72
65
 73
4
 40
0.6
 49
0.375
 74
0
 49
-0.075
 74
0
 49
0.075
 74
0
 49
-0.075
 74
0
  0
LTYPE
  5
1F6
100
AcDbSymbolTableRecord
100
AcDbLinetypeTableRecord
  2
HIDDEN
 70
64
  3
- - - - - - - - - - - - - - - - - - - -
 72
65
 73
2
 40
0.2
 49
0.1
 74
0
 49
-0.1
 74
0
  0
LTYPE
  5
1F7
100
AcDbSymbolTableRecord
100
AcDbLinetypeTableRecord
  2
PHANTOM
 70
64
  3
_____ _ _ _____ _ _ _____ _ _ _____
 72
65
 73
6
 40
0.8
 49
0.45
 74
0
 49
-0.05
 74
0
 49
0.1
 74
0
 49
-0.05
 74
0
 49
0.1
 74
0
 49
-0.05
 74
0
  0
LTYPE
  5
1F8
100
AcDbSymbolTableRecord
100
AcDbLinetypeTableRecord
  2
DOT
 70
64
  3
. . . . . . . . . . . . . . . . . . . .
 72
65
 73
2
 40
0.2
 49
0.1
 74
0
 49
-0.1
 74
0
  0
LTYPE
  5
1F9
100
AcDbSymbolTableRecord
100
AcDbLinetypeTableRecord
  2
DASHED
 70
64
  3
- - - - - - - - - - - - - - - - - - - -
 72
65
 73
2
 40
0.2
 49
0.1
 74
0
 49
-0.1
 74
0
  0
ENDTAB
  0
TABLE
  2
LAYER
  5
2
100
AcDbSymbolTable
 70
36
  0
LAYER
  5
10
100
AcDbSymbolTableRecord
100
AcDbLayerTableRecord
  2
0
 70
0
 62
7
  6
CONTINUOUS
370
-3
390
F
  0
LAYER
  5
1FA
100
AcDbSymbolTableRecord
100
AcDbLayerTableRecord
  2
DEFAULT_1
 70
0
 62
7
  6
CENTER
370
-3
390
F
  0
LAYER
  5
1FB
100
AcDbSymbolTableRecord
100
AcDbLayerTableRecord
  2
DEFAULT_2
 70
0
 62
8
  6
HIDDEN
370
-3
390
F
  0
LAYER
  5
1FC
100
AcDbSymbolTableRecord
100
AcDbLayerTableRecord
  2
DEFAULT_3
 70
0
 62
7
  6
PHANTOM
370
-3
390
F
  0
LAYER
  5
1FD
100
AcDbSymbolTableRecord
100
AcDbLayerTableRecord
  2
DEFAULT_COORDINATE_SYSTEM
 70
0
 62
7
  6
CONTINUOUS
370
-3
390
F
  0
LAYER
  5
1FE
100
AcDbSymbolTableRecord
100
AcDbLayerTableRecord
  2
DEFAULT_DATUM_AXES
 70
0
 62
7
  6
CONTINUOUS
370
-3
390
F
  0
LAYER
  5
1FF
100
AcDbSymbolTableRecord
100
AcDbLayerTableRecord
  2
DEFAULT_DATUM_PLANES
 70
0
 62
7
  6
CONTINUOUS
370
-3
390
F
  0
ENDTAB
  0
TABLE
  2
STYLE
  5
3
100
AcDbSymbolTable
 70
1
  0
STYLE
  5
11
100
AcDbSymbolTableRecord
100
AcDbTextStyleTableRecord
  2
STANDARD
 70
0
 40
0.0
 41
0.8
 50
0.0
 71
0
 42
0.2
  3
txt
  4

  0
STYLE
  5
200
100
AcDbSymbolTableRecord
100
AcDbTextStyleTableRecord
  2
TEXTSTYLE_1
 70
0
 40
0.0
 41
0.8
 50
0.0
 71
0
 42
0.2
  3
gdt
  4

  0
ENDTAB
  0
TABLE
  2
VIEW
  5
6
100
AcDbSymbolTable
 70
0
  0
ENDTAB
  0
TABLE
  2
UCS
  5
7
100
AcDbSymbolTable
 70
0
  0
ENDTAB
  0
TABLE
  2
APPID
  5
9
100
AcDbSymbolTable
 70
1
  0
APPID
  5
201
100
AcDbSymbolTableRecord
100
AcDbRegAppTableRecord
  2
ACAD
 70
0
  0
ENDTAB
  0
TABLE
  2
BLOCK_RECORD
  5
1
100
AcDbSymbolTable
 70
0
  0
BLOCK_RECORD
  5
202
100
AcDbSymbolTableRecord
100
AcDbBlockTableRecord
  2
*Model_Space
  0
BLOCK_RECORD
  5
203
100
AcDbSymbolTableRecord
100
AcDbBlockTableRecord
  2
*Paper_Space
  0
BLOCK_RECORD
  5
204
100
AcDbSymbolTableRecord
100
AcDbBlockTableRecord
  2
_FILLED
  0
ENDTAB
  0
TABLE
  2
DIMSTYLE
  5
A
100
AcDbSymbolTable
 70
1
100
AcDbDimStyleTable
 71
0
  0
DIMSTYLE
105
205
100
AcDbSymbolTableRecord
100
AcDbDimStyleTableRecord
  2
STANDARD
 70
0
  3

  4

 40
1.0
 41
0.1
 42
0.0625
 43
0.38
 44
0.125
 45
0.0
 46
0.0
 47
0.01
 48
0.01
140
0.08
141
0.09
142
0.0
143
25.4
144
1.0
145
0.0
146
1.0
147
0.09
 71
1.0
 72
0.0
 73
1
 74
1
 75
0
 76
0
 77
0
 78
4
 79
1
170
1
171
1
172
0
173
0
174
0
175
0
176
0
177
0
178
0
270
2
179
2
271
2
272
2
273
2
274
2
275
0
280
0
281
0
282
0
283
1
284
4
285
0
286
0
287
3
288
0
340
11
278
46
341
204
342
204
343
204
344
204
  0
ENDTAB
  0
ENDSEC
  0
SECTION
  2
BLOCKS
  0
BLOCK
  5
20
100
AcDbEntity
  8
0
100
AcDbBlockBegin
  2
*Model_Space
 70
0
 10
0.0
 20
0.0
 30
0.0
  3
*Model_Space
  1

  0
ENDBLK
  5
21
100
AcDbEntity
  8
0
100
AcDbBlockEnd
  0
BLOCK
  5
1C
100
AcDbEntity
  8
0
100
AcDbBlockBegin
  2
*Paper_Space
 70
0
 10
0.0
 20
0.0
 30
0.0
  3
*Paper_Space
  1

  0
ENDBLK
  5
1D
100
AcDbEntity
  8
0
100
AcDbBlockEnd
  0
BLOCK
  5
206
100
AcDbEntity
  8
0
100
AcDbBlockBegin
  2
_FILLED
 70
64
 10
0.0
 20
0.0
  3
_FILLED
  1

  0
SOLID
  5
207
100
AcDbEntity
  8
0
  6
BYBLOCK
 62
0
100
AcDbTrace
 10
0.0
 20
0.0
 11
-1.0
 21
0.2
 12
-1.0
 22
-0.2
 13
-1.0
 23
-0.2
  0
ENDBLK
  5
208
100
AcDbEntity
  8
0
  6
BYBLOCK
 62
0
100
AcDbBlockEnd
  0
ENDSEC
  0
SECTION
  2
ENTITIES
  0
MTEXT
  5
209
100
AcDbEntity
  8
0
100
AcDbMText
 62
2
  6
CONTINUOUS
  7
STANDARD
 71
3
 72
1
 10
5.6960015528
 20
3.3576591615
 30
0.0
 11
1.0
 21
0.0
 31
0.0
 73
2
 44
0.9
  1
SCALE  .500
 40
0.08
 41
0.704
  0
LINE
  5
20A
100
AcDbEntity
  8
0
100
AcDbLine
 62
7
  6
CONTINUOUS
 10
0.0
 20
0.0
 11
0.0
 21
8.5
  0
LINE
  5
20B
100
AcDbEntity
  8
0
100
AcDbLine
 62
7
  6
CONTINUOUS
 10
0.0
 20
0.0
 11
11.0
 21
0.0
  0
LINE
  5
20C
100
AcDbEntity
  8
0
100
AcDbLine
 62
7
  6
CONTINUOUS
 10
0.0
 20
8.5
 11
11.0
 21
8.5
  0
LINE
  5
20D
100
AcDbEntity
  8
0
100
AcDbLine
 62
7
  6
CONTINUOUS
 10
11.0
 20
0.0
 11
11.0
 21
8.5
  0
LINE
  5
20E
100
AcDbEntity
  8
0
100
AcDbLine
 62
7
  6
CONTINUOUS
 10
2.639488678
 20
4.2583104024
 11
2.639488678
 21
4.7143992249
  0
LINE
  5
20F
100
AcDbEntity
  8
0
100
AcDbLine
 62
7
  6
CONTINUOUS
 10
2.6483112357
 20
4.2494878448
 11
2.6483083976
 21
4.2495094185
  0
LINE
  5
210
100
AcDbEntity
  8
0
100
AcDbLine
 62
7
  6
CONTINUOUS
 10
2.6772888968
 20
4.7431483873
 11
2.6661526025
 21
4.7238745566
  0
LINE
  5
211
100
AcDbEntity
  8
0
100
AcDbLine
 62
7
  6
CONTINUOUS
 10
2.713002712
 20
4.7442660657
 11
2.7018685274
 21
4.7249956856
  0
LINE
  5
212
100
AcDbEntity
  8
0
100
AcDbLine
 62
7
  6
CONTINUOUS
 10
2.7487191919
 20
4.7453827652
 11
2.7375837904
 21
4.7261101664
  0
LINE
  5
213
100
AcDbEntity
  8
0
100
AcDbLine
 62
7
  6
CONTINUOUS
 10
2.6838639254
 20
4.2485448237
 11
2.6951551946
 21
4.2290026497
  0
LINE
  5
214
100
AcDbEntity
  8
0
100
AcDbLine
 62
7
  6
CONTINUOUS
 10
2.7195798974
 20
4.2474052864
 11
2.7308576537
 21
4.2278863831
  0
LINE
  5
215
100
AcDbEntity
  8
0
100
AcDbLine
 62
7
  6
CONTINUOUS
 10
2.7552959582
 20
4.2462976189
 11
2.7665790833
 21
4.2267692909
  0
LINE
  5
216
100
AcDbEntity
  8
0
100
AcDbLine
 62
7
  6
CONTINUOUS
 10
2.7844255105
 20
4.7464997941
 11
2.7732994247
 21
4.7272431534
  0
LINE
  5
217
100
AcDbEntity
  8
0
100
AcDbLine
 62
7
  6
CONTINUOUS
 10
2.8201558904
 20
4.7476170238
 11
2.8090147504
 21
4.7283342112
  0
LINE
  5
218
100
AcDbEntity
  8
0
100
AcDbLine
 62
7
  6
CONTINUOUS
 10
2.8558649797
 20
4.7487333687
 11
2.844729943
 21
4.7294610192
  0
LINE
  5
219
100
AcDbEntity
  8
0
100
AcDbLine
 62
7
  6
CONTINUOUS
 10
2.8916198659
 20
4.7498532808
 11
2.8804464796
 21
4.730514292
  0
LINE
  5
21A
100
AcDbEntity
  8
0
100
AcDbLine
 62
7
  6
CONTINUOUS
 10
2.6658995478
 20
4.2320963837
 11
2.6752570027
 21
4.2482905449
  0
LINE
  5
21B
100
AcDbEntity
  8
0
100
AcDbLine
 62
7
  6
CONTINUOUS
 10
2.7910119011
 20
4.2451958758
 11
2.8023037828
 21
4.2256522756
  0
LINE
  5
21C
100
AcDbEntity
  8
0
100
AcDbLine
 62
7
  6
CONTINUOUS
 10
2.8267281074
 20
4.2440544921
 11
2.8380056134
 21
4.2245356272
  0
LINE
  5
21D
100
AcDbEntity
  8
0
100
AcDbLine
 62
7
  6
CONTINUOUS
 10
2.8624440755
 20
4.2429450743
 11
2.8737258425
 21
4.223418717
  0
LINE
  5
21E
100
AcDbEntity
  8
0
100
AcDbLine
 62
7
  6
CONTINUOUS
 10
2.6575464141
 20
4.723619724
 11
2.6543855432
 21
4.7290897694
  0
LINE
  5
21F
100
AcDbEntity
  8
0
100
AcDbLine
 62
7
  6
CONTINUOUS
 10
3.2426247931
 20
4.5635922303
 11
3.2441721107
 21
4.5753452743
  0
LINE
  5
220
100
AcDbEntity
  8
0
100
AcDbLine
 62
7
  6
CONTINUOUS
 10
3.2961950826
 20
4.4091173971
 11
3.294647765
 21
4.397364353
  0
LINE
  5
221
100
AcDbEntity
  8
0
100
AcDbLine
 62
7
  6
CONTINUOUS
 10
3.212038051
 20
4.4137964468
 11
3.2151062112
 21
4.4252469765
  0
LINE
  5
222
100
AcDbEntity
  8
0
100
AcDbLine
 62
7
  6
CONTINUOUS
 10
2.7003968541
 20
4.2288514047
 11
2.7109714331
 21
4.2471522206
  0
LINE
  5
223
100
AcDbEntity
  8
0
100
AcDbLine
 62
7
  6
CONTINUOUS
 10
2.7361056177
 20
4.2277346974
 11
2.7466860164
 21
4.2460457152
  0
LINE
  5
224
100
AcDbEntity
  8
0
100
AcDbLine
 62
7
  6
CONTINUOUS
 10
2.7718108617
 20
4.2266179437
 11
2.7824005109
 21
4.2449451117
  0
LINE
  5
225
100
AcDbEntity
  8
0
100
AcDbLine
 62
7
  6
CONTINUOUS
 10
2.8075389513
 20
4.2255008044
 11
2.8181152094
 21
4.2438049136
  0
LINE
  5
226
100
AcDbEntity
  8
0
100
AcDbLine
 62
7
  6
CONTINUOUS
 10
2.8432486132
 20
4.2243839608
 11
2.8538297383
 21
4.2426966282
  0
LINE
  5
227
100
AcDbEntity
  8
0
100
AcDbLine
 62
7
  6
CONTINUOUS
 10
2.8789634846
 20
4.2232663751
 11
2.8890760853
 21
4.2407683857
  0
LINE
  5
228
100
AcDbEntity
  8
0
100
AcDbLine
 62
7
  6
CONTINUOUS
 10
2.639488678
 20
4.7143992249
 11
2.6542344029
 21
4.7291449497
  0
LINE
  5
229
100
AcDbEntity
  8
0
100
AcDbLine
 62
7
  6
CONTINUOUS
 10
2.639488678
 20
4.2583104024
 11
2.648311233
 21
4.2494878475
  0
LINE
  5
22A
100
AcDbEntity
  8
0
100
AcDbLine
 62
7
  6
CONTINUOUS
 10
2.6484736822
 20
4.2493253983
 11
2.6657553505
 21
4.23204373
  0
LINE
  5
22B
100
AcDbEntity
  8
0
100
AcDbLine
 62
7
  6
CONTINUOUS
 10
2.6932608006
 20
4.7247420643
 11
2.6825384615
 21
4.7432985033
  0
LINE
  5
22C
100
AcDbEntity
  8
0
100
AcDbLine
 62
7
  6
CONTINUOUS
 10
2.7289745698
 20
4.7258577194
 11
2.718251487
 21
4.7444155982
  0
LINE
  5
22D
100
AcDbEntity
  8
0
100
AcDbLine
 62
7
  6
CONTINUOUS
 10
2.7646886404
 20
4.7269919365
 11
2.7539756363
 21
4.7455324822
  0
LINE
  5
22E
100
AcDbEntity
  8
0
100
AcDbLine
 62
7
  6
CONTINUOUS
 10
2.800402583
 20
4.7280840819
 11
2.789675615
 21
4.7466489243
  0
LINE
  5
22F
100
AcDbEntity
  8
0
100
AcDbLine
 62
7
  6
CONTINUOUS
 10
2.836116305
 20
4.7292120458
 11
2.8253955302
 21
4.7477663262
  0
LINE
  5
230
100
AcDbEntity
  8
0
100
AcDbLine
 62
7
  6
CONTINUOUS
 10
2.8718315602
 20
4.730266331
 11
2.8610764122
 21
4.7488800658
  0
LINE
  5
231
100
AcDbEntity
  8
0
100
AcDbLine
 62
7
  6
CONTINUOUS
 10
3.2151062112
 20
4.5474626509
 11
3.212038051
 21
4.5589131805
  0
LINE
  5
232
100
AcDbEntity
  8
0
100
AcDbLine
 62
7
  6
CONTINUOUS
 10
3.1958034361
 20
4.4283904614
 11
3.1951009185
 21
4.4312692472
  0
LINE
  5
233
100
AcDbEntity
  8
0
100
AcDbLine
 62
7
  6
CONTINUOUS
 10
3.1780797042
 20
4.5010190017
 11
3.1705506102
 21
4.5318718217
  0
LINE
  5
234
100
AcDbEntity
  8
0
100
AcDbLine
 62
7
  6
CONTINUOUS
 10
3.1904764262
 20
4.5345808515
 11
3.1899804346
 21
4.5366133324
  0
LINE
  5
235
100
AcDbEntity
  8
0
100
AcDbLine
 62
7
  6
CONTINUOUS
 10
3.2441721107
 20
4.397364353
 11
3.2426247931
 21
4.4091173971
  0
LINE
  5
236
100
AcDbEntity
  8
0
100
AcDbLine
 62
7
  6
CONTINUOUS
 10
3.294647765
 20
4.5753452743
 11
3.2961950826
 21
4.5635922303
  0
LINE
  5
237
100
AcDbEntity
  8
0
100
AcDbLine
 62
7
  6
CONTINUOUS
 10
3.3488394412
 20
4.5366133324
 11
3.3483434496
 21
4.5345808515
  0
LINE
  5
238
100
AcDbEntity
  8
0
100
AcDbLine
 62
7
  6
CONTINUOUS
 10
3.3682692656
 20
4.5318718217
 11
3.3607401716
 21
4.5010190017
  0
LINE
  5
239
100
AcDbEntity
  8
0
100
AcDbLine
 62
7
  6
CONTINUOUS
 10
3.3437189573
 20
4.4312692472
 11
3.3430164397
 21
4.4283904614
  0
LINE
  5
23A
100
AcDbEntity
  8
0
100
AcDbLine
 62
7
  6
CONTINUOUS
 10
3.3267818247
 20
4.5589131805
 11
3.3237136646
 21
4.5474626509
  0
LINE
  5
23B
100
AcDbEntity
  8
0
100
AcDbLine
 62
7
  6
CONTINUOUS
 10
3.0762862728
 20
4.4863548137
 11
3.1728481054
 21
4.6536048137
  0
LINE
  5
23C
100
AcDbEntity
  8
0
100
AcDbLine
 62
7
  6
CONTINUOUS
 10
3.2742211706
 20
4.5679631131
 11
3.2801484009
 21
4.5782293771
  0
LINE
  5
23D
100
AcDbEntity
  8
0
100
AcDbLine
 62
7
  6
CONTINUOUS
 10
2.898852224
 20
4.7464677633
 11
2.8968117042
 21
4.7499994621
  0
LINE
  5
23E
100
AcDbEntity
  8
0
100
AcDbLine
 62
7
  6
CONTINUOUS
 10
3.1728481054
 20
4.3191048137
 11
3.0762862728
 21
4.4863548137
  0
LINE
  5
23F
100
AcDbEntity
  8
0
100
AcDbLine
 62
7
  6
CONTINUOUS
 10
3.2801484009
 20
4.3944802502
 11
3.2742211706
 21
4.4047465142
  0
LINE
  5
240
100
AcDbEntity
  8
0
100
AcDbLine
 62
7
  6
CONTINUOUS
 10
3.3237136646
 20
4.4252469765
 11
3.3267818247
 21
4.4137964468
  0
LINE
  5
241
100
AcDbEntity
  8
0
100
AcDbLine
 62
7
  6
CONTINUOUS
 10
3.2645987052
 20
4.4047465142
 11
3.2586714749
 21
4.3944802502
  0
LINE
  5
242
100
AcDbEntity
  8
0
100
AcDbLine
 62
7
  6
CONTINUOUS
 10
3.1806587452
 20
4.3956911678
 11
3.19249507
 21
4.411812626
  0
LINE
  5
243
100
AcDbEntity
  8
0
100
AcDbLine
 62
7
  6
CONTINUOUS
 10
3.1967802035
 20
4.383854843
 11
3.2086165282
 21
4.3999763013
  0
LINE
  5
244
100
AcDbEntity
  8
0
100
AcDbLine
 62
7
  6
CONTINUOUS
 10
3.188638341
 20
4.4412748942
 11
3.1958548794
 21
4.4506796701
  0
LINE
  5
245
100
AcDbEntity
  8
0
100
AcDbLine
 62
7
  6
CONTINUOUS
 10
3.1958548794
 20
4.5220299572
 11
3.188638341
 21
4.5314347331
  0
LINE
  5
246
100
AcDbEntity
  8
0
100
AcDbLine
 62
7
  6
CONTINUOUS
 10
3.3302033475
 20
4.3999763013
 11
3.3420396723
 21
4.383854843
  0
LINE
  5
247
100
AcDbEntity
  8
0
100
AcDbLine
 62
7
  6
CONTINUOUS
 10
3.3463248058
 20
4.411812626
 11
3.3581611305
 21
4.3956911678
  0
LINE
  5
248
100
AcDbEntity
  8
0
100
AcDbLine
 62
7
  6
CONTINUOUS
 10
3.2586714749
 20
4.5782293771
 11
3.2645987052
 21
4.5679631131
  0
LINE
  5
249
100
AcDbEntity
  8
0
100
AcDbLine
 62
7
  6
CONTINUOUS
 10
3.3659717704
 20
4.3191048137
 11
3.4625336029
 21
4.4863548137
  0
LINE
  5
24A
100
AcDbEntity
  8
0
100
AcDbLine
 62
7
  6
CONTINUOUS
 10
3.3501815348
 20
4.5314347331
 11
3.3429649964
 21
4.5220299572
  0
LINE
  5
24B
100
AcDbEntity
  8
0
100
AcDbLine
 62
7
  6
CONTINUOUS
 10
3.3429649964
 20
4.4506796701
 11
3.3501815348
 21
4.4412748942
  0
LINE
  5
24C
100
AcDbEntity
  8
0
100
AcDbLine
 62
7
  6
CONTINUOUS
 10
3.4625336029
 20
4.4863548137
 11
3.3659717704
 21
4.6536048137
  0
LINE
  5
24D
100
AcDbEntity
  8
0
100
AcDbLine
 62
7
  6
CONTINUOUS
 10
3.3585254789
 20
4.3957372241
 11
3.3583145098
 21
4.3955302389
  0
LINE
  5
24E
100
AcDbEntity
  8
0
100
AcDbLine
 62
7
  6
CONTINUOUS
 10
3.3585255115
 20
4.395737191
 11
3.3583114934
 21
4.3955333206
  0
LINE
  5
24F
100
AcDbEntity
  8
0
100
AcDbLine
 62
7
  6
CONTINUOUS
 10
3.3050850814
 20
4.5599098722
 11
3.3144898573
 21
4.5671264105
  0
LINE
  5
250
100
AcDbEntity
  8
0
100
AcDbLine
 62
7
  6
CONTINUOUS
 10
3.1806587452
 20
4.3956911678
 11
3.1967802035
 21
4.383854843
  0
LINE
  5
251
100
AcDbEntity
  8
0
100
AcDbLine
 62
7
  6
CONTINUOUS
 10
3.3144898573
 20
4.4055832168
 11
3.3050850814
 21
4.4127997552
  0
LINE
  5
252
100
AcDbEntity
  8
0
100
AcDbLine
 62
7
  6
CONTINUOUS
 10
3.357144484
 20
4.5783101747
 11
3.3571998228
 21
4.5782573441
  0
LINE
  5
253
100
AcDbEntity
  8
0
100
AcDbLine
 62
7
  6
CONTINUOUS
 10
3.357144484
 20
4.5783101747
 11
3.3571990002
 21
4.5782564829
  0
LINE
  5
254
100
AcDbEntity
  8
0
100
AcDbLine
 62
7
  6
CONTINUOUS
 10
3.2337347943
 20
4.4127997552
 11
3.2243300184
 21
4.4055832168
  0
LINE
  5
255
100
AcDbEntity
  8
0
100
AcDbLine
 62
7
  6
CONTINUOUS
 10
3.3581611305
 20
4.3956911678
 11
3.3420396723
 21
4.383854843
  0
LINE
  5
256
100
AcDbEntity
  8
0
100
AcDbLine
 62
7
  6
CONTINUOUS
 10
3.2243300184
 20
4.5671264105
 11
3.2337347943
 21
4.5599098722
  0
LINE
  5
257
100
AcDbEntity
  8
0
100
AcDbLine
 62
7
  6
CONTINUOUS
 10
3.3572034788
 20
4.5782616547
 11
3.357144484
 21
4.5783101747
  0
LINE
  5
258
100
AcDbEntity
  8
0
100
AcDbLine
 62
7
  6
CONTINUOUS
 10
3.3572027537
 20
4.5782607731
 11
3.357144484
 21
4.5783101747
  0
LINE
  5
259
100
AcDbEntity
  8
0
100
AcDbLine
 62
7
  6
CONTINUOUS
 10
3.1775353744
 20
4.4756163507
 11
3.1878016384
 21
4.481543581
  0
LINE
  5
25A
100
AcDbEntity
  8
0
100
AcDbLine
 62
7
  6
CONTINUOUS
 10
3.3612845014
 20
4.4970932766
 11
3.3510182373
 21
4.4911660463
  0
LINE
  5
25B
100
AcDbEntity
  8
0
100
AcDbLine
 62
7
  6
CONTINUOUS
 10
3.1878016384
 20
4.4911660463
 11
3.1775353744
 21
4.4970932766
  0
LINE
  5
25C
100
AcDbEntity
  8
0
100
AcDbLine
 62
7
  6
CONTINUOUS
 10
3.3510182373
 20
4.481543581
 11
3.3612845014
 21
4.4756163507
  0
LINE
  5
25D
100
AcDbEntity
  8
0
100
AcDbLine
 62
7
  6
CONTINUOUS
 10
7.2083021007
 20
4.432051087
 11
7.196851571
 21
4.4289829268
  0
LINE
  5
25E
100
AcDbEntity
  8
0
100
AcDbLine
 62
7
  6
CONTINUOUS
 10
7.2379931155
 20
4.3972514873
 11
7.2190769736
 21
4.3925404232
  0
LINE
  5
25F
100
AcDbEntity
  8
0
100
AcDbLine
 62
7
  6
CONTINUOUS
 10
7.2144032759
 20
4.4119873669
 11
7.2142436163
 21
4.4119476037
  0
LINE
  5
260
100
AcDbEntity
  8
0
100
AcDbLine
 62
7
  6
CONTINUOUS
 10
3.3419683047
 20
4.4289829268
 11
3.3305177751
 21
4.432051087
  0
LINE
  5
261
100
AcDbEntity
  8
0
100
AcDbLine
 62
7
  6
CONTINUOUS
 10
7.3305177751
 20
4.5406585404
 11
7.3419683047
 21
4.5437267005
  0
LINE
  5
262
100
AcDbEntity
  8
0
100
AcDbLine
 62
7
  6
CONTINUOUS
 10
7.8613170106
 20
4.2293726989
 11
7.856503625
 21
4.2292222806
  0
LINE
  5
263
100
AcDbEntity
  8
0
100
AcDbLine
 62
7
  6
CONTINUOUS
 10
7.8256051
 20
4.2282567017
 11
7.820789391
 21
4.2281062107
  0
LINE
  5
264
100
AcDbEntity
  8
0
100
AcDbLine
 62
7
  6
CONTINUOUS
 10
7.7898892803
 20
4.2271405823
 11
7.7850646862
 21
4.2269898137
  0
LINE
  5
265
100
AcDbEntity
  8
0
100
AcDbLine
 62
7
  6
CONTINUOUS
 10
7.7541843648
 20
4.2260248037
 11
7.7493637607
 21
4.2258741598
  0
LINE
  5
266
100
AcDbEntity
  8
0
100
AcDbLine
 62
7
  6
CONTINUOUS
 10
7.7184547742
 20
4.224908254
 11
7.7136425336
 21
4.2247578715
  0
LINE
  5
267
100
AcDbEntity
  8
0
100
AcDbLine
 62
7
  6
CONTINUOUS
 10
7.6827461986
 20
4.223792361
 11
7.6779630873
 21
4.2236428888
  0
LINE
  5
268
100
AcDbEntity
  8
0
100
AcDbLine
 62
7
  6
CONTINUOUS
 10
7.6469943684
 20
4.2226751163
 11
7.6422247892
 21
4.2225260669
  0
LINE
  5
269
100
AcDbEntity
  8
0
100
AcDbLine
 62
7
  6
CONTINUOUS
 10
3.0676404221
 20
4.1526048137
 11
3.4711794537
 21
4.1526048137
  0
LINE
  5
26A
100
AcDbEntity
  8
0
100
AcDbLine
 62
7
  6
CONTINUOUS
 10
7.0676404221
 20
4.1526048137
 11
7.4711794537
 21
4.1526048137
  0
LINE
  5
26B
100
AcDbEntity
  8
0
100
AcDbLine
 62
7
  6
CONTINUOUS
 10
2.6953688486
 20
4.2288143869
 11
2.7001765107
 21
4.2286641474
  0
LINE
  5
26C
100
AcDbEntity
  8
0
100
AcDbLine
 62
7
  6
CONTINUOUS
 10
2.7310706439
 20
4.2276987058
 11
2.735886194
 21
4.2275482198
  0
LINE
  5
26D
100
AcDbEntity
  8
0
100
AcDbLine
 62
7
  6
CONTINUOUS
 10
2.7667911332
 20
4.2265824405
 11
2.771592537
 21
4.2264323966
  0
LINE
  5
26E
100
AcDbEntity
  8
0
100
AcDbLine
 62
7
  6
CONTINUOUS
 10
2.8025151015
 20
4.2254660665
 11
2.8073213461
 21
4.2253158713
  0
LINE
  5
26F
100
AcDbEntity
  8
0
100
AcDbLine
 62
7
  6
CONTINUOUS
 10
2.8382157977
 20
4.2243504197
 11
2.8430320504
 21
4.2241999118
  0
LINE
  5
270
100
AcDbEntity
  8
0
100
AcDbLine
 62
7
  6
CONTINUOUS
 10
2.8739352569
 20
4.2232341866
 11
2.8787486231
 21
4.2230837689
  0
LINE
  5
271
100
AcDbEntity
  8
0
100
AcDbLine
 62
7
  6
CONTINUOUS
 10
3.2142436163
 20
4.5607620236
 11
3.2144032759
 21
4.5607222604
  0
LINE
  5
272
100
AcDbEntity
  8
0
100
AcDbLine
 62
7
  6
CONTINUOUS
 10
3.2190769736
 20
4.5801692042
 11
3.2379931155
 21
4.57545814
  0
LINE
  5
273
100
AcDbEntity
  8
0
100
AcDbLine
 62
7
  6
CONTINUOUS
 10
3.196851571
 20
4.5437267005
 11
3.2083021007
 21
4.5406585404
  0
LINE
  5
274
100
AcDbEntity
  8
0
100
AcDbLine
 62
7
  6
CONTINUOUS
 10
7.3584003985
 20
4.4611169865
 11
7.3466473545
 21
4.4595696689
  0
LINE
  5
275
100
AcDbEntity
  8
0
100
AcDbLine
 62
7
  6
CONTINUOUS
 10
7.1804194773
 20
4.5115926408
 11
7.1921725213
 21
4.5131399584
  0
LINE
  5
276
100
AcDbEntity
  8
0
100
AcDbLine
 62
7
  6
CONTINUOUS
 10
7.6582874875
 20
4.242244973
 11
7.6671029146
 21
4.242244973
  0
LINE
  5
277
100
AcDbEntity
  8
0
100
AcDbLine
 62
7
  6
CONTINUOUS
 10
2.8537436897
 20
4.2427463501
 11
2.8625588988
 21
4.2427463501
  0
LINE
  5
278
100
AcDbEntity
  8
0
100
AcDbLine
 62
7
  6
CONTINUOUS
 10
7.6940036785
 20
4.2432984463
 11
7.7028186387
 21
4.2432984463
  0
LINE
  5
279
100
AcDbEntity
  8
0
100
AcDbLine
 62
7
  6
CONTINUOUS
 10
2.818028769
 20
4.2438548624
 11
2.8268434547
 21
4.2438548624
  0
LINE
  5
27A
100
AcDbEntity
  8
0
100
AcDbLine
 62
7
  6
CONTINUOUS
 10
7.72971847
 20
4.2444254863
 11
7.7385328956
 21
4.2444254863
  0
LINE
  5
27B
100
AcDbEntity
  8
0
100
AcDbLine
 62
7
  6
CONTINUOUS
 10
2.7823136597
 20
4.2449952982
 11
2.7911277971
 21
4.2449952982
  0
LINE
  5
27C
100
AcDbEntity
  8
0
100
AcDbLine
 62
7
  6
CONTINUOUS
 10
7.7654334191
 20
4.245516762
 11
7.7742473418
 21
4.245516762
  0
LINE
  5
27D
100
AcDbEntity
  8
0
100
AcDbLine
 62
7
  6
CONTINUOUS
 10
2.7465987709
 20
4.2460961301
 11
2.7554123814
 21
4.2460961301
  0
LINE
  5
27E
100
AcDbEntity
  8
0
100
AcDbLine
 62
7
  6
CONTINUOUS
 10
7.8011486274
 20
4.2466499956
 11
7.8099619814
 21
4.2466499956
  0
LINE
  5
27F
100
AcDbEntity
  8
0
100
AcDbLine
 62
7
  6
CONTINUOUS
 10
2.7108837852
 20
4.2472028683
 11
2.7196968585
 21
4.2472028683
  0
LINE
  5
280
100
AcDbEntity
  8
0
100
AcDbLine
 62
7
  6
CONTINUOUS
 10
7.8368634832
 20
4.2477647121
 11
7.845676294
 21
4.2477647121
  0
LINE
  5
281
100
AcDbEntity
  8
0
100
AcDbLine
 62
7
  6
CONTINUOUS
 10
2.6751689352
 20
4.2483414355
 11
2.6839814478
 21
4.2483414355
  0
LINE
  5
282
100
AcDbEntity
  8
0
100
AcDbLine
 62
7
  6
CONTINUOUS
 10
7.8725789901
 20
4.2488860832
 11
7.8813912411
 21
4.2488860832
  0
LINE
  5
283
100
AcDbEntity
  8
0
100
AcDbLine
 62
7
  6
CONTINUOUS
 10
3.1728481054
 20
4.3191048137
 11
3.3659717704
 21
4.3191048137
  0
LINE
  5
284
100
AcDbEntity
  8
0
100
AcDbLine
 62
7
  6
CONTINUOUS
 10
7.1728481054
 20
4.3191048137
 11
7.3659717704
 21
4.3191048137
  0
LINE
  5
285
100
AcDbEntity
  8
0
100
AcDbLine
 62
7
  6
CONTINUOUS
 10
3.1921725213
 20
4.4595696689
 11
3.1804194773
 21
4.4611169865
  0
LINE
  5
286
100
AcDbEntity
  8
0
100
AcDbLine
 62
7
  6
CONTINUOUS
 10
3.3466473545
 20
4.5131399584
 11
3.3584003985
 21
4.5115926408
  0
LINE
  5
287
100
AcDbEntity
  8
0
100
AcDbLine
 62
7
  6
CONTINUOUS
 10
3.1728481054
 20
4.6536048137
 11
3.3659717704
 21
4.6536048137
  0
LINE
  5
288
100
AcDbEntity
  8
0
100
AcDbLine
 62
7
  6
CONTINUOUS
 10
7.1728481054
 20
4.6536048137
 11
7.3659717704
 21
4.6536048137
  0
LINE
  5
289
100
AcDbEntity
  8
0
100
AcDbLine
 62
7
  6
CONTINUOUS
 10
3.3584003985
 20
4.4611169865
 11
3.3466473545
 21
4.4595696689
  0
LINE
  5
28A
100
AcDbEntity
  8
0
100
AcDbLine
 62
7
  6
CONTINUOUS
 10
3.1804194773
 20
4.5115926408
 11
3.1921725213
 21
4.5131399584
  0
LINE
  5
28B
100
AcDbEntity
  8
0
100
AcDbLine
 62
7
  6
CONTINUOUS
 10
2.6775028652
 20
4.7433369285
 11
2.6823162508
 21
4.7434873468
  0
LINE
  5
28C
100
AcDbEntity
  8
0
100
AcDbLine
 62
7
  6
CONTINUOUS
 10
2.7132147758
 20
4.7444529257
 11
2.7180304848
 21
4.7446034166
  0
LINE
  5
28D
100
AcDbEntity
  8
0
100
AcDbLine
 62
7
  6
CONTINUOUS
 10
2.7489305955
 20
4.745569045
 11
2.7537551895
 21
4.7457198136
  0
LINE
  5
28E
100
AcDbEntity
  8
0
100
AcDbLine
 62
7
  6
CONTINUOUS
 10
2.784635511
 20
4.7466848237
 11
2.7894561151
 21
4.7468354675
  0
LINE
  5
28F
100
AcDbEntity
  8
0
100
AcDbLine
 62
7
  6
CONTINUOUS
 10
2.8203651016
 20
4.7478013734
 11
2.8251773421
 21
4.7479517559
  0
LINE
  5
290
100
AcDbEntity
  8
0
100
AcDbLine
 62
7
  6
CONTINUOUS
 10
2.8560736771
 20
4.7489172663
 11
2.8608567885
 21
4.7490667386
  0
LINE
  5
291
100
AcDbEntity
  8
0
100
AcDbLine
 62
7
  6
CONTINUOUS
 10
2.8918255073
 20
4.750034511
 11
2.8965950865
 21
4.7501835604
  0
LINE
  5
292
100
AcDbEntity
  8
0
100
AcDbLine
 62
7
  6
CONTINUOUS
 10
2.6662408856
 20
4.7238235441
 11
2.6574286347
 21
4.7238235441
  0
LINE
  5
293
100
AcDbEntity
  8
0
100
AcDbLine
 62
7
  6
CONTINUOUS
 10
7.8636509405
 20
4.7243681918
 11
7.854838428
 21
4.7243681918
  0
LINE
  5
294
100
AcDbEntity
  8
0
100
AcDbLine
 62
7
  6
CONTINUOUS
 10
2.7019563925
 20
4.7249449153
 11
2.6931435817
 21
4.7249449153
  0
LINE
  5
295
100
AcDbEntity
  8
0
100
AcDbLine
 62
7
  6
CONTINUOUS
 10
7.8279360906
 20
4.725506759
 11
7.8191230173
 21
4.725506759
  0
LINE
  5
296
100
AcDbEntity
  8
0
100
AcDbLine
 62
7
  6
CONTINUOUS
 10
2.7376712483
 20
4.7260596317
 11
2.7288578944
 21
4.7260596317
  0
LINE
  5
297
100
AcDbEntity
  8
0
100
AcDbLine
 62
7
  6
CONTINUOUS
 10
7.7922211049
 20
4.7266134973
 11
7.7834074943
 21
4.7266134973
  0
LINE
  5
298
100
AcDbEntity
  8
0
100
AcDbLine
 62
7
  6
CONTINUOUS
 10
2.7733864567
 20
4.7271928653
 11
2.764572534
 21
4.7271928653
  0
LINE
  5
299
100
AcDbEntity
  8
0
100
AcDbLine
 62
7
  6
CONTINUOUS
 10
7.7565062161
 20
4.7277143291
 11
7.7476920787
 21
4.7277143291
  0
LINE
  5
29A
100
AcDbEntity
  8
0
100
AcDbLine
 62
7
  6
CONTINUOUS
 10
2.8091014058
 20
4.728284141
 11
2.8002869802
 21
4.728284141
  0
LINE
  5
29B
100
AcDbEntity
  8
0
100
AcDbLine
 62
7
  6
CONTINUOUS
 10
7.7207911068
 20
4.7288547649
 11
7.7119764211
 21
4.7288547649
  0
LINE
  5
29C
100
AcDbEntity
  8
0
100
AcDbLine
 62
7
  6
CONTINUOUS
 10
2.8448161973
 20
4.729411181
 11
2.8360012371
 21
4.729411181
  0
LINE
  5
29D
100
AcDbEntity
  8
0
100
AcDbLine
 62
7
  6
CONTINUOUS
 10
7.6850761861
 20
4.7299632772
 11
7.6762609769
 21
4.7299632772
  0
LINE
  5
29E
100
AcDbEntity
  8
0
100
AcDbLine
 62
7
  6
CONTINUOUS
 10
2.8805323883
 20
4.7304646543
 11
2.8717169612
 21
4.7304646543
  0
LINE
  5
29F
100
AcDbEntity
  8
0
100
AcDbLine
 62
7
  6
CONTINUOUS
 10
7.4711794537
 20
4.8201048137
 11
7.0676404221
 21
4.8201048137
  0
LINE
  5
2A0
100
AcDbEntity
  8
0
100
AcDbLine
 62
7
  6
CONTINUOUS
 10
3.4711794537
 20
4.8201048137
 11
3.0676404221
 21
4.8201048137
  0
LINE
  5
2A1
100
AcDbEntity
  8
0
100
AcDbLine
 62
7
  6
CONTINUOUS
 10
7.8434510272
 20
4.7438952405
 11
7.8386433651
 21
4.7440454799
  0
LINE
  5
2A2
100
AcDbEntity
  8
0
100
AcDbLine
 62
7
  6
CONTINUOUS
 10
7.8077492319
 20
4.7450109216
 11
7.8029336818
 21
4.7451614075
  0
LINE
  5
2A3
100
AcDbEntity
  8
0
100
AcDbLine
 62
7
  6
CONTINUOUS
 10
7.7720287426
 20
4.7461271868
 11
7.7672273388
 21
4.7462772307
  0
LINE
  5
2A4
100
AcDbEntity
  8
0
100
AcDbLine
 62
7
  6
CONTINUOUS
 10
7.7363047743
 20
4.7472435609
 11
7.7314985296
 21
4.747393756
  0
LINE
  5
2A5
100
AcDbEntity
  8
0
100
AcDbLine
 62
7
  6
CONTINUOUS
 10
7.700604078
 20
4.7483592076
 11
7.6957878254
 21
4.7485097155
  0
LINE
  5
2A6
100
AcDbEntity
  8
0
100
AcDbLine
 62
7
  6
CONTINUOUS
 10
7.6648846189
 20
4.7494754407
 11
7.6600712527
 21
4.7496258584
  0
LINE
  5
2A7
100
AcDbEntity
  8
0
100
AcDbLine
 62
7
  6
CONTINUOUS
 10
7.1921725213
 20
4.4595696689
 11
7.1804194773
 21
4.4611169865
  0
LINE
  5
2A8
100
AcDbEntity
  8
0
100
AcDbLine
 62
7
  6
CONTINUOUS
 10
7.3466473545
 20
4.5131399584
 11
7.3584003985
 21
4.5115926408
  0
LINE
  5
2A9
100
AcDbEntity
  8
0
100
AcDbLine
 62
7
  6
CONTINUOUS
 10
3.2083021007
 20
4.432051087
 11
3.196851571
 21
4.4289829268
  0
LINE
  5
2AA
100
AcDbEntity
  8
0
100
AcDbLine
 62
7
  6
CONTINUOUS
 10
3.3305177751
 20
4.5406585404
 11
3.3419683047
 21
4.5437267005
  0
LINE
  5
2AB
100
AcDbEntity
  8
0
100
AcDbLine
 62
7
  6
CONTINUOUS
 10
3.3244165999
 20
4.5607222604
 11
3.3245762595
 21
4.5607620236
  0
LINE
  5
2AC
100
AcDbEntity
  8
0
100
AcDbLine
 62
7
  6
CONTINUOUS
 10
7.3197429022
 20
4.3925404232
 11
7.3008267603
 21
4.3972514873
  0
LINE
  5
2AD
100
AcDbEntity
  8
0
100
AcDbLine
 62
7
  6
CONTINUOUS
 10
7.3245762595
 20
4.4119476037
 11
7.3244165999
 21
4.4119873669
  0
LINE
  5
2AE
100
AcDbEntity
  8
0
100
AcDbLine
 62
7
  6
CONTINUOUS
 10
7.3419683047
 20
4.4289829268
 11
7.3305177751
 21
4.432051087
  0
LINE
  5
2AF
100
AcDbEntity
  8
0
100
AcDbLine
 62
7
  6
CONTINUOUS
 10
7.196851571
 20
4.5437267005
 11
7.2083021007
 21
4.5406585404
  0
LINE
  5
2B0
100
AcDbEntity
  8
0
100
AcDbLine
 62
7
  6
CONTINUOUS
 10
3.3008267603
 20
4.57545814
 11
3.3197429022
 21
4.5801692042
  0
LINE
  5
2B1
100
AcDbEntity
  8
0
100
AcDbLine
 62
7
  6
CONTINUOUS
 10
7.1806587452
 20
4.5770184596
 11
7.1967802035
 21
4.5888547843
  0
LINE
  5
2B2
100
AcDbEntity
  8
0
100
AcDbLine
 62
7
  6
CONTINUOUS
 10
7.1775353744
 20
4.4756163507
 11
7.1878016384
 21
4.481543581
  0
LINE
  5
2B3
100
AcDbEntity
  8
0
100
AcDbLine
 62
7
  6
CONTINUOUS
 10
7.3612845014
 20
4.4970932766
 11
7.3510182373
 21
4.4911660463
  0
LINE
  5
2B4
100
AcDbEntity
  8
0
100
AcDbLine
 62
7
  6
CONTINUOUS
 10
7.1878016384
 20
4.4911660463
 11
7.1775353744
 21
4.4970932766
  0
LINE
  5
2B5
100
AcDbEntity
  8
0
100
AcDbLine
 62
7
  6
CONTINUOUS
 10
7.3510182373
 20
4.481543581
 11
7.3612845014
 21
4.4756163507
  0
LINE
  5
2B6
100
AcDbEntity
  8
0
100
AcDbLine
 62
7
  6
CONTINUOUS
 10
7.1802560686
 20
4.5769347594
 11
7.1805087277
 21
4.5771757444
  0
LINE
  5
2B7
100
AcDbEntity
  8
0
100
AcDbLine
 62
7
  6
CONTINUOUS
 10
7.3050850814
 20
4.5599098722
 11
7.3144898573
 21
4.5671264105
  0
LINE
  5
2B8
100
AcDbEntity
  8
0
100
AcDbLine
 62
7
  6
CONTINUOUS
 10
7.2337347943
 20
4.4127997552
 11
7.2243300184
 21
4.4055832168
  0
LINE
  5
2B9
100
AcDbEntity
  8
0
100
AcDbLine
 62
7
  6
CONTINUOUS
 10
7.3144898573
 20
4.4055832168
 11
7.3050850814
 21
4.4127997552
  0
LINE
  5
2BA
100
AcDbEntity
  8
0
100
AcDbLine
 62
7
  6
CONTINUOUS
 10
7.2243300184
 20
4.5671264105
 11
7.2337347943
 21
4.5599098722
  0
LINE
  5
2BB
100
AcDbEntity
  8
0
100
AcDbLine
 62
7
  6
CONTINUOUS
 10
7.1774545978
 20
4.5740893817
 11
7.177552451
 21
4.5741918279
  0
LINE
  5
2BC
100
AcDbEntity
  8
0
100
AcDbLine
 62
7
  6
CONTINUOUS
 10
7.1774545978
 20
4.5740893817
 11
7.1775540025
 21
4.5741903443
  0
LINE
  5
2BD
100
AcDbEntity
  8
0
100
AcDbLine
 62
7
  6
CONTINUOUS
 10
7.1802560994
 20
4.5769347281
 11
7.1805052599
 21
4.5771792873
  0
LINE
  5
2BE
100
AcDbEntity
  8
0
100
AcDbLine
 62
7
  6
CONTINUOUS
 10
7.3581611305
 20
4.5770184596
 11
7.3420396723
 21
4.5888547843
  0
LINE
  5
2BF
100
AcDbEntity
  8
0
100
AcDbLine
 62
7
  6
CONTINUOUS
 10
7.0762862728
 20
4.4863548137
 11
7.1728481054
 21
4.6536048137
  0
LINE
  5
2C0
100
AcDbEntity
  8
0
100
AcDbLine
 62
7
  6
CONTINUOUS
 10
7.3420396723
 20
4.5888547843
 11
7.3302033475
 21
4.572733326
  0
LINE
  5
2C1
100
AcDbEntity
  8
0
100
AcDbLine
 62
7
  6
CONTINUOUS
 10
7.188638341
 20
4.4412748942
 11
7.1958548794
 21
4.4506796701
  0
LINE
  5
2C2
100
AcDbEntity
  8
0
100
AcDbLine
 62
7
  6
CONTINUOUS
 10
7.3501815348
 20
4.5314347331
 11
7.3429649964
 21
4.5220299572
  0
LINE
  5
2C3
100
AcDbEntity
  8
0
100
AcDbLine
 62
7
  6
CONTINUOUS
 10
7.1958548794
 20
4.5220299572
 11
7.188638341
 21
4.5314347331
  0
LINE
  5
2C4
100
AcDbEntity
  8
0
100
AcDbLine
 62
7
  6
CONTINUOUS
 10
7.3429649964
 20
4.4506796701
 11
7.3501815348
 21
4.4412748942
  0
LINE
  5
2C5
100
AcDbEntity
  8
0
100
AcDbLine
 62
7
  6
CONTINUOUS
 10
7.19249507
 20
4.5608970013
 11
7.1806587452
 21
4.5770184596
  0
LINE
  5
2C6
100
AcDbEntity
  8
0
100
AcDbLine
 62
7
  6
CONTINUOUS
 10
7.2086165282
 20
4.572733326
 11
7.1967802035
 21
4.5888547843
  0
LINE
  5
2C7
100
AcDbEntity
  8
0
100
AcDbLine
 62
7
  6
CONTINUOUS
 10
7.1728481054
 20
4.3191048137
 11
7.0762862728
 21
4.4863548137
  0
LINE
  5
2C8
100
AcDbEntity
  8
0
100
AcDbLine
 62
7
  6
CONTINUOUS
 10
7.0510876794
 20
4.5445418152
 11
7.0511782062
 21
4.5449541016
  0
LINE
  5
2C9
100
AcDbEntity
  8
0
100
AcDbLine
 62
7
  6
CONTINUOUS
 10
7.0510826057
 20
4.5445429905
 11
7.0511782541
 21
4.5449540904
  0
LINE
  5
2CA
100
AcDbEntity
  8
0
100
AcDbLine
 62
7
  6
CONTINUOUS
 10
7.2742211706
 20
4.5679631131
 11
7.2801484009
 21
4.5782293771
  0
LINE
  5
2CB
100
AcDbEntity
  8
0
100
AcDbLine
 62
7
  6
CONTINUOUS
 10
7.2645987052
 20
4.4047465142
 11
7.2586714749
 21
4.3944802502
  0
LINE
  5
2CC
100
AcDbEntity
  8
0
100
AcDbLine
 62
7
  6
CONTINUOUS
 10
7.3581611305
 20
4.5770184596
 11
7.3463248058
 21
4.5608970013
  0
LINE
  5
2CD
100
AcDbEntity
  8
0
100
AcDbLine
 62
7
  6
CONTINUOUS
 10
7.2801484009
 20
4.3944802502
 11
7.2742211706
 21
4.4047465142
  0
LINE
  5
2CE
100
AcDbEntity
  8
0
100
AcDbLine
 62
7
  6
CONTINUOUS
 10
7.2586714749
 20
4.5782293771
 11
7.2645987052
 21
4.5679631131
  0
LINE
  5
2CF
100
AcDbEntity
  8
0
100
AcDbLine
 62
7
  6
CONTINUOUS
 10
7.2426247931
 20
4.5635922303
 11
7.2441721107
 21
4.5753452743
  0
LINE
  5
2D0
100
AcDbEntity
  8
0
100
AcDbLine
 62
7
  6
CONTINUOUS
 10
7.1705506102
 20
4.4408378056
 11
7.1780797042
 21
4.4716906256
  0
LINE
  5
2D1
100
AcDbEntity
  8
0
100
AcDbLine
 62
7
  6
CONTINUOUS
 10
7.1951009185
 20
4.5414403802
 11
7.1958034361
 21
4.5443191659
  0
LINE
  5
2D2
100
AcDbEntity
  8
0
100
AcDbLine
 62
7
  6
CONTINUOUS
 10
7.1899804346
 20
4.4360962949
 11
7.1904764262
 21
4.4381287758
  0
LINE
  5
2D3
100
AcDbEntity
  8
0
100
AcDbLine
 62
7
  6
CONTINUOUS
 10
7.212038051
 20
4.4137964468
 11
7.2151062112
 21
4.4252469765
  0
LINE
  5
2D4
100
AcDbEntity
  8
0
100
AcDbLine
 62
7
  6
CONTINUOUS
 10
7.3267818247
 20
4.5589131805
 11
7.3237136646
 21
4.5474626509
  0
LINE
  5
2D5
100
AcDbEntity
  8
0
100
AcDbLine
 62
7
  6
CONTINUOUS
 10
7.3659717704
 20
4.3191048137
 11
7.4625336029
 21
4.4863548137
  0
LINE
  5
2D6
100
AcDbEntity
  8
0
100
AcDbLine
 62
7
  6
CONTINUOUS
 10
7.6598563912
 20
4.7494432522
 11
7.6497437904
 21
4.7319412416
  0
LINE
  5
2D7
100
AcDbEntity
  8
0
100
AcDbLine
 62
7
  6
CONTINUOUS
 10
7.6955712626
 20
4.7483256665
 11
7.6849901375
 21
4.7300129992
  0
LINE
  5
2D8
100
AcDbEntity
  8
0
100
AcDbLine
 62
7
  6
CONTINUOUS
 10
7.6399676518
 20
4.226241864
 11
7.6420081716
 21
4.2227101653
  0
LINE
  5
2D9
100
AcDbEntity
  8
0
100
AcDbLine
 62
7
  6
CONTINUOUS
 10
7.6669883156
 20
4.2424432963
 11
7.6777434636
 21
4.2238295616
  0
LINE
  5
2DA
100
AcDbEntity
  8
0
100
AcDbLine
 62
7
  6
CONTINUOUS
 10
7.4625336029
 20
4.4863548137
 11
7.3659717704
 21
4.6536048137
  0
LINE
  5
2DB
100
AcDbEntity
  8
0
100
AcDbLine
 62
7
  6
CONTINUOUS
 10
7.2151062112
 20
4.5474626509
 11
7.212038051
 21
4.5589131805
  0
LINE
  5
2DC
100
AcDbEntity
  8
0
100
AcDbLine
 62
7
  6
CONTINUOUS
 10
7.3237136646
 20
4.4252469765
 11
7.3267818247
 21
4.4137964468
  0
LINE
  5
2DD
100
AcDbEntity
  8
0
100
AcDbLine
 62
7
  6
CONTINUOUS
 10
7.2441721107
 20
4.397364353
 11
7.2426247931
 21
4.4091173971
  0
LINE
  5
2DE
100
AcDbEntity
  8
0
100
AcDbLine
 62
7
  6
CONTINUOUS
 10
7.2961950826
 20
4.4091173971
 11
7.294647765
 21
4.397364353
  0
LINE
  5
2DF
100
AcDbEntity
  8
0
100
AcDbLine
 62
7
  6
CONTINUOUS
 10
7.7312809245
 20
4.7472088229
 11
7.7207046664
 21
4.7289047137
  0
LINE
  5
2E0
100
AcDbEntity
  8
0
100
AcDbLine
 62
7
  6
CONTINUOUS
 10
7.767009014
 20
4.7460916836
 11
7.7564193648
 21
4.7277645157
  0
LINE
  5
2E1
100
AcDbEntity
  8
0
100
AcDbLine
 62
7
  6
CONTINUOUS
 10
7.8027142581
 20
4.74497493
 11
7.7921338594
 21
4.7266639121
  0
LINE
  5
2E2
100
AcDbEntity
  8
0
100
AcDbLine
 62
7
  6
CONTINUOUS
 10
7.8384230217
 20
4.7438582226
 11
7.8278484426
 21
4.7255574068
  0
LINE
  5
2E3
100
AcDbEntity
  8
0
100
AcDbLine
 62
7
  6
CONTINUOUS
 10
7.8729203279
 20
4.7406132436
 11
7.8635628731
 21
4.7244190824
  0
LINE
  5
2E4
100
AcDbEntity
  8
0
100
AcDbLine
 62
7
  6
CONTINUOUS
 10
7.8993311977
 20
4.2583104024
 11
7.8845854729
 21
4.2435646776
  0
LINE
  5
2E5
100
AcDbEntity
  8
0
100
AcDbLine
 62
7
  6
CONTINUOUS
 10
7.8993311977
 20
4.7143992249
 11
7.8905086428
 21
4.7232217798
  0
LINE
  5
2E6
100
AcDbEntity
  8
0
100
AcDbLine
 62
7
  6
CONTINUOUS
 10
7.8903461936
 20
4.7233842291
 11
7.8730645253
 21
4.7406658973
  0
LINE
  5
2E7
100
AcDbEntity
  8
0
100
AcDbLine
 62
7
  6
CONTINUOUS
 10
7.7027035708
 20
4.2434975815
 11
7.7134243455
 21
4.2249433011
  0
LINE
  5
2E8
100
AcDbEntity
  8
0
100
AcDbLine
 62
7
  6
CONTINUOUS
 10
7.7384172927
 20
4.2446255454
 11
7.7491442608
 21
4.226060703
  0
LINE
  5
2E9
100
AcDbEntity
  8
0
100
AcDbLine
 62
7
  6
CONTINUOUS
 10
7.7741312354
 20
4.2457176909
 11
7.7848442395
 21
4.2271771452
  0
LINE
  5
2EA
100
AcDbEntity
  8
0
100
AcDbLine
 62
7
  6
CONTINUOUS
 10
7.809845306
 20
4.2468519079
 11
7.8205683888
 21
4.2282940291
  0
LINE
  5
2EB
100
AcDbEntity
  8
0
100
AcDbLine
 62
7
  6
CONTINUOUS
 10
7.8455590752
 20
4.247967563
 11
7.8562814143
 21
4.229411124
  0
LINE
  5
2EC
100
AcDbEntity
  8
0
100
AcDbLine
 62
7
  6
CONTINUOUS
 10
7.8812734617
 20
4.2490899034
 11
7.8844343326
 21
4.243619858
  0
LINE
  5
2ED
100
AcDbEntity
  8
0
100
AcDbLine
 62
7
  6
CONTINUOUS
 10
7.3483434496
 20
4.4381287758
 11
7.3488394412
 21
4.4360962949
  0
LINE
  5
2EE
100
AcDbEntity
  8
0
100
AcDbLine
 62
7
  6
CONTINUOUS
 10
7.3430164397
 20
4.5443191659
 11
7.3437189573
 21
4.5414403802
  0
LINE
  5
2EF
100
AcDbEntity
  8
0
100
AcDbLine
 62
7
  6
CONTINUOUS
 10
7.3607401716
 20
4.4716906256
 11
7.3682692656
 21
4.4408378056
  0
LINE
  5
2F0
100
AcDbEntity
  8
0
100
AcDbLine
 62
7
  6
CONTINUOUS
 10
7.294647765
 20
4.5753452743
 11
7.2961950826
 21
4.5635922303
  0
LINE
  5
2F1
100
AcDbEntity
  8
0
100
AcDbLine
 62
7
  6
CONTINUOUS
 10
7.6472000099
 20
4.2228563465
 11
7.6583733961
 21
4.2421953353
  0
LINE
  5
2F2
100
AcDbEntity
  8
0
100
AcDbLine
 62
7
  6
CONTINUOUS
 10
7.682954896
 20
4.2239762586
 11
7.6940899328
 21
4.2432486082
  0
LINE
  5
2F3
100
AcDbEntity
  8
0
100
AcDbLine
 62
7
  6
CONTINUOUS
 10
7.7186639854
 20
4.2250926036
 11
7.7298051254
 21
4.2443754162
  0
LINE
  5
2F4
100
AcDbEntity
  8
0
100
AcDbLine
 62
7
  6
CONTINUOUS
 10
7.7543943652
 20
4.2262098332
 11
7.7655204511
 21
4.2454664739
  0
LINE
  5
2F5
100
AcDbEntity
  8
0
100
AcDbLine
 62
7
  6
CONTINUOUS
 10
7.7901006839
 20
4.2273268621
 11
7.8012360853
 21
4.2465994609
  0
LINE
  5
2F6
100
AcDbEntity
  8
0
100
AcDbLine
 62
7
  6
CONTINUOUS
 10
7.6763758003
 20
4.729764553
 11
7.6650940333
 21
4.7492909103
  0
LINE
  5
2F7
100
AcDbEntity
  8
0
100
AcDbLine
 62
7
  6
CONTINUOUS
 10
7.7120917684
 20
4.7286551353
 11
7.7008142624
 21
4.7481740001
  0
LINE
  5
2F8
100
AcDbEntity
  8
0
100
AcDbLine
 62
7
  6
CONTINUOUS
 10
7.7478079747
 20
4.7275137515
 11
7.736516093
 21
4.7470573517
  0
LINE
  5
2F9
100
AcDbEntity
  8
0
100
AcDbLine
 62
7
  6
CONTINUOUS
 10
7.7835239176
 20
4.7264120084
 11
7.7722407925
 21
4.7459403365
  0
LINE
  5
2FA
100
AcDbEntity
  8
0
100
AcDbLine
 62
7
  6
CONTINUOUS
 10
7.8192399784
 20
4.725304341
 11
7.8079622221
 21
4.7448232442
  0
LINE
  5
2FB
100
AcDbEntity
  8
0
100
AcDbLine
 62
7
  6
CONTINUOUS
 10
7.8993311977
 20
4.7143993713
 11
7.8993311977
 21
4.258310256
  0
LINE
  5
2FC
100
AcDbEntity
  8
0
100
AcDbLine
 62
7
  6
CONTINUOUS
 10
7.8258171637
 20
4.2284435617
 11
7.8369513484
 21
4.2477139417
  0
LINE
  5
2FD
100
AcDbEntity
  8
0
100
AcDbLine
 62
7
  6
CONTINUOUS
 10
7.8615309789
 20
4.22956124
 11
7.8726672733
 21
4.2488350708
  0
LINE
  5
2FE
100
AcDbEntity
  8
0
100
AcDbLine
 62
7
  6
CONTINUOUS
 10
7.8549559504
 20
4.7241648037
 11
7.8436646811
 21
4.7437069776
  0
LINE
  5
2FF
100
AcDbEntity
  8
0
100
AcDbLine
 62
7
  6
CONTINUOUS
 10
7.8905086401
 20
4.7232217826
 11
7.8905114782
 21
4.7232002088
  0
ARC
  5
300
100
AcDbEntity
  8
0
100
AcDbCircle
 62
7
  6
CONTINUOUS
 10
3.2685771743
 20
4.4845014713
 40
0.2353585494
100
AcDbArc
 50
311.1476076858
 51
0.4511966203
  0
ARC
  5
301
100
AcDbEntity
  8
0
100
AcDbCircle
 62
7
  6
CONTINUOUS
 10
3.2680271249
 20
4.4790770502
 40
0.2255313459
100
AcDbArc
 50
347.6831227146
 51
349.9187844539
  0
ARC
  5
302
100
AcDbEntity
  8
0
100
AcDbCircle
 62
7
  6
CONTINUOUS
 10
3.269447828
 20
4.4863476016
 40
0.2255269102
100
AcDbArc
 50
345.8012928154
 51
348.0366797485
  0
ARC
  5
303
100
AcDbEntity
  8
0
100
AcDbCircle
 62
7
  6
CONTINUOUS
 10
3.2694009618
 20
4.4863088413
 40
0.2255186375
100
AcDbArc
 50
255.9443467588
 51
258.0597510493
  0
ARC
  5
304
100
AcDbEntity
  8
0
100
AcDbCircle
 62
7
  6
CONTINUOUS
 10
3.2676051875
 20
4.4845940977
 40
0.1272103354
100
AcDbArc
 50
315.5261184307
 51
315.7235099367
  0
ARC
  5
305
100
AcDbEntity
  8
0
100
AcDbCircle
 62
7
  6
CONTINUOUS
 10
3.2677064401
 20
4.4844963028
 40
0.127069568
100
AcDbArc
 50
315.7232089709
 51
317.4821997894
  0
ARC
  5
306
100
AcDbEntity
  8
0
100
AcDbCircle
 62
7
  6
CONTINUOUS
 10
3.2694706577
 20
4.4862974249
 40
0.1270114522
100
AcDbArc
 50
315.0974662532
 51
316.345406977
  0
ARC
  5
307
100
AcDbEntity
  8
0
100
AcDbCircle
 62
7
  6
CONTINUOUS
 10
3.2694315999
 20
4.4863350538
 40
0.0624756867
100
AcDbArc
 50
314.1688291094
 51
316.3448710989
  0
ARC
  5
308
100
AcDbEntity
  8
0
100
AcDbCircle
 62
7
  6
CONTINUOUS
 10
3.1763736117
 20
4.4236489508
 40
0.04
100
AcDbArc
 50
323.714
 51
342.8401284531
  0
ARC
  5
309
100
AcDbEntity
  8
0
100
AcDbCircle
 62
7
  6
CONTINUOUS
 10
3.3624462641
 20
4.4236489508
 40
0.04
100
AcDbArc
 50
197.1598715469
 51
216.286
  0
ARC
  5
30A
100
AcDbEntity
  8
0
100
AcDbCircle
 62
7
  6
CONTINUOUS
 10
3.3624462641
 20
4.4236489508
 40
0.02
100
AcDbArc
 50
166.286
 51
216.286
  0
ARC
  5
30B
100
AcDbEntity
  8
0
100
AcDbCircle
 62
7
  6
CONTINUOUS
 10
3.1763736117
 20
4.4236489508
 40
0.02
100
AcDbArc
 50
323.714
 51
13.714
  0
ARC
  5
30C
100
AcDbEntity
  8
0
100
AcDbCircle
 62
7
  6
CONTINUOUS
 10
2.6504656048
 20
4.2512677327
 40
0.002783022
100
AcDbArc
 50
219.1830717603
 51
220.6314153397
  0
ARC
  5
30D
100
AcDbEntity
  8
0
100
AcDbCircle
 62
7
  6
CONTINUOUS
 10
3.2693892165
 20
4.4863782199
 40
0.1271261712
100
AcDbArc
 50
314.5204462705
 51
315.0975842593
  0
ARC
  5
30E
100
AcDbEntity
  8
0
100
AcDbCircle
 62
7
  6
CONTINUOUS
 10
3.2638380983
 20
4.4938135576
 40
0.0616421803
100
AcDbArc
 50
35.6748710925
 51
37.7808117839
  0
ARC
  5
30F
100
AcDbEntity
  8
0
100
AcDbCircle
 62
7
  6
CONTINUOUS
 10
3.209410259
 20
4.541354843
 40
0.04
100
AcDbArc
 50
76.015
 51
193.714
  0
ARC
  5
310
100
AcDbEntity
  8
0
100
AcDbCircle
 62
7
  6
CONTINUOUS
 10
3.209410259
 20
4.541354843
 40
0.02
100
AcDbArc
 50
76.015
 51
193.714
  0
CIRCLE
  5
311
100
AcDbEntity
  8
0
100
AcDbCircle
 62
7
  6
CONTINUOUS
 10
3.2694099379
 20
4.4863548137
 40
0.45275
  0
ARC
  5
312
100
AcDbEntity
  8
0
100
AcDbCircle
 62
7
  6
CONTINUOUS
 10
3.2694099379
 20
4.4863548137
 40
0.39
100
AcDbArc
 50
301.1551797422
 51
58.8448202578
  0
ARC
  5
313
100
AcDbEntity
  8
0
100
AcDbCircle
 62
7
  6
CONTINUOUS
 10
3.2694099379
 20
4.4863548137
 40
0.39
100
AcDbArc
 50
121.1551797422
 51
238.8448202578
  0
CIRCLE
  5
314
100
AcDbEntity
  8
0
100
AcDbCircle
 62
7
  6
CONTINUOUS
 10
3.2694099379
 20
4.4863548137
 40
0.295
  0
CIRCLE
  5
315
100
AcDbEntity
  8
0
100
AcDbCircle
 62
7
  6
CONTINUOUS
 10
3.2694099379
 20
4.4863548137
 40
0.28
  0
CIRCLE
  5
316
100
AcDbEntity
  8
0
100
AcDbCircle
 62
7
  6
CONTINUOUS
 10
3.2694099379
 20
4.4863548137
 40
0.2775
  0
ARC
  5
317
100
AcDbEntity
  8
0
100
AcDbCircle
 62
7
  6
CONTINUOUS
 10
3.2694099379
 20
4.4863548137
 40
0.2362204724
100
AcDbArc
 50
310.7694567338
 51
310.6997096286
  0
ARC
  5
318
100
AcDbEntity
  8
0
100
AcDbCircle
 62
7
  6
CONTINUOUS
 10
3.2694099379
 20
4.4863548137
 40
0.2255654723
100
AcDbArc
 50
258.0599363237
 51
348.0368826089
  0
CIRCLE
  5
319
100
AcDbEntity
  8
0
100
AcDbCircle
 62
7
  6
CONTINUOUS
 10
3.2694099379
 20
4.4863548137
 40
0.2212204724
  0
ARC
  5
31A
100
AcDbEntity
  8
0
100
AcDbCircle
 62
7
  6
CONTINUOUS
 10
3.2694099379
 20
4.4863548137
 40
0.173123665
100
AcDbArc
 50
104.9675111054
 51
135.0324888946
  0
ARC
  5
31B
100
AcDbEntity
  8
0
100
AcDbCircle
 62
7
  6
CONTINUOUS
 10
3.2694099379
 20
4.4863548137
 40
0.173123665
100
AcDbArc
 50
44.9675111054
 51
75.0324888946
  0
ARC
  5
31C
100
AcDbEntity
  8
0
100
AcDbCircle
 62
7
  6
CONTINUOUS
 10
3.2694099379
 20
4.4863548137
 40
0.173123665
100
AcDbArc
 50
284.9675111054
 51
315.0324888946
  0
ARC
  5
31D
100
AcDbEntity
  8
0
100
AcDbCircle
 62
7
  6
CONTINUOUS
 10
3.2694099379
 20
4.4863548137
 40
0.173123665
100
AcDbArc
 50
224.9675111054
 51
255.0324888946
  0
ARC
  5
31E
100
AcDbEntity
  8
0
100
AcDbCircle
 62
7
  6
CONTINUOUS
 10
3.2694099379
 20
4.4863548137
 40
0.173123665
100
AcDbArc
 50
164.9675111054
 51
195.0324888946
  0
ARC
  5
31F
100
AcDbEntity
  8
0
100
AcDbCircle
 62
7
  6
CONTINUOUS
 10
3.2694099379
 20
4.4863548137
 40
0.173123665
100
AcDbArc
 50
344.9675111054
 51
15.0324888946
  0
ARC
  5
320
100
AcDbEntity
  8
0
100
AcDbCircle
 62
7
  6
CONTINUOUS
 10
3.2694099379
 20
4.4863548137
 40
0.140625
100
AcDbArc
 50
9.1562886901
 51
9.0273869001
  0
ARC
  5
321
100
AcDbEntity
  8
0
100
AcDbCircle
 62
7
  6
CONTINUOUS
 10
3.2694099379
 20
4.4863548137
 40
0.1270949999
100
AcDbArc
 50
316.3455845307
 51
46.3455982074
  0
ARC
  5
322
100
AcDbEntity
  8
0
100
AcDbCircle
 62
7
  6
CONTINUOUS
 10
3.2694099379
 20
4.4863548137
 40
0.125625
100
AcDbArc
 50
314.4703125157
 51
225.5296874843
  0
ARC
  5
323
100
AcDbEntity
  8
0
100
AcDbCircle
 62
7
  6
CONTINUOUS
 10
3.2694099379
 20
4.4863548137
 40
0.125625
100
AcDbArc
 50
234.6792532672
 51
305.3207467328
  0
CIRCLE
  5
324
100
AcDbEntity
  8
0
100
AcDbCircle
 62
7
  6
CONTINUOUS
 10
3.2694099379
 20
4.4863548137
 40
0.0925
  0
ARC
  5
325
100
AcDbEntity
  8
0
100
AcDbCircle
 62
7
  6
CONTINUOUS
 10
3.2694099379
 20
4.4863548137
 40
0.08175
100
AcDbArc
 50
154.1260218921
 51
160.8739781079
  0
ARC
  5
326
100
AcDbEntity
  8
0
100
AcDbCircle
 62
7
  6
CONTINUOUS
 10
3.2694099379
 20
4.4863548137
 40
0.08175
100
AcDbArc
 50
131.6260218921
 51
138.3739781079
  0
ARC
  5
327
100
AcDbEntity
  8
0
100
AcDbCircle
 62
7
  6
CONTINUOUS
 10
3.2694099379
 20
4.4863548137
 40
0.08175
100
AcDbArc
 50
109.1260218921
 51
115.8739781079
  0
ARC
  5
328
100
AcDbEntity
  8
0
100
AcDbCircle
 62
7
  6
CONTINUOUS
 10
3.2694099379
 20
4.4863548137
 40
0.08175
100
AcDbArc
 50
86.6260218921
 51
93.3739781079
  0
ARC
  5
329
100
AcDbEntity
  8
0
100
AcDbCircle
 62
7
  6
CONTINUOUS
 10
3.2694099379
 20
4.4863548137
 40
0.08175
100
AcDbArc
 50
64.1260218921
 51
70.8739781079
  0
ARC
  5
32A
100
AcDbEntity
  8
0
100
AcDbCircle
 62
7
  6
CONTINUOUS
 10
3.2694099379
 20
4.4863548137
 40
0.08175
100
AcDbArc
 50
41.6260218921
 51
48.3739781079
  0
ARC
  5
32B
100
AcDbEntity
  8
0
100
AcDbCircle
 62
7
  6
CONTINUOUS
 10
3.2694099379
 20
4.4863548137
 40
0.08175
100
AcDbArc
 50
19.1260218921
 51
25.8739781079
  0
ARC
  5
32C
100
AcDbEntity
  8
0
100
AcDbCircle
 62
7
  6
CONTINUOUS
 10
3.2694099379
 20
4.4863548137
 40
0.08175
100
AcDbArc
 50
311.6260218921
 51
318.3739781079
  0
ARC
  5
32D
100
AcDbEntity
  8
0
100
AcDbCircle
 62
7
  6
CONTINUOUS
 10
3.2694099379
 20
4.4863548137
 40
0.08175
100
AcDbArc
 50
289.1260218921
 51
295.8739781079
  0
ARC
  5
32E
100
AcDbEntity
  8
0
100
AcDbCircle
 62
7
  6
CONTINUOUS
 10
3.2694099379
 20
4.4863548137
 40
0.08175
100
AcDbArc
 50
266.6260218921
 51
273.3739781079
  0
ARC
  5
32F
100
AcDbEntity
  8
0
100
AcDbCircle
 62
7
  6
CONTINUOUS
 10
3.2694099379
 20
4.4863548137
 40
0.08175
100
AcDbArc
 50
244.1260218921
 51
250.8739781079
  0
ARC
  5
330
100
AcDbEntity
  8
0
100
AcDbCircle
 62
7
  6
CONTINUOUS
 10
3.2694099379
 20
4.4863548137
 40
0.08175
100
AcDbArc
 50
221.6260218921
 51
228.3739781079
  0
ARC
  5
331
100
AcDbEntity
  8
0
100
AcDbCircle
 62
7
  6
CONTINUOUS
 10
3.2694099379
 20
4.4863548137
 40
0.08175
100
AcDbArc
 50
199.1260218921
 51
205.8739781079
  0
ARC
  5
332
100
AcDbEntity
  8
0
100
AcDbCircle
 62
7
  6
CONTINUOUS
 10
3.2694099379
 20
4.4863548137
 40
0.08175
100
AcDbArc
 50
176.6260218921
 51
183.3739781079
  0
ARC
  5
333
100
AcDbEntity
  8
0
100
AcDbCircle
 62
7
  6
CONTINUOUS
 10
3.2694099379
 20
4.4863548137
 40
0.08175
100
AcDbArc
 50
356.6260218921
 51
3.3739781079
  0
ARC
  5
334
100
AcDbEntity
  8
0
100
AcDbCircle
 62
7
  6
CONTINUOUS
 10
3.2694099379
 20
4.4863548137
 40
0.08175
100
AcDbArc
 50
334.1260218921
 51
340.8739781079
  0
CIRCLE
  5
335
100
AcDbEntity
  8
0
100
AcDbCircle
 62
7
  6
CONTINUOUS
 10
3.2694099379
 20
4.4863548137
 40
0.0775
  0
CIRCLE
  5
336
100
AcDbEntity
  8
0
100
AcDbCircle
 62
7
  6
CONTINUOUS
 10
3.2694099379
 20
4.4863548137
 40
0.063975
  0
ARC
  5
337
100
AcDbEntity
  8
0
100
AcDbCircle
 62
7
  6
CONTINUOUS
 10
3.2694099379
 20
4.4863548137
 40
0.0625049999
100
AcDbArc
 50
316.3454735607
 51
46.3455222845
  0
ARC
  5
338
100
AcDbEntity
  8
0
100
AcDbCircle
 62
7
  6
CONTINUOUS
 10
3.2694296544
 20
4.4863764271
 40
0.0624757518
100
AcDbArc
 50
44.1713554405
 51
46.344921875
  0
ARC
  5
339
100
AcDbEntity
  8
0
100
AcDbCircle
 62
7
  6
CONTINUOUS
 10
3.2694099379
 20
4.4863548137
 40
0.048975
100
AcDbArc
 50
9.2309480813
 51
9.0272776988
  0
ARC
  5
33A
100
AcDbEntity
  8
0
100
AcDbCircle
 62
7
  6
CONTINUOUS
 10
3.3294096168
 20
4.541354843
 40
0.04
100
AcDbArc
 50
346.286
 51
103.985
  0
ARC
  5
33B
100
AcDbEntity
  8
0
100
AcDbCircle
 62
7
  6
CONTINUOUS
 10
3.3294096168
 20
4.541354843
 40
0.02
100
AcDbArc
 50
346.286
 51
103.985
  0
ARC
  5
33C
100
AcDbEntity
  8
0
100
AcDbCircle
 62
7
  6
CONTINUOUS
 10
3.2694099379
 20
4.7016048137
 40
0.13
100
AcDbArc
 50
256.015
 51
257.6805849352
  0
ARC
  5
33D
100
AcDbEntity
  8
0
100
AcDbCircle
 62
7
  6
CONTINUOUS
 10
3.2694099379
 20
4.7016048137
 40
0.13
100
AcDbArc
 50
282.3194150648
 51
283.985
  0
ARC
  5
33E
100
AcDbEntity
  8
0
100
AcDbCircle
 62
7
  6
CONTINUOUS
 10
7.2695184301
 20
4.4863269337
 40
0.2256774286
100
AcDbArc
 50
164.9083335648
 51
165.0724680498
  0
ARC
  5
33F
100
AcDbEntity
  8
0
100
AcDbCircle
 62
7
  6
CONTINUOUS
 10
7.2694146034
 20
4.4863525794
 40
0.2255704997
100
AcDbArc
 50
165.0719688807
 51
168.0365730673
  0
ARC
  5
340
100
AcDbEntity
  8
0
100
AcDbCircle
 62
7
  6
CONTINUOUS
 10
7.2694099379
 20
4.2711048137
 40
0.13
100
AcDbArc
 50
102.3194150648
 51
103.985
  0
ARC
  5
341
100
AcDbEntity
  8
0
100
AcDbCircle
 62
7
  6
CONTINUOUS
 10
7.2694099379
 20
4.2711048137
 40
0.13
100
AcDbArc
 50
76.015
 51
77.6805849352
  0
ARC
  5
342
100
AcDbEntity
  8
0
100
AcDbCircle
 62
7
  6
CONTINUOUS
 10
7.2693669927
 20
4.4863090138
 40
0.1270322176
100
AcDbArc
 50
224.8494431573
 51
226.345352677
  0
ARC
  5
343
100
AcDbEntity
  8
0
100
AcDbCircle
 62
7
  6
CONTINUOUS
 10
7.269390436
 20
4.4863334408
 40
0.0624760741
100
AcDbArc
 50
224.1832922524
 51
226.3449317296
  0
ARC
  5
344
100
AcDbEntity
  8
0
100
AcDbCircle
 62
7
  6
CONTINUOUS
 10
7.2749817775
 20
4.4788960697
 40
0.0616421803
100
AcDbArc
 50
215.6748710929
 51
217.7808117843
  0
ARC
  5
345
100
AcDbEntity
  8
0
100
AcDbCircle
 62
7
  6
CONTINUOUS
 10
7.2747722718
 20
4.4787459711
 40
0.0613844553
100
AcDbArc
 50
213.5686573913
 51
215.6751040339
  0
ARC
  5
346
100
AcDbEntity
  8
0
100
AcDbCircle
 62
7
  6
CONTINUOUS
 10
7.209410259
 20
4.4313547843
 40
0.04
100
AcDbArc
 50
166.286
 51
283.985
  0
ARC
  5
347
100
AcDbEntity
  8
0
100
AcDbCircle
 62
7
  6
CONTINUOUS
 10
7.3294096168
 20
4.4313547843
 40
0.04
100
AcDbArc
 50
256.015
 51
13.714
  0
ARC
  5
348
100
AcDbEntity
  8
0
100
AcDbCircle
 62
7
  6
CONTINUOUS
 10
7.3294096168
 20
4.4313547843
 40
0.02
100
AcDbArc
 50
256.015
 51
13.714
  0
ARC
  5
349
100
AcDbEntity
  8
0
100
AcDbCircle
 62
7
  6
CONTINUOUS
 10
7.209410259
 20
4.4313547843
 40
0.02
100
AcDbArc
 50
166.286
 51
283.985
  0
CIRCLE
  5
34A
100
AcDbEntity
  8
0
100
AcDbCircle
 62
7
  6
CONTINUOUS
 10
5.2694099379
 20
4.4863548137
 40
0.46875
  0
CIRCLE
  5
34B
100
AcDbEntity
  8
0
100
AcDbCircle
 62
7
  6
CONTINUOUS
 10
5.2694099379
 20
4.4863548137
 40
0.4375
  0
CIRCLE
  5
34C
100
AcDbEntity
  8
0
100
AcDbCircle
 62
7
  6
CONTINUOUS
 10
5.2694099379
 20
4.4863548137
 40
0.3115
  0
CIRCLE
  5
34D
100
AcDbEntity
  8
0
100
AcDbCircle
 62
7
  6
CONTINUOUS
 10
5.2694099379
 20
4.4863548137
 40
0.2964998214
  0
CIRCLE
  5
34E
100
AcDbEntity
  8
0
100
AcDbCircle
 62
7
  6
CONTINUOUS
 10
5.2694099379
 20
4.4863548137
 40
0.25125
  0
CIRCLE
  5
34F
100
AcDbEntity
  8
0
100
AcDbCircle
 62
7
  6
CONTINUOUS
 10
5.2694099379
 20
4.4863548137
 40
0.2435
  0
CIRCLE
  5
350
100
AcDbEntity
  8
0
100
AcDbCircle
 62
7
  6
CONTINUOUS
 10
5.2694099379
 20
4.4863548137
 40
0.2284992632
  0
ARC
  5
351
100
AcDbEntity
  8
0
100
AcDbCircle
 62
7
  6
CONTINUOUS
 10
7.2693828816
 20
4.4863794478
 40
0.12705842
100
AcDbArc
 50
134.5444999644
 51
136.2813146138
  0
ARC
  5
352
100
AcDbEntity
  8
0
100
AcDbCircle
 62
7
  6
CONTINUOUS
 10
7.2623586802
 20
4.4925514065
 40
0.1270575216
100
AcDbArc
 50
228.8349863485
 51
229.0872048214
  0
ARC
  5
353
100
AcDbEntity
  8
0
100
AcDbCircle
 62
7
  6
CONTINUOUS
 10
7.2622031697
 20
4.4923706135
 40
0.1268190498
100
AcDbArc
 50
229.0868060095
 51
230.5813715253
  0
ARC
  5
354
100
AcDbEntity
  8
0
100
AcDbCircle
 62
7
  6
CONTINUOUS
 10
7.2693885369
 20
4.4863743406
 40
0.0624760363
100
AcDbArc
 50
134.1817696399
 51
136.3448818016
  0
ARC
  5
355
100
AcDbEntity
  8
0
100
AcDbCircle
 62
7
  6
CONTINUOUS
 10
7.1763736117
 20
4.5490606766
 40
0.04
100
AcDbArc
 50
17.1598715469
 51
36.286
  0
ARC
  5
356
100
AcDbEntity
  8
0
100
AcDbCircle
 62
7
  6
CONTINUOUS
 10
7.1763736117
 20
4.5490606766
 40
0.02
100
AcDbArc
 50
346.286
 51
36.286
  0
CIRCLE
  5
357
100
AcDbEntity
  8
0
100
AcDbCircle
 62
7
  6
CONTINUOUS
 10
7.2694099379
 20
4.4863548137
 40
0.45275
  0
ARC
  5
358
100
AcDbEntity
  8
0
100
AcDbCircle
 62
7
  6
CONTINUOUS
 10
7.2694099379
 20
4.4863548137
 40
0.39
100
AcDbArc
 50
301.1551797422
 51
58.8448202578
  0
ARC
  5
359
100
AcDbEntity
  8
0
100
AcDbCircle
 62
7
  6
CONTINUOUS
 10
7.2694099379
 20
4.4863548137
 40
0.39
100
AcDbArc
 50
121.1551797422
 51
238.8448202578
  0
CIRCLE
  5
35A
100
AcDbEntity
  8
0
100
AcDbCircle
 62
7
  6
CONTINUOUS
 10
7.2694099379
 20
4.4863548137
 40
0.295
  0
CIRCLE
  5
35B
100
AcDbEntity
  8
0
100
AcDbCircle
 62
7
  6
CONTINUOUS
 10
7.2694099379
 20
4.4863548137
 40
0.28
  0
CIRCLE
  5
35C
100
AcDbEntity
  8
0
100
AcDbCircle
 62
7
  6
CONTINUOUS
 10
7.2694099379
 20
4.4863548137
 40
0.2775
  0
ARC
  5
35D
100
AcDbEntity
  8
0
100
AcDbCircle
 62
7
  6
CONTINUOUS
 10
7.2694099379
 20
4.4863548137
 40
0.2362204724
100
AcDbArc
 50
130.7694567338
 51
130.6997096286
  0
ARC
  5
35E
100
AcDbEntity
  8
0
100
AcDbCircle
 62
7
  6
CONTINUOUS
 10
7.2702427015
 20
4.488208156
 40
0.2353585494
100
AcDbArc
 50
131.1476076858
 51
180.4511966203
  0
ARC
  5
35F
100
AcDbEntity
  8
0
100
AcDbCircle
 62
7
  6
CONTINUOUS
 10
7.2708709635
 20
4.4936178923
 40
0.2256109214
100
AcDbArc
 50
166.9547272603
 51
169.9185895606
  0
ARC
  5
360
100
AcDbEntity
  8
0
100
AcDbCircle
 62
7
  6
CONTINUOUS
 10
7.2694131872
 20
4.4863747282
 40
0.2255453163
100
AcDbArc
 50
75.5633529441
 51
168.0368826089
  0
CIRCLE
  5
361
100
AcDbEntity
  8
0
100
AcDbCircle
 62
7
  6
CONTINUOUS
 10
7.2694099379
 20
4.4863548137
 40
0.2212204724
  0
ARC
  5
362
100
AcDbEntity
  8
0
100
AcDbCircle
 62
7
  6
CONTINUOUS
 10
7.2694099379
 20
4.4863548137
 40
0.173123665
100
AcDbArc
 50
164.9675111054
 51
195.0324888946
  0
ARC
  5
363
100
AcDbEntity
  8
0
100
AcDbCircle
 62
7
  6
CONTINUOUS
 10
7.2694099379
 20
4.4863548137
 40
0.173123665
100
AcDbArc
 50
344.9675111054
 51
15.0324888946
  0
ARC
  5
364
100
AcDbEntity
  8
0
100
AcDbCircle
 62
7
  6
CONTINUOUS
 10
7.2694099379
 20
4.4863548137
 40
0.173123665
100
AcDbArc
 50
284.9675111054
 51
315.0324888946
  0
ARC
  5
365
100
AcDbEntity
  8
0
100
AcDbCircle
 62
7
  6
CONTINUOUS
 10
7.2694099379
 20
4.4863548137
 40
0.173123665
100
AcDbArc
 50
224.9675111054
 51
255.0324888946
  0
ARC
  5
366
100
AcDbEntity
  8
0
100
AcDbCircle
 62
7
  6
CONTINUOUS
 10
7.2694099379
 20
4.4863548137
 40
0.173123665
100
AcDbArc
 50
104.9675111054
 51
135.0324888946
  0
ARC
  5
367
100
AcDbEntity
  8
0
100
AcDbCircle
 62
7
  6
CONTINUOUS
 10
7.2694099379
 20
4.4863548137
 40
0.173123665
100
AcDbArc
 50
44.9675111054
 51
75.0324888946
  0
ARC
  5
368
100
AcDbEntity
  8
0
100
AcDbCircle
 62
7
  6
CONTINUOUS
 10
7.2694099379
 20
4.4863548137
 40
0.140625
100
AcDbArc
 50
189.1591589043
 51
189.0273869001
  0
ARC
  5
369
100
AcDbEntity
  8
0
100
AcDbCircle
 62
7
  6
CONTINUOUS
 10
7.2712146883
 20
4.4881155297
 40
0.1272103354
100
AcDbArc
 50
135.5261184305
 51
135.7235099365
  0
ARC
  5
36A
100
AcDbEntity
  8
0
100
AcDbCircle
 62
7
  6
CONTINUOUS
 10
7.2694412141
 20
4.4863833972
 40
0.1271372964
100
AcDbArc
 50
224.5375449569
 51
224.8496192083
  0
ARC
  5
36B
100
AcDbEntity
  8
0
100
AcDbCircle
 62
7
  6
CONTINUOUS
 10
7.2694099379
 20
4.4863548137
 40
0.1270949999
100
AcDbArc
 50
136.3455845307
 51
226.3455982074
  0
ARC
  5
36C
100
AcDbEntity
  8
0
100
AcDbCircle
 62
7
  6
CONTINUOUS
 10
7.2711134357
 20
4.4882133246
 40
0.127069568
100
AcDbArc
 50
135.723208971
 51
137.4821997894
  0
ARC
  5
36D
100
AcDbEntity
  8
0
100
AcDbCircle
 62
7
  6
CONTINUOUS
 10
7.2694099379
 20
4.4863548137
 40
0.125625
100
AcDbArc
 50
54.6792532672
 51
125.3207467328
  0
ARC
  5
36E
100
AcDbEntity
  8
0
100
AcDbCircle
 62
7
  6
CONTINUOUS
 10
7.2694099379
 20
4.4863548137
 40
0.125625
100
AcDbArc
 50
134.4703125157
 51
45.5296874843
  0
CIRCLE
  5
36F
100
AcDbEntity
  8
0
100
AcDbCircle
 62
7
  6
CONTINUOUS
 10
7.2694099379
 20
4.4863548137
 40
0.0925
  0
ARC
  5
370
100
AcDbEntity
  8
0
100
AcDbCircle
 62
7
  6
CONTINUOUS
 10
7.2694099379
 20
4.4863548137
 40
0.08175
100
AcDbArc
 50
334.1260218921
 51
340.8739781079
  0
ARC
  5
371
100
AcDbEntity
  8
0
100
AcDbCircle
 62
7
  6
CONTINUOUS
 10
7.2694099379
 20
4.4863548137
 40
0.08175
100
AcDbArc
 50
311.6260218921
 51
318.3739781079
  0
ARC
  5
372
100
AcDbEntity
  8
0
100
AcDbCircle
 62
7
  6
CONTINUOUS
 10
7.2694099379
 20
4.4863548137
 40
0.08175
100
AcDbArc
 50
289.1260218921
 51
295.8739781079
  0
ARC
  5
373
100
AcDbEntity
  8
0
100
AcDbCircle
 62
7
  6
CONTINUOUS
 10
7.2694099379
 20
4.4863548137
 40
0.08175
100
AcDbArc
 50
266.6260218921
 51
273.3739781079
  0
ARC
  5
374
100
AcDbEntity
  8
0
100
AcDbCircle
 62
7
  6
CONTINUOUS
 10
7.2694099379
 20
4.4863548137
 40
0.08175
100
AcDbArc
 50
244.1260218921
 51
250.8739781079
  0
ARC
  5
375
100
AcDbEntity
  8
0
100
AcDbCircle
 62
7
  6
CONTINUOUS
 10
7.2694099379
 20
4.4863548137
 40
0.08175
100
AcDbArc
 50
221.6260218921
 51
228.3739781079
  0
ARC
  5
376
100
AcDbEntity
  8
0
100
AcDbCircle
 62
7
  6
CONTINUOUS
 10
7.2694099379
 20
4.4863548137
 40
0.08175
100
AcDbArc
 50
199.1260218921
 51
205.8739781079
  0
ARC
  5
377
100
AcDbEntity
  8
0
100
AcDbCircle
 62
7
  6
CONTINUOUS
 10
7.2694099379
 20
4.4863548137
 40
0.08175
100
AcDbArc
 50
131.6260218921
 51
138.3739781079
  0
ARC
  5
378
100
AcDbEntity
  8
0
100
AcDbCircle
 62
7
  6
CONTINUOUS
 10
7.2694099379
 20
4.4863548137
 40
0.08175
100
AcDbArc
 50
109.1260218921
 51
115.8739781079
  0
ARC
  5
379
100
AcDbEntity
  8
0
100
AcDbCircle
 62
7
  6
CONTINUOUS
 10
7.2694099379
 20
4.4863548137
 40
0.08175
100
AcDbArc
 50
86.6260218921
 51
93.3739781079
  0
ARC
  5
37A
100
AcDbEntity
  8
0
100
AcDbCircle
 62
7
  6
CONTINUOUS
 10
7.2694099379
 20
4.4863548137
 40
0.08175
100
AcDbArc
 50
64.1260218921
 51
70.8739781079
  0
ARC
  5
37B
100
AcDbEntity
  8
0
100
AcDbCircle
 62
7
  6
CONTINUOUS
 10
7.2694099379
 20
4.4863548137
 40
0.08175
100
AcDbArc
 50
41.6260218921
 51
48.3739781079
  0
ARC
  5
37C
100
AcDbEntity
  8
0
100
AcDbCircle
 62
7
  6
CONTINUOUS
 10
7.2694099379
 20
4.4863548137
 40
0.08175
100
AcDbArc
 50
19.1260218921
 51
25.8739781079
  0
ARC
  5
37D
100
AcDbEntity
  8
0
100
AcDbCircle
 62
7
  6
CONTINUOUS
 10
7.2694099379
 20
4.4863548137
 40
0.08175
100
AcDbArc
 50
356.6260218921
 51
3.3739781079
  0
ARC
  5
37E
100
AcDbEntity
  8
0
100
AcDbCircle
 62
7
  6
CONTINUOUS
 10
7.2694099379
 20
4.4863548137
 40
0.08175
100
AcDbArc
 50
176.6260218921
 51
183.3739781079
  0
ARC
  5
37F
100
AcDbEntity
  8
0
100
AcDbCircle
 62
7
  6
CONTINUOUS
 10
7.2694099379
 20
4.4863548137
 40
0.08175
100
AcDbArc
 50
154.1260218921
 51
160.8739781079
  0
CIRCLE
  5
380
100
AcDbEntity
  8
0
100
AcDbCircle
 62
7
  6
CONTINUOUS
 10
7.2694099379
 20
4.4863548137
 40
0.0775
  0
CIRCLE
  5
381
100
AcDbEntity
  8
0
100
AcDbCircle
 62
7
  6
CONTINUOUS
 10
7.2694099379
 20
4.4863548137
 40
0.063975
  0
ARC
  5
382
100
AcDbEntity
  8
0
100
AcDbCircle
 62
7
  6
CONTINUOUS
 10
7.2694099379
 20
4.4863548137
 40
0.0625049999
100
AcDbArc
 50
136.3454735619
 51
226.3455222849
  0
CIRCLE
  5
383
100
AcDbEntity
  8
0
100
AcDbCircle
 62
7
  6
CONTINUOUS
 10
7.2694099379
 20
4.4863548137
 40
0.048975
  0
ARC
  5
384
100
AcDbEntity
  8
0
100
AcDbCircle
 62
7
  6
CONTINUOUS
 10
7.3624462641
 20
4.5490606766
 40
0.04
100
AcDbArc
 50
143.714
 51
162.8401284531
  0
ARC
  5
385
100
AcDbEntity
  8
0
100
AcDbCircle
 62
7
  6
CONTINUOUS
 10
7.3624462641
 20
4.5490606766
 40
0.02
100
AcDbArc
 50
143.714
 51
193.714
  0
ARC
  5
386
100
AcDbEntity
  8
0
100
AcDbCircle
 62
7
  6
CONTINUOUS
 10
7.888354271
 20
4.7214418946
 40
0.0027830221
100
AcDbArc
 50
39.1830717621
 51
40.6314153375
  0
LINE
  5
387
100
AcDbEntity
  8
0
100
AcDbLine
 62
7
  6
CONTINUOUS
 10
7.856503625
 20
4.2292222841
 11
7.8562814143
 21
4.2294111466
  0
LINE
  5
388
100
AcDbEntity
  8
0
100
AcDbLine
 62
7
  6
CONTINUOUS
 10
7.8613170106
 20
4.229372699
 11
7.8615309789
 21
4.2295612659
  0
LINE
  5
389
100
AcDbEntity
  8
0
100
AcDbLine
 62
7
  6
CONTINUOUS
 10
7.6472000099
 20
4.2228563548
 11
7.6469943684
 21
4.222675137
  0
LINE
  5
38A
100
AcDbEntity
  8
0
100
AcDbLine
 62
7
  6
CONTINUOUS
 10
7.6420081716
 20
4.2227101914
 11
7.6422247892
 21
4.2225260669
  0
LINE
  5
38B
100
AcDbEntity
  8
0
100
AcDbLine
 62
7
  6
CONTINUOUS
 10
7.6777434636
 20
4.2238295673
 11
7.6779630873
 21
4.2236429094
  0
LINE
  5
38C
100
AcDbEntity
  8
0
100
AcDbLine
 62
7
  6
CONTINUOUS
 10
7.6598563912
 20
4.7494432262
 11
7.6600712527
 21
4.7496258584
  0
LINE
  5
38D
100
AcDbEntity
  8
0
100
AcDbLine
 62
7
  6
CONTINUOUS
 10
7.682954896
 20
4.2239762846
 11
7.6827461986
 21
4.223792361
  0
LINE
  5
38E
100
AcDbEntity
  8
0
100
AcDbLine
 62
7
  6
CONTINUOUS
 10
7.7186639854
 20
4.2250926293
 11
7.7184547742
 21
4.224908254
  0
LINE
  5
38F
100
AcDbEntity
  8
0
100
AcDbLine
 62
7
  6
CONTINUOUS
 10
7.7543943652
 20
4.2262098589
 11
7.7541843648
 21
4.2260248037
  0
LINE
  5
390
100
AcDbEntity
  8
0
100
AcDbLine
 62
7
  6
CONTINUOUS
 10
7.6650940333
 20
4.7492908842
 11
7.6648846189
 21
4.7494754407
  0
LINE
  5
391
100
AcDbEntity
  8
0
100
AcDbLine
 62
7
  6
CONTINUOUS
 10
7.7008142624
 20
4.7481739742
 11
7.700604078
 21
4.7483592076
  0
LINE
  5
392
100
AcDbEntity
  8
0
100
AcDbLine
 62
7
  6
CONTINUOUS
 10
7.736516093
 20
4.747057326
 11
7.7363047743
 21
4.7472435609
  0
LINE
  5
393
100
AcDbEntity
  8
0
100
AcDbLine
 62
7
  6
CONTINUOUS
 10
2.6483535294
 20
4.2494554554
 11
2.6484736823
 21
4.2493254129
  0
LINE
  5
394
100
AcDbEntity
  8
0
100
AcDbLine
 62
7
  6
CONTINUOUS
 10
7.7134243455
 20
4.2249433271
 11
7.7136425336
 21
4.2247578715
  0
LINE
  5
395
100
AcDbEntity
  8
0
100
AcDbLine
 62
7
  6
CONTINUOUS
 10
7.7491442608
 20
4.226060729
 11
7.7493637607
 21
4.2258741598
  0
LINE
  5
396
100
AcDbEntity
  8
0
100
AcDbLine
 62
7
  6
CONTINUOUS
 10
7.7848442395
 20
4.2271771711
 11
7.7850646862
 21
4.2269898137
  0
LINE
  5
397
100
AcDbEntity
  8
0
100
AcDbLine
 62
7
  6
CONTINUOUS
 10
7.6955712626
 20
4.7483256406
 11
7.6957878254
 21
4.7485097155
  0
LINE
  5
398
100
AcDbEntity
  8
0
100
AcDbLine
 62
7
  6
CONTINUOUS
 10
7.7312809245
 20
4.747208797
 11
7.7314985296
 21
4.747393756
  0
LINE
  5
399
100
AcDbEntity
  8
0
100
AcDbLine
 62
7
  6
CONTINUOUS
 10
7.767009014
 20
4.7460916576
 11
7.7672273388
 21
4.7462772307
  0
LINE
  5
39A
100
AcDbEntity
  8
0
100
AcDbLine
 62
7
  6
CONTINUOUS
 10
7.7901006839
 20
4.2273268878
 11
7.7898892803
 21
4.2271405823
  0
LINE
  5
39B
100
AcDbEntity
  8
0
100
AcDbLine
 62
7
  6
CONTINUOUS
 10
7.8258171638
 20
4.2284435874
 11
7.8256051
 21
4.2282567017
  0
LINE
  5
39C
100
AcDbEntity
  8
0
100
AcDbLine
 62
7
  6
CONTINUOUS
 10
7.7722407925
 20
4.7459403391
 11
7.7720287427
 21
4.7461271895
  0
LINE
  5
39D
100
AcDbEntity
  8
0
100
AcDbLine
 62
7
  6
CONTINUOUS
 10
7.8079622221
 20
4.7448232185
 11
7.8077492319
 21
4.7450109216
  0
LINE
  5
39E
100
AcDbEntity
  8
0
100
AcDbLine
 62
7
  6
CONTINUOUS
 10
7.8436646811
 20
4.7437069519
 11
7.8434510272
 21
4.7438952405
  0
LINE
  5
39F
100
AcDbEntity
  8
0
100
AcDbLine
 62
7
  6
CONTINUOUS
 10
7.8205683888
 20
4.2282940548
 11
7.820789391
 21
4.2281062107
  0
LINE
  5
3A0
100
AcDbEntity
  8
0
100
AcDbLine
 62
7
  6
CONTINUOUS
 10
7.8844343325
 20
4.2436198777
 11
7.8845854728
 21
4.2435646832
  0
LINE
  5
3A1
100
AcDbEntity
  8
0
100
AcDbLine
 62
7
  6
CONTINUOUS
 10
7.8027142581
 20
4.7449749112
 11
7.8029336819
 21
4.7451614101
  0
LINE
  5
3A2
100
AcDbEntity
  8
0
100
AcDbLine
 62
7
  6
CONTINUOUS
 10
7.8384230217
 20
4.743858197
 11
7.8386433651
 21
4.7440454799
  0
LINE
  5
3A3
100
AcDbEntity
  8
0
100
AcDbLine
 62
7
  6
CONTINUOUS
 10
7.8729203279
 20
4.7406132262
 11
7.8730645253
 21
4.7406658859
  0
SPLINE
  5
3A4
100
AcDbEntity
  8
0
100
AcDbSpline
 62
7
  6
CONTINUOUS
 70
0
 71
3
 72
43
 73
39
 74
0
 42
0.0000001
 43
0.0000001
 44
0.0000000001
 40
0.0
 40
0.0
 40
0.0
 40
0.0
 40
0.0312495862
 40
0.0468789931
 40
0.0625073767
 40
0.0937568924
 40
0.125006432
 40
0.1406352418
 40
0.156264065
 40
0.1875135016
 40
0.2187628833
 40
0.2500122273
 40
0.2812615214
 40
0.3125107772
 40
0.3437599805
 40
0.3750091469
 40
0.4062582571
 40
0.4375073309
 40
0.4687563469
 40
0.5000053246
 40
0.5312542467
 40
0.5625031282
 40
0.5937519557
 40
0.6250007417
 40
0.6562494724
 40
0.6874981612
 40
0.7187467928
 40
0.7499953809
 40
0.781243913
 40
0.8124924003
 40
0.8437408303
 40
0.8593694536
 40
0.8749980578
 40
0.906246373
 40
0.9374946925
 40
0.9531227951
 40
0.9687517674
 40
1.0
 40
1.0
 40
1.0
 40
1.0
 10
3.4082930798
 20
4.5084197978
 30
0.0
 10
3.4075504567
 20
4.5126078931
 30
0.0
 10
3.4061499165
 20
4.5188449134
 30
0.0
 10
3.403723771
 20
4.5270018045
 30
0.0
 10
3.4009291071
 20
4.5350405192
 30
0.0
 10
3.3967536317
 20
4.5448374614
 30
0.0
 10
3.3917026045
 20
4.5542132774
 30
0.0
 10
3.3871625405
 20
4.5614116932
 30
0.0
 10
3.3822984483
 20
4.5683951567
 30
0.0
 10
3.3756261599
 20
4.5766962548
 30
0.0
 10
3.3667426846
 20
4.585880677
 30
0.0
 10
3.3570539848
 20
4.5942121323
 30
0.0
 10
3.3466409599
 20
4.6016182501
 30
0.0
 10
3.3355905723
 20
4.6080348358
 30
0.0
 10
3.3239957735
 20
4.6134056046
 30
0.0
 10
3.311954599
 20
4.6176829588
 30
0.0
 10
3.2995694115
 20
4.6208284143
 30
0.0
 10
3.2869460526
 20
4.6228130154
 30
0.0
 10
3.274192955
 20
4.6236176721
 30
0.0
 10
3.2614202343
 20
4.6232334
 30
0.0
 10
3.2487387388
 20
4.6216614944
 30
0.0
 10
3.2362590993
 20
4.6189135992
 30
0.0
 10
3.2240907511
 20
4.6150117014
 30
0.0
 10
3.212340973
 20
4.6099880223
 30
0.0
 10
3.2011139143
 20
4.6038848269
 30
0.0
 10
3.1905096599
 20
4.596754139
 30
0.0
 10
3.1806232876
 20
4.5886573487
 30
0.0
 10
3.1715440239
 20
4.5796648224
 30
0.0
 10
3.1633542551
 20
4.5698550712
 30
0.0
 10
3.1561292273
 20
4.5593151785
 30
0.0
 10
3.1509666373
 20
4.5499987827
 30
0.0
 10
3.1473824585
 20
4.5422798347
 30
0.0
 10
3.1441690995
 20
4.5343992553
 30
0.0
 10
3.1408616813
 20
4.5242749312
 30
0.0
 10
3.1385341082
 20
4.5138815735
 30
0.0
 10
3.1372737405
 20
4.5054647478
 30
0.0
 10
3.136417048
 20
4.4969979918
 30
0.0
 10
3.13623159
 20
4.4906072916
 30
0.0
 10
3.1363121842
 20
4.4863548137
 30
0.0
  0
SPLINE
  5
3A5
100
AcDbEntity
  8
0
100
AcDbSpline
 62
7
  6
CONTINUOUS
 70
0
 71
3
 72
39
 73
35
 74
0
 42
0.0000001
 43
0.0000001
 44
0.0000000001
 40
0.0
 40
0.0
 40
0.0
 40
0.0
 40
0.0312493991
 40
0.0625012118
 40
0.0937508409
 40
0.1250013054
 40
0.1562515507
 40
0.1875017604
 40
0.2187519744
 40
0.2500021412
 40
0.281252273
 40
0.312502411
 40
0.3437524923
 40
0.3750025568
 40
0.406252592
 40
0.4375025857
 40
0.4687525808
 40
0.5000025335
 40
0.5312524493
 40
0.5625023426
 40
0.5937522066
 40
0.6250020362
 40
0.6562518549
 40
0.6875016199
 40
0.7187513579
 40
0.7500010807
 40
0.7812507526
 40
0.8125004258
 40
0.8437500556
 40
0.8749995981
 40
0.9062492584
 40
0.9374987202
 40
0.9687477632
 40
1.0
 40
1.0
 40
1.0
 40
1.0
 10
3.1363121842
 20
4.4863548137
 30
0.0
 10
3.1363724322
 20
4.483175882
 30
0.0
 10
3.1367211044
 20
4.4768197358
 30
0.0
 10
3.1379263419
 20
4.4673495323
 30
0.0
 10
3.1398089519
 20
4.4579897652
 30
0.0
 10
3.1423597169
 20
4.4487898823
 30
0.0
 10
3.1455665884
 20
4.4397975225
 30
0.0
 10
3.1494136903
 20
4.4310598974
 30
0.0
 10
3.1538818185
 20
4.4226229281
 30
0.0
 10
3.1589484369
 20
4.4145311871
 30
0.0
 10
3.1645877901
 20
4.4068276233
 30
0.0
 10
3.170771016
 20
4.3995533392
 30
0.0
 10
3.1774662435
 20
4.3927473322
 30
0.0
 10
3.1846387302
 20
4.3864462629
 30
0.0
 10
3.1922510734
 20
4.3806842706
 30
0.0
 10
3.2002633869
 20
4.3754927884
 30
0.0
 10
3.2086334823
 20
4.3709003529
 30
0.0
 10
3.2173170643
 20
4.3669323979
 30
0.0
 10
3.2262679519
 20
4.3636110834
 30
0.0
 10
3.2354383448
 20
4.3609552018
 30
0.0
 10
3.2447790554
 20
4.3589800442
 30
0.0
 10
3.2542397658
 20
4.3576973049
 30
0.0
 10
3.2637692776
 20
4.3571149494
 30
0.0
 10
3.2733158003
 20
4.3572371245
 30
0.0
 10
3.28282723
 20
4.3580641806
 30
0.0
 10
3.2922514296
 20
4.3595926066
 30
0.0
 10
3.3015365102
 20
4.3618150538
 30
0.0
 10
3.3106311159
 20
4.3647203001
 30
0.0
 10
3.319484724
 20
4.3682932689
 30
0.0
 10
3.328047961
 20
4.3725151308
 30
0.0
 10
3.3362727502
 20
4.3773633726
 30
0.0
 10
3.3441128622
 20
4.3828119967
 30
0.0
 10
3.3515236972
 20
4.388831091
 30
0.0
 10
3.3561509412
 20
4.3932035617
 30
0.0
 10
3.3583786521
 20
4.3954725651
 30
0.0
  0
SPLINE
  5
3A6
100
AcDbEntity
  8
0
100
AcDbSpline
 62
7
  6
CONTINUOUS
 70
0
 71
3
 72
48
 73
44
 74
0
 42
0.0000001
 43
0.0000001
 44
0.0000000001
 40
0.0
 40
0.0
 40
0.0
 40
0.0
 40
0.0156274826
 40
0.0312570736
 40
0.0468853417
 40
0.0625135495
 40
0.093761255
 40
0.1250088232
 40
0.1406372293
 40
0.1562656299
 40
0.1718940302
 40
0.1875224283
 40
0.2187699611
 40
0.2500174752
 40
0.2812649655
 40
0.3125124456
 40
0.3437598985
 40
0.3750073361
 40
0.4062547552
 40
0.4375021481
 40
0.4687495331
 40
0.49999689
 40
0.5312442299
 40
0.5624915536
 40
0.5937388488
 40
0.6249861345
 40
0.6562333938
 40
0.687480633
 40
0.718727858
 40
0.7499750556
 40
0.78122224
 40
0.7968506016
 40
0.8124789685
 40
0.8281073297
 40
0.8437356905
 40
0.8593640497
 40
0.8749924116
 40
0.9062394961
 40
0.9374866695
 40
0.9531148505
 40
0.9687430269
 40
0.9843725466
 40
1.0
 40
1.0
 40
1.0
 40
1.0
 10
3.5039213584
 20
4.4863548137
 30
0.0
 10
3.5038892963
 20
4.4901403533
 30
0.0
 10
3.5036416288
 20
4.4977116794
 30
0.0
 10
3.5027208163
 20
4.5090362082
 30
0.0
 10
3.5012520121
 20
4.5203034866
 30
0.0
 10
3.4985684376
 20
4.5352100969
 30
0.0
 10
3.4938624761
 20
4.5535733822
 30
0.0
 10
3.4873972468
 20
4.571393621
 30
0.0
 10
3.4812084393
 20
4.5852178965
 30
0.0
 10
3.4760674968
 20
4.5953506565
 30
0.0
 10
3.4704397987
 20
4.6052214101
 30
0.0
 10
3.4623071211
 20
4.6179990611
 30
0.0
 10
3.4509883497
 20
4.6332068846
 30
0.0
 10
3.435698192
 20
4.6500440453
 30
0.0
 10
3.4188406871
 20
4.6653134576
 30
0.0
 10
3.400575615
 20
4.6788673056
 30
0.0
 10
3.3810756718
 20
4.6905753076
 30
0.0
 10
3.3605260426
 20
4.7003241042
 30
0.0
 10
3.3391223206
 20
4.7080188617
 30
0.0
 10
3.3170687856
 20
4.7135841469
 30
0.0
 10
3.294576463
 20
4.7169647325
 30
0.0
 10
3.2718611424
 20
4.7181263179
 30
0.0
 10
3.2491412977
 20
4.7170558782
 30
0.0
 10
3.2266359949
 20
4.7137618424
 30
0.0
 10
3.2045627866
 20
4.7082741171
 30
0.0
 10
3.1831356158
 20
4.7006439214
 30
0.0
 10
3.1625626612
 20
4.6909434004
 30
0.0
 10
3.1430444213
 20
4.6792650596
 30
0.0
 10
3.1247713748
 20
4.6657204444
 30
0.0
 10
3.1079234544
 20
4.6504410545
 30
0.0
 10
3.0952057191
 20
4.6363810455
 30
0.0
 10
3.0859057374
 20
4.6244260984
 30
0.0
 10
3.0793811358
 20
4.6151235963
 30
0.0
 10
3.0733249958
 20
4.6055098476
 30
0.0
 10
3.0677521936
 20
4.5956080743
 30
0.0
 10
3.0626766354
 20
4.5854421773
 30
0.0
 10
3.0565903388
 20
4.571572419
 30
0.0
 10
3.0502834714
 20
4.5536943498
 30
0.0
 10
3.0457803772
 20
4.5352789928
 30
0.0
 10
3.0432875724
 20
4.5203392053
 30
0.0
 10
3.0419764465
 20
4.5090522978
 30
0.0
 10
3.0412281394
 20
4.4977148892
 30
0.0
 10
3.0411054888
 20
4.4901403387
 30
0.0
 10
3.0411384272
 20
4.4863548137
 30
0.0
  0
SPLINE
  5
3A7
100
AcDbEntity
  8
0
100
AcDbSpline
 62
7
  6
CONTINUOUS
 70
0
 71
3
 72
29
 73
25
 74
0
 42
0.0000001
 43
0.0000001
 44
0.0000000001
 40
0.0
 40
0.0
 40
0.0
 40
0.0
 40
0.0624951012
 40
0.0937499025
 40
0.1250036566
 40
0.1874986318
 40
0.2499933825
 40
0.2812478323
 40
0.3125022698
 40
0.3437566967
 40
0.375011126
 40
0.4375058545
 40
0.500000552
 40
0.5624952253
 40
0.6249898769
 40
0.656244296
 40
0.6874987126
 40
0.7187531342
 40
0.7500075701
 40
0.8125020873
 40
0.874996795
 40
0.9062505291
 40
0.9375052523
 40
1.0
 40
1.0
 40
1.0
 40
1.0
 10
3.0411384272
 20
4.4863548137
 30
0.0
 10
3.0411944523
 20
4.4799159975
 30
0.0
 10
3.0416879073
 20
4.4702540417
 30
0.0
 10
3.0431606751
 20
4.4574562628
 30
0.0
 10
3.0451740985
 20
4.444731547
 30
0.0
 10
3.0486995797
 20
4.4290031632
 30
0.0
 10
3.0535457376
 20
4.4136299554
 30
0.0
 10
3.0581927972
 20
4.4016145554
 30
0.0
 10
3.0620581319
 20
4.3927575476
 30
0.0
 10
3.066296163
 20
4.3840726881
 30
0.0
 10
3.0724325995
 20
4.3727453891
 30
0.0
 10
3.0809983252
 20
4.3590901963
 30
0.0
 10
3.0926309562
 20
4.3436397266
 30
0.0
 10
3.1055353262
 20
4.3292344078
 30
0.0
 10
3.1172739979
 20
4.3181871277
 30
0.0
 10
3.127200606
 20
4.3099757707
 30
0.0
 10
3.1349027743
 20
4.3041392751
 30
0.0
 10
3.1428469097
 20
4.2986366742
 30
0.0
 10
3.1537406189
 20
4.2917597363
 30
0.0
 10
3.1678938231
 20
4.2840451675
 30
0.0
 10
3.1826539567
 20
4.2775675949
 30
0.0
 10
3.1947585845
 20
4.2731572553
 30
0.0
 10
3.2070399236
 20
4.2692686835
 30
0.0
 10
3.2164318714
 20
4.266946187
 30
0.0
 10
3.2227430694
 20
4.2656695499
 30
0.0
  0
LINE
  5
3A8
100
AcDbEntity
  8
0
100
AcDbLine
 62
7
  6
CONTINUOUS
 10
2.6823162508
 20
4.7434873239
 11
2.6825384615
 21
4.7432984958
  0
LINE
  5
3A9
100
AcDbEntity
  8
0
100
AcDbLine
 62
7
  6
CONTINUOUS
 10
2.6775028651
 20
4.7433369004
 11
2.6772888968
 21
4.7431483873
  0
LINE
  5
3AA
100
AcDbEntity
  8
0
100
AcDbLine
 62
7
  6
CONTINUOUS
 10
2.8916198658
 20
4.7498532635
 11
2.8918255074
 21
4.7500345012
  0
LINE
  5
3AB
100
AcDbEntity
  8
0
100
AcDbLine
 62
7
  6
CONTINUOUS
 10
2.8968117042
 20
4.7499994616
 11
2.8965950865
 21
4.750183531
  0
LINE
  5
3AC
100
AcDbEntity
  8
0
100
AcDbLine
 62
7
  6
CONTINUOUS
 10
2.8610764122
 20
4.7488800441
 11
2.8608567885
 21
4.7490667288
  0
LINE
  5
3AD
100
AcDbEntity
  8
0
100
AcDbLine
 62
7
  6
CONTINUOUS
 10
2.8789634846
 20
4.2232663756
 11
2.8787486231
 21
4.2230837983
  0
LINE
  5
3AE
100
AcDbEntity
  8
0
100
AcDbLine
 62
7
  6
CONTINUOUS
 10
2.8558649797
 20
4.7487333679
 11
2.8560736771
 21
4.748917237
  0
LINE
  5
3AF
100
AcDbEntity
  8
0
100
AcDbLine
 62
7
  6
CONTINUOUS
 10
2.8201558904
 20
4.747617023
 11
2.8203651016
 21
4.7478013442
  0
LINE
  5
3B0
100
AcDbEntity
  8
0
100
AcDbLine
 62
7
  6
CONTINUOUS
 10
2.7844255105
 20
4.7464997934
 11
2.784635511
 21
4.7466847946
  0
LINE
  5
3B1
100
AcDbEntity
  8
0
100
AcDbLine
 62
7
  6
CONTINUOUS
 10
2.8737258425
 20
4.2234187178
 11
2.8739352569
 21
4.223234216
  0
LINE
  5
3B2
100
AcDbEntity
  8
0
100
AcDbLine
 62
7
  6
CONTINUOUS
 10
2.8380056134
 20
4.2245356279
 11
2.8382157977
 21
4.224350449
  0
LINE
  5
3B3
100
AcDbEntity
  8
0
100
AcDbLine
 62
7
  6
CONTINUOUS
 10
2.8023037828
 20
4.2256522763
 11
2.8025151015
 21
4.2254660955
  0
LINE
  5
3B4
100
AcDbEntity
  8
0
100
AcDbLine
 62
7
  6
CONTINUOUS
 10
2.8253955302
 20
4.7477663258
 11
2.8251773421
 21
4.7479517267
  0
LINE
  5
3B5
100
AcDbEntity
  8
0
100
AcDbLine
 62
7
  6
CONTINUOUS
 10
2.789675615
 20
4.746648924
 11
2.7894561151
 21
4.7468354385
  0
LINE
  5
3B6
100
AcDbEntity
  8
0
100
AcDbLine
 62
7
  6
CONTINUOUS
 10
2.7539756363
 20
4.7455324819
 11
2.7537551895
 21
4.7457197847
  0
LINE
  5
3B7
100
AcDbEntity
  8
0
100
AcDbLine
 62
7
  6
CONTINUOUS
 10
2.8432486132
 20
4.2243839612
 11
2.8430320504
 21
4.2241999411
  0
LINE
  5
3B8
100
AcDbEntity
  8
0
100
AcDbLine
 62
7
  6
CONTINUOUS
 10
2.8075389513
 20
4.2255008048
 11
2.8073213461
 21
4.2253159005
  0
LINE
  5
3B9
100
AcDbEntity
  8
0
100
AcDbLine
 62
7
  6
CONTINUOUS
 10
2.7718108617
 20
4.2266179441
 11
2.771592537
 21
4.2264324256
  0
LINE
  5
3BA
100
AcDbEntity
  8
0
100
AcDbLine
 62
7
  6
CONTINUOUS
 10
2.7487191919
 20
4.7453827647
 11
2.7489305955
 21
4.7455690161
  0
LINE
  5
3BB
100
AcDbEntity
  8
0
100
AcDbLine
 62
7
  6
CONTINUOUS
 10
2.713002712
 20
4.7442660651
 11
2.7132147758
 21
4.7444528969
  0
LINE
  5
3BC
100
AcDbEntity
  8
0
100
AcDbLine
 62
7
  6
CONTINUOUS
 10
2.7665790833
 20
4.2267692888
 11
2.7667911331
 21
4.2265824353
  0
LINE
  5
3BD
100
AcDbEntity
  8
0
100
AcDbLine
 62
7
  6
CONTINUOUS
 10
2.7308576537
 20
4.2278863837
 11
2.7310706439
 21
4.2276987346
  0
LINE
  5
3BE
100
AcDbEntity
  8
0
100
AcDbLine
 62
7
  6
CONTINUOUS
 10
2.6951551946
 20
4.2290026502
 11
2.6953688486
 21
4.2288144156
  0
LINE
  5
3BF
100
AcDbEntity
  8
0
100
AcDbLine
 62
7
  6
CONTINUOUS
 10
2.718251487
 20
4.744415598
 11
2.7180304848
 21
4.7446033878
  0
LINE
  5
3C0
100
AcDbEntity
  8
0
100
AcDbLine
 62
7
  6
CONTINUOUS
 10
2.6543855432
 20
4.7290897616
 11
2.6542344029
 21
4.7291449269
  0
LINE
  5
3C1
100
AcDbEntity
  8
0
100
AcDbLine
 62
7
  6
CONTINUOUS
 10
2.7361056177
 20
4.2277347273
 11
2.7358861939
 21
4.2275482147
  0
LINE
  5
3C2
100
AcDbEntity
  8
0
100
AcDbLine
 62
7
  6
CONTINUOUS
 10
2.7003968541
 20
4.2288514049
 11
2.7001765107
 21
4.2286641762
  0
SPLINE
  5
3C3
100
AcDbEntity
  8
0
100
AcDbSpline
 62
7
  6
CONTINUOUS
 70
0
 71
3
 72
35
 73
31
 74
0
 42
0.0000001
 43
0.0000001
 44
0.0000000001
 40
0.0
 40
0.0
 40
0.0
 40
0.0
 40
0.0312550955
 40
0.0625174434
 40
0.0937745155
 40
0.1250318646
 40
0.1875067319
 40
0.2499801637
 40
0.281237095
 40
0.312493843
 40
0.3437504104
 40
0.3750067996
 40
0.406262993
 40
0.437519018
 40
0.4687748443
 40
0.5000304628
 40
0.5312859264
 40
0.5625411706
 40
0.5937961919
 40
0.6250510617
 40
0.6563056994
 40
0.6875601014
 40
0.7188143446
 40
0.750068348
 40
0.8125298686
 40
0.8749900195
 40
0.9062428133
 40
0.937494295
 40
0.9687505687
 40
1.0
 40
1.0
 40
1.0
 40
1.0
 10
3.3146332583
 20
4.4432070871
 30
0.0
 10
3.3135721565
 20
4.4421811594
 30
0.0
 10
3.3113760493
 20
4.4402036916
 30
0.0
 10
3.3078803549
 20
4.4374794785
 30
0.0
 10
3.3041988066
 20
4.4350111748
 30
0.0
 10
3.2990703656
 20
4.4320808852
 30
0.0
 10
3.2922849642
 20
4.4291190741
 30
0.0
 10
3.2851434026
 20
4.4271651256
 30
0.0
 10
3.279310545
 20
4.4262344889
 30
0.0
 10
3.2748944948
 20
4.4258562988
 30
0.0
 10
3.270462833
 20
4.4258013553
 30
0.0
 10
3.2660389863
 20
4.426071007
 30
0.0
 10
3.2616468922
 20
4.4266646988
 30
0.0
 10
3.2573104312
 20
4.4275801829
 30
0.0
 10
3.2530534759
 20
4.4288135967
 30
0.0
 10
3.2488996113
 20
4.4303590262
 30
0.0
 10
3.2448721042
 20
4.4322089299
 30
0.0
 10
3.2409937996
 20
4.4343540834
 30
0.0
 10
3.2372868057
 20
4.4367833008
 30
0.0
 10
3.2337725555
 20
4.439483842
 30
0.0
 10
3.2304716393
 20
4.4424413655
 30
0.0
 10
3.2274035232
 20
4.4456396558
 30
0.0
 10
3.2245864719
 20
4.4490614621
 30
0.0
 10
3.2211899622
 20
4.4538933429
 30
0.0
 10
3.2176507759
 20
4.4603987705
 30
0.0
 10
3.2151506666
 20
4.4673703663
 30
0.0
 10
3.2138137913
 20
4.473123209
 30
0.0
 10
3.2131482279
 20
4.4775053355
 30
0.0
 10
3.2128260199
 20
4.481925336
 30
0.0
 10
3.2128418701
 20
4.4848805873
 30
0.0
 10
3.212907686
 20
4.4863548137
 30
0.0
  0
SPLINE
  5
3C4
100
AcDbEntity
  8
0
100
AcDbSpline
 62
7
  6
CONTINUOUS
 70
0
 71
3
 72
39
 73
35
 74
0
 42
0.0000001
 43
0.0000001
 44
0.0000000001
 40
0.0
 40
0.0
 40
0.0
 40
0.0
 40
0.0312537882
 40
0.0625113543
 40
0.0937650769
 40
0.1250198575
 40
0.1562740652
 40
0.1875279502
 40
0.2187815439
 40
0.2500347876
 40
0.2812877111
 40
0.3125403333
 40
0.3437926065
 40
0.3750445164
 40
0.4062960729
 40
0.4375472859
 40
0.4687981571
 40
0.5000486528
 40
0.5312987518
 40
0.5625484613
 40
0.5937977909
 40
0.6250467377
 40
0.6562952904
 40
0.6875434123
 40
0.7187910996
 40
0.7500383552
 40
0.7812851785
 40
0.8125315815
 40
0.8437775363
 40
0.8750229328
 40
0.9062681899
 40
0.9375119334
 40
0.968757434
 40
1.0
 40
1.0
 40
1.0
 40
1.0
 10
3.212907686
 20
4.4863548137
 30
0.0
 10
3.2129808651
 20
4.487993971
 30
0.0
 10
3.2132705112
 20
4.4912679011
 30
0.0
 10
3.2141324917
 20
4.4961205223
 30
0.0
 10
3.2154175038
 20
4.5008791427
 30
0.0
 10
3.2171168216
 20
4.5055057808
 30
0.0
 10
3.2192190765
 20
4.5099639071
 30
0.0
 10
3.2217091902
 20
4.5142175527
 30
0.0
 10
3.2245688993
 20
4.5182320614
 30
0.0
 10
3.2277767678
 20
4.5219742303
 30
0.0
 10
3.2313082784
 20
4.5254126504
 30
0.0
 10
3.2351359855
 20
4.5285179704
 30
0.0
 10
3.239229615
 20
4.5312632536
 30
0.0
 10
3.2435563087
 20
4.5336242113
 30
0.0
 10
3.2480808516
 20
4.5355794468
 30
0.0
 10
3.252765909
 20
4.5371106994
 30
0.0
 10
3.2575722905
 20
4.5382030596
 30
0.0
 10
3.2624592309
 20
4.5388452392
 30
0.0
 10
3.2673847334
 20
4.5390297029
 30
0.0
 10
3.2723059078
 20
4.5387527999
 30
0.0
 10
3.2771793236
 20
4.5380148922
 30
0.0
 10
3.281961376
 20
4.5368204343
 30
0.0
 10
3.2866086784
 20
4.5351780653
 30
0.0
 10
3.291078475
 20
4.5331006294
 30
0.0
 10
3.2953290339
 20
4.5306051144
 30
0.0
 10
3.2993200577
 20
4.5277126043
 30
0.0
 10
3.3030130889
 20
4.5244481802
 30
0.0
 10
3.3063719141
 20
4.5208407827
 30
0.0
 10
3.3093629657
 20
4.516923053
 30
0.0
 10
3.3119557853
 20
4.5127310888
 30
0.0
 10
3.3141231535
 20
4.5083042327
 30
0.0
 10
3.3158419662
 20
4.5036844478
 30
0.0
 10
3.3170925726
 20
4.4989171491
 30
0.0
 10
3.3176046303
 20
4.4956701983
 30
0.0
 10
3.3177783214
 20
4.49403922
 30
0.0
  0
LINE
  5
3C5
100
AcDbEntity
  8
0
100
AcDbLine
 62
7
  6
CONTINUOUS
 10
2.6658995478
 20
4.2320964011
 11
2.6657553505
 21
4.2320437414
  0
LINE
  5
3C6
100
AcDbEntity
  8
0
100
AcDbLine
 62
7
  6
CONTINUOUS
 10
7.8904663464
 20
4.7232541719
 11
7.8903461935
 21
4.7233842144
  0
SPLINE
  5
3C7
100
AcDbEntity
  8
0
100
AcDbSpline
 62
7
  6
CONTINUOUS
 70
0
 71
3
 72
43
 73
39
 74
0
 42
0.0000001
 43
0.0000001
 44
0.0000000001
 40
0.0
 40
0.0
 40
0.0
 40
0.0
 40
0.0312496873
 40
0.0468789443
 40
0.0625073488
 40
0.0937569383
 40
0.1250064638
 40
0.1406352857
 40
0.1562641097
 40
0.1875135554
 40
0.2187629397
 40
0.2500122956
 40
0.2812615895
 40
0.3125108559
 40
0.3437600579
 40
0.3750092321
 40
0.4062583409
 40
0.4375074192
 40
0.468756434
 40
0.5000054133
 40
0.5312543335
 40
0.5625032137
 40
0.5937520387
 40
0.6250008198
 40
0.6562495482
 40
0.6874982286
 40
0.7187468584
 40
0.7499954358
 40
0.7812439658
 40
0.8124924415
 40
0.8437408676
 40
0.8593694823
 40
0.8749980899
 40
0.9062463868
 40
0.9374947394
 40
0.9531228759
 40
0.9687517044
 40
1.0
 40
1.0
 40
1.0
 40
1.0
 10
7.130526796
 20
4.4642898295
 30
0.0
 10
7.1312694214
 20
4.4601017209
 30
0.0
 10
7.1326699543
 20
4.4538647058
 30
0.0
 10
7.1350961069
 20
4.4457078211
 30
0.0
 10
7.1378907715
 20
4.4376691153
 30
0.0
 10
7.142066239
 20
4.4278721579
 30
0.0
 10
7.1471172814
 20
4.4184963395
 30
0.0
 10
7.1516573388
 20
4.4112979203
 30
0.0
 10
7.1565214376
 20
4.4043144581
 30
0.0
 10
7.1631937259
 20
4.3960133585
 30
0.0
 10
7.1720772051
 20
4.3868289365
 30
0.0
 10
7.1817659069
 20
4.3784974813
 30
0.0
 10
7.1921789361
 20
4.3710913652
 30
0.0
 10
7.203229325
 20
4.3646747806
 30
0.0
 10
7.2148241277
 20
4.3593040159
 30
0.0
 10
7.2268653029
 20
4.3550266633
 30
0.0
 10
7.2392504928
 20
4.3518812138
 30
0.0
 10
7.2518738517
 20
4.3498966145
 30
0.0
 10
7.2646269498
 20
4.3490919648
 30
0.0
 10
7.2773996697
 20
4.3494762388
 30
0.0
 10
7.2900811635
 20
4.3510481513
 30
0.0
 10
7.3025608013
 20
4.3537960479
 30
0.0
 10
7.3147291458
 20
4.3576979515
 30
0.0
 10
7.3264789217
 20
4.3627216309
 30
0.0
 10
7.3377059751
 20
4.3688248301
 30
0.0
 10
7.3483102274
 20
4.375955517
 30
0.0
 10
7.3581965943
 20
4.3840523084
 30
0.0
 10
7.3672758569
 20
4.3930448324
 30
0.0
 10
7.3754656195
 20
4.4028545829
 30
0.0
 10
7.382690654
 20
4.4133944691
 30
0.0
 10
7.3878532187
 20
4.4227108723
 30
0.0
 10
7.3914374457
 20
4.4304297967
 30
0.0
 10
7.3946507541
 20
4.4383103932
 30
0.0
 10
7.3979582039
 20
4.4484347072
 30
0.0
 10
7.4002857622
 20
4.4588280758
 30
0.0
 10
7.4015461368
 20
4.4672448891
 30
0.0
 10
7.4024028309
 20
4.4757116383
 30
0.0
 10
7.4025882859
 20
4.4821023273
 30
0.0
 10
7.4025076916
 20
4.4863548137
 30
0.0
  0
SPLINE
  5
3C8
100
AcDbEntity
  8
0
100
AcDbSpline
 62
7
  6
CONTINUOUS
 70
0
 71
3
 72
39
 73
35
 74
0
 42
0.0000001
 43
0.0000001
 44
0.0000000001
 40
0.0
 40
0.0
 40
0.0
 40
0.0
 40
0.0312493991
 40
0.0625012118
 40
0.0937508409
 40
0.1250013054
 40
0.1562515507
 40
0.1875017604
 40
0.2187519744
 40
0.2500021412
 40
0.281252273
 40
0.312502411
 40
0.3437524923
 40
0.3750025568
 40
0.406252592
 40
0.4375025857
 40
0.4687525808
 40
0.5000025335
 40
0.5312524493
 40
0.5625023426
 40
0.5937522066
 40
0.6250020362
 40
0.6562518549
 40
0.6875016199
 40
0.7187513579
 40
0.7500010807
 40
0.7812507526
 40
0.8125004258
 40
0.8437500556
 40
0.8749995981
 40
0.9062492584
 40
0.9374987202
 40
0.9687477632
 40
1.0
 40
1.0
 40
1.0
 40
1.0
 10
7.4025076916
 20
4.4863548137
 30
0.0
 10
7.4024474436
 20
4.4895337453
 30
0.0
 10
7.4020987714
 20
4.4958898915
 30
0.0
 10
7.4008935339
 20
4.5053600951
 30
0.0
 10
7.3990109238
 20
4.5147198621
 30
0.0
 10
7.3964601589
 20
4.523919745
 30
0.0
 10
7.3932532874
 20
4.5329121048
 30
0.0
 10
7.3894061855
 20
4.5416497299
 30
0.0
 10
7.3849380573
 20
4.5500866993
 30
0.0
 10
7.3798714389
 20
4.5581784402
 30
0.0
 10
7.3742320856
 20
4.5658820041
 30
0.0
 10
7.3680488597
 20
4.5731562882
 30
0.0
 10
7.3613536323
 20
4.5799622952
 30
0.0
 10
7.3541811456
 20
4.5862633645
 30
0.0
 10
7.3465688024
 20
4.5920253567
 30
0.0
 10
7.3385564889
 20
4.5972168389
 30
0.0
 10
7.3301863934
 20
4.6018092745
 30
0.0
 10
7.3215028114
 20
4.6057772294
 30
0.0
 10
7.3125519238
 20
4.609098544
 30
0.0
 10
7.303381531
 20
4.6117544256
 30
0.0
 10
7.2940408203
 20
4.6137295831
 30
0.0
 10
7.28458011
 20
4.6150123224
 30
0.0
 10
7.2750505982
 20
4.6155946779
 30
0.0
 10
7.2655040754
 20
4.6154725028
 30
0.0
 10
7.2559926458
 20
4.6146454467
 30
0.0
 10
7.2465684462
 20
4.6131170207
 30
0.0
 10
7.2372833656
 20
4.6108945735
 30
0.0
 10
7.2281887598
 20
4.6079893272
 30
0.0
 10
7.2193351517
 20
4.6044163584
 30
0.0
 10
7.2107719148
 20
4.6001944965
 30
0.0
 10
7.2025471255
 20
4.5953462547
 30
0.0
 10
7.1947070135
 20
4.5898976307
 30
0.0
 10
7.1872961785
 20
4.5838785363
 30
0.0
 10
7.1826689346
 20
4.5795060656
 30
0.0
 10
7.1804412237
 20
4.5772370622
 30
0.0
  0
SPLINE
  5
3C9
100
AcDbEntity
  8
0
100
AcDbSpline
 62
7
  6
CONTINUOUS
 70
0
 71
3
 72
48
 73
44
 74
0
 42
0.0000001
 43
0.0000001
 44
0.0000000001
 40
0.0
 40
0.0
 40
0.0
 40
0.0
 40
0.0156274826
 40
0.0312570736
 40
0.0468853417
 40
0.0625135495
 40
0.093761255
 40
0.1250088232
 40
0.1406372293
 40
0.1562656299
 40
0.1718940302
 40
0.1875224283
 40
0.2187699611
 40
0.2500174752
 40
0.2812649655
 40
0.3125124456
 40
0.3437598985
 40
0.3750073361
 40
0.4062547552
 40
0.4375021481
 40
0.4687495331
 40
0.49999689
 40
0.5312442299
 40
0.5624915536
 40
0.5937388488
 40
0.6249861345
 40
0.6562333938
 40
0.687480633
 40
0.718727858
 40
0.7499750556
 40
0.78122224
 40
0.7968506016
 40
0.8124789685
 40
0.8281073297
 40
0.8437356905
 40
0.8593640497
 40
0.8749924116
 40
0.9062394961
 40
0.9374866695
 40
0.9531148505
 40
0.9687430269
 40
0.9843725466
 40
1.0
 40
1.0
 40
1.0
 40
1.0
 10
7.0348985174
 20
4.4863548137
 30
0.0
 10
7.0349305795
 20
4.4825692741
 30
0.0
 10
7.0351782469
 20
4.474997948
 30
0.0
 10
7.0360990595
 20
4.4636734192
 30
0.0
 10
7.0375678636
 20
4.4524061408
 30
0.0
 10
7.0402514381
 20
4.4374995304
 30
0.0
 10
7.0449573997
 20
4.4191362451
 30
0.0
 10
7.051422629
 20
4.4013160063
 30
0.0
 10
7.0576114365
 20
4.3874917309
 30
0.0
 10
7.0627523789
 20
4.3773589708
 30
0.0
 10
7.0683800771
 20
4.3674882173
 30
0.0
 10
7.0765127547
 20
4.3547105662
 30
0.0
 10
7.0878315261
 20
4.3395027427
 30
0.0
 10
7.1031216838
 20
4.322665582
 30
0.0
 10
7.1199791887
 20
4.3073961697
 30
0.0
 10
7.1382442608
 20
4.2938423217
 30
0.0
 10
7.157744204
 20
4.2821343197
 30
0.0
 10
7.1782938331
 20
4.2723855232
 30
0.0
 10
7.1996975552
 20
4.2646907656
 30
0.0
 10
7.2217510901
 20
4.2591254804
 30
0.0
 10
7.2442434127
 20
4.2557448949
 30
0.0
 10
7.2669587334
 20
4.2545833094
 30
0.0
 10
7.2896785781
 20
4.2556537492
 30
0.0
 10
7.3121838809
 20
4.2589477849
 30
0.0
 10
7.3342570892
 20
4.2644355103
 30
0.0
 10
7.35568426
 20
4.2720657059
 30
0.0
 10
7.3762572146
 20
4.2817662269
 30
0.0
 10
7.3957754545
 20
4.2934445678
 30
0.0
 10
7.414048501
 20
4.3069891829
 30
0.0
 10
7.4308964214
 20
4.3222685728
 30
0.0
 10
7.4436141567
 20
4.3363285818
 30
0.0
 10
7.4529141384
 20
4.3482835289
 30
0.0
 10
7.45943874
 20
4.3575860311
 30
0.0
 10
7.46549488
 20
4.3671997797
 30
0.0
 10
7.4710676821
 20
4.377101553
 30
0.0
 10
7.4761432404
 20
4.38726745
 30
0.0
 10
7.4822295369
 20
4.4011372084
 30
0.0
 10
7.4885364043
 20
4.4190152775
 30
0.0
 10
7.4930394986
 20
4.4374306345
 30
0.0
 10
7.4955323033
 20
4.452370422
 30
0.0
 10
7.4968434293
 20
4.4636573295
 30
0.0
 10
7.4975917364
 20
4.4749947381
 30
0.0
 10
7.497714387
 20
4.4825692887
 30
0.0
 10
7.4976814485
 20
4.4863548137
 30
0.0
  0
SPLINE
  5
3CA
100
AcDbEntity
  8
0
100
AcDbSpline
 62
7
  6
CONTINUOUS
 70
0
 71
3
 72
29
 73
25
 74
0
 42
0.0000001
 43
0.0000001
 44
0.0000000001
 40
0.0
 40
0.0
 40
0.0
 40
0.0
 40
0.0624951012
 40
0.0937499025
 40
0.1250036566
 40
0.1874986318
 40
0.2499933825
 40
0.2812478323
 40
0.3125022698
 40
0.3437566967
 40
0.375011126
 40
0.4375058545
 40
0.500000552
 40
0.5624952253
 40
0.6249898769
 40
0.656244296
 40
0.6874987126
 40
0.7187531342
 40
0.7500075701
 40
0.8125020873
 40
0.874996795
 40
0.9062505291
 40
0.9375052523
 40
1.0
 40
1.0
 40
1.0
 40
1.0
 10
7.4976814485
 20
4.4863548137
 30
0.0
 10
7.4976254234
 20
4.4927936298
 30
0.0
 10
7.4971319685
 20
4.5024555856
 30
0.0
 10
7.4956592007
 20
4.5152533645
 30
0.0
 10
7.4936457772
 20
4.5279780803
 30
0.0
 10
7.4901202961
 20
4.5437064641
 30
0.0
 10
7.4852741382
 20
4.5590796719
 30
0.0
 10
7.4806270786
 20
4.5710950719
 30
0.0
 10
7.4767617439
 20
4.5799520798
 30
0.0
 10
7.4725237128
 20
4.5886369393
 30
0.0
 10
7.4663872763
 20
4.5999642382
 30
0.0
 10
7.4578215506
 20
4.613619431
 30
0.0
 10
7.4461889195
 20
4.6290699008
 30
0.0
 10
7.4332845496
 20
4.6434752195
 30
0.0
 10
7.4215458778
 20
4.6545224996
 30
0.0
 10
7.4116192698
 20
4.6627338567
 30
0.0
 10
7.4039171015
 20
4.6685703523
 30
0.0
 10
7.3959729661
 20
4.6740729531
 30
0.0
 10
7.3850792569
 20
4.680949891
 30
0.0
 10
7.3709260527
 20
4.6886644598
 30
0.0
 10
7.356165919
 20
4.6951420324
 30
0.0
 10
7.3440612913
 20
4.699552372
 30
0.0
 10
7.3317799522
 20
4.7034409438
 30
0.0
 10
7.3223880044
 20
4.7057634403
 30
0.0
 10
7.3160768064
 20
4.7070400774
 30
0.0
  0
SPLINE
  5
3CB
100
AcDbEntity
  8
0
100
AcDbSpline
 62
7
  6
CONTINUOUS
 70
0
 71
3
 72
35
 73
31
 74
0
 42
0.0000001
 43
0.0000001
 44
0.0000000001
 40
0.0
 40
0.0
 40
0.0
 40
0.0
 40
0.0312550955
 40
0.0625174434
 40
0.0937745155
 40
0.1250318646
 40
0.1875067319
 40
0.2499801637
 40
0.281237095
 40
0.312493843
 40
0.3437504104
 40
0.3750067996
 40
0.406262993
 40
0.437519018
 40
0.4687748443
 40
0.5000304628
 40
0.5312859264
 40
0.5625411706
 40
0.5937961919
 40
0.6250510617
 40
0.6563056994
 40
0.6875601014
 40
0.7188143446
 40
0.750068348
 40
0.8125298686
 40
0.8749900195
 40
0.9062428133
 40
0.937494295
 40
0.9687505687
 40
1.0
 40
1.0
 40
1.0
 40
1.0
 10
7.2241866175
 20
4.5295025402
 30
0.0
 10
7.2252477192
 20
4.530528468
 30
0.0
 10
7.2274438265
 20
4.5325059357
 30
0.0
 10
7.2309395209
 20
4.5352301488
 30
0.0
 10
7.2346210691
 20
4.5376984526
 30
0.0
 10
7.2397495102
 20
4.5406287422
 30
0.0
 10
7.2465349116
 20
4.5435905532
 30
0.0
 10
7.2536764732
 20
4.5455445017
 30
0.0
 10
7.2595093308
 20
4.5464751384
 30
0.0
 10
7.2639253809
 20
4.5468533286
 30
0.0
 10
7.2683570428
 20
4.546908272
 30
0.0
 10
7.2727808894
 20
4.5466386203
 30
0.0
 10
7.2771729836
 20
4.5460449286
 30
0.0
 10
7.2815094446
 20
4.5451294445
 30
0.0
 10
7.2857663999
 20
4.5438960306
 30
0.0
 10
7.2899202645
 20
4.5423506011
 30
0.0
 10
7.2939477716
 20
4.5405006975
 30
0.0
 10
7.2978260762
 20
4.5383555439
 30
0.0
 10
7.3015330701
 20
4.5359263265
 30
0.0
 10
7.3050473203
 20
4.5332257854
 30
0.0
 10
7.3083482365
 20
4.5302682618
 30
0.0
 10
7.3114163525
 20
4.5270699715
 30
0.0
 10
7.3142334038
 20
4.5236481652
 30
0.0
 10
7.3176299136
 20
4.5188162844
 30
0.0
 10
7.3211690998
 20
4.5123108568
 30
0.0
 10
7.3236692092
 20
4.5053392611
 30
0.0
 10
7.3250060845
 20
4.4995864184
 30
0.0
 10
7.3256716479
 20
4.4952042919
 30
0.0
 10
7.3259938559
 20
4.4907842914
 30
0.0
 10
7.3259780056
 20
4.4878290401
 30
0.0
 10
7.3259121898
 20
4.4863548137
 30
0.0
  0
SPLINE
  5
3CC
100
AcDbEntity
  8
0
100
AcDbSpline
 62
7
  6
CONTINUOUS
 70
0
 71
3
 72
39
 73
35
 74
0
 42
0.0000001
 43
0.0000001
 44
0.0000000001
 40
0.0
 40
0.0
 40
0.0
 40
0.0
 40
0.0312537882
 40
0.0625113543
 40
0.0937650769
 40
0.1250198575
 40
0.1562740652
 40
0.1875279502
 40
0.2187815439
 40
0.2500347876
 40
0.2812877111
 40
0.3125403333
 40
0.3437926065
 40
0.3750445164
 40
0.4062960729
 40
0.4375472859
 40
0.4687981571
 40
0.5000486528
 40
0.5312987518
 40
0.5625484613
 40
0.5937977909
 40
0.6250467377
 40
0.6562952904
 40
0.6875434123
 40
0.7187910996
 40
0.7500383552
 40
0.7812851785
 40
0.8125315815
 40
0.8437775363
 40
0.8750229328
 40
0.9062681899
 40
0.9375119334
 40
0.968757434
 40
1.0
 40
1.0
 40
1.0
 40
1.0
 10
7.3259121898
 20
4.4863548137
 30
0.0
 10
7.3258390107
 20
4.4847156564
 30
0.0
 10
7.3255493645
 20
4.4814417262
 30
0.0
 10
7.324687384
 20
4.476589105
 30
0.0
 10
7.3234023719
 20
4.4718304847
 30
0.0
 10
7.3217030541
 20
4.4672038466
 30
0.0
 10
7.3196007993
 20
4.4627457203
 30
0.0
 10
7.3171106856
 20
4.4584920746
 30
0.0
 10
7.3142509764
 20
4.454477566
 30
0.0
 10
7.311043108
 20
4.4507353971
 30
0.0
 10
7.3075115974
 20
4.4472969769
 30
0.0
 10
7.3036838903
 20
4.4441916569
 30
0.0
 10
7.2995902608
 20
4.4414463738
 30
0.0
 10
7.2952635671
 20
4.439085416
 30
0.0
 10
7.2907390242
 20
4.4371301806
 30
0.0
 10
7.2860539668
 20
4.4355989279
 30
0.0
 10
7.2812475853
 20
4.4345065677
 30
0.0
 10
7.2763606449
 20
4.4338643881
 30
0.0
 10
7.2714351424
 20
4.4336799245
 30
0.0
 10
7.2665139679
 20
4.4339568275
 30
0.0
 10
7.2616405522
 20
4.4346947351
 30
0.0
 10
7.2568584998
 20
4.435889193
 30
0.0
 10
7.2522111974
 20
4.437531562
 30
0.0
 10
7.2477414007
 20
4.4396089979
 30
0.0
 10
7.2434908419
 20
4.4421045129
 30
0.0
 10
7.2394998181
 20
4.444997023
 30
0.0
 10
7.2358067869
 20
4.4482614471
 30
0.0
 10
7.2324479617
 20
4.4518688446
 30
0.0
 10
7.2294569101
 20
4.4557865743
 30
0.0
 10
7.2268640905
 20
4.4599785385
 30
0.0
 10
7.2246967223
 20
4.4644053947
 30
0.0
 10
7.2229779096
 20
4.4690251795
 30
0.0
 10
7.2217273032
 20
4.4737924782
 30
0.0
 10
7.2212152455
 20
4.4770394291
 30
0.0
 10
7.2210415544
 20
4.4786704074
 30
0.0
  0
SPLINE
  5
3CD
100
AcDbEntity
  8
0
100
AcDbSpline
 62
7
  6
CONTINUOUS
 70
0
 71
3
 72
25
 73
21
 74
0
 42
0.0000001
 43
0.0000001
 44
0.0000000001
 40
0.0
 40
0.0
 40
0.0
 40
0.0
 40
0.0045724816
 40
0.0098504613
 40
0.0163548751
 40
0.0243709527
 40
0.034050364
 40
0.0454780651
 40
0.0587048522
 40
0.0737628736
 40
0.1094478483
 40
0.1526413885
 40
0.2033917433
 40
0.2617168489
 40
0.3276209982
 40
0.4011007822
 40
0.4821452767
 40
0.5707334232
 40
0.7704406466
 40
1.0
 40
1.0
 40
1.0
 40
1.0
 10
7.6469943684
 20
4.222675137
 30
0.0
 10
7.6469767319
 20
4.2226745837
 30
0.0
 10
7.6469381752
 20
4.2226823573
 30
0.0
 10
7.6468847087
 20
4.2227176938
 30
0.0
 10
7.6468327853
 20
4.2227743638
 30
0.0
 10
7.6467812906
 20
4.2228525793
 30
0.0
 10
7.6467298184
 20
4.2229526475
 30
0.0
 10
7.6466782789
 20
4.2230748058
 30
0.0
 10
7.646626651
 20
4.2232191613
 30
0.0
 10
7.6465535267
 20
4.2234550016
 30
0.0
 10
7.6464641764
 20
4.2238065347
 30
0.0
 10
7.6463615552
 20
4.2242962155
 30
0.0
 10
7.6462586328
 20
4.2248748137
 30
0.0
 10
7.6461554493
 20
4.2255421719
 30
0.0
 10
7.6460521038
 20
4.2262981323
 30
0.0
 10
7.6459486402
 20
4.227142473
 30
0.0
 10
7.6458450874
 20
4.2280749296
 30
0.0
 10
7.6457011112
 20
4.2294929406
 30
0.0
 10
7.6455234164
 20
4.2314834986
 30
0.0
 10
7.6453948712
 20
4.2331350728
 30
0.0
 10
7.6453297631
 20
4.2340185478
 30
0.0
  0
SPLINE
  5
3CE
100
AcDbEntity
  8
0
100
AcDbSpline
 62
7
  6
CONTINUOUS
 70
0
 71
3
 72
30
 73
26
 74
0
 42
0.0000001
 43
0.0000001
 44
0.0000000001
 40
0.0
 40
0.0
 40
0.0
 40
0.0
 40
0.0312556332
 40
0.0625087426
 40
0.0937616572
 40
0.1250152646
 40
0.1875073014
 40
0.2499995637
 40
0.2812532683
 40
0.3125070225
 40
0.3437608246
 40
0.3750146719
 40
0.4375077487
 40
0.500001091
 40
0.5624946962
 40
0.6249885627
 40
0.6562428227
 40
0.6874971205
 40
0.718751474
 40
0.7500058714
 40
0.8125004533
 40
0.8749954876
 40
0.9062494233
 40
0.9375043855
 40
1.0
 40
1.0
 40
1.0
 40
1.0
 10
7.0511782541
 20
4.5449540904
 30
0.0
 10
7.0519365519
 20
4.5481995387
 30
0.0
 10
7.0535970135
 20
4.5546575192
 30
0.0
 10
7.0565132157
 20
4.5642239845
 30
0.0
 10
7.0598488483
 20
4.5736525654
 30
0.0
 10
7.0648448724
 20
4.5860135702
 30
0.0
 10
7.0721032058
 20
4.6010347564
 30
0.0
 10
7.0806508908
 20
4.6153613305
 30
0.0
 10
7.0882184222
 20
4.6263381043
 30
0.0
 10
7.0942493165
 20
4.634316416
 30
0.0
 10
7.1006226827
 20
4.6420239269
 30
0.0
 10
7.109558382
 20
4.6519189237
 30
0.0
 10
7.1215235647
 20
4.6635448081
 30
0.0
 10
7.1370344939
 20
4.6761959732
 30
0.0
 10
7.1535808555
 20
4.687459082
 30
0.0
 10
7.1681300259
 20
4.6956224231
 30
0.0
 10
7.1801540955
 20
4.7013827789
 30
0.0
 10
7.1893511456
 20
4.7053122956
 30
0.0
 10
7.1987083252
 20
4.7088435516
 30
0.0
 10
7.2113726668
 20
4.713012254
 30
0.0
 10
7.2275206009
 20
4.7172009277
 30
0.0
 10
7.243966619
 20
4.7199966562
 30
0.0
 10
7.2572269752
 20
4.7213878065
 30
0.0
 10
7.2705337077
 20
4.722214265
 30
0.0
 10
7.2805463227
 20
4.7221974595
 30
0.0
 10
7.2872039139
 20
4.7219041419
 30
0.0
  0
SPLINE
  5
3CF
100
AcDbEntity
  8
0
100
AcDbSpline
 62
7
  6
CONTINUOUS
 70
0
 71
3
 72
43
 73
39
 74
0
 42
0.0000001
 43
0.0000001
 44
0.0000000001
 40
0.0
 40
0.0
 40
0.0
 40
0.0
 40
0.0001356569
 40
0.0002824094
 40
0.0004482094
 40
0.0006386374
 40
0.0011064397
 40
0.001703675
 40
0.0024381934
 40
0.0033140647
 40
0.0043336023
 40
0.0054982066
 40
0.0082656924
 40
0.0116204651
 40
0.0155631133
 40
0.0200929762
 40
0.0252087016
 40
0.0309078602
 40
0.0371874776
 40
0.0440444085
 40
0.0594743487
 40
0.0771624425
 40
0.0970672542
 40
0.1191420754
 40
0.1433341373
 40
0.1695859127
 40
0.1978345893
 40
0.2280123257
 40
0.2600470412
 40
0.293861553
 40
0.3665013012
 40
0.4452335416
 40
0.5293011331
 40
0.6178953382
 40
0.7101632898
 40
0.8052170525
 40
0.9021393949
 40
1.0
 40
1.0
 40
1.0
 40
1.0
 10
2.771592537
 20
4.2264324256
 30
0.0
 10
2.7715807735
 20
4.2264327932
 30
0.0
 10
2.7715562911
 20
4.2264371594
 30
0.0
 10
2.7715207739
 20
4.2264537978
 30
0.0
 10
2.7714857088
 20
4.2264801725
 30
0.0
 10
2.7714359019
 20
4.2265317576
 30
0.0
 10
2.77137541
 20
4.2266232047
 30
0.0
 10
2.7713070864
 20
4.2267637773
 30
0.0
 10
2.7712385174
 20
4.2269428198
 30
0.0
 10
2.7711697335
 20
4.2271604544
 30
0.0
 10
2.7711007642
 20
4.2274168858
 30
0.0
 10
2.7710029284
 20
4.2278352437
 30
0.0
 10
2.770883487
 20
4.2284562644
 30
0.0
 10
2.7707462832
 20
4.2293187007
 30
0.0
 10
2.7706086245
 20
4.2303356021
 30
0.0
 10
2.7704705854
 20
4.2315064102
 30
0.0
 10
2.7703323191
 20
4.232830509
 30
0.0
 10
2.7701938755
 20
4.2343071251
 30
0.0
 10
2.77005529
 20
4.2359353871
 30
0.0
 10
2.7698627212
 20
4.2384062586
 30
0.0
 10
2.7696250292
 20
4.2418662879
 30
0.0
 10
2.7693490921
 20
4.2464581527
 30
0.0
 10
2.7690726801
 20
4.2516274009
 30
0.0
 10
2.7687958888
 20
4.2573616124
 30
0.0
 10
2.7685188236
 20
4.2636470364
 30
0.0
 10
2.7682415507
 20
4.2704685534
 30
0.0
 10
2.7679641157
 20
4.2778097602
 30
0.0
 10
2.7676865491
 20
4.2856530071
 30
0.0
 10
2.767408873
 20
4.2939794097
 30
0.0
 10
2.7670294051
 20
4.3059883307
 30
0.0
 10
2.766558757
 20
4.3220477109
 30
0.0
 10
2.766005855
 20
4.3424663066
 30
0.0
 10
2.7654524433
 20
4.3642695247
 30
0.0
 10
2.7648986249
 20
4.387247408
 30
0.0
 10
2.7643445118
 20
4.4111786773
 30
0.0
 10
2.7637901819
 20
4.4358326538
 30
0.0
 10
2.7632356971
 20
4.4609719492
 30
0.0
 10
2.762866559
 20
4.4778667319
 30
0.0
 10
2.7626810819
 20
4.4863548137
 30
0.0
  0
SPLINE
  5
3D0
100
AcDbEntity
  8
0
100
AcDbSpline
 62
7
  6
CONTINUOUS
 70
0
 71
3
 72
40
 73
36
 74
0
 42
0.0000001
 43
0.0000001
 44
0.0000000001
 40
0.0
 40
0.0
 40
0.0
 40
0.0
 40
0.0003037625
 40
0.0007362263
 40
0.0013063352
 40
0.0020178354
 40
0.0028725947
 40
0.0038716465
 40
0.0063043977
 40
0.0093179825
 40
0.0129125338
 40
0.0170872263
 40
0.0218401653
 40
0.0271691499
 40
0.0330717261
 40
0.0395446326
 40
0.0465843114
 40
0.0623487413
 40
0.0803295614
 40
0.1004862705
 40
0.1227725318
 40
0.1471368097
 40
0.1735227546
 40
0.2018684495
 40
0.2321075884
 40
0.2641690267
 40
0.297976837
 40
0.3705073889
 40
0.4490089799
 40
0.532730418
 40
0.6208666874
 40
0.712566079
 40
0.8069387721
 40
0.9030628156
 40
1.0
 40
1.0
 40
1.0
 40
1.0
 10
7.8730645253
 20
4.7406658859
 30
0.0
 10
7.8730827399
 20
4.7406476662
 30
0.0
 10
7.8731165669
 20
4.7405939347
 30
0.0
 10
7.8731593951
 20
4.7404918242
 30
0.0
 10
7.8732028008
 20
4.7403528128
 30
0.0
 10
7.8732464897
 20
4.7401769471
 30
0.0
 10
7.8732904276
 20
4.7399637988
 30
0.0
 10
7.8733533986
 20
4.7396057072
 30
0.0
 10
7.8734298136
 20
4.739064287
 30
0.0
 10
7.8735173861
 20
4.7383024812
 30
0.0
 10
7.8736053493
 20
4.7373921545
 30
0.0
 10
7.8736936502
 20
4.7363337669
 30
0.0
 10
7.8737821654
 20
4.7351278476
 30
0.0
 10
7.8738708491
 20
4.7337750463
 30
0.0
 10
7.8739596542
 20
4.7322760964
 30
0.0
 10
7.8740485696
 20
4.7306318333
 30
0.0
 10
7.8741719466
 20
4.7281518207
 30
0.0
 10
7.8743244484
 20
4.724696063
 30
0.0
 10
7.874501806
 20
4.7201279
 30
0.0
 10
7.8746795596
 20
4.7150062449
 30
0.0
 10
7.8748576654
 20
4.7093429095
 30
0.0
 10
7.875036057
 20
4.7031510247
 30
0.0
 10
7.8752146963
 20
4.6964450321
 30
0.0
 10
7.8753935611
 20
4.6892406165
 30
0.0
 10
7.8755726282
 20
4.6815547114
 30
0.0
 10
7.8757518893
 20
4.6734054338
 30
0.0
 10
7.8759969214
 20
4.6616698782
 30
0.0
 10
7.8763012193
 20
4.6459959804
 30
0.0
 10
7.8766593153
 20
4.6260890254
 30
0.0
 10
7.87701823
 20
4.6048583161
 30
0.0
 10
7.8773779022
 20
4.5825081226
 30
0.0
 10
7.8777382647
 20
4.5592544625
 30
0.0
 10
7.8780992705
 20
4.5353232661
 30
0.0
 10
7.8784608832
 20
4.510947796
 30
0.0
 10
7.878702118
 20
4.4945754585
 30
0.0
 10
7.8788234245
 20
4.4863548137
 30
0.0
  0
LINE
  5
3D1
100
AcDbEntity
  8
0
100
AcDbLine
 62
7
  6
CONTINUOUS
 10
7.6669883156
 20
4.2424433227
 11
7.6668985999
 21
4.2426289461
  0
SPLINE
  5
3D2
100
AcDbEntity
  8
0
100
AcDbSpline
 62
7
  6
CONTINUOUS
 70
0
 71
3
 72
20
 73
16
 74
0
 42
0.0000001
 43
0.0000001
 44
0.0000000001
 40
0.0
 40
0.0
 40
0.0
 40
0.0
 40
0.0084152511
 40
0.0182734871
 40
0.0423909085
 40
0.0724422803
 40
0.1084592867
 40
0.1504519218
 40
0.198413532
 40
0.2523263478
 40
0.3121688139
 40
0.4495240735
 40
0.6101921147
 40
0.7938211561
 40
1.0
 40
1.0
 40
1.0
 40
1.0
 10
7.6668985999
 20
4.2426289461
 30
0.0
 10
7.6668736695
 20
4.2426889624
 30
0.0
 10
7.6668247546
 20
4.2428214587
 30
0.0
 10
7.6667276918
 20
4.2431342047
 30
0.0
 10
7.6666100675
 20
4.2436148663
 30
0.0
 10
7.6664755145
 20
4.2442983264
 30
0.0
 10
7.6663403984
 20
4.2451219561
 30
0.0
 10
7.6662047994
 20
4.2460853507
 30
0.0
 10
7.6660689211
 20
4.2471880951
 30
0.0
 10
7.6659328104
 20
4.2484295736
 30
0.0
 10
7.6657422685
 20
4.2503594675
 30
0.0
 10
7.6655080009
 20
4.2531133213
 30
0.0
 10
7.6652371412
 20
4.2568231504
 30
0.0
 10
7.6649656771
 20
4.2610656719
 30
0.0
 10
7.6647941652
 20
4.2640711664
 30
0.0
 10
7.6647075611
 20
4.2656610638
 30
0.0
  0
SPLINE
  5
3D3
100
AcDbEntity
  8
0
100
AcDbSpline
 62
7
  6
CONTINUOUS
 70
0
 71
3
 72
70
 73
66
 74
0
 42
0.0000001
 43
0.0000001
 44
0.0000000001
 40
0.0
 40
0.0
 40
0.0
 40
0.0
 40
0.0001480826
 40
0.0003288923
 40
0.0005617456
 40
0.0008558342
 40
0.0012156532
 40
0.0016436031
 40
0.0021410748
 40
0.0027089275
 40
0.0040576836
 40
0.005692215
 40
0.0076131595
 40
0.009820497
 40
0.0123136317
 40
0.0150914386
 40
0.0181526383
 40
0.0214957865
 40
0.0290202439
 40
0.0376483132
 40
0.0473602239
 40
0.058133802
 40
0.0699438841
 40
0.0827630567
 40
0.0965613704
 40
0.111306449
 40
0.1434968435
 40
0.179032558
 40
0.2175802428
 40
0.2587782676
 40
0.302240067
 40
0.3475579046
 40
0.3943065862
 40
0.442047629
 40
0.4903332291
 40
0.5387106511
 40
0.5867263172
 40
0.6339302162
 40
0.6798799593
 40
0.7241451568
 40
0.7663112452
 40
0.8059835557
 40
0.8427908699
 40
0.8763890689
 40
0.8918853729
 40
0.9064643163
 40
0.920091862
 40
0.9327362451
 40
0.944368215
 40
0.954960671
 40
0.9644894091
 40
0.972932525
 40
0.9802710984
 40
0.9835210819
 40
0.9864892485
 40
0.98917402
 40
0.9915742455
 40
0.99368912
 40
0.9955180844
 40
0.9970611965
 40
0.9983196667
 40
0.9988430665
 40
0.9992967076
 40
0.9996817069
 40
1.0
 40
1.0
 40
1.0
 40
1.0
 10
2.7376712483
 20
4.7260596162
 30
0.0
 10
2.7376949612
 20
4.7260596207
 30
0.0
 10
2.7377478566
 20
4.7260443697
 30
0.0
 10
2.7378178103
 20
4.7259856248
 30
0.0
 10
2.7378859534
 20
4.7258944045
 30
0.0
 10
2.7379537744
 20
4.7257692757
 30
0.0
 10
2.7380217593
 20
4.7256097599
 30
0.0
 10
2.7380899134
 20
4.7254154496
 30
0.0
 10
2.7381582332
 20
4.7251862264
 30
0.0
 10
2.738255115
 20
4.7248119235
 30
0.0
 10
2.7383734023
 20
4.7242554697
 30
0.0
 10
2.738509283
 20
4.7234818977
 30
0.0
 10
2.7386456043
 20
4.7225691244
 30
0.0
 10
2.7387822887
 20
4.7215176209
 30
0.0
 10
2.7389191965
 20
4.720327921
 30
0.0
 10
2.7390562797
 20
4.7190007097
 30
0.0
 10
2.7391934974
 20
4.717536745
 30
0.0
 10
2.7393841718
 20
4.7153144346
 30
0.0
 10
2.7396195204
 20
4.7122013469
 30
0.0
 10
2.7398926993
 20
4.7080685835
 30
0.0
 10
2.7401663395
 20
4.7034145551
 30
0.0
 10
2.740440338
 20
4.6982502202
 30
0.0
 10
2.7407145939
 20
4.6925876906
 30
0.0
 10
2.7409890367
 20
4.6864402918
 30
0.0
 10
2.7412636334
 20
4.6798224783
 30
0.0
 10
2.7416410395
 20
4.6701043301
 30
0.0
 10
2.7421081302
 20
4.6569062218
 30
0.0
 10
2.7426544963
 20
4.6398970664
 30
0.0
 10
2.7432014728
 20
4.6214448322
 30
0.0
 10
2.7437489199
 20
4.6017228705
 30
0.0
 10
2.7442966784
 20
4.5809164016
 30
0.0
 10
2.7448446519
 20
4.5592208036
 30
0.0
 10
2.7453927614
 20
4.5368397517
 30
0.0
 10
2.7459409447
 20
4.5139833273
 30
0.0
 10
2.7464891485
 20
4.490866015
 30
0.0
 10
2.7470373237
 20
4.4677047137
 30
0.0
 10
2.7475854222
 20
4.4447166748
 30
0.0
 10
2.7481333927
 20
4.4221174952
 30
0.0
 10
2.7486811779
 20
4.4001190638
 30
0.0
 10
2.7492287061
 20
4.3789276014
 30
0.0
 10
2.749775892
 20
4.3587417015
 30
0.0
 10
2.7503225986
 20
4.3397504996
 30
0.0
 10
2.7508687044
 20
4.3221318867
 30
0.0
 10
2.7513346999
 20
4.3083840625
 30
0.0
 10
2.7517108184
 20
4.2981947944
 30
0.0
 10
2.7519851389
 20
4.2912019198
 30
0.0
 10
2.752259315
 20
4.2846660986
 30
0.0
 10
2.7525333268
 20
4.278602621
 30
0.0
 10
2.7528071126
 20
4.273025684
 30
0.0
 10
2.7530806244
 20
4.2679483032
 30
0.0
 10
2.753353723
 20
4.2633823477
 30
0.0
 10
2.7536263318
 20
4.2593384565
 30
0.0
 10
2.7538613232
 20
4.2562998544
 30
0.0
 10
2.754051824
 20
4.2541373346
 30
0.0
 10
2.7541887345
 20
4.252718255
 30
0.0
 10
2.7543255
 20
4.251435927
 30
0.0
 10
2.7544620746
 20
4.2502910709
 30
0.0
 10
2.7545983872
 20
4.2492843159
 30
0.0
 10
2.7547342772
 20
4.2484161499
 30
0.0
 10
2.7548696864
 20
4.247687019
 30
0.0
 10
2.7549877801
 20
4.2471675438
 30
0.0
 10
2.7550847802
 20
4.2468228793
 30
0.0
 10
2.7551528592
 20
4.2466155648
 30
0.0
 10
2.7552207479
 20
4.2464430781
 30
0.0
 10
2.7552704577
 20
4.2463417486
 30
0.0
 10
2.7552959582
 20
4.2462976172
 30
0.0
  0
SPLINE
  5
3D4
100
AcDbEntity
  8
0
100
AcDbSpline
 62
7
  6
CONTINUOUS
 70
0
 71
3
 72
42
 73
38
 74
0
 42
0.0000001
 43
0.0000001
 44
0.0000000001
 40
0.0
 40
0.0
 40
0.0
 40
0.0
 40
0.0001368436
 40
0.0002847034
 40
0.0004514922
 40
0.000642788
 40
0.0011120188
 40
0.0017103866
 40
0.0024458347
 40
0.0033224916
 40
0.0043427075
 40
0.0055079073
 40
0.0082763952
 40
0.0116319888
 40
0.0155753257
 40
0.0201057746
 40
0.0252220033
 40
0.0309215961
 40
0.0372015868
 40
0.044058836
 40
0.0594892741
 40
0.0771777133
 40
0.0970827372
 40
0.1191576461
 40
0.1433496877
 40
0.1696013478
 40
0.1978498184
 40
0.2280272622
 40
0.2938756464
 40
0.3665143001
 40
0.4452452028
 40
0.5293112318
 40
0.6179036922
 40
0.7101697362
 40
0.8052214551
 40
0.9021416418
 40
1.0
 40
1.0
 40
1.0
 40
1.0
 10
2.7001765107
 20
4.2286641762
 30
0.0
 10
2.700164746
 20
4.2286645438
 30
0.0
 10
2.7001402762
 20
4.228668873
 30
0.0
 10
2.7001047527
 20
4.2286853676
 30
0.0
 10
2.7000696723
 20
4.2287115207
 30
0.0
 10
2.7000198675
 20
4.2287626476
 30
0.0
 10
2.6999593467
 20
4.228853309
 30
0.0
 10
2.6998909844
 20
4.2289927118
 30
0.0
 10
2.699822382
 20
4.229170247
 30
0.0
 10
2.699753568
 20
4.2293860389
 30
0.0
 10
2.6996845696
 20
4.2296402915
 30
0.0
 10
2.6995866981
 20
4.2300550637
 30
0.0
 10
2.699467206
 20
4.2306707743
 30
0.0
 10
2.6993299397
 20
4.2315258476
 30
0.0
 10
2.699192216
 20
4.2325340548
 30
0.0
 10
2.6990541094
 20
4.2336948435
 30
0.0
 10
2.6989157728
 20
4.235007604
 30
0.0
 10
2.6987772557
 20
4.2364715702
 30
0.0
 10
2.6986385936
 20
4.2380858781
 30
0.0
 10
2.6984459149
 20
4.2405355554
 30
0.0
 10
2.6982080775
 20
4.2439659057
 30
0.0
 10
2.697931958
 20
4.248518386
 30
0.0
 10
2.6976553499
 20
4.2536432858
 30
0.0
 10
2.6973783489
 20
4.2593282917
 30
0.0
 10
2.6971010595
 20
4.2655597717
 30
0.0
 10
2.6968235506
 20
4.2723227369
 30
0.0
 10
2.6965458552
 20
4.2796009246
 30
0.0
 10
2.6961642131
 20
4.290283474
 30
0.0
 10
2.6956917928
 20
4.3047833575
 30
0.0
 10
2.69513898
 20
4.3234590259
 30
0.0
 10
2.6945854124
 20
4.3437022786
 30
0.0
 10
2.6940312272
 20
4.3653182442
 30
0.0
 10
2.6934765826
 20
4.3880987732
 30
0.0
 10
2.6929215724
 20
4.4118244859
 30
0.0
 10
2.6923662782
 20
4.4362666838
 30
0.0
 10
2.6918107574
 20
4.4611900161
 30
0.0
 10
2.691440884
 20
4.4779396561
 30
0.0
 10
2.691255029
 20
4.4863548137
 30
0.0
  0
SPLINE
  5
3D5
100
AcDbEntity
  8
0
100
AcDbSpline
 62
7
  6
CONTINUOUS
 70
0
 71
3
 72
70
 73
66
 74
0
 42
0.0000001
 43
0.0000001
 44
0.0000000001
 40
0.0
 40
0.0
 40
0.0
 40
0.0
 40
0.0001487241
 40
0.0003300634
 40
0.0005633127
 40
0.0008576944
 40
0.0012177343
 40
0.0016458563
 40
0.0021434692
 40
0.0027114462
 40
0.0040603684
 40
0.0056949459
 40
0.0076158821
 40
0.0098231943
 40
0.0123162124
 40
0.0150938461
 40
0.0181548699
 40
0.021497792
 40
0.0290216391
 40
0.037648984
 40
0.047360033
 40
0.0581326005
 40
0.0699415879
 40
0.0827594955
 40
0.0965564863
 40
0.111300119
 40
0.1434873603
 40
0.1790195952
 40
0.2175635452
 40
0.2587576676
 40
0.3022154621
 40
0.3475292986
 40
0.39427405
 40
0.4420113273
 40
0.490293422
 40
0.538667694
 40
0.5866806469
 40
0.6338823677
 40
0.6798305531
 40
0.7240948877
 40
0.7662608843
 40
0.8059339278
 40
0.8427428495
 40
0.8763435725
 40
0.8918415167
 40
0.9064223114
 40
0.9200519786
 40
0.9326987077
 40
0.9443332871
 40
0.9549285947
 40
0.9644604122
 40
0.972906893
 40
0.9802490468
 40
0.9835009344
 40
0.9864710538
 40
0.9891578287
 40
0.9915601481
 40
0.9936771851
 40
0.9955083645
 40
0.9970537896
 40
0.9983146613
 40
0.9988392869
 40
0.9992941664
 40
0.9996804223
 40
1.0
 40
1.0
 40
1.0
 40
1.0
 10
2.7019563925
 20
4.7249449082
 30
0.0
 10
2.7019800981
 20
4.7249449123
 30
0.0
 10
2.7020329412
 20
4.7249297567
 30
0.0
 10
2.70210291
 20
4.7248712956
 30
0.0
 10
2.7021710667
 20
4.7247804953
 30
0.0
 10
2.7022388951
 20
4.7246559522
 30
0.0
 10
2.7023068823
 20
4.7244971884
 30
0.0
 10
2.7023750366
 20
4.7243037957
 30
0.0
 10
2.7024433552
 20
4.7240756524
 30
0.0
 10
2.7025402292
 20
4.7237031218
 30
0.0
 10
2.7026585109
 20
4.723149298
 30
0.0
 10
2.70279439
 20
4.7223793773
 30
0.0
 10
2.7029307068
 20
4.7214709131
 30
0.0
 10
2.7030673823
 20
4.7204243738
 30
0.0
 10
2.7032042858
 20
4.7192402945
 30
0.0
 10
2.7033413641
 20
4.7179193562
 30
0.0
 10
2.7034785739
 20
4.7164623076
 30
0.0
 10
2.7036692387
 20
4.7142505039
 30
0.0
 10
2.7039045774
 20
4.7111521331
 30
0.0
 10
2.7041777419
 20
4.7070389016
 30
0.0
 10
2.704451368
 20
4.7024068688
 30
0.0
 10
2.7047253538
 20
4.6972669399
 30
0.0
 10
2.7049995936
 20
4.6916311769
 30
0.0
 10
2.7052740231
 20
4.6855128306
 30
0.0
 10
2.7055486036
 20
4.6789262956
 30
0.0
 10
2.7059259892
 20
4.6692540694
 30
0.0
 10
2.7063930525
 20
4.6561183172
 30
0.0
 10
2.7069393864
 20
4.6391894995
 30
0.0
 10
2.7074863294
 20
4.6208243851
 30
0.0
 10
2.7080337419
 20
4.6011954901
 30
0.0
 10
2.7085814649
 20
4.5804871385
 30
0.0
 10
2.709129402
 20
4.5588937685
 30
0.0
 10
2.7096774742
 20
4.5366180722
 30
0.0
 10
2.7102256196
 20
4.5138691199
 30
0.0
 10
2.7107737846
 20
4.4908603603
 30
0.0
 10
2.7113219203
 20
4.4678076469
 30
0.0
 10
2.7118699787
 20
4.4449271841
 30
0.0
 10
2.7124179086
 20
4.4224335308
 30
0.0
 10
2.7129656528
 20
4.4005375559
 30
0.0
 10
2.7135131396
 20
4.3794444905
 30
0.0
 10
2.7140602836
 20
4.3593519783
 30
0.0
 10
2.7146069483
 20
4.3404482534
 30
0.0
 10
2.715153012
 20
4.3229103625
 30
0.0
 10
2.7156189686
 20
4.309225222
 30
0.0
 10
2.7159950526
 20
4.299082145
 30
0.0
 10
2.7162693522
 20
4.2921207401
 30
0.0
 10
2.7165435057
 20
4.285614167
 30
0.0
 10
2.7168174965
 20
4.2795776376
 30
0.0
 10
2.7170912609
 20
4.2740252884
 30
0.0
 10
2.717364751
 20
4.2689700752
 30
0.0
 10
2.7176378305
 20
4.2644238102
 30
0.0
 10
2.7179104177
 20
4.2603970889
 30
0.0
 10
2.7181453895
 20
4.2573711963
 30
0.0
 10
2.7183358681
 20
4.2552175557
 30
0.0
 10
2.7184727683
 20
4.2538041557
 30
0.0
 10
2.7186095254
 20
4.2525268503
 30
0.0
 10
2.7187460906
 20
4.2513863541
 30
0.0
 10
2.7188823938
 20
4.2503832946
 30
0.0
 10
2.719018279
 20
4.2495181585
 30
0.0
 10
2.7191536828
 20
4.2487913884
 30
0.0
 10
2.7192717645
 20
4.2482734635
 30
0.0
 10
2.7193687455
 20
4.2479297068
 30
0.0
 10
2.7194368242
 20
4.2477228293
 30
0.0
 10
2.7195047165
 20
4.2475506169
 30
0.0
 10
2.7195544108
 20
4.2474494107
 30
0.0
 10
2.7195798974
 20
4.2474053069
 30
0.0
  0
SPLINE
  5
3D6
100
AcDbEntity
  8
0
100
AcDbSpline
 62
7
  6
CONTINUOUS
 70
0
 71
3
 72
43
 73
39
 74
0
 42
0.0000001
 43
0.0000001
 44
0.0000000001
 40
0.0
 40
0.0
 40
0.0
 40
0.0
 40
0.0001355694
 40
0.0002801266
 40
0.0004421381
 40
0.0006276907
 40
0.0010837882
 40
0.0016680196
 40
0.0023889753
 40
0.0032511305
 40
0.0042570403
 40
0.0054081977
 40
0.0067054811
 40
0.0081494332
 40
0.0114784415
 40
0.0153965204
 40
0.0199030444
 40
0.0249962903
 40
0.0306741473
 40
0.0369338177
 40
0.0437717491
 40
0.059167173
 40
0.0768251016
 40
0.096704398
 40
0.1187576808
 40
0.1429324782
 40
0.169171033
 40
0.1974101804
 40
0.2275823384
 40
0.2934307394
 40
0.3660831604
 40
0.4448406347
 40
0.5289452649
 40
0.6175878304
 40
0.7099153615
 40
0.8050398964
 40
0.9020447064
 40
1.0
 40
1.0
 40
1.0
 40
1.0
 10
7.8256051
 20
4.2282567017
 30
0.0
 10
7.8255934261
 20
4.2282563368
 30
0.0
 10
7.8255690752
 20
4.2282590815
 30
0.0
 10
7.8255333961
 20
4.2282734243
 30
0.0
 10
7.8254982043
 20
4.2282975367
 30
0.0
 10
7.8254482747
 20
4.2283458458
 30
0.0
 10
7.8253876242
 20
4.2284332726
 30
0.0
 10
7.8253192444
 20
4.2285689355
 30
0.0
 10
7.8252506205
 20
4.2287428164
 30
0.0
 10
7.8251817837
 20
4.2289550681
 30
0.0
 10
7.8251127693
 20
4.2292059309
 30
0.0
 10
7.8250436264
 20
4.2294954307
 30
0.0
 10
7.8249743771
 20
4.2298235735
 30
0.0
 10
7.8248772821
 20
4.2303374776
 30
0.0
 10
7.8247579317
 20
4.2310767806
 30
0.0
 10
7.8246201124
 20
4.2320800159
 30
0.0
 10
7.8244819791
 20
4.2332364383
 30
0.0
 10
7.8243435792
 20
4.234545375
 30
0.0
 10
7.8242050119
 20
4.2360060809
 30
0.0
 10
7.8240663068
 20
4.2376176893
 30
0.0
 10
7.8238735231
 20
4.240064865
 30
0.0
 10
7.8236356028
 20
4.2434934178
 30
0.0
 10
7.8233594254
 20
4.2480453556
 30
0.0
 10
7.8230827837
 20
4.2531717888
 30
0.0
 10
7.8228057516
 20
4.2588603715
 30
0.0
 10
7.8225284522
 20
4.2650973946
 30
0.0
 10
7.8222509489
 20
4.2718678167
 30
0.0
 10
7.8219732712
 20
4.2791553193
 30
0.0
 10
7.8215916594
 20
4.2898537866
 30
0.0
 10
7.8211193304
 20
4.3043777128
 30
0.0
 10
7.8205667207
 20
4.3230868791
 30
0.0
 10
7.820013421
 20
4.3433694714
 30
0.0
 10
7.819459571
 20
4.3650301117
 30
0.0
 10
7.8189053294
 20
4.387860194
 30
0.0
 10
7.8183507912
 20
4.4116399263
 30
0.0
 10
7.8177960391
 20
4.4361402692
 30
0.0
 10
7.8172411274
 20
4.4611255746
 30
0.0
 10
7.8168717351
 20
4.4779177786
 30
0.0
 10
7.8166861313
 20
4.4863548137
 30
0.0
  0
SPLINE
  5
3D7
100
AcDbEntity
  8
0
100
AcDbSpline
 62
7
  6
CONTINUOUS
 70
0
 71
3
 72
69
 73
65
 74
0
 42
0.0000001
 43
0.0000001
 44
0.0000000001
 40
0.0
 40
0.0
 40
0.0
 40
0.0
 40
0.0001493817
 40
0.0003312477
 40
0.000564872
 40
0.0008595158
 40
0.0012197433
 40
0.0016480095
 40
0.0021457473
 40
0.0027138203
 40
0.0040627613
 40
0.0056972163
 40
0.007618006
 40
0.0098250939
 40
0.0123177415
 40
0.0150949648
 40
0.0181555858
 40
0.0214979689
 40
0.0290206114
 40
0.0376465114
 40
0.0473560051
 40
0.0581267458
 40
0.0699338548
 40
0.0827496793
 40
0.0965444885
 40
0.1112858632
 40
0.1434682934
 40
0.1789954657
 40
0.2175342555
 40
0.2587232488
 40
0.3021760741
 40
0.3474851757
 40
0.3942255526
 40
0.4419588851
 40
0.4902375876
 40
0.5386090874
 40
0.5866199677
 40
0.6338203459
 40
0.6797680219
 40
0.7240326781
 40
0.7661998846
 40
0.8058750203
 40
0.8426869323
 40
0.8762915374
 40
0.8917918237
 40
0.9063751003
 40
0.9200075239
 40
0.9326572059
 40
0.9442949414
 40
0.9548936773
 40
0.9644290536
 40
0.9728793888
 40
0.9802255358
 40
0.9864517212
 40
0.9891406788
 40
0.9915452825
 40
0.9936646297
 40
0.9954981362
 40
0.9970460208
 40
0.9983094282
 40
0.9988353291
 40
0.9992914889
 40
0.9996790652
 40
1.0
 40
1.0
 40
1.0
 40
1.0
 10
2.6662408856
 20
4.7238235435
 30
0.0
 10
2.6662645835
 20
4.7238235419
 30
0.0
 10
2.6663173656
 20
4.7238084752
 30
0.0
 10
2.6663873503
 20
4.72375032
 30
0.0
 10
2.6664555187
 20
4.7236599622
 30
0.0
 10
2.6665233526
 20
4.7235360347
 30
0.0
 10
2.6665913397
 20
4.7233780541
 30
0.0
 10
2.6666594917
 20
4.7231856101
 30
0.0
 10
2.6667278046
 20
4.7229585783
 30
0.0
 10
2.6668246643
 20
4.722587883
 30
0.0
 10
2.6669429413
 20
4.7220367929
 30
0.0
 10
2.6670788154
 20
4.7212706608
 30
0.0
 10
2.6672151197
 20
4.7203666606
 30
0.0
 10
2.6673517837
 20
4.7193252655
 30
0.0
 10
2.6674886814
 20
4.7181470134
 30
0.0
 10
2.6676257512
 20
4.716832569
 30
0.0
 10
2.6677629477
 20
4.7153826775
 30
0.0
 10
2.6679536042
 20
4.7131817392
 30
0.0
 10
2.6681889253
 20
4.7100985924
 30
0.0
 10
2.6684620771
 20
4.7060055415
 30
0.0
 10
2.6687356841
 20
4.7013962286
 30
0.0
 10
2.6690096598
 20
4.6962814805
 30
0.0
 10
2.6692838827
 20
4.6906733177
 30
0.0
 10
2.6695583014
 20
4.6845849025
 30
0.0
 10
2.6698328695
 20
4.6780305659
 30
0.0
 10
2.6702102396
 20
4.6684055607
 30
0.0
 10
2.670677287
 20
4.6553338542
 30
0.0
 10
2.6712236032
 20
4.6384874628
 30
0.0
 10
2.6717705308
 20
4.6202116027
 30
0.0
 10
2.6723179299
 20
4.6006779114
 30
0.0
 10
2.6728656412
 20
4.5800697907
 30
0.0
 10
2.6734135682
 20
4.5585807092
 30
0.0
 10
2.6739616319
 20
4.5364123596
 30
0.0
 10
2.6745097699
 20
4.5137727748
 30
0.0
 10
2.6750579285
 20
4.490874355
 30
0.0
 10
2.6756060586
 20
4.4679318918
 30
0.0
 10
2.6761541121
 20
4.4451605408
 30
0.0
 10
2.6767020377
 20
4.4227738143
 30
0.0
 10
2.6772497778
 20
4.4009815651
 30
0.0
 10
2.6777972608
 20
4.3799880304
 30
0.0
 10
2.6783444009
 20
4.3599899135
 30
0.0
 10
2.6788910621
 20
4.3411745498
 30
0.0
 10
2.6794371219
 20
4.3237181504
 30
0.0
 10
2.6799030728
 20
4.3100962589
 30
0.0
 10
2.6802791467
 20
4.2999997728
 30
0.0
 10
2.6805534452
 20
4.2930700952
 30
0.0
 10
2.6808275947
 20
4.2865930075
 30
0.0
 10
2.681101582
 20
4.2805836402
 30
0.0
 10
2.6813753472
 20
4.2750560649
 30
0.0
 10
2.6816488248
 20
4.2700231847
 30
0.0
 10
2.6819219269
 20
4.2654967521
 30
0.0
 10
2.6821944427
 20
4.2614873063
 30
0.0
 10
2.6824662677
 20
4.2580041624
 30
0.0
 10
2.6827017188
 20
4.2554350988
 30
0.0
 10
2.6828935759
 20
4.2536495782
 30
0.0
 10
2.6830301495
 20
4.2525134639
 30
0.0
 10
2.6831664485
 20
4.2515141205
 30
0.0
 10
2.6833023422
 20
4.2506520327
 30
0.0
 10
2.6834377477
 20
4.2499276328
 30
0.0
 10
2.6835558239
 20
4.249411259
 30
0.0
 10
2.683652791
 20
4.2490684117
 30
0.0
 10
2.6837208757
 20
4.2488619719
 30
0.0
 10
2.6837887735
 20
4.2486900264
 30
0.0
 10
2.6838384525
 20
4.248588934
 30
0.0
 10
2.6838639254
 20
4.2485448514
 30
0.0
  0
SPLINE
  5
3D8
100
AcDbEntity
  8
0
100
AcDbSpline
 62
7
  6
CONTINUOUS
 70
0
 71
3
 72
43
 73
39
 74
0
 42
0.0000001
 43
0.0000001
 44
0.0000000001
 40
0.0
 40
0.0
 40
0.0
 40
0.0
 40
0.0001362802
 40
0.0002836199
 40
0.0004499498
 40
0.0006408454
 40
0.001109406
 40
0.0017071966
 40
0.002442166
 40
0.0033184562
 40
0.0043383797
 40
0.0055033258
 40
0.0082712971
 40
0.0116263862
 40
0.0155694425
 40
0.0200996385
 40
0.0252155196
 40
0.0309149269
 40
0.037194785
 40
0.0440517923
 40
0.0594820377
 40
0.0771702152
 40
0.0970751866
 40
0.1191500169
 40
0.143342025
 40
0.1695937936
 40
0.1978423058
 40
0.228019915
 40
0.2600544349
 40
0.2938686889
 40
0.366507885
 40
0.4452394583
 40
0.5293062618
 40
0.6178995675
 40
0.7101665627
 40
0.8052192763
 40
0.9021405394
 40
1.0
 40
1.0
 40
1.0
 40
1.0
 10
2.7358861939
 20
4.2275482147
 30
0.0
 10
2.735874427
 20
4.2275485832
 30
0.0
 10
2.7358499454
 20
4.2275529341
 30
0.0
 10
2.7358144177
 20
4.2275695067
 30
0.0
 10
2.7357793379
 20
4.2275957771
 30
0.0
 10
2.7357295235
 20
4.2276471396
 30
0.0
 10
2.7356690064
 20
4.2277381943
 30
0.0
 10
2.7356006448
 20
4.2278781759
 30
0.0
 10
2.735532043
 20
4.2280564599
 30
0.0
 10
2.7354632297
 20
4.2282731749
 30
0.0
 10
2.7353942301
 20
4.228528524
 30
0.0
 10
2.7352963548
 20
4.2289450918
 30
0.0
 10
2.7351768559
 20
4.2295634468
 30
0.0
 10
2.73503958
 20
4.2304221928
 30
0.0
 10
2.7349018579
 20
4.2314347455
 30
0.0
 10
2.7347637495
 20
4.2326005421
 30
0.0
 10
2.7346254059
 20
4.2339189672
 30
0.0
 10
2.7344868891
 20
4.235389256
 30
0.0
 10
2.7343482274
 20
4.23701054
 30
0.0
 10
2.7341555425
 20
4.2394708151
 30
0.0
 10
2.7339177107
 20
4.2429159944
 30
0.0
 10
2.7336415902
 20
4.2474881685
 30
0.0
 10
2.7333649915
 20
4.2526352375
 30
0.0
 10
2.733087998
 20
4.2583448458
 30
0.0
 10
2.73281072
 20
4.2646032979
 30
0.0
 10
2.732533225
 20
4.2713955374
 30
0.0
 10
2.7322555534
 20
4.2787052392
 30
0.0
 10
2.7319777406
 20
4.2865148187
 30
0.0
 10
2.7316998053
 20
4.2948054801
 30
0.0
 10
2.7313199665
 20
4.3067628448
 30
0.0
 10
2.7308488264
 20
4.3227532789
 30
0.0
 10
2.7302952952
 20
4.3430842145
 30
0.0
 10
2.7297412016
 20
4.3647938191
 30
0.0
 10
2.7291866467
 20
4.387673038
 30
0.0
 10
2.7286317411
 20
4.4115015409
 30
0.0
 10
2.7280765615
 20
4.4360496426
 30
0.0
 10
2.7275211668
 20
4.4610809694
 30
0.0
 10
2.7271513846
 20
4.4779031902
 30
0.0
 10
2.7269655774
 20
4.4863548137
 30
0.0
  0
SPLINE
  5
3D9
100
AcDbEntity
  8
0
100
AcDbSpline
 62
7
  6
CONTINUOUS
 70
0
 71
3
 72
25
 73
21
 74
0
 42
0.0000001
 43
0.0000001
 44
0.0000000001
 40
0.0
 40
0.0
 40
0.0
 40
0.0
 40
0.2157674219
 40
0.4072352455
 40
0.4935351425
 40
0.5733925172
 40
0.6467013473
 40
0.7133676144
 40
0.773304757
 40
0.8264378339
 40
0.8727022465
 40
0.9120455648
 40
0.944431591
 40
0.9580097365
 40
0.9698458787
 40
0.9799448649
 40
0.9883169914
 40
0.994984409
 40
0.9976937717
 40
1.0
 40
1.0
 40
1.0
 40
1.0
 10
7.6684198935
 20
4.7002578009
 30
0.0
 10
7.6682884816
 20
4.7037943296
 30
0.0
 10
7.6680286772
 20
4.7104686771
 30
0.0
 10
7.6676747977
 20
4.7185558422
 30
0.0
 10
7.6673885413
 20
4.7244145529
 30
0.0
 10
7.6671814776
 20
4.7283367728
 30
0.0
 10
7.66697457
 20
4.7319364906
 30
0.0
 10
7.6667678632
 20
4.7352089059
 30
0.0
 10
7.6665614295
 20
4.7381496983
 30
0.0
 10
7.6663553614
 20
4.7407549727
 30
0.0
 10
7.6661498962
 20
4.7430213489
 30
0.0
 10
7.6659451395
 20
4.7449458739
 30
0.0
 10
7.6657669034
 20
4.7463338875
 30
0.0
 10
7.6656207178
 20
4.7472706416
 30
0.0
 10
7.665517845
 20
4.747844023
 30
0.0
 10
7.6654153779
 20
4.7483305682
 30
0.0
 10
7.6653133461
 20
4.7487301694
 30
0.0
 10
7.6652239688
 20
4.7490076663
 30
0.0
 10
7.6651501437
 20
4.7491846051
 30
0.0
 10
7.6651129558
 20
4.7492581311
 30
0.0
 10
7.6650940333
 20
4.7492908842
 30
0.0
  0
SPLINE
  5
3DA
100
AcDbEntity
  8
0
100
AcDbSpline
 62
7
  6
CONTINUOUS
 70
0
 71
3
 72
30
 73
26
 74
0
 42
0.0000001
 43
0.0000001
 44
0.0000000001
 40
0.0
 40
0.0
 40
0.0
 40
0.0
 40
0.2083961973
 40
0.3060335455
 40
0.398705356
 40
0.4859953928
 40
0.5675119086
 40
0.6428891497
 40
0.711789485
 40
0.7739047412
 40
0.8289577718
 40
0.8767040871
 40
0.8977701815
 40
0.9169337315
 40
0.9341738771
 40
0.9494732194
 40
0.9628159746
 40
0.9741907822
 40
0.9835894212
 40
0.9875470122
 40
0.9910108783
 40
0.9939827006
 40
0.9964657751
 40
0.9984668456
 40
1.0
 40
1.0
 40
1.0
 40
1.0
 10
7.7069204287
 20
4.6027307877
 30
0.0
 10
7.7066752581
 20
4.6128458936
 30
0.0
 10
7.7063039969
 20
4.6276998446
 30
0.0
 10
7.7057856092
 20
4.6470508965
 30
0.0
 10
7.7054054331
 20
4.660523568
 30
0.0
 10
7.7050254344
 20
4.6732132154
 30
0.0
 10
7.7046456568
 20
4.6850627819
 30
0.0
 10
7.7042661828
 20
4.6960190087
 30
0.0
 10
7.7038871117
 20
4.7060326661
 30
0.0
 10
7.7035086449
 20
4.7150587946
 30
0.0
 10
7.7031309282
 20
4.7230568746
 30
0.0
 10
7.7028051432
 20
4.7290620576
 30
0.0
 10
7.7025406692
 20
4.7333253022
 30
0.0
 10
7.702350869
 20
4.7361091403
 30
0.0
 10
7.7021613176
 20
4.7386122958
 30
0.0
 10
7.7019720955
 20
4.7408319639
 30
0.0
 10
7.7017833851
 20
4.7427657555
 30
0.0
 10
7.7015953085
 20
4.7444115333
 30
0.0
 10
7.7014316698
 20
4.7456012835
 30
0.0
 10
7.7012976081
 20
4.7464069095
 30
0.0
 10
7.7012031084
 20
4.7469026653
 30
0.0
 10
7.7011089098
 20
4.747325392
 30
0.0
 10
7.701015139
 20
4.7476752583
 30
0.0
 10
7.7009219574
 20
4.7479522765
 30
0.0
 10
7.7008514999
 20
4.7481095199
 30
0.0
 10
7.7008142624
 20
4.7481739742
 30
0.0
  0
SPLINE
  5
3DB
100
AcDbEntity
  8
0
100
AcDbSpline
 62
7
  6
CONTINUOUS
 70
0
 71
3
 72
25
 73
21
 74
0
 42
0.0000001
 43
0.0000001
 44
0.0000000001
 40
0.0
 40
0.0
 40
0.0
 40
0.0
 40
0.0045724003
 40
0.0098507762
 40
0.0163553142
 40
0.0243706056
 40
0.0340486045
 40
0.0454748937
 40
0.058700964
 40
0.0737594781
 40
0.1094472457
 40
0.1526416089
 40
0.203389457
 40
0.26171356
 40
0.3276205661
 40
0.4011023668
 40
0.4821450313
 40
0.5707314632
 40
0.7704436539
 40
1.0
 40
1.0
 40
1.0
 40
1.0
 10
2.8918255074
 20
4.7500345012
 30
0.0
 10
2.8918431467
 20
4.7500350492
 30
0.0
 10
2.891881708
 20
4.7500272589
 30
0.0
 10
2.8919351746
 20
4.7499919024
 30
0.0
 10
2.8919871014
 20
4.7499352203
 30
0.0
 10
2.8920386028
 20
4.7498570002
 30
0.0
 10
2.8920900812
 20
4.7497569297
 30
0.0
 10
2.8921416263
 20
4.7496347644
 30
0.0
 10
2.8921932592
 20
4.74949039
 30
0.0
 10
2.8922663892
 20
4.7492544978
 30
0.0
 10
2.8923557416
 20
4.7489028862
 30
0.0
 10
2.892458372
 20
4.7484131175
 30
0.0
 10
2.8925613092
 20
4.7478344325
 30
0.0
 10
2.8926645028
 20
4.7471669638
 30
0.0
 10
2.8927678526
 20
4.7464108599
 30
0.0
 10
2.8928713236
 20
4.7455663647
 30
0.0
 10
2.8929748886
 20
4.7446337573
 30
0.0
 10
2.8931188814
 20
4.7432155024
 30
0.0
 10
2.8932965807
 20
4.7412246077
 30
0.0
 10
2.8934251438
 20
4.739572749
 30
0.0
 10
2.8934902572
 20
4.7386891371
 30
0.0
  0
LINE
  5
3DC
100
AcDbEntity
  8
0
100
AcDbLine
 62
7
  6
CONTINUOUS
 10
2.7289745698
 20
4.7258576974
 11
2.7291383128
 21
4.725474999
  0
SPLINE
  5
3DD
100
AcDbEntity
  8
0
100
AcDbSpline
 62
7
  6
CONTINUOUS
 70
0
 71
3
 72
64
 73
60
 74
0
 42
0.0000001
 43
0.0000001
 44
0.0000000001
 40
0.0
 40
0.0
 40
0.0
 40
0.0
 40
0.0010215562
 40
0.0023212779
 40
0.0039015423
 40
0.005763133
 40
0.0079061339
 40
0.0103300249
 40
0.0160160975
 40
0.0228109612
 40
0.0307001055
 40
0.0396663474
 40
0.0496894723
 40
0.0607467404
 40
0.0728130412
 40
0.0998595866
 40
0.1305809052
 40
0.1646945177
 40
0.2018864013
 40
0.2418141279
 40
0.2841099235
 40
0.3283843026
 40
0.3742295099
 40
0.4212234693
 40
0.4689334849
 40
0.5169204539
 40
0.564742699
 40
0.6119602567
 40
0.6581387568
 40
0.7028535722
 40
0.7456935742
 40
0.7862650922
 40
0.82419542
 40
0.8591363734
 40
0.8907674481
 40
0.9052499657
 40
0.9187989066
 40
0.9313832781
 40
0.9429744937
 40
0.9535460449
 40
0.9630742221
 40
0.9715374762
 40
0.9789172094
 40
0.9821956742
 40
0.9851976197
 40
0.9879214711
 40
0.9903660009
 40
0.9925303745
 40
0.994413975
 40
0.9960166457
 40
0.9973392595
 40
0.9978962479
 40
0.9983842966
 40
0.9988042307
 40
0.999157422
 40
0.999446284
 40
0.9996753041
 40
0.9998535741
 40
1.0
 40
1.0
 40
1.0
 40
1.0
 10
2.7291383128
 20
4.725474999
 30
0.0
 10
2.7291908903
 20
4.7253202443
 30
0.0
 10
2.7292907806
 20
4.7249620471
 30
0.0
 10
2.7294245225
 20
4.7243522061
 30
0.0
 10
2.7295590065
 20
4.7236054423
 30
0.0
 10
2.7296940519
 20
4.7227221023
 30
0.0
 10
2.7298294482
 20
4.721702483
 30
0.0
 10
2.7300206106
 20
4.7200732053
 30
0.0
 10
2.7302545438
 20
4.7176998504
 30
0.0
 10
2.7305239635
 20
4.7144518533
 30
0.0
 10
2.7307941895
 20
4.7106775632
 30
0.0
 10
2.7310650615
 20
4.7063856789
 30
0.0
 10
2.7313363389
 20
4.7015860453
 30
0.0
 10
2.7316079401
 20
4.69628973
 30
0.0
 10
2.7319848504
 20
4.6882716728
 30
0.0
 10
2.7324494009
 20
4.6771082471
 30
0.0
 10
2.7329894634
 20
4.6624176969
 30
0.0
 10
2.7335304967
 20
4.6461030108
 30
0.0
 10
2.7340722867
 20
4.6283146519
 30
0.0
 10
2.7346145681
 20
4.6092166507
 30
0.0
 10
2.7351572012
 20
4.5889850788
 30
0.0
 10
2.735700073
 20
4.5678064319
 30
0.0
 10
2.7362431029
 20
4.5458758765
 30
0.0
 10
2.7367862258
 20
4.5233954806
 30
0.0
 10
2.7373293881
 20
4.5005723198
 30
0.0
 10
2.7378725415
 20
4.4776166014
 30
0.0
 10
2.7384156404
 20
4.4547396938
 30
0.0
 10
2.7389586375
 20
4.432152209
 30
0.0
 10
2.7395014809
 20
4.410062035
 30
0.0
 10
2.74004411
 20
4.3886724527
 30
0.0
 10
2.7405864471
 20
4.3681802423
 30
0.0
 10
2.7411283978
 20
4.3487738931
 30
0.0
 10
2.7416698049
 20
4.3306318447
 30
0.0
 10
2.7422105307
 20
4.3139208734
 30
0.0
 10
2.7426727949
 20
4.3009608766
 30
0.0
 10
2.7430462549
 20
4.2914225585
 30
0.0
 10
2.7433179207
 20
4.2849299618
 30
0.0
 10
2.7435894173
 20
4.27890038
 30
0.0
 10
2.7438607017
 20
4.2733476704
 30
0.0
 10
2.7441317262
 20
4.2682845524
 30
0.0
 10
2.7444023604
 20
4.2637226479
 30
0.0
 10
2.7446725364
 20
4.2596723875
 30
0.0
 10
2.7449052735
 20
4.2566218686
 30
0.0
 10
2.7450938358
 20
4.2544444657
 30
0.0
 10
2.7452295123
 20
4.2530102273
 30
0.0
 10
2.745365055
 20
4.2517100505
 30
0.0
 10
2.7455004288
 20
4.2505446592
 30
0.0
 10
2.7456355691
 20
4.2495146841
 30
0.0
 10
2.7457703384
 20
4.2486206364
 30
0.0
 10
2.745904686
 20
4.2478629775
 30
0.0
 10
2.7460216347
 20
4.2473180112
 30
0.0
 10
2.7461174007
 20
4.2469514413
 30
0.0
 10
2.7461849383
 20
4.246726928
 30
0.0
 10
2.7462523126
 20
4.2465366159
 30
0.0
 10
2.7463195253
 20
4.2463803916
 30
0.0
 10
2.7463865858
 20
4.2462578515
 30
0.0
 10
2.7464539764
 20
4.2461685124
 30
0.0
 10
2.7465231636
 20
4.2461110173
 30
0.0
 10
2.7465753436
 20
4.2460961242
 30
0.0
 10
2.7465987708
 20
4.2460961228
 30
0.0
  0
SPLINE
  5
3DE
100
AcDbEntity
  8
0
100
AcDbSpline
 62
7
  6
CONTINUOUS
 70
0
 71
3
 72
37
 73
33
 74
0
 42
0.0000001
 43
0.0000001
 44
0.0000000001
 40
0.0
 40
0.0
 40
0.0
 40
0.0
 40
0.0005929761
 40
0.0013168168
 40
0.0021753348
 40
0.0031707465
 40
0.0055770397
 40
0.0085419358
 40
0.0120671806
 40
0.0161528779
 40
0.0207982827
 40
0.026001557
 40
0.0317602245
 40
0.0380716236
 40
0.0523391686
 40
0.0687733303
 40
0.0873377801
 40
0.1079909892
 40
0.1306859383
 40
0.1553713996
 40
0.1819908225
 40
0.2104836261
 40
0.2407847473
 40
0.306530512
 40
0.3786269292
 40
0.4564143782
 40
0.5391811272
 40
0.6261697609
 40
0.716584165
 40
0.8095975994
 40
0.9043574116
 40
1.0
 40
1.0
 40
1.0
 40
1.0
 10
2.6825384615
 20
4.7432984958
 30
0.0
 10
2.6825638919
 20
4.7432544779
 30
0.0
 10
2.6826133199
 20
4.7431526833
 30
0.0
 10
2.6826805419
 20
4.7429786168
 30
0.0
 10
2.6827479795
 20
4.7427680563
 30
0.0
 10
2.6828442752
 20
4.7424156715
 30
0.0
 10
2.6829613401
 20
4.7418822628
 30
0.0
 10
2.6830954635
 20
4.7411313637
 30
0.0
 10
2.6832301021
 20
4.7402346535
 30
0.0
 10
2.6833651799
 20
4.739192588
 30
0.0
 10
2.6835005098
 20
4.7380056467
 30
0.0
 10
2.6836360332
 20
4.7366744854
 30
0.0
 10
2.6837717082
 20
4.7351998518
 30
0.0
 10
2.6839605502
 20
4.7329498211
 30
0.0
 10
2.684193432
 20
4.7297851674
 30
0.0
 10
2.6844635049
 20
4.725570185
 30
0.0
 10
2.6847340505
 20
4.7208067997
 30
0.0
 10
2.6850049744
 20
4.7155059318
 30
0.0
 10
2.6852761592
 20
4.709679704
 30
0.0
 10
2.68554753
 20
4.7033414965
 30
0.0
 10
2.6858190434
 20
4.6965058255
 30
0.0
 10
2.6860906691
 20
4.6891883758
 30
0.0
 10
2.6864631463
 20
4.6785180861
 30
0.0
 10
2.6869245332
 20
4.6641105249
 30
0.0
 10
2.6874649978
 20
4.6456324932
 30
0.0
 10
2.6880059292
 20
4.6256946915
 30
0.0
 10
2.6885472018
 20
4.6044797529
 30
0.0
 10
2.6890886764
 20
4.5821819785
 30
0.0
 10
2.6896302668
 20
4.5590055116
 30
0.0
 10
2.690171897
 20
4.5351626472
 30
0.0
 10
2.6907135143
 20
4.5108714578
 30
0.0
 10
2.6910739826
 20
4.4945522493
 30
0.0
 10
2.691255029
 20
4.4863548137
 30
0.0
  0
LINE
  5
3DF
100
AcDbEntity
  8
0
100
AcDbLine
 62
7
  6
CONTINUOUS
 10
2.6932608006
 20
4.7247420354
 11
2.693322716
 21
4.7246207545
  0
SPLINE
  5
3E0
100
AcDbEntity
  8
0
100
AcDbSpline
 62
7
  6
CONTINUOUS
 70
0
 71
3
 72
67
 73
63
 74
0
 42
0.0000001
 43
0.0000001
 44
0.0000000001
 40
0.0
 40
0.0
 40
0.0
 40
0.0
 40
0.0003788739
 40
0.0008258821
 40
0.0019285057
 40
0.0033131186
 40
0.0049816049
 40
0.0069346395
 40
0.0091720597
 40
0.0116930767
 40
0.0144966895
 40
0.0209463485
 40
0.0285075536
 40
0.037163828
 40
0.0468955556
 40
0.057680443
 40
0.0694937808
 40
0.0823080561
 40
0.0960937233
 40
0.1264485236
 40
0.1602759335
 40
0.197260991
 40
0.2370592312
 40
0.2792998434
 40
0.3235893512
 40
0.3695151458
 40
0.4166495195
 40
0.4645534608
 40
0.5127809819
 40
0.560883063
 40
0.6084120575
 40
0.6549256692
 40
0.6999912555
 40
0.7431896605
 40
0.7841193631
 40
0.8224000212
 40
0.8576761865
 40
0.8896205184
 40
0.9042494203
 40
0.9179370319
 40
0.9306515494
 40
0.9423638399
 40
0.9530468099
 40
0.962676128
 40
0.9712299134
 40
0.9786889572
 40
0.9820028487
 40
0.9850372629
 40
0.9877905923
 40
0.9902616885
 40
0.9924496149
 40
0.9943536642
 40
0.9959737915
 40
0.9973108422
 40
0.997873888
 40
0.9983672082
 40
0.9987916478
 40
0.9991486261
 40
0.9994405756
 40
0.999672017
 40
0.9998521237
 40
1.0
 40
1.0
 40
1.0
 40
1.0
 10
2.693322716
 20
4.7246207545
 30
0.0
 10
2.69334782
 20
4.724565849
 30
0.0
 10
2.6933970101
 20
4.7244436325
 30
0.0
 10
2.6934945784
 20
4.7241521198
 30
0.0
 10
2.6936125567
 20
4.7236992225
 30
0.0
 10
2.6937473638
 20
4.7230507761
 30
0.0
 10
2.693882771
 20
4.7222645045
 30
0.0
 10
2.6940187011
 20
4.7213407891
 30
0.0
 10
2.6941549258
 20
4.7202799986
 30
0.0
 10
2.6942913975
 20
4.7190827302
 30
0.0
 10
2.6944826139
 20
4.7172162697
 30
0.0
 10
2.6947175956
 20
4.7145471324
 30
0.0
 10
2.6949891759
 20
4.7109453586
 30
0.0
 10
2.6952613757
 20
4.7068193495
 30
0.0
 10
2.6955340889
 20
4.7021787131
 30
0.0
 10
2.6958071373
 20
4.6970342502
 30
0.0
 10
2.6960804285
 20
4.6913979797
 30
0.0
 10
2.696353923
 20
4.6852830389
 30
0.0
 10
2.6967309742
 20
4.6762152942
 30
0.0
 10
2.6971970529
 20
4.6638000421
 30
0.0
 10
2.6977410923
 20
4.6476884974
 30
0.0
 10
2.698285851
 20
4.6300714123
 30
0.0
 10
2.6988311659
 20
4.6111131371
 30
0.0
 10
2.6993768484
 20
4.5909904798
 30
0.0
 10
2.6999227889
 20
4.5698910821
 30
0.0
 10
2.7004688986
 20
4.5480116325
 30
0.0
 10
2.7010151098
 20
4.5255560626
 30
0.0
 10
2.7015613662
 20
4.5027336144
 30
0.0
 10
2.702107618
 20
4.4797569213
 30
0.0
 10
2.7026538181
 20
4.4568399903
 30
0.0
 10
2.7031999182
 20
4.4341962414
 30
0.0
 10
2.7037458654
 20
4.4120364879
 30
0.0
 10
2.7042915982
 20
4.3905670101
 30
0.0
 10
2.7048370385
 20
4.3699876013
 30
0.0
 10
2.7053820907
 20
4.3504897373
 30
0.0
 10
2.7059265967
 20
4.332254763
 30
0.0
 10
2.7064704179
 20
4.3154522463
 30
0.0
 10
2.7069352992
 20
4.3024180378
 30
0.0
 10
2.7073108782
 20
4.2928229902
 30
0.0
 10
2.7075841016
 20
4.2862905197
 30
0.0
 10
2.7078571576
 20
4.2802232297
 30
0.0
 10
2.7081299996
 20
4.2746352315
 30
0.0
 10
2.7084025773
 20
4.2695394736
 30
0.0
 10
2.7086747687
 20
4.2649477775
 30
0.0
 10
2.7089464898
 20
4.2608707819
 30
0.0
 10
2.7091805652
 20
4.2577999583
 30
0.0
 10
2.7093702037
 20
4.2556079679
 30
0.0
 10
2.7095066588
 20
4.2541640647
 30
0.0
 10
2.7096429835
 20
4.2528550991
 30
0.0
 10
2.709779133
 20
4.2516818012
 30
0.0
 10
2.7099150454
 20
4.2506448192
 30
0.0
 10
2.7100505934
 20
4.2497446789
 30
0.0
 10
2.7101857109
 20
4.248981843
 30
0.0
 10
2.7103033261
 20
4.2484331359
 30
0.0
 10
2.7103996416
 20
4.2480640477
 30
0.0
 10
2.7104675673
 20
4.2478380049
 30
0.0
 10
2.7105353322
 20
4.2476464025
 30
0.0
 10
2.7106029318
 20
4.2474891174
 30
0.0
 10
2.7106703766
 20
4.247365739
 30
0.0
 10
2.7107381515
 20
4.2472757844
 30
0.0
 10
2.7108077291
 20
4.2472178832
 30
0.0
 10
2.7108602216
 20
4.2472028739
 30
0.0
 10
2.7108837852
 20
4.247202871
 30
0.0
  0
SPLINE
  5
3E1
100
AcDbEntity
  8
0
100
AcDbSpline
 62
7
  6
CONTINUOUS
 70
0
 71
3
 72
40
 73
36
 74
0
 42
0.0000001
 43
0.0000001
 44
0.0000000001
 40
0.0
 40
0.0
 40
0.0
 40
0.0
 40
0.0003037625
 40
0.0007362263
 40
0.0013063352
 40
0.0020178354
 40
0.0028725947
 40
0.0038716465
 40
0.0063043977
 40
0.0093179825
 40
0.0129125338
 40
0.0170872263
 40
0.0218401653
 40
0.0271691499
 40
0.0330717261
 40
0.0395446326
 40
0.0465843114
 40
0.0623487413
 40
0.0803295614
 40
0.1004862705
 40
0.1227725318
 40
0.1471368097
 40
0.1735227546
 40
0.2018684495
 40
0.2321075884
 40
0.2641690267
 40
0.297976837
 40
0.3705073889
 40
0.4490089799
 40
0.532730418
 40
0.6208666874
 40
0.712566079
 40
0.8069387721
 40
0.9030628156
 40
1.0
 40
1.0
 40
1.0
 40
1.0
 10
2.6657553505
 20
4.2320437414
 30
0.0
 10
2.6657371358
 20
4.2320619612
 30
0.0
 10
2.6657033088
 20
4.2321156926
 30
0.0
 10
2.6656604807
 20
4.2322178031
 30
0.0
 10
2.665617075
 20
4.2323568145
 30
0.0
 10
2.6655733861
 20
4.2325326803
 30
0.0
 10
2.6655294482
 20
4.2327458286
 30
0.0
 10
2.6654664772
 20
4.2331039201
 30
0.0
 10
2.6653900622
 20
4.2336453403
 30
0.0
 10
2.6653024896
 20
4.2344071461
 30
0.0
 10
2.6652145264
 20
4.2353174728
 30
0.0
 10
2.6651262256
 20
4.2363758604
 30
0.0
 10
2.6650377104
 20
4.2375817797
 30
0.0
 10
2.6649490267
 20
4.2389345811
 30
0.0
 10
2.6648602216
 20
4.2404335309
 30
0.0
 10
2.6647713062
 20
4.242077794
 30
0.0
 10
2.6646479292
 20
4.2445578066
 30
0.0
 10
2.6644954274
 20
4.2480135643
 30
0.0
 10
2.6643180697
 20
4.2525817273
 30
0.0
 10
2.6641403162
 20
4.2577033824
 30
0.0
 10
2.6639622104
 20
4.2633667178
 30
0.0
 10
2.6637838188
 20
4.2695586026
 30
0.0
 10
2.6636051795
 20
4.2762645953
 30
0.0
 10
2.6634263147
 20
4.2834690108
 30
0.0
 10
2.6632472475
 20
4.2911549159
 30
0.0
 10
2.6630679865
 20
4.2993041935
 30
0.0
 10
2.6628229544
 20
4.3110397491
 30
0.0
 10
2.6625186565
 20
4.326713647
 30
0.0
 10
2.6621605605
 20
4.3466206019
 30
0.0
 10
2.6618016458
 20
4.3678513112
 30
0.0
 10
2.6614419736
 20
4.3902015047
 30
0.0
 10
2.6610816111
 20
4.4134551648
 30
0.0
 10
2.6607206053
 20
4.4373863613
 30
0.0
 10
2.6603589926
 20
4.4617618313
 30
0.0
 10
2.6601177578
 20
4.4781341688
 30
0.0
 10
2.6599964513
 20
4.4863548137
 30
0.0
  0
LINE
  5
3E2
100
AcDbEntity
  8
0
100
AcDbLine
 62
7
  6
CONTINUOUS
 10
2.6575464141
 20
4.7236197157
 11
2.657621322
 21
4.7234694962
  0
SPLINE
  5
3E3
100
AcDbEntity
  8
0
100
AcDbSpline
 62
7
  6
CONTINUOUS
 70
0
 71
3
 72
67
 73
63
 74
0
 42
0.0000001
 43
0.0000001
 44
0.0000000001
 40
0.0
 40
0.0
 40
0.0
 40
0.0
 40
0.0003926953
 40
0.0008536798
 40
0.0019842157
 40
0.0033964534
 40
0.0050922837
 40
0.0070721856
 40
0.0093358256
 40
0.011882552
 40
0.0147113972
 40
0.0212094405
 40
0.0288167018
 40
0.0375162623
 40
0.0472887099
 40
0.0581115771
 40
0.0699600519
 40
0.0828067853
 40
0.0966219237
 40
0.1270273509
 40
0.1608940553
 40
0.1979072323
 40
0.2377227226
 40
0.2799702256
 40
0.324256839
 40
0.370170666
 40
0.4172847767
 40
0.4651610567
 40
0.5133544724
 40
0.5614170601
 40
0.608902231
 40
0.6553687767
 40
0.7003851742
 40
0.7435334042
 40
0.7844130411
 40
0.8226447968
 40
0.8578742209
 40
0.8897748852
 40
0.9043833913
 40
0.9180516964
 40
0.9307481775
 40
0.9424435991
 40
0.9531112205
 40
0.9627264951
 40
0.9712678443
 40
0.9787160237
 40
0.9820251171
 40
0.9850550548
 40
0.9878044361
 40
0.9902720526
 40
0.9924568398
 40
0.9943582187
 40
0.9959762372
 40
0.9973116156
 40
0.9978739695
 40
0.9983667436
 40
0.9987908156
 40
0.9991476
 40
0.9994395278
 40
0.9996711271
 40
0.9998515864
 40
1.0
 40
1.0
 40
1.0
 40
1.0
 10
2.657621322
 20
4.7234694962
 30
0.0
 10
2.6576463315
 20
4.7234124637
 30
0.0
 10
2.6576953862
 20
4.7232861474
 30
0.0
 10
2.6577927144
 20
4.7229868116
 30
0.0
 10
2.6579105987
 20
4.7225248557
 30
0.0
 10
2.6580453922
 20
4.7218662268
 30
0.0
 10
2.6581807467
 20
4.7210706647
 30
0.0
 10
2.6583166018
 20
4.7201385691
 30
0.0
 10
2.6584527507
 20
4.7190703384
 30
0.0
 10
2.6585891318
 20
4.717866555
 30
0.0
 10
2.658780105
 20
4.7159932722
 30
0.0
 10
2.6590148861
 20
4.7133179543
 30
0.0
 10
2.6592862801
 20
4.7097116168
 30
0.0
 10
2.6595583022
 20
4.7055847785
 30
0.0
 10
2.6598308154
 20
4.7009470609
 30
0.0
 10
2.6601036628
 20
4.6958092242
 30
0.0
 10
2.6603767529
 20
4.690183247
 30
0.0
 10
2.6606500364
 20
4.6840822417
 30
0.0
 10
2.6610267435
 20
4.6750401335
 30
0.0
 10
2.6614924253
 20
4.662665481
 30
0.0
 10
2.6620360699
 20
4.6466124663
 30
0.0
 10
2.6625804279
 20
4.6290664147
 30
0.0
 10
2.663125339
 20
4.610190735
 30
0.0
 10
2.6636706158
 20
4.5901611683
 30
0.0
 10
2.6642161497
 20
4.5691641729
 30
0.0
 10
2.6647618522
 20
4.547395168
 30
0.0
 10
2.6653076563
 20
4.5250567301
 30
0.0
 10
2.6658535059
 20
4.5023566823
 30
0.0
 10
2.666399351
 20
4.4795061785
 30
0.0
 10
2.6669451445
 20
4.4567177146
 30
0.0
 10
2.667490838
 20
4.4342031806
 30
0.0
 10
2.6680363789
 20
4.4121718628
 30
0.0
 10
2.6685817056
 20
4.3908285236
 30
0.0
 10
2.6691267398
 20
4.3703714681
 30
0.0
 10
2.6696713857
 20
4.3509907347
 30
0.0
 10
2.6702154853
 20
4.3328663016
 30
0.0
 10
2.6707589
 20
4.3161664556
 30
0.0
 10
2.6712234374
 20
4.3032123398
 30
0.0
 10
2.6715987374
 20
4.2936765498
 30
0.0
 10
2.6718717569
 20
4.287184585
 30
0.0
 10
2.6721446036
 20
4.2811550168
 30
0.0
 10
2.6724172452
 20
4.275601822
 30
0.0
 10
2.6726896114
 20
4.2705378814
 30
0.0
 10
2.6729616024
 20
4.2659748929
 30
0.0
 10
2.6732331147
 20
4.261923437
 30
0.0
 10
2.6734670162
 20
4.2588718654
 30
0.0
 10
2.6736565057
 20
4.2566936475
 30
0.0
 10
2.6737928632
 20
4.2552588204
 30
0.0
 10
2.6739290832
 20
4.2539580808
 30
0.0
 10
2.6740651244
 20
4.2527921538
 30
0.0
 10
2.6742009374
 20
4.2517616975
 30
0.0
 10
2.6743363878
 20
4.250867222
 30
0.0
 10
2.6744713984
 20
4.250109175
 30
0.0
 10
2.6745889205
 20
4.2495639209
 30
0.0
 10
2.674685166
 20
4.2491971798
 30
0.0
 10
2.674753044
 20
4.248972569
 30
0.0
 10
2.6748207597
 20
4.2487821679
 30
0.0
 10
2.6748883116
 20
4.2486258545
 30
0.0
 10
2.6749557145
 20
4.2485032302
 30
0.0
 10
2.6750234514
 20
4.2484138212
 30
0.0
 10
2.6750930039
 20
4.2483563028
 30
0.0
 10
2.6751453993
 20
4.2483414412
 30
0.0
 10
2.6751689353
 20
4.2483414456
 30
0.0
  0
SPLINE
  5
3E4
100
AcDbEntity
  8
0
100
AcDbSpline
 62
7
  6
CONTINUOUS
 70
0
 71
3
 72
27
 73
23
 74
0
 42
0.0000001
 43
0.0000001
 44
0.0000000001
 40
0.0
 40
0.0
 40
0.0
 40
0.0
 40
0.062510858
 40
0.0937741938
 40
0.1250351147
 40
0.1875424223
 40
0.2500480566
 40
0.2813076876
 40
0.3125668967
 40
0.3750686037
 40
0.4375682932
 40
0.5000659217
 40
0.5625614358
 40
0.625054782
 40
0.6875458994
 40
0.7187989027
 40
0.7500513387
 40
0.8125377895
 40
0.8750220034
 40
0.906270842
 40
0.9375205711
 40
1.0
 40
1.0
 40
1.0
 40
1.0
 10
3.3831777961
 20
4.403697297
 30
0.0
 10
3.3853160087
 20
4.407096645
 30
0.0
 10
3.3883065663
 20
4.4123376352
 30
0.0
 10
3.3918282346
 20
4.4195591694
 30
0.0
 10
3.3950341361
 20
4.4269266201
 30
0.0
 10
3.3984365553
 20
4.4363863439
 30
0.0
 10
3.401000028
 20
4.4461072001
 30
0.0
 10
3.4025322834
 20
4.4539940168
 30
0.0
 10
3.4037155739
 20
4.4619403727
 30
0.0
 10
3.4045337165
 20
4.471960048
 30
0.0
 10
3.4044427616
 20
4.4840209319
 30
0.0
 10
3.4032736003
 20
4.4960255837
 30
0.0
 10
3.4010288113
 20
4.5078761071
 30
0.0
 10
3.3977203014
 20
4.5194740154
 30
0.0
 10
3.3940929035
 20
4.5288492303
 30
0.0
 10
3.3906854211
 20
4.5361233274
 30
0.0
 10
3.3869467821
 20
4.5432326111
 30
0.0
 10
3.3816630545
 20
4.5517834488
 30
0.0
 10
3.3756070647
 20
4.5598058388
 30
0.0
 10
3.3703295575
 20
4.5658607046
 30
0.0
 10
3.3647740781
 20
4.5716602876
 30
0.0
 10
3.3603027997
 20
4.5757110634
 30
0.0
 10
3.3572034788
 20
4.5782616547
 30
0.0
  0
SPLINE
  5
3E5
100
AcDbEntity
  8
0
100
AcDbSpline
 62
7
  6
CONTINUOUS
 70
0
 71
3
 72
43
 73
39
 74
0
 42
0.0000001
 43
0.0000001
 44
0.0000000001
 40
0.0
 40
0.0
 40
0.0
 40
0.0
 40
0.0979543331
 40
0.194958121
 40
0.2900817067
 40
0.3824082593
 40
0.471049923
 40
0.5551536611
 40
0.6339102774
 40
0.7065619681
 40
0.7724098211
 40
0.802581602
 40
0.8308206159
 40
0.857058912
 40
0.8812335295
 40
0.9032868315
 40
0.9231659186
 40
0.940823969
 40
0.9562195115
 40
0.9630575653
 40
0.969317215
 40
0.9749953051
 40
0.9800888518
 40
0.9845954861
 40
0.9885138993
 40
0.9918434839
 40
0.9932876621
 40
0.9945851595
 40
0.9957365926
 40
0.9967429144
 40
0.9976056383
 40
0.998327277
 40
0.9989122835
 40
0.9993693254
 40
0.9995554715
 40
0.9997181833
 40
0.9998635491
 40
1.0
 40
1.0
 40
1.0
 40
1.0
 10
2.6864333343
 20
4.4863548137
 30
0.0
 10
2.6862476561
 20
4.4947553978
 30
0.0
 10
2.6858780766
 20
4.5114750465
 30
0.0
 10
2.6853228528
 20
4.5363523959
 30
0.0
 10
2.684767728
 20
4.5607468681
 30
0.0
 10
2.6842127645
 20
4.5844238416
 30
0.0
 10
2.6836580411
 20
4.6071552573
 30
0.0
 10
2.6831036509
 20
4.6287222746
 30
0.0
 10
2.682549752
 20
4.648917189
 30
0.0
 10
2.6819964812
 20
4.6675454774
 30
0.0
 10
2.6815235372
 20
4.6820066021
 30
0.0
 10
2.6811413875
 20
4.6926588083
 30
0.0
 10
2.6808633068
 20
4.6999147871
 30
0.0
 10
2.6805853802
 20
4.7066559247
 30
0.0
 10
2.6803076403
 20
4.712865968
 30
0.0
 10
2.6800301572
 20
4.7185299307
 30
0.0
 10
2.6797530373
 20
4.7236341819
 30
0.0
 10
2.6794763757
 20
4.7281664098
 30
0.0
 10
2.6792380158
 20
4.7315801215
 30
0.0
 10
2.6790448731
 20
4.7340166793
 30
0.0
 10
2.678905896
 20
4.7356212983
 30
0.0
 10
2.6787670602
 20
4.7370756733
 30
0.0
 10
2.6786283911
 20
4.7383789348
 30
0.0
 10
2.6784899716
 20
4.7395303345
 30
0.0
 10
2.678351866
 20
4.7405292153
 30
0.0
 10
2.6782322758
 20
4.7412653114
 30
0.0
 10
2.6781349743
 20
4.7417769722
 30
0.0
 10
2.6780655754
 20
4.7421036696
 30
0.0
 10
2.6779962808
 20
4.7423918945
 30
0.0
 10
2.6779271142
 20
4.742641665
 30
0.0
 10
2.6778581265
 20
4.7428530079
 30
0.0
 10
2.6777893491
 20
4.7430261505
 30
0.0
 10
2.6777208091
 20
4.743161234
 30
0.0
 10
2.6776600123
 20
4.743248249
 30
0.0
 10
2.6776099833
 20
4.7432963018
 30
0.0
 10
2.6775747088
 20
4.7433202873
 30
0.0
 10
2.6775389543
 20
4.7433345435
 30
0.0
 10
2.6775145643
 20
4.7433372657
 30
0.0
 10
2.6775028651
 20
4.7433369004
 30
0.0
  0
SPLINE
  5
3E6
100
AcDbEntity
  8
0
100
AcDbSpline
 62
7
  6
CONTINUOUS
 70
0
 71
3
 72
23
 73
19
 74
0
 42
0.0000001
 43
0.0000001
 44
0.0000000001
 40
0.0
 40
0.0
 40
0.0
 40
0.0
 40
0.0626724678
 40
0.1253204081
 40
0.187949303
 40
0.250561044
 40
0.313152476
 40
0.3757233922
 40
0.438272694
 40
0.5007988493
 40
0.5633006514
 40
0.6257769682
 40
0.6882261109
 40
0.7506463298
 40
0.8130365054
 40
0.8753919123
 40
0.937716882
 40
1.0
 40
1.0
 40
1.0
 40
1.0
 10
3.3139124688
 20
4.5297623519
 30
0.0
 10
3.3148744068
 20
4.5284224033
 30
0.0
 10
3.3166910523
 20
4.5256643642
 30
0.0
 10
3.3190691773
 20
4.5213208397
 30
0.0
 10
3.3210809582
 20
4.5167972201
 30
0.0
 10
3.3227079365
 20
4.5121229053
 30
0.0
 10
3.3239337016
 20
4.5073291143
 30
0.0
 10
3.3247441573
 20
4.502449425
 30
0.0
 10
3.3251277831
 20
4.4975193401
 30
0.0
 10
3.3250759152
 20
4.4925762644
 30
0.0
 10
3.3245829484
 20
4.4876592974
 30
0.0
 10
3.3236466523
 20
4.4828090488
 30
0.0
 10
3.3222684307
 20
4.4780674315
 30
0.0
 10
3.3204536967
 20
4.4734773187
 30
0.0
 10
3.3182120097
 20
4.4690824477
 30
0.0
 10
3.3155573773
 20
4.464926467
 30
0.0
 10
3.3125088939
 20
4.4610540269
 30
0.0
 10
3.3102279729
 20
4.4586883228
 30
0.0
 10
3.3090314368
 20
4.4575678818
 30
0.0
  0
SPLINE
  5
3E7
100
AcDbEntity
  8
0
100
AcDbSpline
 62
7
  6
CONTINUOUS
 70
0
 71
3
 72
37
 73
33
 74
0
 42
0.0000001
 43
0.0000001
 44
0.0000000001
 40
0.0
 40
0.0
 40
0.0
 40
0.0
 40
0.0956617083
 40
0.1904491988
 40
0.283495098
 40
0.3739434653
 40
0.4609644665
 40
0.5437594826
 40
0.6215691252
 40
0.693680013
 40
0.7594314127
 40
0.7897316623
 40
0.8182213481
 40
0.84483524
 40
0.8695125647
 40
0.8921973052
 40
0.9128376569
 40
0.9313872291
 40
0.9478043487
 40
0.9620525914
 40
0.9683537558
 40
0.9741017346
 40
0.9792936199
 40
0.9839273006
 40
0.9880009974
 40
0.9915135461
 40
0.9944652608
 40
0.9968581277
 40
0.9978465971
 40
0.998697959
 40
0.9994144692
 40
1.0
 40
1.0
 40
1.0
 40
1.0
 10
7.7452520523
 20
4.4863548137
 30
0.0
 10
7.745070236
 20
4.4946736913
 30
0.0
 10
7.7447082827
 20
4.5112354237
 30
0.0
 10
7.7441645993
 20
4.5358884523
 30
0.0
 10
7.7436210414
 20
4.5600879043
 30
0.0
 10
7.7430776593
 20
4.5836116401
 30
0.0
 10
7.7425345281
 20
4.6062434924
 30
0.0
 10
7.7419917333
 20
4.6277756791
 30
0.0
 10
7.7414494142
 20
4.648010531
 30
0.0
 10
7.7409076948
 20
4.6667623387
 30
0.0
 10
7.740445336
 20
4.681382203
 30
0.0
 10
7.7400721344
 20
4.6922086568
 30
0.0
 10
7.7398000257
 20
4.6996322897
 30
0.0
 10
7.7395280638
 20
4.7065664846
 30
0.0
 10
7.7392562706
 20
4.7129953439
 30
0.0
 10
7.7389847071
 20
4.7189041217
 30
0.0
 10
7.7387134268
 20
4.7242792954
 30
0.0
 10
7.738442565
 20
4.7291085612
 30
0.0
 10
7.7381722118
 20
4.7333808785
 30
0.0
 10
7.7379390926
 20
4.7365879245
 30
0.0
 10
7.7377500716
 20
4.7388675243
 30
0.0
 10
7.7376142941
 20
4.7403610465
 30
0.0
 10
7.7374786674
 20
4.7417088858
 30
0.0
 10
7.7373432466
 20
4.7429103036
 30
0.0
 10
7.7372081002
 20
4.7439646405
 30
0.0
 10
7.7370733953
 20
4.7448714
 30
0.0
 10
7.7369392129
 20
4.7456301303
 30
0.0
 10
7.7368221019
 20
4.7461687038
 30
0.0
 10
7.7367257331
 20
4.7465241167
 30
0.0
 10
7.7366582823
 20
4.7467361066
 30
0.0
 10
7.7365910557
 20
4.7469110468
 30
0.0
 10
7.7365415712
 20
4.7470132261
 30
0.0
 10
7.736516093
 20
4.747057326
 30
0.0
  0
SPLINE
  5
3E8
100
AcDbEntity
  8
0
100
AcDbSpline
 62
7
  6
CONTINUOUS
 70
0
 71
3
 72
37
 73
33
 74
0
 42
0.0000001
 43
0.0000001
 44
0.0000000001
 40
0.0
 40
0.0
 40
0.0
 40
0.0
 40
0.0956527209
 40
0.1904315502
 40
0.2834691952
 40
0.373910115
 40
0.4609245859
 40
0.5437143059
 40
0.6215200654
 40
0.6936285593
 40
0.7593792142
 40
0.789679944
 40
0.8181703546
 40
0.8447855806
 40
0.869464791
 40
0.8921517079
 40
0.912795033
 40
0.9313479131
 40
0.9477688627
 40
0.9620216786
 40
0.9683251494
 40
0.9740756371
 40
0.9792703667
 40
0.9839068247
 40
0.9879834067
 40
0.9914992294
 40
0.99445423
 40
0.9968504272
 40
0.9978407158
 40
0.9986940135
 40
0.9994125049
 40
1.0
 40
1.0
 40
1.0
 40
1.0
 10
7.7809665094
 20
4.4863548137
 30
0.0
 10
7.7807850435
 20
4.4946373079
 30
0.0
 10
7.780423774
 20
4.511126627
 30
0.0
 10
7.7798810625
 20
4.5356718946
 30
0.0
 10
7.7793384171
 20
4.5597656579
 30
0.0
 10
7.7787958911
 20
4.5831867786
 30
0.0
 10
7.7782535602
 20
4.6057200858
 30
0.0
 10
7.7777115124
 20
4.6271587383
 30
0.0
 10
7.7771698879
 20
4.6473059616
 30
0.0
 10
7.7766288128
 20
4.665976876
 30
0.0
 10
7.7761669618
 20
4.6805339071
 30
0.0
 10
7.7757941515
 20
4.6913140341
 30
0.0
 10
7.7755223098
 20
4.6987060895
 30
0.0
 10
7.7752506055
 20
4.7056109202
 30
0.0
 10
7.7749790609
 20
4.7120127004
 30
0.0
 10
7.7747077276
 20
4.7178967625
 30
0.0
 10
7.774436675
 20
4.7232496229
 30
0.0
 10
7.7741660242
 20
4.7280590491
 30
0.0
 10
7.7738958678
 20
4.7323140413
 30
0.0
 10
7.7736629236
 20
4.7355082355
 30
0.0
 10
7.7734740317
 20
4.7377788407
 30
0.0
 10
7.7733383406
 20
4.7392665936
 30
0.0
 10
7.7732028074
 20
4.7406093245
 30
0.0
 10
7.7730674687
 20
4.7418062872
 30
0.0
 10
7.7729323955
 20
4.7428568284
 30
0.0
 10
7.7727977749
 20
4.7437604621
 30
0.0
 10
7.772663666
 20
4.744516728
 30
0.0
 10
7.7725466103
 20
4.7450536483
 30
0.0
 10
7.7724503044
 20
4.7454080816
 30
0.0
 10
7.7723828885
 20
4.7456196048
 30
0.0
 10
7.7723156959
 20
4.7457942449
 30
0.0
 10
7.7722662473
 20
4.7458962809
 30
0.0
 10
7.7722407925
 20
4.7459403391
 30
0.0
  0
SPLINE
  5
3E9
100
AcDbEntity
  8
0
100
AcDbSpline
 62
7
  6
CONTINUOUS
 70
0
 71
3
 72
37
 73
33
 74
0
 42
0.0000001
 43
0.0000001
 44
0.0000000001
 40
0.0
 40
0.0
 40
0.0
 40
0.0
 40
0.0956425095
 40
0.1904113676
 40
0.2834397205
 40
0.3738721324
 40
0.4608792616
 40
0.5436629303
 40
0.6214641929
 40
0.6935700221
 40
0.7593200285
 40
0.7896210382
 40
0.8181125029
 40
0.8447292183
 40
0.8694104277
 40
0.8921001348
 40
0.9127465619
 40
0.9313033296
 40
0.9477287702
 40
0.9619864843
 40
0.9682928204
 40
0.9740462681
 40
0.9792439202
 40
0.9838836713
 40
0.9879637537
 40
0.9914830126
 40
0.9944417771
 40
0.9968420624
 40
0.9978343916
 40
0.9986897181
 40
0.9994102996
 40
1.0
 40
1.0
 40
1.0
 40
1.0
 10
7.8166861313
 20
4.4863548137
 30
0.0
 10
7.8165047297
 20
4.4946008261
 30
0.0
 10
7.8161435913
 20
4.5110175274
 30
0.0
 10
7.8156010599
 20
4.5354547473
 30
0.0
 10
7.815058586
 20
4.5594425487
 30
0.0
 10
7.8145162199
 20
4.5827608226
 30
0.0
 10
7.8139740387
 20
4.6051953747
 30
0.0
 10
7.8134321292
 20
4.6265403183
 30
0.0
 10
7.812890632
 20
4.646599781
 30
0.0
 10
7.8123496725
 20
4.6651897389
 30
0.0
 10
7.8118879175
 20
4.6796839049
 30
0.0
 10
7.8115151748
 20
4.6904177217
 30
0.0
 10
7.8112433818
 20
4.6977782199
 30
0.0
 10
7.8109717211
 20
4.7046537321
 30
0.0
 10
7.810700215
 20
4.7110285015
 30
0.0
 10
7.8104289241
 20
4.7168879125
 30
0.0
 10
7.8101579023
 20
4.7222185617
 30
0.0
 10
7.8098872843
 20
4.7270082525
 30
0.0
 10
7.8096171601
 20
4.7312460392
 30
0.0
 10
7.8093842351
 20
4.7344274981
 30
0.0
 10
7.80919537
 20
4.7366892105
 30
0.0
 10
7.8090596935
 20
4.738171277
 30
0.0
 10
7.8089241638
 20
4.7395089759
 30
0.0
 10
7.8087888355
 20
4.7407015746
 30
0.0
 10
7.808653777
 20
4.7417484192
 30
0.0
 10
7.8085191532
 20
4.7426490172
 30
0.0
 10
7.8083850446
 20
4.7434029206
 30
0.0
 10
7.8082680059
 20
4.7439383021
 30
0.0
 10
7.8081717154
 20
4.7442918336
 30
0.0
 10
7.8081042962
 20
4.7445029123
 30
0.0
 10
7.8080370961
 20
4.7446772727
 30
0.0
 10
7.8079876625
 20
4.7447791847
 30
0.0
 10
7.8079622221
 20
4.7448232185
 30
0.0
  0
SPLINE
  5
3EA
100
AcDbEntity
  8
0
100
AcDbSpline
 62
7
  6
CONTINUOUS
 70
0
 71
3
 72
15
 73
11
 74
0
 42
0.0000001
 43
0.0000001
 44
0.0000000001
 40
0.0
 40
0.0
 40
0.0
 40
0.0
 40
0.3732998136
 40
0.5289950655
 40
0.6640369474
 40
0.7784658218
 40
0.872382678
 40
0.946021683
 40
0.9754083953
 40
1.0
 40
1.0
 40
1.0
 40
1.0
 10
7.6410768816
 20
4.2278329935
 30
0.0
 10
7.6411467726
 20
4.2271867599
 30
0.0
 10
7.641253931
 20
4.226271755
 30
0.0
 10
7.6414179033
 20
4.2251271304
 30
0.0
 10
7.6415330358
 20
4.2244310394
 30
0.0
 10
7.6416476419
 20
4.2238440567
 30
0.0
 10
7.6417616869
 20
4.2233663761
 30
0.0
 10
7.6418617464
 20
4.2230378225
 30
0.0
 10
7.6419448354
 20
4.2228315954
 30
0.0
 10
7.6419867503
 20
4.2227472678
 30
0.0
 10
7.6420081716
 20
4.2227101914
 30
0.0
  0
SPLINE
  5
3EB
100
AcDbEntity
  8
0
100
AcDbSpline
 62
7
  6
CONTINUOUS
 70
0
 71
3
 72
27
 73
23
 74
0
 42
0.0000001
 43
0.0000001
 44
0.0000000001
 40
0.0
 40
0.0
 40
0.0
 40
0.0
 40
0.2155952069
 40
0.314537022
 40
0.4073544612
 40
0.4938968746
 40
0.5740215597
 40
0.6475992393
 40
0.7145095746
 40
0.7746457922
 40
0.8279116474
 40
0.8742251988
 40
0.9135179414
 40
0.9305152601
 40
0.9457393877
 40
0.9591882217
 40
0.9708616807
 40
0.9807625072
 40
0.9888995978
 40
0.9952945444
 40
0.9978533775
 40
1.0
 40
1.0
 40
1.0
 40
1.0
 10
7.6740250345
 20
4.283255959
 30
0.0
 10
7.6741720771
 20
4.278974813
 30
0.0
 10
7.6743964594
 20
4.272729271
 30
0.0
 10
7.6747146678
 20
4.2646417788
 30
0.0
 10
7.6749463844
 20
4.2591170408
 30
0.0
 10
7.6751780069
 20
4.2539665277
 30
0.0
 10
7.67540952
 20
4.2491986993
 30
0.0
 10
7.6756408663
 20
4.2448214294
 30
0.0
 10
7.6758719919
 20
4.2408419016
 30
0.0
 10
7.6761028079
 20
4.2372666801
 30
0.0
 10
7.6763331557
 20
4.2341016053
 30
0.0
 10
7.676562919
 20
4.2313518745
 30
0.0
 10
7.6767619075
 20
4.2293228479
 30
0.0
 10
7.6769239347
 20
4.2279111646
 30
0.0
 10
7.6770393571
 20
4.2270110787
 30
0.0
 10
7.6771545459
 20
4.2262177014
 30
0.0
 10
7.6772694447
 20
4.2255313172
 30
0.0
 10
7.6773838364
 20
4.2249520196
 30
0.0
 10
7.6774976781
 20
4.2244799892
 30
0.0
 10
7.6775975183
 20
4.2241548757
 30
0.0
 10
7.6776803514
 20
4.2239503348
 30
0.0
 10
7.6777221276
 20
4.2238664985
 30
0.0
 10
7.6777434636
 20
4.2238295673
 30
0.0
  0
SPLINE
  5
3EC
100
AcDbEntity
  8
0
100
AcDbSpline
 62
7
  6
CONTINUOUS
 70
0
 71
3
 72
30
 73
26
 74
0
 42
0.0000001
 43
0.0000001
 44
0.0000000001
 40
0.0
 40
0.0
 40
0.0
 40
0.0
 40
0.2082208464
 40
0.3058110856
 40
0.3984582592
 40
0.4857425973
 40
0.5672688344
 40
0.6426677583
 40
0.7115983146
 40
0.773749016
 40
0.8288395403
 40
0.8766224116
 40
0.8977055347
 40
0.9168849201
 40
0.934139316
 40
0.9494510777
 40
0.9628041643
 40
0.9741869133
 40
0.9835909419
 40
0.9875501685
 40
0.9910149382
 40
0.9939869183
 40
0.996469387
 40
0.9984690472
 40
1.0
 40
1.0
 40
1.0
 40
1.0
 10
7.7072927397
 20
4.3713688583
 30
0.0
 10
7.7075388376
 20
4.361194059
 30
0.0
 10
7.7079114844
 20
4.3462507337
 30
0.0
 10
7.7084317327
 20
4.3267811535
 30
0.0
 10
7.7088133507
 20
4.3132213335
 30
0.0
 10
7.7091948203
 20
4.300447041
 30
0.0
 10
7.709576098
 20
4.2885162312
 30
0.0
 10
7.7099571006
 20
4.2774830301
 30
0.0
 10
7.7103377288
 20
4.2673974975
 30
0.0
 10
7.7107177799
 20
4.25830538
 30
0.0
 10
7.7110971077
 20
4.2502479328
 30
0.0
 10
7.7114243027
 20
4.2441977306
 30
0.0
 10
7.7116899418
 20
4.2399022826
 30
0.0
 10
7.7118805877
 20
4.2370973234
 30
0.0
 10
7.7120709919
 20
4.2345751629
 30
0.0
 10
7.7122610726
 20
4.2323386674
 30
0.0
 10
7.7124506449
 20
4.2303902808
 30
0.0
 10
7.7126395888
 20
4.2287321889
 30
0.0
 10
7.7128039897
 20
4.2275336263
 30
0.0
 10
7.7129386876
 20
4.2267221272
 30
0.0
 10
7.7130336314
 20
4.2262228553
 30
0.0
 10
7.7131282734
 20
4.2257972112
 30
0.0
 10
7.7132224838
 20
4.2254450261
 30
0.0
 10
7.713316101
 20
4.2251662925
 30
0.0
 10
7.7133869089
 20
4.2250081222
 30
0.0
 10
7.7134243455
 20
4.2249433271
 30
0.0
  0
SPLINE
  5
3ED
100
AcDbEntity
  8
0
100
AcDbSpline
 62
7
  6
CONTINUOUS
 70
0
 71
3
 72
37
 73
33
 74
0
 42
0.0000001
 43
0.0000001
 44
0.0000000001
 40
0.0
 40
0.0
 40
0.0
 40
0.0
 40
0.0956720389
 40
0.1904605231
 40
0.2835009848
 40
0.3739400589
 40
0.4609501334
 40
0.5437343923
 40
0.6215348671
 40
0.6936391662
 40
0.7593871611
 40
0.7896869777
 40
0.8181770819
 40
0.844792202
 40
0.8694715304
 40
0.892158971
 40
0.9128026434
 40
0.9313560643
 40
0.9477774251
 40
0.9620302061
 40
0.9683337007
 40
0.9740840416
 40
0.9792782875
 40
0.9839143116
 40
0.9879903306
 40
0.9915051569
 40
0.9944590806
 40
0.9968540884
 40
0.9978436033
 40
0.9986959873
 40
0.9994134954
 40
1.0
 40
1.0
 40
1.0
 40
1.0
 10
7.7404221426
 20
4.4863548137
 30
0.0
 10
7.7406032987
 20
4.4780480536
 30
0.0
 10
7.740963985
 20
4.4615112494
 30
0.0
 10
7.7415059323
 20
4.4368962839
 30
0.0
 10
7.7420478948
 20
4.4127358924
 30
0.0
 10
7.7425898193
 20
4.3892511976
 30
0.0
 10
7.7431316304
 20
4.3666574549
 30
0.0
 10
7.7436732414
 20
4.3451616483
 30
0.0
 10
7.7442145121
 20
4.3249607719
 30
0.0
 10
7.7447553174
 20
4.3062399827
 30
0.0
 10
7.7452170036
 20
4.2916439131
 30
0.0
 10
7.7455897316
 20
4.280834709
 30
0.0
 10
7.7458615315
 20
4.2734225964
 30
0.0
 10
7.746133218
 20
4.2664989456
 30
0.0
 10
7.7464047684
 20
4.2600796426
 30
0.0
 10
7.746676122
 20
4.2541794271
 30
0.0
 10
7.7469472249
 20
4.2488118225
 30
0.0
 10
7.7472179412
 20
4.2439891398
 30
0.0
 10
7.7474881813
 20
4.2397224314
 30
0.0
 10
7.7477212259
 20
4.2365194595
 30
0.0
 10
7.7479102031
 20
4.2342426449
 30
0.0
 10
7.748045959
 20
4.2327508629
 30
0.0
 10
7.7481815721
 20
4.2314045369
 30
0.0
 10
7.7483169874
 20
4.230204409
 30
0.0
 10
7.7484521358
 20
4.229151142
 30
0.0
 10
7.7485868504
 20
4.2282452368
 30
0.0
 10
7.7487210512
 20
4.2274871499
 30
0.0
 10
7.7488381824
 20
4.2269489839
 30
0.0
 10
7.7489345677
 20
4.2265937939
 30
0.0
 10
7.7490020366
 20
4.2263818958
 30
0.0
 10
7.7490692839
 20
4.2262069992
 30
0.0
 10
7.749118779
 20
4.2261048324
 30
0.0
 10
7.7491442608
 20
4.226060729
 30
0.0
  0
SPLINE
  5
3EE
100
AcDbEntity
  8
0
100
AcDbSpline
 62
7
  6
CONTINUOUS
 70
0
 71
3
 72
37
 73
33
 74
0
 42
0.0000001
 43
0.0000001
 44
0.0000000001
 40
0.0
 40
0.0
 40
0.0
 40
0.0
 40
0.0956621859
 40
0.1904410878
 40
0.2834725113
 40
0.3739033607
 40
0.4609062814
 40
0.5436846879
 40
0.6214808422
 40
0.6935825348
 40
0.7593298141
 40
0.7896300242
 40
0.8181210466
 40
0.8447376226
 40
0.8694189537
 40
0.8921089531
 40
0.9127557533
 40
0.9313128774
 40
0.9477385201
 40
0.9619961734
 40
0.9683023275
 40
0.9740554807
 40
0.979252692
 40
0.9838918374
 40
0.9879711402
 40
0.9914894183
 40
0.9944469698
 40
0.9968457974
 40
0.9978373014
 40
0.9986917299
 40
0.9994113398
 40
1.0
 40
1.0
 40
1.0
 40
1.0
 10
7.7761387939
 20
4.4863548137
 30
0.0
 10
7.7763195124
 20
4.4780845011
 30
0.0
 10
7.7766793113
 20
4.4616202395
 30
0.0
 10
7.7772198907
 20
4.4371132136
 30
0.0
 10
7.7777604665
 20
4.4130586734
 30
0.0
 10
7.7783010013
 20
4.3896767254
 30
0.0
 10
7.7788414355
 20
4.3671816382
 30
0.0
 10
7.7793816984
 20
4.3457794474
 30
0.0
 10
7.7799216655
 20
4.3256662485
 30
0.0
 10
7.7804612278
 20
4.3070263553
 30
0.0
 10
7.7809219133
 20
4.2924931024
 30
0.0
 10
7.7812938812
 20
4.2817301845
 30
0.0
 10
7.781565154
 20
4.2743496109
 30
0.0
 10
7.7818363406
 20
4.2674552697
 30
0.0
 10
7.7821074201
 20
4.2610629768
 30
0.0
 10
7.7823783341
 20
4.2551874066
 30
0.0
 10
7.7826490308
 20
4.249842023
 30
0.0
 10
7.7829193767
 20
4.2450390833
 30
0.0
 10
7.7831892848
 20
4.2407895924
 30
0.0
 10
7.7834220725
 20
4.2375993719
 30
0.0
 10
7.7836108618
 20
4.2353314657
 30
0.0
 10
7.7837464974
 20
4.2338453841
 30
0.0
 10
7.7838820016
 20
4.2325041
 30
0.0
 10
7.78401732
 20
4.2313083527
 30
0.0
 10
7.7841523837
 20
4.230258802
 30
0.0
 10
7.7842870274
 20
4.2293559468
 30
0.0
 10
7.7844211713
 20
4.2286002416
 30
0.0
 10
7.7845382578
 20
4.2280636448
 30
0.0
 10
7.7846346031
 20
4.2277093738
 30
0.0
 10
7.7847020588
 20
4.2274979146
 30
0.0
 10
7.7847692983
 20
4.2273232909
 30
0.0
 10
7.7848187735
 20
4.2272212469
 30
0.0
 10
7.7848442395
 20
4.2271771711
 30
0.0
  0
SPLINE
  5
3EF
100
AcDbEntity
  8
0
100
AcDbSpline
 62
7
  6
CONTINUOUS
 70
0
 71
3
 72
37
 73
33
 74
0
 42
0.0000001
 43
0.0000001
 44
0.0000000001
 40
0.0
 40
0.0
 40
0.0
 40
0.0
 40
0.095654067
 40
0.1904250508
 40
0.2834489897
 40
0.3738730153
 40
0.4608699845
 40
0.5436435196
 40
0.6214360642
 40
0.6935355769
 40
0.7592822494
 40
0.7895827842
 40
0.818074568
 40
0.8446923523
 40
0.8693753503
 40
0.8920674814
 40
0.9127168847
 40
0.9312770918
 40
0.9477063005
 40
0.9619680097
 40
0.9682763763
 40
0.9740318686
 40
0.979231545
 40
0.9838732838
 40
0.9879553129
 40
0.9914764536
 40
0.9944370088
 40
0.9968389927
 40
0.9978321364
 40
0.9986882466
 40
0.9994095798
 40
1.0
 40
1.0
 40
1.0
 40
1.0
 10
7.8118542984
 20
4.4863548137
 30
0.0
 10
7.8120353215
 20
4.4781207985
 30
0.0
 10
7.8123957397
 20
4.4617287859
 30
0.0
 10
7.812937271
 20
4.4373292743
 30
0.0
 10
7.8134788047
 20
4.413380192
 30
0.0
 10
7.8140202878
 20
4.3901006413
 30
0.0
 10
7.8145616449
 20
4.367703914
 30
0.0
 10
7.8151027896
 20
4.3463951081
 30
0.0
 10
7.8156435819
 20
4.3263694283
 30
0.0
 10
7.8161838972
 20
4.3078103539
 30
0.0
 10
7.816645149
 20
4.2933399081
 30
0.0
 10
7.8170175167
 20
4.2826233145
 30
0.0
 10
7.817289055
 20
4.2752743432
 30
0.0
 10
7.817560477
 20
4.2684093996
 30
0.0
 10
7.81783176
 20
4.2620442295
 30
0.0
 10
7.8181028437
 20
4.2561934427
 30
0.0
 10
7.8183736746
 20
4.2508704438
 30
0.0
 10
7.8186441172
 20
4.2460874368
 30
0.0
 10
7.8189140831
 20
4.2418553787
 30
0.0
 10
7.819146882
 20
4.2386781054
 30
0.0
 10
7.8193356534
 20
4.2364192769
 30
0.0
 10
7.8194712683
 20
4.2349390324
 30
0.0
 10
7.8196067408
 20
4.2336029332
 30
0.0
 10
7.8197420163
 20
4.2324117157
 30
0.0
 10
7.8198770261
 20
4.231366037
 30
0.0
 10
7.8200116056
 20
4.2304663939
 30
0.0
 10
7.820145675
 20
4.2297132392
 30
0.0
 10
7.8202626815
 20
4.2291783552
 30
0.0
 10
7.8203589445
 20
4.2288251203
 30
0.0
 10
7.8204263488
 20
4.228614191
 30
0.0
 10
7.8204935357
 20
4.2284399328
 30
0.0
 10
7.8205429564
 20
4.2283380721
 30
0.0
 10
7.8205683888
 20
4.2282940548
 30
0.0
  0
SPLINE
  5
3F0
100
AcDbEntity
  8
0
100
AcDbSpline
 62
7
  6
CONTINUOUS
 70
0
 71
3
 72
34
 73
30
 74
0
 42
0.0000001
 43
0.0000001
 44
0.0000000001
 40
0.0
 40
0.0
 40
0.0
 40
0.0
 40
0.0004787001
 40
0.000986496
 40
0.0015513474
 40
0.0021938077
 40
0.003761271
 40
0.0057578752
 40
0.008214452
 40
0.0111470229
 40
0.0145647048
 40
0.0184730351
 40
0.0277739322
 40
0.0390663461
 40
0.0523545726
 40
0.0676375452
 40
0.0849118933
 40
0.1041716399
 40
0.1254077799
 40
0.1486105445
 40
0.2008712871
 40
0.260847396
 40
0.3284159284
 40
0.4034339803
 40
0.4857432215
 40
0.5751690403
 40
0.6715200918
 40
0.7745918299
 40
1.0
 40
1.0
 40
1.0
 40
1.0
 10
2.8560736771
 20
4.748917237
 30
0.0
 10
2.8560846857
 20
4.748917581
 30
0.0
 10
2.8561075755
 20
4.7489151483
 30
0.0
 10
2.8561412081
 20
4.7489022718
 30
0.0
 10
2.8561744281
 20
4.7488805352
 30
0.0
 10
2.8562214521
 20
4.7488370306
 30
0.0
 10
2.8562787246
 20
4.7487580903
 30
0.0
 10
2.8563433142
 20
4.7486353372
 30
0.0
 10
2.8564081034
 20
4.7484780238
 30
0.0
 10
2.8564730718
 20
4.7482860049
 30
0.0
 10
2.8565382128
 20
4.7480590712
 30
0.0
 10
2.8566306624
 20
4.7476877977
 30
0.0
 10
2.856743496
 20
4.7471352458
 30
0.0
 10
2.8568730677
 20
4.7463664602
 30
0.0
 10
2.8570030676
 20
4.745458459
 30
0.0
 10
2.8571334319
 20
4.7444116879
 30
0.0
 10
2.8572640165
 20
4.7432266194
 30
0.0
 10
2.857394763
 20
4.7419038634
 30
0.0
 10
2.8575256437
 20
4.7404441208
 30
0.0
 10
2.8577075722
 20
4.7382266846
 30
0.0
 10
2.8579320937
 20
4.735118512
 30
0.0
 10
2.8581926923
 20
4.7309897204
 30
0.0
 10
2.8584537238
 20
4.7263364333
 30
0.0
 10
2.8587151221
 20
4.7211686066
 30
0.0
 10
2.8589767698
 20
4.7154973169
 30
0.0
 10
2.8592386081
 20
4.7093347284
 30
0.0
 10
2.8595006082
 20
4.7026940441
 30
0.0
 10
2.8598609372
 20
4.6929261501
 30
0.0
 10
2.8601143889
 20
4.6853726958
 30
0.0
 10
2.8602805616
 20
4.6801891572
 30
0.0
  0
SPLINE
  5
3F1
100
AcDbEntity
  8
0
100
AcDbSpline
 62
7
  6
CONTINUOUS
 70
0
 71
3
 72
37
 73
33
 74
0
 42
0.0000001
 43
0.0000001
 44
0.0000000001
 40
0.0
 40
0.0
 40
0.0
 40
0.0
 40
0.0965380241
 40
0.1920751503
 40
0.285755804
 40
0.3767327006
 40
0.464181652
 40
0.5473063281
 40
0.6253463726
 40
0.6975846977
 40
0.7633541143
 40
0.7936198615
 40
0.8220440492
 40
0.8485602898
 40
0.8731064592
 40
0.8956245322
 40
0.9160616806
 40
0.9343691979
 40
0.9505038878
 40
0.964427488
 40
0.970549608
 40
0.976107035
 40
0.9810967849
 40
0.9855159917
 40
0.9893622786
 40
0.9926342455
 40
0.9953311052
 40
0.9974532756
 40
0.9982999749
 40
0.9990049905
 40
0.9995703123
 40
1.0
 40
1.0
 40
1.0
 40
1.0
 10
2.6599964513
 20
4.4863548137
 30
0.0
 10
2.6598811457
 20
4.4941687978
 30
0.0
 10
2.6596514076
 20
4.5097157467
 30
0.0
 10
2.6593055787
 20
4.5328453362
 30
0.0
 10
2.6589593214
 20
4.5555246902
 30
0.0
 10
2.6586126689
 20
4.5775492153
 30
0.0
 10
2.6582656701
 20
4.5987191103
 30
0.0
 10
2.6579183815
 20
4.6188416042
 30
0.0
 10
2.6575708961
 20
4.6377325885
 30
0.0
 10
2.6572232983
 20
4.6552183926
 30
0.0
 10
2.6569260846
 20
4.6688370451
 30
0.0
 10
2.6566858492
 20
4.6789092738
 30
0.0
 10
2.6565106467
 20
4.6858045637
 30
0.0
 10
2.6563354139
 20
4.6922366888
 30
0.0
 10
2.6561601705
 20
4.6981905185
 30
0.0
 10
2.6559849493
 20
4.703652011
 30
0.0
 10
2.6558098034
 20
4.7086081982
 30
0.0
 10
2.6556348196
 20
4.7130472977
 30
0.0
 10
2.6554600683
 20
4.7169586686
 30
0.0
 10
2.6553091072
 20
4.7198836502
 30
0.0
 10
2.6551864819
 20
4.7219526257
 30
0.0
 10
2.655098555
 20
4.7232991617
 30
0.0
 10
2.6550107185
 20
4.7245075278
 30
0.0
 10
2.654923014
 20
4.7255769819
 30
0.0
 10
2.6548354875
 20
4.726506863
 30
0.0
 10
2.6547483319
 20
4.727296671
 30
0.0
 10
2.6546615881
 20
4.727945917
 30
0.0
 10
2.6545856262
 20
4.7283984432
 30
0.0
 10
2.6545224851
 20
4.7286891159
 30
0.0
 10
2.6544789594
 20
4.728854979
 30
0.0
 10
2.654435733
 20
4.7289856843
 30
0.0
 10
2.654402944
 20
4.7290596433
 30
0.0
 10
2.6543855432
 20
4.7290897616
 30
0.0
  0
SPLINE
  5
3F2
100
AcDbEntity
  8
0
100
AcDbSpline
 62
7
  6
CONTINUOUS
 70
0
 71
3
 72
34
 73
30
 74
0
 42
0.0000001
 43
0.0000001
 44
0.0000000001
 40
0.0
 40
0.0
 40
0.0
 40
0.0
 40
0.0004787293
 40
0.0009865878
 40
0.0015515439
 40
0.0021941363
 40
0.003761839
 40
0.0057584491
 40
0.0082147707
 40
0.0111470346
 40
0.0145645922
 40
0.0184730961
 40
0.0277745105
 40
0.0390665235
 40
0.0523543027
 40
0.0676377349
 40
0.0849121399
 40
0.1041711994
 40
0.1254074414
 40
0.1486105745
 40
0.2008704368
 40
0.2608468713
 40
0.3284149512
 40
0.403432751
 40
0.4857422637
 40
0.5751675546
 40
0.6715192251
 40
0.7745907766
 40
1.0
 40
1.0
 40
1.0
 40
1.0
 10
7.6827461986
 20
4.223792361
 30
0.0
 10
7.6827351906
 20
4.2237920169
 30
0.0
 10
7.6827123012
 20
4.2237944519
 30
0.0
 10
7.6826786707
 20
4.2238073358
 30
0.0
 10
7.6826454533
 20
4.223829081
 30
0.0
 10
7.6825984341
 20
4.223872596
 30
0.0
 10
7.6825411686
 20
4.2239515376
 30
0.0
 10
7.6824765807
 20
4.2240742735
 30
0.0
 10
7.6824117917
 20
4.2242315527
 30
0.0
 10
7.682346825
 20
4.2244235317
 30
0.0
 10
7.6822816875
 20
4.2246504329
 30
0.0
 10
7.6821892461
 20
4.2250216778
 30
0.0
 10
7.6820764264
 20
4.2255741749
 30
0.0
 10
7.681946854
 20
4.2263428642
 30
0.0
 10
7.6818168581
 20
4.2272507536
 30
0.0
 10
7.6816865089
 20
4.2282974094
 30
0.0
 10
7.6815559322
 20
4.2294823408
 30
0.0
 10
7.6814251869
 20
4.2308049356
 30
0.0
 10
7.681294317
 20
4.2322645098
 30
0.0
 10
7.6811124039
 20
4.2344816884
 30
0.0
 10
7.6808878864
 20
4.2375895079
 30
0.0
 10
7.6806273111
 20
4.2417178147
 30
0.0
 10
7.6803662909
 20
4.2463705722
 30
0.0
 10
7.6801049082
 20
4.2515378109
 30
0.0
 10
7.6798432786
 20
4.2572084549
 30
0.0
 10
7.6795814514
 20
4.2633703625
 30
0.0
 10
7.6793194709
 20
4.2700103024
 30
0.0
 10
7.6789591591
 20
4.2797771385
 30
0.0
 10
7.6787057236
 20
4.2873297685
 30
0.0
 10
7.6785395617
 20
4.292512752
 30
0.0
  0
SPLINE
  5
3F3
100
AcDbEntity
  8
0
100
AcDbSpline
 62
7
  6
CONTINUOUS
 70
0
 71
3
 72
40
 73
36
 74
0
 42
0.0000001
 43
0.0000001
 44
0.0000000001
 40
0.0
 40
0.0
 40
0.0
 40
0.0
 40
0.0003255072
 40
0.0007010163
 40
0.0011634699
 40
0.0017331391
 40
0.0024208749
 40
0.003232752
 40
0.0041723758
 40
0.0052420206
 40
0.007776663
 40
0.0108442612
 40
0.0144483753
 40
0.0185904567
 40
0.0232706363
 40
0.0284884784
 40
0.034243203
 40
0.0405335869
 40
0.0547135072
 40
0.0710114889
 40
0.0894068462
 40
0.1098750057
 40
0.1323888198
 40
0.156917174
 40
0.1834270584
 40
0.2118814651
 40
0.2744654981
 40
0.3443235648
 40
0.4210691309
 40
0.5042769712
 40
0.593485926
 40
0.6882014145
 40
0.7878982055
 40
0.8920235178
 40
1.0
 40
1.0
 40
1.0
 40
1.0
 10
2.8203651016
 20
4.7478013442
 30
0.0
 10
2.8203830067
 20
4.7478019037
 30
0.0
 10
2.8204221357
 20
4.7477940364
 30
0.0
 10
2.8204764249
 20
4.7477582624
 30
0.0
 10
2.820529156
 20
4.7477008792
 30
0.0
 10
2.8205814555
 20
4.7476216775
 30
0.0
 10
2.8206337307
 20
4.7475203402
 30
0.0
 10
2.8206860753
 20
4.747396626
 30
0.0
 10
2.8207385126
 20
4.7472504276
 30
0.0
 10
2.8208127846
 20
4.7470115839
 30
0.0
 10
2.8209035461
 20
4.7466555815
 30
0.0
 10
2.8210078055
 20
4.7461596837
 30
0.0
 10
2.8211123798
 20
4.7455737458
 30
0.0
 10
2.8212172234
 20
4.7448979212
 30
0.0
 10
2.8213222422
 20
4.7441323827
 30
0.0
 10
2.8214273916
 20
4.7432773762
 30
0.0
 10
2.8215326427
 20
4.7423331661
 30
0.0
 10
2.8216789808
 20
4.7408973312
 30
0.0
 10
2.8218596105
 20
4.738881849
 30
0.0
 10
2.8220691938
 20
4.7362003208
 30
0.0
 10
2.8222791269
 20
4.7331718242
 30
0.0
 10
2.8224893546
 20
4.7298005405
 30
0.0
 10
2.8226997766
 20
4.7260911564
 30
0.0
 10
2.8229103605
 20
4.7220487969
 30
0.0
 10
2.8231210654
 20
4.7176791039
 30
0.0
 10
2.8234114381
 20
4.7112165155
 30
0.0
 10
2.8237708811
 20
4.7023690713
 30
0.0
 10
2.8241904822
 20
4.6908643626
 30
0.0
 10
2.824610611
 20
4.6782239881
 30
0.0
 10
2.8250311732
 20
4.6645181434
 30
0.0
 10
2.8254520506
 20
4.6498229286
 30
0.0
 10
2.825873178
 20
4.6342199275
 30
0.0
 10
2.8262945026
 20
4.6177957493
 30
0.0
 10
2.8267159869
 20
4.6006415473
 30
0.0
 10
2.8269925613
 20
4.5889721126
 30
0.0
 10
2.827131349
 20
4.5830314067
 30
0.0
  0
SPLINE
  5
3F4
100
AcDbEntity
  8
0
100
AcDbSpline
 62
7
  6
CONTINUOUS
 70
0
 71
3
 72
43
 73
39
 74
0
 42
0.0000001
 43
0.0000001
 44
0.0000000001
 40
0.0
 40
0.0
 40
0.0
 40
0.0
 40
0.0979543204
 40
0.1949581449
 40
0.2900816894
 40
0.3824082554
 40
0.4710498823
 40
0.5551536316
 40
0.6339102885
 40
0.7065619749
 40
0.7724097412
 40
0.8025816383
 40
0.8308205423
 40
0.8570588887
 40
0.8812335394
 40
0.9032867147
 40
0.9231659593
 40
0.9408239095
 40
0.9562194356
 40
0.9630574638
 40
0.9693172595
 40
0.9749952716
 40
0.9800887243
 40
0.9845955093
 40
0.9885139109
 40
0.9918433441
 40
0.9932875572
 40
0.9945851399
 40
0.995736643
 40
0.9967429578
 40
0.9976056027
 40
0.9983271627
 40
0.9989121594
 40
0.9993692593
 40
0.9995554374
 40
0.9997181724
 40
0.9998635485
 40
1.0
 40
1.0
 40
1.0
 40
1.0
 10
7.8523865415
 20
4.4863548137
 30
0.0
 10
7.8525722197
 20
4.4779542303
 30
0.0
 10
7.8529417992
 20
4.4612345787
 30
0.0
 10
7.8534970231
 20
4.4363572297
 30
0.0
 10
7.8540521478
 20
4.4119627556
 30
0.0
 10
7.8546071111
 20
4.3882857867
 30
0.0
 10
7.8551618349
 20
4.3655543709
 30
0.0
 10
7.8557162249
 20
4.3439873514
 30
0.0
 10
7.8562701239
 20
4.323792432
 30
0.0
 10
7.8568233936
 20
4.3051641471
 30
0.0
 10
7.8572963405
 20
4.2907030197
 30
0.0
 10
7.8576784868
 20
4.2800508197
 30
0.0
 10
7.8579565701
 20
4.2727948359
 30
0.0
 10
7.8582344956
 20
4.2660537002
 30
0.0
 10
7.8585122338
 20
4.2598436602
 30
0.0
 10
7.8587897215
 20
4.254179692
 30
0.0
 10
7.8590668355
 20
4.2490754462
 30
0.0
 10
7.8593435018
 20
4.2445432148
 30
0.0
 10
7.8595818585
 20
4.241129515
 30
0.0
 10
7.8597750054
 20
4.2386929485
 30
0.0
 10
7.8599139766
 20
4.2370883253
 30
0.0
 10
7.8600528148
 20
4.2356339527
 30
0.0
 10
7.8601914894
 20
4.2343306936
 30
0.0
 10
7.8603299018
 20
4.2331792891
 30
0.0
 10
7.8604680052
 20
4.2321804089
 30
0.0
 10
7.8605876043
 20
4.2314443254
 30
0.0
 10
7.8606849031
 20
4.2309326668
 30
0.0
 10
7.8607543004
 20
4.2306059524
 30
0.0
 10
7.8608235927
 20
4.2303177138
 30
0.0
 10
7.8608927585
 20
4.2300679444
 30
0.0
 10
7.8609617485
 20
4.229856617
 30
0.0
 10
7.8610305297
 20
4.2296834913
 30
0.0
 10
7.8610990723
 20
4.2295484124
 30
0.0
 10
7.8611598651
 20
4.2294613874
 30
0.0
 10
7.861209892
 20
4.2294133186
 30
0.0
 10
7.8612451656
 20
4.2293893219
 30
0.0
 10
7.8612809201
 20
4.229375057
 30
0.0
 10
7.8613053113
 20
4.229372333
 30
0.0
 10
7.8613170106
 20
4.229372699
 30
0.0
  0
SPLINE
  5
3F5
100
AcDbEntity
  8
0
100
AcDbSpline
 62
7
  6
CONTINUOUS
 70
0
 71
3
 72
29
 73
25
 74
0
 42
0.0000001
 43
0.0000001
 44
0.0000000001
 40
0.0
 40
0.0
 40
0.0
 40
0.0
 40
0.0312564376
 40
0.0625107197
 40
0.0937640019
 40
0.1250180152
 40
0.1875108625
 40
0.2500038527
 40
0.2812580907
 40
0.3125123843
 40
0.3750059496
 40
0.4374997869
 40
0.4999938945
 40
0.5624882695
 40
0.6249829107
 40
0.6562377151
 40
0.6874925521
 40
0.7187474498
 40
0.7500023898
 40
0.8124977582
 40
0.8749936015
 40
0.9062480975
 40
0.9375035497
 40
1.0
 40
1.0
 40
1.0
 40
1.0
 10
3.4883673664
 20
4.430967114
 30
0.0
 10
3.48764913
 20
4.4276774308
 30
0.0
 10
3.4860653468
 20
4.4211294603
 30
0.0
 10
3.4832533869
 20
4.4114245146
 30
0.0
 10
3.4800113237
 20
4.4018545316
 30
0.0
 10
3.4751255989
 20
4.3893021968
 30
0.0
 10
3.4679783465
 20
4.3740376212
 30
0.0
 10
3.4595063194
 20
4.3594669003
 30
0.0
 10
3.4519785134
 20
4.3482967798
 30
0.0
 10
3.4439651235
 20
4.3374697593
 30
0.0
 10
3.4330639418
 20
4.3246143023
 30
0.0
 10
3.4186805521
 20
4.310399613
 30
0.0
 10
3.4031065548
 20
4.2974989653
 30
0.0
 10
3.3864660337
 20
4.2860086406
 30
0.0
 10
3.3718145744
 20
4.2776764739
 30
0.0
 10
3.3596965513
 20
4.2717950776
 30
0.0
 10
3.3504233366
 20
4.2677820363
 30
0.0
 10
3.340984874
 20
4.2641748028
 30
0.0
 10
3.3282060645
 20
4.2599153052
 30
0.0
 10
3.3119047244
 20
4.2556332117
 30
0.0
 10
3.2952953533
 20
4.2527722361
 30
0.0
 10
3.2819006972
 20
4.251346242
 30
0.0
 10
3.268457953
 20
4.250496581
 30
0.0
 10
3.2583420213
 20
4.2505091512
 30
0.0
 10
3.2516159619
 20
4.2508054855
 30
0.0
  0
SPLINE
  5
3F6
100
AcDbEntity
  8
0
100
AcDbSpline
 62
7
  6
CONTINUOUS
 70
0
 71
3
 72
37
 73
33
 74
0
 42
0.0000001
 43
0.0000001
 44
0.0000000001
 40
0.0
 40
0.0
 40
0.0
 40
0.0
 40
0.096538055
 40
0.1920751883
 40
0.2857558264
 40
0.37673276
 40
0.4641817017
 40
0.5473063495
 40
0.625346395
 40
0.6975847551
 40
0.7633542265
 40
0.7936198577
 40
0.8220441539
 40
0.8485603475
 40
0.8731064601
 40
0.8956246635
 40
0.9160616472
 40
0.9343693064
 40
0.9505039364
 40
0.9644274817
 40
0.9705495956
 40
0.9761071752
 40
0.981096841
 40
0.9855159424
 40
0.9893623814
 40
0.9926343588
 40
0.995331051
 40
0.9974533154
 40
0.9983001
 40
0.9990051386
 40
0.9995703981
 40
1.0
 40
1.0
 40
1.0
 40
1.0
 10
7.8788234245
 20
4.4863548137
 30
0.0
 10
7.8789387301
 20
4.4785408273
 30
0.0
 10
7.8791684682
 20
4.462993876
 30
0.0
 10
7.8795142972
 20
4.4398642856
 30
0.0
 10
7.8798605545
 20
4.4171849302
 30
0.0
 10
7.8802072069
 20
4.395160405
 30
0.0
 10
7.8805542057
 20
4.373990511
 30
0.0
 10
7.8809014945
 20
4.3538680208
 30
0.0
 10
7.8812489798
 20
4.3349770367
 30
0.0
 10
7.8815965779
 20
4.3174912259
 30
0.0
 10
7.8818937902
 20
4.3038725762
 30
0.0
 10
7.8821340276
 20
4.2938003441
 30
0.0
 10
7.8823092286
 20
4.2869050588
 30
0.0
 10
7.8824844618
 20
4.2804729335
 30
0.0
 10
7.8826597066
 20
4.274519102
 30
0.0
 10
7.8828349247
 20
4.269057617
 30
0.0
 10
7.8830100746
 20
4.2641014214
 30
0.0
 10
7.8831850547
 20
4.2596623286
 30
0.0
 10
7.8833598079
 20
4.2557509558
 30
0.0
 10
7.8835107681
 20
4.252825984
 30
0.0
 10
7.8836333958
 20
4.2507570014
 30
0.0
 10
7.8837213185
 20
4.2494104601
 30
0.0
 10
7.8838091566
 20
4.2482020971
 30
0.0
 10
7.8838968653
 20
4.2471326464
 30
0.0
 10
7.883984387
 20
4.2462027603
 30
0.0
 10
7.8840715396
 20
4.2454129524
 30
0.0
 10
7.8841582928
 20
4.2447637127
 30
0.0
 10
7.8842342524
 20
4.2443111854
 30
0.0
 10
7.8842973894
 20
4.2440204951
 30
0.0
 10
7.8843409132
 20
4.2438546276
 30
0.0
 10
7.8843841405
 20
4.243723933
 30
0.0
 10
7.8844169317
 20
4.243649988
 30
0.0
 10
7.8844343325
 20
4.2436198777
 30
0.0
  0
SPLINE
  5
3F7
100
AcDbEntity
  8
0
100
AcDbSpline
 62
7
  6
CONTINUOUS
 70
0
 71
3
 72
43
 73
39
 74
0
 42
0.0000001
 43
0.0000001
 44
0.0000000001
 40
0.0
 40
0.0
 40
0.0
 40
0.0
 40
0.0001343653
 40
0.0002777966
 40
0.000438802
 40
0.0006234765
 40
0.0010781719
 40
0.0016614001
 40
0.0023816328
 40
0.0032432101
 40
0.0042485765
 40
0.0053992017
 40
0.0066960101
 40
0.0081395988
 40
0.0114682136
 40
0.0153858597
 40
0.0198919008
 40
0.024984996
 40
0.0306627206
 40
0.0369220912
 40
0.0437599513
 40
0.0591552506
 40
0.0768132855
 40
0.0966925028
 40
0.1187460562
 40
0.1429210465
 40
0.1691598097
 40
0.1973993897
 40
0.2275718019
 40
0.2934211313
 40
0.3660745276
 40
0.4448330443
 40
0.5289388203
 40
0.6175826546
 40
0.7099114465
 40
0.8050373243
 40
0.9020434044
 40
1.0
 40
1.0
 40
1.0
 40
1.0
 10
2.784635511
 20
4.7466847946
 30
0.0
 10
2.784647181
 20
4.7466851593
 30
0.0
 10
2.7846715402
 20
4.7466823821
 30
0.0
 10
2.7847072114
 20
4.7466679034
 30
0.0
 10
2.7847423862
 20
4.746643579
 30
0.0
 10
2.7847923191
 20
4.7465948245
 30
0.0
 10
2.784852943
 20
4.7465066174
 30
0.0
 10
2.7849212843
 20
4.7463697777
 30
0.0
 10
2.7849898793
 20
4.7461943706
 30
0.0
 10
2.7850586967
 20
4.7459802602
 30
0.0
 10
2.7851277001
 20
4.7457272173
 30
0.0
 10
2.7851968374
 20
4.7454352161
 30
0.0
 10
2.7852660842
 20
4.7451042386
 30
0.0
 10
2.7853631833
 20
4.7445858538
 30
0.0
 10
2.7854825339
 20
4.7438401143
 30
0.0
 10
2.7856203783
 20
4.7428281811
 30
0.0
 10
2.7857585534
 20
4.7416617397
 30
0.0
 10
2.7858969945
 20
4.7403414572
 30
0.0
 10
2.7860356196
 20
4.7388680938
 30
0.0
 10
2.7861744018
 20
4.7372425307
 30
0.0
 10
2.7863672961
 20
4.7347741652
 30
0.0
 10
2.7866053931
 20
4.7313159144
 30
0.0
 10
2.7868818063
 20
4.7267245872
 30
0.0
 10
2.7871587356
 20
4.7215537909
 30
0.0
 10
2.7874360822
 20
4.715816
 30
0.0
 10
2.7877137378
 20
4.7095250229
 30
0.0
 10
2.7879916306
 20
4.7026960393
 30
0.0
 10
2.7882697249
 20
4.6953455159
 30
0.0
 10
2.7886519563
 20
4.6845545194
 30
0.0
 10
2.7891251163
 20
4.6699050057
 30
0.0
 10
2.7896787895
 20
4.6510340738
 30
0.0
 10
2.790233223
 20
4.6305761334
 30
0.0
 10
2.7907882609
 20
4.6087282387
 30
0.0
 10
2.7913437263
 20
4.5857007996
 30
0.0
 10
2.7918995073
 20
4.5617155049
 30
0.0
 10
2.7924555038
 20
4.5370033851
 30
0.0
 10
2.7930116414
 20
4.5118021167
 30
0.0
 10
2.7933818309
 20
4.4948647734
 30
0.0
 10
2.7935678235
 20
4.4863548137
 30
0.0
  0
SPLINE
  5
3F8
100
AcDbEntity
  8
0
100
AcDbSpline
 62
7
  6
CONTINUOUS
 70
0
 71
3
 72
43
 73
39
 74
0
 42
0.0000001
 43
0.0000001
 44
0.0000000001
 40
0.0
 40
0.0
 40
0.0
 40
0.0
 40
0.0001356592
 40
0.0002824258
 40
0.0004482527
 40
0.0006387144
 40
0.0011065699
 40
0.0017037824
 40
0.0024382179
 40
0.0033140159
 40
0.0043335584
 40
0.0054982389
 40
0.0082658301
 40
0.0116204427
 40
0.0155630999
 40
0.0200931116
 40
0.0252087264
 40
0.030907821
 40
0.0371875876
 40
0.0440444754
 40
0.0594744194
 40
0.0771623972
 40
0.0970673696
 40
0.1191420719
 40
0.1433341563
 40
0.1695859947
 40
0.1978345596
 40
0.2280124076
 40
0.2600470659
 40
0.2938615478
 40
0.3665012932
 40
0.4452335737
 40
0.5293011782
 40
0.6178953451
 40
0.7101633093
 40
0.8052170292
 40
0.9021394084
 40
1.0
 40
1.0
 40
1.0
 40
1.0
 10
7.7672273388
 20
4.7462772307
 30
0.0
 10
7.7672391025
 20
4.746276863
 30
0.0
 10
7.7672635862
 20
4.7462724934
 30
0.0
 10
7.767299103
 20
4.746255845
 30
0.0
 10
7.7673341671
 20
4.7462294584
 30
0.0
 10
7.7673839718
 20
4.7461778575
 30
0.0
 10
7.76744446
 20
4.7460864024
 30
0.0
 10
7.7675127873
 20
4.745945837
 30
0.0
 10
7.7675813595
 20
4.7457668123
 30
0.0
 10
7.7676501456
 20
4.745549192
 30
0.0
 10
7.7677191136
 20
4.7452927594
 30
0.0
 10
7.7678169452
 20
4.7448743839
 30
0.0
 10
7.7679363819
 20
4.7442533606
 30
0.0
 10
7.7680735977
 20
4.7433909302
 30
0.0
 10
7.7682112531
 20
4.7423740284
 30
0.0
 10
7.7683492856
 20
4.7412032154
 30
0.0
 10
7.7684875581
 20
4.7398791195
 30
0.0
 10
7.7686260032
 20
4.7384025056
 30
0.0
 10
7.7687645829
 20
4.7367742393
 30
0.0
 10
7.7689571567
 20
4.7343033586
 30
0.0
 10
7.7691948444
 20
4.7308433423
 30
0.0
 10
7.7694707869
 20
4.7262514735
 30
0.0
 10
7.7697471926
 20
4.7210822311
 30
0.0
 10
7.7700239885
 20
4.715348014
 30
0.0
 10
7.7703010523
 20
4.7090625925
 30
0.0
 10
7.7705783239
 20
4.7022410774
 30
0.0
 10
7.7708557617
 20
4.6948998649
 30
0.0
 10
7.7711333256
 20
4.6870566226
 30
0.0
 10
7.7714110031
 20
4.6787302176
 30
0.0
 10
7.7717904708
 20
4.6667213038
 30
0.0
 10
7.7722611189
 20
4.6506619222
 30
0.0
 10
7.7728140206
 20
4.6302433212
 30
0.0
 10
7.7733674323
 20
4.6084401009
 30
0.0
 10
7.773921251
 20
4.5854622176
 30
0.0
 10
7.774475364
 20
4.5615309532
 30
0.0
 10
7.7750296938
 20
4.5368769749
 30
0.0
 10
7.7755841786
 20
4.5117376801
 30
0.0
 10
7.7759533168
 20
4.4948428946
 30
0.0
 10
7.7761387939
 20
4.4863548137
 30
0.0
  0
SPLINE
  5
3F9
100
AcDbEntity
  8
0
100
AcDbSpline
 62
7
  6
CONTINUOUS
 70
0
 71
3
 72
43
 73
39
 74
0
 42
0.0000001
 43
0.0000001
 44
0.0000000001
 40
0.0
 40
0.0
 40
0.0
 40
0.0
 40
0.0001350726
 40
0.0002791574
 40
0.0004407369
 40
0.0006259046
 40
0.0010813835
 40
0.0016652034
 40
0.0023858991
 40
0.0032478499
 40
0.0042535245
 40
0.0054044085
 40
0.0067014372
 40
0.0081452153
 40
0.0114741358
 40
0.0153920149
 40
0.0198982347
 40
0.024991466
 40
0.0306692927
 40
0.0369287376
 40
0.0437666494
 40
0.0591619948
 40
0.0768200142
 40
0.0966991667
 40
0.1187526156
 40
0.142927468
 40
0.1691660647
 40
0.1974054526
 40
0.2275776502
 40
0.2934264927
 40
0.3660793375
 40
0.4448372483
 40
0.528942377
 40
0.6175855283
 40
0.7099136156
 40
0.8050387732
 40
0.9020441266
 40
1.0
 40
1.0
 40
1.0
 40
1.0
 10
2.7489305955
 20
4.7455690161
 30
0.0
 10
2.7489422768
 20
4.7455693811
 30
0.0
 10
2.7489666491
 20
4.7455666228
 30
0.0
 10
2.7490023524
 20
4.7455522189
 30
0.0
 10
2.7490375644
 20
4.7455280078
 30
0.0
 10
2.7490875338
 20
4.7454794879
 30
0.0
 10
2.7491482194
 20
4.7453916779
 30
0.0
 10
2.749216629
 20
4.7452554229
 30
0.0
 10
2.7492852853
 20
4.7450807705
 30
0.0
 10
2.7493541578
 20
4.7448675829
 30
0.0
 10
2.7494232118
 20
4.7446156313
 30
0.0
 10
2.7494923957
 20
4.7443248893
 30
0.0
 10
2.7495616855
 20
4.7439953385
 30
0.0
 10
2.7496588382
 20
4.7434791945
 30
0.0
 10
2.7497782465
 20
4.7427366694
 30
0.0
 10
2.7499161449
 20
4.741729087
 30
0.0
 10
2.7500543608
 20
4.7405676592
 30
0.0
 10
2.7501928298
 20
4.7392530497
 30
0.0
 10
2.7503314702
 20
4.7377860152
 30
0.0
 10
2.7504702554
 20
4.7361674328
 30
0.0
 10
2.7506631367
 20
4.7337096686
 30
0.0
 10
2.7509011854
 20
4.7302662616
 30
0.0
 10
2.7511774987
 20
4.7256946313
 30
0.0
 10
2.7514542855
 20
4.7205460129
 30
0.0
 10
2.7517314492
 20
4.7148328274
 30
0.0
 10
2.7520088836
 20
4.7085688237
 30
0.0
 10
2.7522865191
 20
4.7017691164
 30
0.0
 10
2.7525643222
 20
4.6944501018
 30
0.0
 10
2.7529461097
 20
4.6837053589
 30
0.0
 10
2.7534186414
 20
4.6691186285
 30
0.0
 10
2.7539714817
 20
4.6503285615
 30
0.0
 10
2.7545249998
 20
4.6299582792
 30
0.0
 10
2.7550790575
 20
4.6082039922
 30
0.0
 10
2.7556334953
 20
4.5852752095
 30
0.0
 10
2.7561882189
 20
4.5613926706
 30
0.0
 10
2.7567431458
 20
4.5367864165
 30
0.0
 10
2.7572982189
 20
4.5116931062
 30
0.0
 10
2.7576677155
 20
4.4948283189
 30
0.0
 10
2.7578533664
 20
4.4863548137
 30
0.0
  0
SPLINE
  5
3FA
100
AcDbEntity
  8
0
100
AcDbSpline
 62
7
  6
CONTINUOUS
 70
0
 71
3
 72
34
 73
30
 74
0
 42
0.0000001
 43
0.0000001
 44
0.0000000001
 40
0.0
 40
0.0
 40
0.0
 40
0.0
 40
0.0004829595
 40
0.0009988646
 40
0.001575069
 40
0.0022314283
 40
0.0038322532
 40
0.0058673252
 40
0.0083662515
 40
0.0113446449
 40
0.01481148
 40
0.0187722663
 40
0.0281872623
 40
0.0396034721
 40
0.0530243729
 40
0.0684488111
 40
0.0858707493
 40
0.1052818887
 40
0.1266728985
 40
0.1500315977
 40
0.2025954994
 40
0.2628493745
 40
0.3306458073
 40
0.4058169818
 40
0.488177095
 40
0.5775197734
 40
0.6736220435
 40
0.776243856
 40
1.0
 40
1.0
 40
1.0
 40
1.0
 10
7.6940036785
 20
4.2432984589
 30
0.0
 10
7.6939916955
 20
4.2432984567
 30
0.0
 10
7.6939668036
 20
4.2433019072
 30
0.0
 10
7.6939304036
 20
4.2433170239
 30
0.0
 10
7.6938944381
 20
4.243341722
 30
0.0
 10
7.6938435032
 20
4.2433905049
 30
0.0
 10
7.693781479
 20
4.243478022
 30
0.0
 10
7.6937114535
 20
4.243613392
 30
0.0
 10
7.6936412087
 20
4.2437862704
 30
0.0
 10
7.6935707694
 20
4.2439968069
 30
0.0
 10
7.693500147
 20
4.2442452249
 30
0.0
 10
7.6933999651
 20
4.2446509941
 30
0.0
 10
7.693277676
 20
4.2452540825
 30
0.0
 10
7.6931371995
 20
4.2460923276
 30
0.0
 10
7.6929962653
 20
4.2470813709
 30
0.0
 10
7.6928549563
 20
4.2482206491
 30
0.0
 10
7.6927134064
 20
4.2495095253
 30
0.0
 10
7.6925716753
 20
4.2509472111
 30
0.0
 10
7.6924298115
 20
4.2525328275
 30
0.0
 10
7.6922326834
 20
4.2549392895
 30
0.0
 10
7.6919893795
 20
4.2583093467
 30
0.0
 10
7.6917069444
 20
4.2627818012
 30
0.0
 10
7.6914240408
 20
4.2678161377
 30
0.0
 10
7.6911407541
 20
4.273399714
 30
0.0
 10
7.6908572124
 20
4.2795184972
 30
0.0
 10
7.6905734713
 20
4.2861571147
 30
0.0
 10
7.6902895729
 20
4.2932988748
 30
0.0
 10
7.6898995505
 20
4.3037740265
 30
0.0
 10
7.6896246126
 20
4.3118673358
 30
0.0
 10
7.6894441939
 20
4.3174161469
 30
0.0
  0
SPLINE
  5
3FB
100
AcDbEntity
  8
0
100
AcDbSpline
 62
7
  6
CONTINUOUS
 70
0
 71
3
 72
25
 73
21
 74
0
 42
0.0000001
 43
0.0000001
 44
0.0000000001
 40
0.0
 40
0.0
 40
0.0
 40
0.0
 40
0.2148476125
 40
0.405934439
 40
0.4921946688
 40
0.5720852118
 40
0.6454858549
 40
0.7122834892
 40
0.7723795675
 40
0.8256836745
 40
0.8721212027
 40
0.9116280817
 40
0.9441603129
 40
0.9578029407
 40
0.9696960469
 40
0.9798444559
 40
0.9882584929
 40
0.9949596152
 40
0.9976824518
 40
1.0
 40
1.0
 40
1.0
 40
1.0
 10
7.6799583916
 20
4.6772166757
 30
0.0
 10
7.679816638
 20
4.6809905866
 30
0.0
 10
7.6795364055
 20
4.6881205818
 30
0.0
 10
7.6791553999
 20
4.6967639947
 30
0.0
 10
7.6788472166
 20
4.7030359313
 30
0.0
 10
7.6786241644
 20
4.7072408456
 30
0.0
 10
7.6784012997
 20
4.7111031395
 30
0.0
 10
7.6781786404
 20
4.7146168705
 30
0.0
 10
7.6779562932
 20
4.7177765912
 30
0.0
 10
7.6777343299
 20
4.7205774658
 30
0.0
 10
7.6775130297
 20
4.7230152195
 30
0.0
 10
7.677292489
 20
4.7250861667
 30
0.0
 10
7.6771005242
 20
4.7265802227
 30
0.0
 10
7.6769430874
 20
4.7275887912
 30
0.0
 10
7.6768322817
 20
4.7282062403
 30
0.0
 10
7.6767219126
 20
4.7287302224
 30
0.0
 10
7.6766120164
 20
4.7291606067
 30
0.0
 10
7.6765157569
 20
4.7294594976
 30
0.0
 10
7.6764362382
 20
4.7296500724
 30
0.0
 10
7.6763961822
 20
4.7297292582
 30
0.0
 10
7.6763758003
 20
4.7297645305
 30
0.0
  0
SPLINE
  5
3FC
100
AcDbEntity
  8
0
100
AcDbSpline
 62
7
  6
CONTINUOUS
 70
0
 71
3
 72
23
 73
19
 74
0
 42
0.0000001
 43
0.0000001
 44
0.0000000001
 40
0.0
 40
0.0
 40
0.0
 40
0.0
 40
0.0626691469
 40
0.1253123432
 40
0.1879402606
 40
0.2505499964
 40
0.3131397501
 40
0.375709199
 40
0.438257454
 40
0.5007830024
 40
0.56328464
 40
0.6257611297
 40
0.6882109567
 40
0.7506326378
 40
0.8130249981
 40
0.8753830544
 40
0.9377124559
 40
1.0
 40
1.0
 40
1.0
 40
1.0
 10
7.2236252803
 20
4.4448043062
 30
0.0
 10
7.2227393386
 20
4.4461393915
 30
0.0
 10
7.2210720373
 20
4.448879929
 30
0.0
 10
7.2189066321
 20
4.4531750022
 30
0.0
 10
7.217094065
 20
4.4576292987
 30
0.0
 10
7.2156507129
 20
4.462215175
 30
0.0
 10
7.2145908004
 20
4.4669031662
 30
0.0
 10
7.2139264921
 20
4.4716619085
 30
0.0
 10
7.2136676719
 20
4.4764583315
 30
0.0
 10
7.2138215333
 20
4.4812576938
 30
0.0
 10
7.2143924606
 20
4.4860237844
 30
0.0
 10
7.2153817912
 20
4.4907190988
 30
0.0
 10
7.2167875982
 20
4.4953050193
 30
0.0
 10
7.2186043608
 20
4.4997421087
 30
0.0
 10
7.2208227814
 20
4.5039901943
 30
0.0
 10
7.2234295813
 20
4.5080092815
 30
0.0
 10
7.2264069586
 20
4.511758388
 30
0.0
 10
7.2286259883
 20
4.5140532222
 30
0.0
 10
7.2297884389
 20
4.5151417455
 30
0.0
  0
SPLINE
  5
3FD
100
AcDbEntity
  8
0
100
AcDbSpline
 62
7
  6
CONTINUOUS
 70
0
 71
3
 72
39
 73
35
 74
0
 42
0.0000001
 43
0.0000001
 44
0.0000000001
 40
0.0
 40
0.0
 40
0.0
 40
0.0
 40
0.0003255188
 40
0.0007010847
 40
0.0011636205
 40
0.0017333484
 40
0.0024210686
 40
0.0032328601
 40
0.0041723744
 40
0.0052419362
 40
0.00777664
 40
0.0108444277
 40
0.014448506
 40
0.0185903578
 40
0.0232705101
 40
0.0284885337
 40
0.0342433072
 40
0.0405334714
 40
0.0547134125
 40
0.0710113227
 40
0.0894065812
 40
0.1098747785
 40
0.1323883757
 40
0.1569168401
 40
0.2118809393
 40
0.2744648172
 40
0.3443227491
 40
0.4210681871
 40
0.5042759653
 40
0.5934849109
 40
0.6882004856
 40
0.7878974611
 40
0.8920230877
 40
1.0
 40
1.0
 40
1.0
 40
1.0
 10
7.7184547742
 20
4.224908254
 30
0.0
 10
7.718436869
 20
4.2249076943
 30
0.0
 10
7.7183977374
 20
4.2249155696
 30
0.0
 10
7.7183434523
 20
4.2249513613
 30
0.0
 10
7.7182907246
 20
4.2250087586
 30
0.0
 10
7.7182384272
 20
4.2250879664
 30
0.0
 10
7.7181861515
 20
4.2251892969
 30
0.0
 10
7.7181338058
 20
4.2253129939
 30
0.0
 10
7.7180813681
 20
4.2254591713
 30
0.0
 10
7.7180070935
 20
4.2256979993
 30
0.0
 10
7.717916337
 20
4.2260540021
 30
0.0
 10
7.7178120849
 20
4.2265498987
 30
0.0
 10
7.7177075103
 20
4.2271358151
 30
0.0
 10
7.7176026628
 20
4.2278116032
 30
0.0
 10
7.7174976469
 20
4.228577116
 30
0.0
 10
7.7173925029
 20
4.2294321099
 30
0.0
 10
7.7172872545
 20
4.2303762938
 30
0.0
 10
7.7171409115
 20
4.2318120789
 30
0.0
 10
7.7169602914
 20
4.2338274896
 30
0.0
 10
7.7167507092
 20
4.2365089334
 30
0.0
 10
7.7165407783
 20
4.2395373368
 30
0.0
 10
7.7163305591
 20
4.2429085099
 30
0.0
 10
7.7161201263
 20
4.2466177846
 30
0.0
 10
7.7158281456
 20
4.2522238023
 30
0.0
 10
7.7154678269
 20
4.2600343077
 30
0.0
 10
7.7150490118
 20
4.2703391505
 30
0.0
 10
7.7146294667
 20
4.2818435171
 30
0.0
 10
7.7142093293
 20
4.2944835141
 30
0.0
 10
7.7137887785
 20
4.3081889608
 30
0.0
 10
7.7133679065
 20
4.3228837607
 30
0.0
 10
7.7129467863
 20
4.338486335
 30
0.0
 10
7.7125254684
 20
4.3549100809
 30
0.0
 10
7.7121039909
 20
4.372063849
 30
0.0
 10
7.711827421
 20
4.3837329946
 30
0.0
 10
7.7116886357
 20
4.3896735563
 30
0.0
  0
SPLINE
  5
3FE
100
AcDbEntity
  8
0
100
AcDbSpline
 62
7
  6
CONTINUOUS
 70
0
 71
3
 72
40
 73
36
 74
0
 42
0.0000001
 43
0.0000001
 44
0.0000000001
 40
0.0
 40
0.0
 40
0.0
 40
0.0
 40
0.0003090411
 40
0.0006808601
 40
0.0011538947
 40
0.0017471653
 40
0.0024701861
 40
0.0033281086
 40
0.0043239446
 40
0.005459566
 40
0.0081544404
 40
0.0114183683
 40
0.0152530696
 40
0.0196587958
 40
0.0246349229
 40
0.0301796976
 40
0.0362908182
 40
0.0429657898
 40
0.0579945213
 40
0.0752365529
 40
0.0946574312
 40
0.1162175459
 40
0.1398723291
 40
0.1655731518
 40
0.1932662398
 40
0.2228943176
 40
0.2877038315
 40
0.3594611855
 40
0.4375672904
 40
0.5213698771
 40
0.6101688104
 40
0.7032223949
 40
0.7997532744
 40
0.8989553145
 40
1.0
 40
1.0
 40
1.0
 40
1.0
 10
7.72971847
 20
4.2444255065
 30
0.0
 10
7.7296961605
 20
4.2444255032
 30
0.0
 10
7.7296467525
 20
4.2444389385
 30
0.0
 10
7.7295805431
 20
4.2444915574
 30
0.0
 10
7.7295161024
 20
4.244573613
 30
0.0
 10
7.7294520185
 20
4.2446861204
 30
0.0
 10
7.7293878289
 20
4.2448295215
 30
0.0
 10
7.729323498
 20
4.2450041698
 30
0.0
 10
7.7292590227
 20
4.2452101825
 30
0.0
 10
7.72916763
 20
4.2455464574
 30
0.0
 10
7.7290560092
 20
4.2460465234
 30
0.0
 10
7.7289277895
 20
4.2467418744
 30
0.0
 10
7.7287991587
 20
4.2475624267
 30
0.0
 10
7.7286701847
 20
4.2485078088
 30
0.0
 10
7.7285410042
 20
4.2495776161
 30
0.0
 10
7.7284116626
 20
4.2507713081
 30
0.0
 10
7.7282821927
 20
4.2520882714
 30
0.0
 10
7.7281022582
 20
4.2540881462
 30
0.0
 10
7.7278801746
 20
4.2568909058
 30
0.0
 10
7.7276224034
 20
4.2606136199
 30
0.0
 10
7.7273642091
 20
4.2648087999
 30
0.0
 10
7.7271056701
 20
4.2694676703
 30
0.0
 10
7.7268468898
 20
4.2745805041
 30
0.0
 10
7.7265879363
 20
4.2801365825
 30
0.0
 10
7.7263288305
 20
4.2861242944
 30
0.0
 10
7.7259724769
 20
4.2949336373
 30
0.0
 10
7.7255314116
 20
4.3069230766
 30
0.0
 10
7.7250157825
 20
4.3224116261
 30
0.0
 10
7.7244995692
 20
4.3392719488
 30
0.0
 10
7.7239829013
 20
4.3573630104
 30
0.0
 10
7.7234659269
 20
4.3765335249
 30
0.0
 10
7.7229487339
 20
4.3966231976
 30
0.0
 10
7.7224313941
 20
4.4174640988
 30
0.0
 10
7.7219139614
 20
4.4388820422
 30
0.0
 10
7.7215711678
 20
4.4533336648
 30
0.0
 10
7.7213990339
 20
4.4606259868
 30
0.0
  0
SPLINE
  5
3FF
100
AcDbEntity
  8
0
100
AcDbSpline
 62
7
  6
CONTINUOUS
 70
0
 71
3
 72
34
 73
30
 74
0
 42
0.0000001
 43
0.0000001
 44
0.0000000001
 40
0.0
 40
0.0
 40
0.0
 40
0.0
 40
0.1005998644
 40
0.1988297985
 40
0.2940056527
 40
0.3854648505
 40
0.4725708631
 40
0.5547176463
 40
0.6313340858
 40
0.7018877069
 40
0.7658888186
 40
0.8228937459
 40
0.848647381
 40
0.8725084858
 40
0.894435607
 40
0.9143917378
 40
0.9323426002
 40
0.948258652
 40
0.9621135791
 40
0.9738863297
 40
0.9789865067
 40
0.9835606993
 40
0.9876080324
 40
0.9911281898
 40
0.9941222422
 40
0.996593174
 40
0.9985472805
 40
0.999334817
 40
1.0
 40
1.0
 40
1.0
 40
1.0
 10
7.7196840203
 20
4.533362521
 30
0.0
 10
7.7195272543
 20
4.5399176197
 30
0.0
 10
7.7192149162
 20
4.5528733326
 30
0.0
 10
7.7187420377
 20
4.5720304182
 30
0.0
 10
7.7182693063
 20
4.590591544
 30
0.0
 10
7.7177967634
 20
4.6084273884
 30
0.0
 10
7.7173244617
 20
4.6254137102
 30
0.0
 10
7.7168524742
 20
4.6414322157
 30
0.0
 10
7.7163808921
 20
4.6563713719
 30
0.0
 10
7.7159098806
 20
4.6701272043
 30
0.0
 10
7.7154395735
 20
4.6826039895
 30
0.0
 10
7.7150361444
 20
4.6921611427
 30
0.0
 10
7.7147097772
 20
4.6991028236
 30
0.0
 10
7.7144735129
 20
4.7037598558
 30
0.0
 10
7.7142374316
 20
4.708038499
 30
0.0
 10
7.7140015959
 20
4.7119312978
 30
0.0
 10
7.7137660627
 20
4.7154315316
 30
0.0
 10
7.7135310126
 20
4.7185331391
 30
0.0
 10
7.7132965252
 20
4.7212307947
 30
0.0
 10
7.7130935076
 20
4.7232234124
 30
0.0
 10
7.7129282219
 20
4.724611537
 30
0.0
 10
7.7128104127
 20
4.7254981402
 30
0.0
 10
7.7126928291
 20
4.7262807885
 30
0.0
 10
7.7125755147
 20
4.7269591691
 30
0.0
 10
7.712458674
 20
4.7275331856
 30
0.0
 10
7.7123423693
 20
4.7280026751
 30
0.0
 10
7.7122404255
 20
4.7283273007
 30
0.0
 10
7.7121560122
 20
4.728532813
 30
0.0
 10
7.7121134609
 20
4.7286175842
 30
0.0
 10
7.7120917684
 20
4.728655123
 30
0.0
  0
SPLINE
  5
400
100
AcDbEntity
  8
0
100
AcDbSpline
 62
7
  6
CONTINUOUS
 70
0
 71
3
 72
43
 73
39
 74
0
 42
0.0000001
 43
0.0000001
 44
0.0000000001
 40
0.0
 40
0.0
 40
0.0
 40
0.0
 40
0.0001355681
 40
0.0002801134
 40
0.0004420999
 40
0.0006276198
 40
0.0010836631
 40
0.0016679144
 40
0.002388952
 40
0.0032511819
 40
0.0042570896
 40
0.005408172
 40
0.0067053719
 40
0.0081492994
 40
0.0114784665
 40
0.0153965398
 40
0.019902914
 40
0.0249962681
 40
0.030674192
 40
0.0369337138
 40
0.043771686
 40
0.0591671077
 40
0.0768251519
 40
0.0967042878
 40
0.118757689
 40
0.1429324645
 40
0.1691709559
 40
0.1974102143
 40
0.2275822623
 40
0.29343075
 40
0.3660831734
 40
0.4448406079
 40
0.5289452241
 40
0.6175878271
 40
0.7099153449
 40
0.8050399215
 40
0.9020446942
 40
1.0
 40
1.0
 40
1.0
 40
1.0
 10
2.7132147758
 20
4.7444528969
 30
0.0
 10
2.7132264496
 20
4.7444532617
 30
0.0
 10
2.7132507991
 20
4.7444505199
 30
0.0
 10
2.7132864784
 20
4.7444361869
 30
0.0
 10
2.7133216711
 20
4.7444120864
 30
0.0
 10
2.713371603
 20
4.7443637932
 30
0.0
 10
2.7134322574
 20
4.7442763749
 30
0.0
 10
2.7135006337
 20
4.7441407053
 30
0.0
 10
2.7135692541
 20
4.7439668068
 30
0.0
 10
2.7136380888
 20
4.7437545406
 30
0.0
 10
2.7137071044
 20
4.7435036784
 30
0.0
 10
2.7137762495
 20
4.7432141934
 30
0.0
 10
2.7138455004
 20
4.742886067
 30
0.0
 10
2.7139425976
 20
4.7423721588
 30
0.0
 10
2.714061939
 20
4.7416328432
 30
0.0
 10
2.7141997614
 20
4.7406296082
 30
0.0
 10
2.7143379016
 20
4.7394731907
 30
0.0
 10
2.7144762952
 20
4.7381642512
 30
0.0
 10
2.7146148609
 20
4.7367035429
 30
0.0
 10
2.7147535718
 20
4.7350919387
 30
0.0
 10
2.7149463507
 20
4.7326447721
 30
0.0
 10
2.7151842752
 20
4.7292162064
 30
0.0
 10
2.7154604472
 20
4.7246642726
 30
0.0
 10
2.7157370952
 20
4.7195378336
 30
0.0
 10
2.7160141226
 20
4.7138492564
 30
0.0
 10
2.7162914235
 20
4.7076122308
 30
0.0
 10
2.7165689281
 20
4.7008418068
 30
0.0
 10
2.7168466031
 20
4.6935543098
 30
0.0
 10
2.7172282182
 20
4.6828558355
 30
0.0
 10
2.7177005444
 20
4.6683319116
 30
0.0
 10
2.7182531552
 20
4.6496227418
 30
0.0
 10
2.7188064549
 20
4.6293401548
 30
0.0
 10
2.719360305
 20
4.6076795168
 30
0.0
 10
2.7199145462
 20
4.5848494345
 30
0.0
 10
2.7204690846
 20
4.5610696976
 30
0.0
 10
2.7210238367
 20
4.5365693563
 30
0.0
 10
2.7215787484
 20
4.5115840506
 30
0.0
 10
2.7219481407
 20
4.4947918495
 30
0.0
 10
2.7221337445
 20
4.4863548137
 30
0.0
  0
SPLINE
  5
401
100
AcDbEntity
  8
0
100
AcDbSpline
 62
7
  6
CONTINUOUS
 70
0
 71
3
 72
37
 73
33
 74
0
 42
0.0000001
 43
0.0000001
 44
0.0000000001
 40
0.0
 40
0.0
 40
0.0
 40
0.0
 40
0.0956337152
 40
0.1903940486
 40
0.2834143834
 40
0.3738395119
 40
0.4608403168
 40
0.5436188215
 40
0.6214162702
 40
0.6935198075
 40
0.7592691922
 40
0.7895705583
 40
0.8180628426
 40
0.844680851
 40
0.8693638395
 40
0.8920558202
 40
0.9127050237
 40
0.9312650772
 40
0.947694317
 40
0.9619563547
 40
0.9682650508
 40
0.9740209938
 40
0.9792212763
 40
0.9838637958
 40
0.9879467895
 40
0.9914691074
 40
0.994431085
 40
0.9968347502
 40
0.9978288373
 40
0.9986859688
 40
0.9994084032
 40
1.0
 40
1.0
 40
1.0
 40
1.0
 10
7.8523865415
 20
4.4863548137
 30
0.0
 10
7.8522050828
 20
4.4945644941
 30
0.0
 10
7.8518438244
 20
4.5109088797
 30
0.0
 10
7.8513011793
 20
4.5352384918
 30
0.0
 10
7.8507586292
 20
4.5591207529
 30
0.0
 10
7.8502162321
 20
4.5823365621
 30
0.0
 10
7.8496740606
 20
4.6046727042
 30
0.0
 10
7.8491322005
 20
4.6259242327
 30
0.0
 10
7.8485907907
 20
4.645896167
 30
0.0
 10
7.8480499547
 20
4.6644053199
 30
0.0
 10
7.8475883372
 20
4.6788367061
 30
0.0
 10
7.8472157251
 20
4.6895242333
 30
0.0
 10
7.8469440335
 20
4.6968531645
 30
0.0
 10
7.846672482
 20
4.7036993208
 30
0.0
 10
7.8464010927
 20
4.7100470157
 30
0.0
 10
7.846129926
 20
4.7158816987
 30
0.0
 10
7.8458590352
 20
4.7211900253
 30
0.0
 10
7.845588555
 20
4.7259598523
 30
0.0
 10
7.8453185745
 20
4.7301802816
 30
0.0
 10
7.8450857827
 20
4.7333488606
 30
0.0
 10
7.8448970319
 20
4.7356015526
 30
0.0
 10
7.8447614355
 20
4.7370778276
 30
0.0
 10
7.8446259871
 20
4.7384103885
 30
0.0
 10
7.8444907411
 20
4.7395985058
 30
0.0
 10
7.8443557655
 20
4.7406415286
 30
0.0
 10
7.8442212243
 20
4.7415389662
 30
0.0
 10
7.8440871976
 20
4.7422903727
 30
0.0
 10
7.8439702364
 20
4.7428240866
 30
0.0
 10
7.8438740199
 20
4.7431766187
 30
0.0
 10
7.8438066426
 20
4.7433871958
 30
0.0
 10
7.8437394828
 20
4.7435612197
 30
0.0
 10
7.8436900934
 20
4.7436629671
 30
0.0
 10
7.8436646811
 20
4.7437069519
 30
0.0
  0
SPLINE
  5
402
100
AcDbEntity
  8
0
100
AcDbSpline
 62
7
  6
CONTINUOUS
 70
0
 71
3
 72
70
 73
66
 74
0
 42
0.0000001
 43
0.0000001
 44
0.0000000001
 40
0.0
 40
0.0
 40
0.0
 40
0.0
 40
0.0001474381
 40
0.0003277238
 40
0.0005601856
 40
0.0008539931
 40
0.001213612
 40
0.0016414215
 40
0.0021387968
 40
0.0027065848
 40
0.0040552923
 40
0.0056898994
 40
0.0076110105
 40
0.009818576
 40
0.0123120097
 40
0.015090185
 40
0.018151812
 40
0.021495437
 40
0.0290210015
 40
0.0376503627
 40
0.0473637327
 40
0.058138886
 40
0.069950714
 40
0.0827716964
 40
0.0965719514
 40
0.1113190352
 40
0.1435136448
 40
0.1790536809
 40
0.217605734
 40
0.25880806
 40
0.3022740469
 40
0.3475958179
 40
0.3943481149
 40
0.4420923571
 40
0.4903807416
 40
0.5387604421
 40
0.5867778591
 40
0.6339829357
 40
0.6799333047
 40
0.7241984796
 40
0.7663638537
 40
0.8060346928
 40
0.8428397835
 40
0.8764349842
 40
0.8919295039
 40
0.9065064514
 40
0.9201317069
 40
0.9327736962
 40
0.9444029283
 40
0.9549925241
 40
0.9645181466
 40
0.9729578787
 40
0.9802929182
 40
0.9835409961
 40
0.9865072055
 40
0.9891900227
 40
0.9915881765
 40
0.9937008937
 40
0.9955276887
 40
0.9970685567
 40
0.9983246562
 40
0.9988468362
 40
0.9992992414
 40
0.9996829903
 40
1.0
 40
1.0
 40
1.0
 40
1.0
 10
7.7654334191
 20
4.2455167826
 30
0.0
 10
7.7654096997
 20
4.2455167792
 30
0.0
 10
7.7653567538
 20
4.2455321347
 30
0.0
 10
7.7652868234
 20
4.2455911724
 30
0.0
 10
7.7652186966
 20
4.2456828197
 30
0.0
 10
7.7651508885
 20
4.2458085461
 30
0.0
 10
7.7650829105
 20
4.2459688302
 30
0.0
 10
7.7650147615
 20
4.2461640809
 30
0.0
 10
7.7649464455
 20
4.2463944136
 30
0.0
 10
7.7648495649
 20
4.2467705371
 30
0.0
 10
7.7647312799
 20
4.2473296857
 30
0.0
 10
7.7645954064
 20
4.2481069955
 30
0.0
 10
7.7644590906
 20
4.2490241817
 30
0.0
 10
7.7643224103
 20
4.2500807668
 30
0.0
 10
7.7641855071
 20
4.251276214
 30
0.0
 10
7.7640484286
 20
4.2526098362
 30
0.0
 10
7.7639112155
 20
4.25408087
 30
0.0
 10
7.7637205466
 20
4.2563139091
 30
0.0
 10
7.7634852055
 20
4.2594420106
 30
0.0
 10
7.763212035
 20
4.2635946863
 30
0.0
 10
7.7629384037
 20
4.2682711156
 30
0.0
 10
7.7626644116
 20
4.2734602885
 30
0.0
 10
7.7623901646
 20
4.2791500221
 30
0.0
 10
7.762115727
 20
4.2853269321
 30
0.0
 10
7.7618411375
 20
4.2919764807
 30
0.0
 10
7.7614637393
 20
4.3017411746
 30
0.0
 10
7.7609966576
 20
4.3150023925
 30
0.0
 10
7.760450297
 20
4.3320927538
 30
0.0
 10
7.7599033228
 20
4.3506329078
 30
0.0
 10
7.759355874
 20
4.3704486636
 30
0.0
 10
7.7588081102
 20
4.391353893
 30
0.0
 10
7.7582601271
 20
4.4131522705
 30
0.0
 10
7.7577120037
 20
4.4356391262
 30
0.0
 10
7.757163802
 20
4.4586033774
 30
0.0
 10
7.7566155758
 20
4.481829513
 30
0.0
 10
7.7560673742
 20
4.5050996087
 30
0.0
 10
7.7555192452
 20
4.5281953786
 30
0.0
 10
7.7549712406
 20
4.550900217
 30
0.0
 10
7.7544234181
 20
4.5730012316
 30
0.0
 10
7.7538758496
 20
4.5942912244
 30
0.0
 10
7.7533286207
 20
4.6145706473
 30
0.0
 10
7.7527818682
 20
4.6336494696
 30
0.0
 10
7.7522357141
 20
4.6513489617
 30
0.0
 10
7.7517696728
 20
4.6651596205
 30
0.0
 10
7.7513935142
 20
4.6753952131
 30
0.0
 10
7.7511191681
 20
4.6824196575
 30
0.0
 10
7.7508449614
 20
4.6889848293
 30
0.0
 10
7.7505709261
 20
4.6950753469
 30
0.0
 10
7.7502971085
 20
4.7006769753
 30
0.0
 10
7.7500235709
 20
4.7057766153
 30
0.0
 10
7.7497504452
 20
4.7103623558
 30
0.0
 10
7.7494778058
 20
4.7144235053
 30
0.0
 10
7.7492427905
 20
4.717474887
 30
0.0
 10
7.7490522615
 20
4.7196463375
 30
0.0
 10
7.7489153341
 20
4.7210711313
 30
0.0
 10
7.7487785581
 20
4.7223585172
 30
0.0
 10
7.748641969
 20
4.7235077657
 30
0.0
 10
7.7485056405
 20
4.7245182438
 30
0.0
 10
7.7483697421
 20
4.7253894714
 30
0.0
 10
7.7482343285
 20
4.726120996
 30
0.0
 10
7.7481162192
 20
4.7266420432
 30
0.0
 10
7.7480191953
 20
4.7269876227
 30
0.0
 10
7.7479511111
 20
4.7271953753
 30
0.0
 10
7.7478832218
 20
4.7273681355
 30
0.0
 10
7.7478334917
 20
4.7274695865
 30
0.0
 10
7.7478079747
 20
4.7275137434
 30
0.0
  0
SPLINE
  5
403
100
AcDbEntity
  8
0
100
AcDbSpline
 62
7
  6
CONTINUOUS
 70
0
 71
3
 72
25
 73
21
 74
0
 42
0.0000001
 43
0.0000001
 44
0.0000000001
 40
0.0
 40
0.0
 40
0.0
 40
0.0
 40
0.215767044
 40
0.4072344652
 40
0.4935350789
 40
0.5733914287
 40
0.6467009826
 40
0.7133663706
 40
0.7733039551
 40
0.8264366318
 40
0.8727011115
 40
0.9120446056
 40
0.9444302558
 40
0.9580091622
 40
0.9698453451
 40
0.9799437423
 40
0.9883157922
 40
0.994983961
 40
0.9976936601
 40
1.0
 40
1.0
 40
1.0
 40
1.0
 10
2.8704001155
 20
4.272448248
 30
0.0
 10
2.8705315207
 20
4.2689119813
 30
0.0
 10
2.8707913155
 20
4.2622381296
 30
0.0
 10
2.8711451849
 20
4.254151551
 30
0.0
 10
2.8714314229
 20
4.2482932757
 30
0.0
 10
2.8716384857
 20
4.2443713333
 30
0.0
 10
2.8718453773
 20
4.2407718951
 30
0.0
 10
2.872052083
 20
4.2374997126
 30
0.0
 10
2.8722585027
 20
4.2345591467
 30
0.0
 10
2.8724645659
 20
4.2319540597
 30
0.0
 10
2.8726700235
 20
4.2296878507
 30
0.0
 10
2.8728747657
 20
4.2277634668
 30
0.0
 10
2.8730530072
 20
4.2263755468
 30
0.0
 10
2.8731991763
 20
4.2254388525
 30
0.0
 10
2.873302044
 20
4.2248655094
 30
0.0
 10
2.8734045127
 20
4.2243790116
 30
0.0
 10
2.8735065457
 20
4.2239794403
 30
0.0
 10
2.8735959131
 20
4.2237019453
 30
0.0
 10
2.8736697325
 20
4.2235249977
 30
0.0
 10
2.8737069196
 20
4.2234514696
 30
0.0
 10
2.8737258425
 20
4.2234187178
 30
0.0
  0
SPLINE
  5
404
100
AcDbEntity
  8
0
100
AcDbSpline
 62
7
  6
CONTINUOUS
 70
0
 71
3
 72
30
 73
26
 74
0
 42
0.0000001
 43
0.0000001
 44
0.0000000001
 40
0.0
 40
0.0
 40
0.0
 40
0.0
 40
0.2083956149
 40
0.3060328664
 40
0.3987046352
 40
0.4859945979
 40
0.567511046
 40
0.6428883534
 40
0.7117888531
 40
0.7739043455
 40
0.8289575492
 40
0.876703899
 40
0.8977699637
 40
0.9169334548
 40
0.934173867
 40
0.9494729219
 40
0.9628160317
 40
0.9741905796
 40
0.9835893397
 40
0.9875470889
 40
0.9910108299
 40
0.99398244
 40
0.9964655092
 40
0.9984667721
 40
1.0
 40
1.0
 40
1.0
 40
1.0
 10
2.8318993324
 20
4.369983574
 30
0.0
 10
2.8321445079
 20
4.3598681659
 30
0.0
 10
2.8325157765
 20
4.3450137625
 30
0.0
 10
2.8330341733
 20
4.3256621132
 30
0.0
 10
2.8334143565
 20
4.3121890118
 30
0.0
 10
2.8337943623
 20
4.2994989585
 30
0.0
 10
2.8341741474
 20
4.2876490085
 30
0.0
 10
2.8345536285
 20
4.2766924156
 30
0.0
 10
2.8349327067
 20
4.2666784082
 30
0.0
 10
2.8353111803
 20
4.2576519567
 30
0.0
 10
2.8356889033
 20
4.2496535935
 30
0.0
 10
2.8360146954
 20
4.2436482056
 30
0.0
 10
2.8362791733
 20
4.2393848239
 30
0.0
 10
2.8364689812
 20
4.2366008863
 30
0.0
 10
2.8366585274
 20
4.2340976521
 30
0.0
 10
2.8368477656
 20
4.2318778961
 30
0.0
 10
2.8370364658
 20
4.2299440491
 30
0.0
 10
2.8372245561
 20
4.2282982078
 30
0.0
 10
2.8373881982
 20
4.2271084177
 30
0.0
 10
2.8375222547
 20
4.2263027562
 30
0.0
 10
2.837616758
 20
4.225806993
 30
0.0
 10
2.8377109636
 20
4.2253842704
 30
0.0
 10
2.8378047383
 20
4.2250343943
 30
0.0
 10
2.8378979155
 20
4.2247573518
 30
0.0
 10
2.8379683712
 20
4.2246000865
 30
0.0
 10
2.8380056134
 20
4.2245356279
 30
0.0
  0
SPLINE
  5
405
100
AcDbEntity
  8
0
100
AcDbSpline
 62
7
  6
CONTINUOUS
 70
0
 71
3
 72
37
 73
33
 74
0
 42
0.0000001
 43
0.0000001
 44
0.0000000001
 40
0.0
 40
0.0
 40
0.0
 40
0.0
 40
0.0956616945
 40
0.1904491604
 40
0.2834950817
 40
0.3739434165
 40
0.4609644394
 40
0.5437594629
 40
0.6215690795
 40
0.6936799203
 40
0.7594312955
 40
0.7897316105
 40
0.8182213049
 40
0.8448351056
 40
0.8695125668
 40
0.8921971573
 40
0.9128375882
 40
0.9313871883
 40
0.9478041849
 40
0.9620525998
 40
0.968353631
 40
0.9741015789
 40
0.9792936228
 40
0.983927224
 40
0.9880008064
 40
0.9915135023
 40
0.9944652386
 40
0.9968579501
 40
0.9978464199
 40
0.9986978549
 40
0.9994144457
 40
1.0
 40
1.0
 40
1.0
 40
1.0
 10
2.7935678235
 20
4.4863548137
 30
0.0
 10
2.7937496398
 20
4.4780359365
 30
0.0
 10
2.794111593
 20
4.4614742061
 30
0.0
 10
2.7946552765
 20
4.4368211767
 30
0.0
 10
2.7951988343
 20
4.4126217256
 30
0.0
 10
2.7957422166
 20
4.3890979869
 30
0.0
 10
2.7962853477
 20
4.3664661329
 30
0.0
 10
2.7968281424
 20
4.344933944
 30
0.0
 10
2.7973704616
 20
4.3246990962
 30
0.0
 10
2.797912181
 20
4.3059472953
 30
0.0
 10
2.7983745404
 20
4.2913274303
 30
0.0
 10
2.7987477413
 20
4.2805009713
 30
0.0
 10
2.7990198491
 20
4.2730773391
 30
0.0
 10
2.799291814
 20
4.2661431391
 30
0.0
 10
2.7995636028
 20
4.2597142881
 30
0.0
 10
2.7998351706
 20
4.2538055043
 30
0.0
 10
2.8001064489
 20
4.2484303338
 30
0.0
 10
2.8003773084
 20
4.2436010688
 30
0.0
 10
2.8006476688
 20
4.239328745
 30
0.0
 10
2.8008807786
 20
4.2361217053
 30
0.0
 10
2.8010698052
 20
4.233842105
 30
0.0
 10
2.8012055851
 20
4.2323485834
 30
0.0
 10
2.8013412046
 20
4.231000739
 30
0.0
 10
2.8014766276
 20
4.2297993244
 30
0.0
 10
2.8016117816
 20
4.2287449925
 30
0.0
 10
2.8017464787
 20
4.2278382271
 30
0.0
 10
2.8018806562
 20
4.2270794944
 30
0.0
 10
2.8019977774
 20
4.226540935
 30
0.0
 10
2.8020941459
 20
4.2261855295
 30
0.0
 10
2.8021615946
 20
4.2259735249
 30
0.0
 10
2.802228818
 20
4.2257985672
 30
0.0
 10
2.8022783025
 20
4.2256963773
 30
0.0
 10
2.8023037828
 20
4.2256522763
 30
0.0
  0
SPLINE
  5
406
100
AcDbEntity
  8
0
100
AcDbSpline
 62
7
  6
CONTINUOUS
 70
0
 71
3
 72
37
 73
33
 74
0
 42
0.0000001
 43
0.0000001
 44
0.0000000001
 40
0.0
 40
0.0
 40
0.0
 40
0.0
 40
0.0956527455
 40
0.190431523
 40
0.2834692448
 40
0.3739101425
 40
0.4609246774
 40
0.5437143908
 40
0.6215200908
 40
0.6936285806
 40
0.7593793195
 40
0.7896799414
 40
0.8181704909
 40
0.844785613
 40
0.8694648367
 40
0.8921518211
 40
0.9127950207
 40
0.9313480206
 40
0.9477689015
 40
0.9620216792
 40
0.9683251559
 40
0.9740757192
 40
0.9792703909
 40
0.9839068126
 40
0.9879834556
 40
0.9914992665
 40
0.9944542003
 40
0.9968504359
 40
0.9978407482
 40
0.9986940527
 40
0.9994125227
 40
1.0
 40
1.0
 40
1.0
 40
1.0
 10
2.7578533664
 20
4.4863548137
 30
0.0
 10
2.7580348323
 20
4.4780723173
 30
0.0
 10
2.7583961018
 20
4.4615830006
 30
0.0
 10
2.7589388133
 20
4.4370377288
 30
0.0
 10
2.7594814589
 20
4.4129439652
 30
0.0
 10
2.7600239852
 20
4.3895228342
 30
0.0
 10
2.7605663157
 20
4.366989524
 30
0.0
 10
2.7611083637
 20
4.3455508717
 30
0.0
 10
2.7616499884
 20
4.3254036546
 30
0.0
 10
2.7621910646
 20
4.3067327384
 30
0.0
 10
2.7626529127
 20
4.2921757097
 30
0.0
 10
2.7630257267
 20
4.2813955728
 30
0.0
 10
2.7632975649
 20
4.2740035237
 30
0.0
 10
2.7635692718
 20
4.2670986889
 30
0.0
 10
2.7638408163
 20
4.2606969107
 30
0.0
 10
2.764112147
 20
4.2548128523
 30
0.0
 10
2.7643832044
 20
4.2494599868
 30
0.0
 10
2.7646538503
 20
4.2446505669
 30
0.0
 10
2.7649240095
 20
4.2403955737
 30
0.0
 10
2.7651569531
 20
4.2372013883
 30
0.0
 10
2.7653458464
 20
4.2349307794
 30
0.0
 10
2.7654815341
 20
4.2334430241
 30
0.0
 10
2.7656170695
 20
4.232100295
 30
0.0
 10
2.76575241
 20
4.2309033355
 30
0.0
 10
2.7658874801
 20
4.2298527928
 30
0.0
 10
2.7660221001
 20
4.2289491605
 30
0.0
 10
2.7661562146
 20
4.2281928991
 30
0.0
 10
2.7662732675
 20
4.2276559787
 30
0.0
 10
2.7663695722
 20
4.2273015389
 30
0.0
 10
2.7664369866
 20
4.2270900143
 30
0.0
 10
2.7665041801
 20
4.2269153775
 30
0.0
 10
2.7665536289
 20
4.2268133455
 30
0.0
 10
2.7665790833
 20
4.2267692888
 30
0.0
  0
SPLINE
  5
407
100
AcDbEntity
  8
0
100
AcDbSpline
 62
7
  6
CONTINUOUS
 70
0
 71
3
 72
37
 73
33
 74
0
 42
0.0000001
 43
0.0000001
 44
0.0000000001
 40
0.0
 40
0.0
 40
0.0
 40
0.0
 40
0.0956424953
 40
0.1904113287
 40
0.283439703
 40
0.373872083
 40
0.4608792331
 40
0.5436629081
 40
0.6214641455
 40
0.6935699259
 40
0.7593199079
 40
0.7896209853
 40
0.8181124588
 40
0.844729082
 40
0.8694104288
 40
0.892099986
 40
0.9127464914
 40
0.9313032851
 40
0.9477286054
 40
0.9619864892
 40
0.9682926933
 40
0.9740461088
 40
0.9792439211
 40
0.9838835957
 40
0.9879635611
 40
0.991482965
 40
0.9944417543
 40
0.9968418845
 40
0.9978342126
 40
0.9986896116
 40
0.9994102744
 40
1.0
 40
1.0
 40
1.0
 40
1.0
 10
2.7221337445
 20
4.4863548137
 30
0.0
 10
2.7223151461
 20
4.4781088018
 30
0.0
 10
2.7226762844
 20
4.4616921023
 30
0.0
 10
2.7232188158
 20
4.4372548818
 30
0.0
 10
2.7237612898
 20
4.4132670814
 30
0.0
 10
2.724303656
 20
4.3899488045
 30
0.0
 10
2.724845837
 20
4.3675142509
 30
0.0
 10
2.7253877464
 20
4.3461693052
 30
0.0
 10
2.7259292437
 20
4.3261098466
 30
0.0
 10
2.7264702033
 20
4.3075198956
 30
0.0
 10
2.7269319589
 20
4.2930257288
 30
0.0
 10
2.7273047009
 20
4.2822919066
 30
0.0
 10
2.727576493
 20
4.2749314091
 30
0.0
 10
2.7278481566
 20
4.2680558917
 30
0.0
 10
2.7281196584
 20
4.2616811306
 30
0.0
 10
2.7283909535
 20
4.2558217136
 30
0.0
 10
2.7286619734
 20
4.2504910678
 30
0.0
 10
2.7289325892
 20
4.2457013778
 30
0.0
 10
2.7292027203
 20
4.2414635847
 30
0.0
 10
2.7294356362
 20
4.238282132
 30
0.0
 10
2.7296245067
 20
4.2360204193
 30
0.0
 10
2.7297601858
 20
4.2345383532
 30
0.0
 10
2.7298957083
 20
4.2332006491
 30
0.0
 10
2.7300310386
 20
4.2320080533
 30
0.0
 10
2.7301661047
 20
4.2309612139
 30
0.0
 10
2.7303007209
 20
4.2300606102
 30
0.0
 10
2.7304348245
 20
4.2293067042
 30
0.0
 10
2.7305518733
 20
4.2287713365
 30
0.0
 10
2.7306481636
 20
4.2284178126
 30
0.0
 10
2.7307155807
 20
4.2282067195
 30
0.0
 10
2.7307827777
 20
4.2280323414
 30
0.0
 10
2.7308322113
 20
4.2279304187
 30
0.0
 10
2.7308576537
 20
4.2278863837
 30
0.0
  0
SPLINE
  5
408
100
AcDbEntity
  8
0
100
AcDbSpline
 62
7
  6
CONTINUOUS
 70
0
 71
3
 72
15
 73
11
 74
0
 42
0.0000001
 43
0.0000001
 44
0.0000000001
 40
0.0
 40
0.0
 40
0.0
 40
0.0
 40
0.3733670736
 40
0.5290871642
 40
0.6641419265
 40
0.7785598111
 40
0.8724524924
 40
0.9460639834
 40
0.9754323498
 40
1.0
 40
1.0
 40
1.0
 40
1.0
 10
2.8977446714
 20
4.7448611396
 30
0.0
 10
2.8976746595
 20
4.7455094316
 30
0.0
 10
2.8975673043
 20
4.7464273463
 30
0.0
 10
2.8974030384
 20
4.7475756038
 30
0.0
 10
2.8972877071
 20
4.7482738457
 30
0.0
 10
2.8971728934
 20
4.748862569
 30
0.0
 10
2.8970586371
 20
4.7493415946
 30
0.0
 10
2.8969584043
 20
4.74967104
 30
0.0
 10
2.8968751641
 20
4.7498777908
 30
0.0
 10
2.8968331692
 20
4.7499623111
 30
0.0
 10
2.8968117042
 20
4.7499994616
 30
0.0
  0
SPLINE
  5
409
100
AcDbEntity
  8
0
100
AcDbSpline
 62
7
  6
CONTINUOUS
 70
0
 71
3
 72
27
 73
23
 74
0
 42
0.0000001
 43
0.0000001
 44
0.0000000001
 40
0.0
 40
0.0
 40
0.0
 40
0.0
 40
0.2155953243
 40
0.3145366889
 40
0.4073546093
 40
0.4938965565
 40
0.574021628
 40
0.6475989663
 40
0.7145095394
 40
0.7746455458
 40
0.8279115262
 40
0.8742250558
 40
0.9135177465
 40
0.9305147294
 40
0.945739399
 40
0.9591885701
 40
0.9708615259
 40
0.9807621599
 40
0.9888998538
 40
0.9952950237
 40
0.9978536328
 40
1.0
 40
1.0
 40
1.0
 40
1.0
 10
2.864794762
 20
4.68945599
 30
0.0
 10
2.8646477221
 20
4.6937369703
 30
0.0
 10
2.864423347
 20
4.6999822609
 30
0.0
 10
2.8641051416
 20
4.7080694387
 30
0.0
 10
2.8638734337
 20
4.7135939514
 30
0.0
 10
2.8636418123
 20
4.7187442702
 30
0.0
 10
2.8634103078
 20
4.7235119033
 30
0.0
 10
2.8631789629
 20
4.7278890069
 30
0.0
 10
2.8629478453
 20
4.7318683724
 30
0.0
 10
2.8627170317
 20
4.7354434563
 30
0.0
 10
2.8624866908
 20
4.7386084047
 30
0.0
 10
2.8622569305
 20
4.7413580282
 30
0.0
 10
2.8620579508
 20
4.7433869674
 30
0.0
 10
2.8618959197
 20
4.7447985972
 30
0.0
 10
2.8617805039
 20
4.7456986589
 30
0.0
 10
2.8616653219
 20
4.746492013
 30
0.0
 10
2.8615504201
 20
4.7471783619
 30
0.0
 10
2.8614360253
 20
4.7477576334
 30
0.0
 10
2.8613221936
 20
4.7482296591
 30
0.0
 10
2.8612223609
 20
4.7485547741
 30
0.0
 10
2.8611395241
 20
4.748759299
 30
0.0
 10
2.8610977475
 20
4.7488431203
 30
0.0
 10
2.8610764122
 20
4.7488800441
 30
0.0
  0
SPLINE
  5
40A
100
AcDbEntity
  8
0
100
AcDbSpline
 62
7
  6
CONTINUOUS
 70
0
 71
3
 72
30
 73
26
 74
0
 42
0.0000001
 43
0.0000001
 44
0.0000000001
 40
0.0
 40
0.0
 40
0.0
 40
0.0
 40
0.2082200956
 40
0.3058101879
 40
0.3984572706
 40
0.4857415173
 40
0.5672677284
 40
0.6426667795
 40
0.7115975493
 40
0.7737485197
 40
0.8288392273
 40
0.8766221429
 40
0.8977053142
 40
0.9168846023
 40
0.9341393141
 40
0.9494507896
 40
0.9628042186
 40
0.9741867461
 40
0.983590856
 40
0.987550256
 40
0.99101492
 40
0.993986682
 40
0.9964691205
 40
0.998468964
 40
1.0
 40
1.0
 40
1.0
 40
1.0
 10
2.8315272867
 20
4.6013345336
 30
0.0
 10
2.8312811824
 20
4.6115097306
 30
0.0
 10
2.8309085262
 20
4.6264536501
 30
0.0
 10
2.8303882657
 20
4.6459240134
 30
0.0
 10
2.8300066384
 20
4.6594843964
 30
0.0
 10
2.8296251593
 20
4.6722592243
 30
0.0
 10
2.829243872
 20
4.6841905441
 30
0.0
 10
2.8288628601
 20
4.6952242319
 30
0.0
 10
2.8284822226
 20
4.7053102251
 30
0.0
 10
2.8281021624
 20
4.7144027637
 30
0.0
 10
2.8277228264
 20
4.7224605796
 30
0.0
 10
2.8273956211
 20
4.7285110538
 30
0.0
 10
2.8271299783
 20
4.7328066853
 30
0.0
 10
2.8269393221
 20
4.7356117772
 30
0.0
 10
2.826748923
 20
4.7381340431
 30
0.0
 10
2.826558825
 20
4.7403706515
 30
0.0
 10
2.8263692608
 20
4.7423191147
 30
0.0
 10
2.826180304
 20
4.7439772869
 30
0.0
 10
2.8260158968
 20
4.7451759022
 30
0.0
 10
2.8258812039
 20
4.7459874451
 30
0.0
 10
2.8257862564
 20
4.746486731
 30
0.0
 10
2.8256916069
 20
4.7469123748
 30
0.0
 10
2.8255973913
 20
4.7472645713
 30
0.0
 10
2.8255037777
 20
4.7475433307
 30
0.0
 10
2.8254329716
 20
4.7477015251
 30
0.0
 10
2.8253955302
 20
4.7477663258
 30
0.0
  0
SPLINE
  5
40B
100
AcDbEntity
  8
0
100
AcDbSpline
 62
7
  6
CONTINUOUS
 70
0
 71
3
 72
37
 73
33
 74
0
 42
0.0000001
 43
0.0000001
 44
0.0000000001
 40
0.0
 40
0.0
 40
0.0
 40
0.0
 40
0.0956720232
 40
0.1904604832
 40
0.2835009657
 40
0.3739400072
 40
0.4609501014
 40
0.5437343676
 40
0.6215348192
 40
0.6936390706
 40
0.7593870372
 40
0.7896869259
 40
0.8181770307
 40
0.8447920664
 40
0.8694715302
 40
0.892158817
 40
0.9128025758
 40
0.9313560132
 40
0.947777262
 40
0.9620302103
 40
0.968333577
 40
0.9740838771
 40
0.9792782844
 40
0.9839142402
 40
0.9879901367
 40
0.991505103
 40
0.9944590605
 40
0.9968539124
 40
0.9978434209
 40
0.9986958748
 40
0.9994134655
 40
1.0
 40
1.0
 40
1.0
 40
1.0
 10
2.7983977331
 20
4.4863548137
 30
0.0
 10
2.7982165771
 20
4.4946615731
 30
0.0
 10
2.7978558908
 20
4.5111983753
 30
0.0
 10
2.7973139436
 20
4.5358133413
 30
0.0
 10
2.796771981
 20
4.5599737318
 30
0.0
 10
2.7962300563
 20
4.5834584294
 30
0.0
 10
2.7956882454
 20
4.6060521736
 30
0.0
 10
2.7951466346
 20
4.6275479824
 30
0.0
 10
2.7946053638
 20
4.6477488551
 30
0.0
 10
2.7940645584
 20
4.6664696373
 30
0.0
 10
2.7936028715
 20
4.6810657079
 30
0.0
 10
2.7932301444
 20
4.6918749168
 30
0.0
 10
2.7929583451
 20
4.699287029
 30
0.0
 10
2.7926866559
 20
4.7062106848
 30
0.0
 10
2.7924151098
 20
4.7126299796
 30
0.0
 10
2.7921437518
 20
4.7185302013
 30
0.0
 10
2.7918726511
 20
4.7238978022
 30
0.0
 10
2.7916019367
 20
4.7287204846
 30
0.0
 10
2.79133169
 20
4.7329871991
 30
0.0
 10
2.7910986542
 20
4.7361901657
 30
0.0
 10
2.790909672
 20
4.73846698
 30
0.0
 10
2.7907739132
 20
4.7399587611
 30
0.0
 10
2.7906383072
 20
4.7413050926
 30
0.0
 10
2.7905028903
 20
4.7425052179
 30
0.0
 10
2.7903677341
 20
4.7435584795
 30
0.0
 10
2.7902330266
 20
4.7444643902
 30
0.0
 10
2.7900988315
 20
4.74522248
 30
0.0
 10
2.7899816903
 20
4.7457606325
 30
0.0
 10
2.7898853047
 20
4.746115814
 30
0.0
 10
2.7898178378
 20
4.746327726
 30
0.0
 10
2.7897505936
 20
4.7465026406
 30
0.0
 10
2.7897010988
 20
4.7466048188
 30
0.0
 10
2.789675615
 20
4.746648924
 30
0.0
  0
SPLINE
  5
40C
100
AcDbEntity
  8
0
100
AcDbSpline
 62
7
  6
CONTINUOUS
 70
0
 71
3
 72
37
 73
33
 74
0
 42
0.0000001
 43
0.0000001
 44
0.0000000001
 40
0.0
 40
0.0
 40
0.0
 40
0.0
 40
0.09566217
 40
0.1904410478
 40
0.2834724918
 40
0.3739033089
 40
0.4609062491
 40
0.5436846629
 40
0.6214807938
 40
0.6935824377
 40
0.7593296891
 40
0.7896299721
 40
0.8181209953
 40
0.8447374867
 40
0.8694189534
 40
0.8921087993
 40
0.9127556858
 40
0.931312825
 40
0.9477383573
 40
0.9619961771
 40
0.968302204
 40
0.9740553151
 40
0.979252688
 40
0.9838917669
 40
0.9879709461
 40
0.9914893631
 40
0.9944469501
 40
0.9968456217
 40
0.9978371183
 40
0.9986916161
 40
0.9994113088
 40
1.0
 40
1.0
 40
1.0
 40
1.0
 10
2.7626810819
 20
4.4863548137
 30
0.0
 10
2.7625003634
 20
4.4946251256
 30
0.0
 10
2.7621405645
 20
4.5110893852
 30
0.0
 10
2.7615999851
 20
4.5355964115
 30
0.0
 10
2.7610594093
 20
4.5596509508
 30
0.0
 10
2.7605188743
 20
4.5830329015
 30
0.0
 10
2.7599784402
 20
4.6055279902
 30
0.0
 10
2.7594381776
 20
4.6269301832
 30
0.0
 10
2.7588982104
 20
4.6470433783
 30
0.0
 10
2.758358648
 20
4.6656832645
 30
0.0
 10
2.7578979618
 20
4.6802165183
 30
0.0
 10
2.7575259948
 20
4.6909794412
 30
0.0
 10
2.7572547226
 20
4.6983600145
 30
0.0
 10
2.7569835333
 20
4.7052543607
 30
0.0
 10
2.7567124581
 20
4.7116466455
 30
0.0
 10
2.7564415397
 20
4.7175222219
 30
0.0
 10
2.7561708453
 20
4.7228676016
 30
0.0
 10
2.7559005011
 20
4.7276705411
 30
0.0
 10
2.7556305866
 20
4.731920038
 30
0.0
 10
2.7553978076
 20
4.7351102533
 30
0.0
 10
2.7552090134
 20
4.7373781592
 30
0.0
 10
2.7550733748
 20
4.7388642398
 30
0.0
 10
2.7549378777
 20
4.7402055294
 30
0.0
 10
2.7548025578
 20
4.7414012742
 30
0.0
 10
2.7546674862
 20
4.7424508195
 30
0.0
 10
2.7545328496
 20
4.7433536802
 30
0.0
 10
2.7543987114
 20
4.7441093883
 30
0.0
 10
2.754281615
 20
4.7446459717
 30
0.0
 10
2.7541852693
 20
4.745000234
 30
0.0
 10
2.7541178156
 20
4.745211707
 30
0.0
 10
2.7540505791
 20
4.7453863487
 30
0.0
 10
2.7540011043
 20
4.7454884042
 30
0.0
 10
2.7539756363
 20
4.7455324819
 30
0.0
  0
SPLINE
  5
40D
100
AcDbEntity
  8
0
100
AcDbSpline
 62
7
  6
CONTINUOUS
 70
0
 71
3
 72
37
 73
33
 74
0
 42
0.0000001
 43
0.0000001
 44
0.0000000001
 40
0.0
 40
0.0
 40
0.0
 40
0.0
 40
0.0956540512
 40
0.190425011
 40
0.2834489706
 40
0.3738729636
 40
0.4608699524
 40
0.5436434948
 40
0.6214360162
 40
0.6935354802
 40
0.7592821246
 40
0.7895827328
 40
0.8180745167
 40
0.8446922172
 40
0.8693753503
 40
0.8920673273
 40
0.9127168182
 40
0.931277039
 40
0.9477061388
 40
0.9619680148
 40
0.9682762549
 40
0.9740317032
 40
0.9792315408
 40
0.9838732144
 40
0.987955119
 40
0.9914763979
 40
0.9944369907
 40
0.9968388182
 40
0.9978319532
 40
0.9986881318
 40
0.9994095479
 40
1.0
 40
1.0
 40
1.0
 40
1.0
 10
2.7269655774
 20
4.4863548137
 30
0.0
 10
2.7267845542
 20
4.4945888282
 30
0.0
 10
2.7264241362
 20
4.5109808388
 30
0.0
 10
2.7258826049
 20
4.5353803509
 30
0.0
 10
2.7253410711
 20
4.5593294323
 30
0.0
 10
2.7247995878
 20
4.5826089856
 30
0.0
 10
2.7242582309
 20
4.6050057145
 30
0.0
 10
2.7237170864
 20
4.6263145226
 30
0.0
 10
2.7231762939
 20
4.6463401986
 30
0.0
 10
2.7226359786
 20
4.664899266
 30
0.0
 10
2.7221747261
 20
4.6793697127
 30
0.0
 10
2.7218023592
 20
4.6900863112
 30
0.0
 10
2.7215308216
 20
4.6974352823
 30
0.0
 10
2.7212593969
 20
4.7043002309
 30
0.0
 10
2.7209881182
 20
4.7106653928
 30
0.0
 10
2.7207170301
 20
4.7165161858
 30
0.0
 10
2.7204462016
 20
4.7218391808
 30
0.0
 10
2.7201757606
 20
4.7266221877
 30
0.0
 10
2.7199057883
 20
4.7308542519
 30
0.0
 10
2.7196729981
 20
4.7340315202
 30
0.0
 10
2.7194842218
 20
4.7362903482
 30
0.0
 10
2.7193486038
 20
4.7377705917
 30
0.0
 10
2.7192131385
 20
4.7391066963
 30
0.0
 10
2.7190778615
 20
4.7402979113
 30
0.0
 10
2.7189428438
 20
4.7413435846
 30
0.0
 10
2.7188082713
 20
4.7422432331
 30
0.0
 10
2.7186742078
 20
4.7429963908
 30
0.0
 10
2.7185571914
 20
4.7435312616
 30
0.0
 10
2.7184609279
 20
4.7438844876
 30
0.0
 10
2.7183935255
 20
4.7440954303
 30
0.0
 10
2.7183263417
 20
4.7442697065
 30
0.0
 10
2.7182769213
 20
4.7443715786
 30
0.0
 10
2.718251487
 20
4.744415598
 30
0.0
  0
SPLINE
  5
40E
100
AcDbEntity
  8
0
100
AcDbSpline
 62
7
  6
CONTINUOUS
 70
0
 71
3
 72
31
 73
27
 74
0
 42
0.0000001
 43
0.0000001
 44
0.0000000001
 40
0.0
 40
0.0
 40
0.0
 40
0.0
 40
0.0012598783
 40
0.002715471
 40
0.0044883444
 40
0.0066469964
 40
0.0092293096
 40
0.012257224
 40
0.0157442065
 40
0.0196989733
 40
0.029032729
 40
0.0402879726
 40
0.0534778028
 40
0.0686086725
 40
0.0856834282
 40
0.1047023467
 40
0.1256625815
 40
0.1485599436
 40
0.2001460465
 40
0.2594116484
 40
0.3262903755
 40
0.4007087067
 40
0.4825778949
 40
0.5718033727
 40
0.7718861957
 40
1.0
 40
1.0
 40
1.0
 40
1.0
 10
7.6600712527
 20
4.7496258584
 30
0.0
 10
7.6600881356
 20
4.7496253307
 30
0.0
 10
7.6601244741
 20
4.7496161503
 30
0.0
 10
7.6601748726
 20
4.7495818896
 30
0.0
 10
7.6602241198
 20
4.7495285143
 30
0.0
 10
7.6602730024
 20
4.7494558765
 30
0.0
 10
7.6603218601
 20
4.7493637414
 30
0.0
 10
7.660370767
 20
4.7492519196
 30
0.0
 10
7.6604197483
 20
4.7491203177
 30
0.0
 10
7.6604890132
 20
4.7489062846
 30
0.0
 10
7.6605737396
 20
4.7485881168
 30
0.0
 10
7.6606711174
 20
4.748145759
 30
0.0
 10
7.6607687836
 20
4.7476241596
 30
0.0
 10
7.6608666932
 20
4.7470234315
 30
0.0
 10
7.6609647597
 20
4.746343673
 30
0.0
 10
7.6610629405
 20
4.7455850595
 30
0.0
 10
7.6611612176
 20
4.7447478086
 30
0.0
 10
7.6612978387
 20
4.7434754969
 30
0.0
 10
7.6614665043
 20
4.7416902092
 30
0.0
 10
7.6616622298
 20
4.7393153999
 30
0.0
 10
7.6618583009
 20
4.736633592
 30
0.0
 10
7.6620546363
 20
4.7336480405
 30
0.0
 10
7.66225119
 20
4.7303623167
 30
0.0
 10
7.6625239912
 20
4.7253934243
 30
0.0
 10
7.6628607144
 20
4.7184644828
 30
0.0
 10
7.6631059784
 20
4.7127288878
 30
0.0
 10
7.6632302326
 20
4.7096731016
 30
0.0
  0
SPLINE
  5
40F
100
AcDbEntity
  8
0
100
AcDbSpline
 62
7
  6
CONTINUOUS
 70
0
 71
3
 72
24
 73
20
 74
0
 42
0.0000001
 43
0.0000001
 44
0.0000000001
 40
0.0
 40
0.0
 40
0.0
 40
0.0
 40
0.0051662028
 40
0.0110004657
 40
0.0179818453
 40
0.0263957618
 40
0.0364056417
 40
0.0481073222
 40
0.0767936106
 40
0.1127358589
 40
0.1560595174
 40
0.2068306456
 40
0.2650816314
 40
0.3308226873
 40
0.4040539796
 40
0.4847696539
 40
0.5729592668
 40
0.7716749546
 40
1.0
 40
1.0
 40
1.0
 40
1.0
 10
2.8805323883
 20
4.7304646273
 30
0.0
 10
2.8805493522
 20
4.7304646286
 30
0.0
 10
2.8805857028
 20
4.7304572716
 30
0.0
 10
2.8806369847
 20
4.7304264961
 30
0.0
 10
2.8806870768
 20
4.7303774115
 30
0.0
 10
2.880736726
 20
4.730310079
 30
0.0
 10
2.8807863046
 20
4.7302243137
 30
0.0
 10
2.8808573241
 20
4.7300746963
 30
0.0
 10
2.8809434014
 20
4.7298388323
 30
0.0
 10
2.8810416454
 20
4.7294981157
 30
0.0
 10
2.8811402874
 20
4.7290825342
 30
0.0
 10
2.8812392775
 20
4.7285921153
 30
0.0
 10
2.8813384785
 20
4.7280268454
 30
0.0
 10
2.8814378445
 20
4.7273868717
 30
0.0
 10
2.8815373249
 20
4.726672364
 30
0.0
 10
2.8816368996
 20
4.7258835171
 30
0.0
 10
2.8817753193
 20
4.724684327
 30
0.0
 10
2.8819461888
 20
4.7230010726
 30
0.0
 10
2.8820698439
 20
4.721604259
 30
0.0
 10
2.8821324643
 20
4.720857142
 30
0.0
  0
LINE
  5
410
100
AcDbEntity
  8
0
100
AcDbLine
 62
7
  6
CONTINUOUS
 10
7.7027035708
 20
4.2434975988
 11
7.7025287615
 21
4.2439149197
  0
SPLINE
  5
411
100
AcDbEntity
  8
0
100
AcDbSpline
 62
7
  6
CONTINUOUS
 70
0
 71
3
 72
26
 73
22
 74
0
 42
0.0000001
 43
0.0000001
 44
0.0000000001
 40
0.0
 40
0.0
 40
0.0
 40
0.0
 40
0.0027402756
 40
0.0059113839
 40
0.0135581772
 40
0.0229544392
 40
0.0341034684
 40
0.0470039216
 40
0.0616498417
 40
0.0780333698
 40
0.0961453764
 40
0.1375053003
 40
0.1856206826
 40
0.2403591282
 40
0.3015688476
 40
0.3690791953
 40
0.4426999126
 40
0.5222240069
 40
0.6074278102
 40
0.7938957481
 40
1.0
 40
1.0
 40
1.0
 40
1.0
 10
7.7025287615
 20
4.2439149197
 30
0.0
 10
7.7025014268
 20
4.243998112
 30
0.0
 10
7.7024476753
 20
4.2441792954
 30
0.0
 10
7.7023409462
 20
4.2445992799
 30
0.0
 10
7.7022111394
 20
4.245232371
 30
0.0
 10
7.7020623216
 20
4.246120992
 30
0.0
 10
7.7019129481
 20
4.2471793894
 30
0.0
 10
7.7017631094
 20
4.2484068725
 30
0.0
 10
7.7016129853
 20
4.2498026801
 30
0.0
 10
7.7014626322
 20
4.2513658508
 30
0.0
 10
7.7012525621
 20
4.2537807864
 30
0.0
 10
7.7009940369
 20
4.257209206
 30
0.0
 10
7.7006948322
 20
4.2618080119
 30
0.0
 10
7.7003949916
 20
4.2670422699
 30
0.0
 10
7.7000946402
 20
4.2728971771
 30
0.0
 10
7.6997939543
 20
4.2793561812
 30
0.0
 10
7.6994930138
 20
4.2864010021
 30
0.0
 10
7.6991918726
 20
4.294011699
 30
0.0
 10
7.6987776074
 20
4.3052268361
 30
0.0
 10
7.6982653872
 20
4.3204860389
 30
0.0
 10
7.6978837292
 20
4.3330252402
 30
0.0
 10
7.6976906907
 20
4.3396086553
 30
0.0
  0
SPLINE
  5
412
100
AcDbEntity
  8
0
100
AcDbSpline
 62
7
  6
CONTINUOUS
 70
0
 71
3
 72
34
 73
30
 74
0
 42
0.0000001
 43
0.0000001
 44
0.0000000001
 40
0.0
 40
0.0
 40
0.0
 40
0.0
 40
0.2236616587
 40
0.3262633934
 40
0.422359901
 40
0.5117075915
 40
0.5940796377
 40
0.6692689782
 40
0.7370859646
 40
0.7973609763
 40
0.8499460125
 40
0.8733137665
 40
0.8947135583
 40
0.9141330836
 40
0.9315615029
 40
0.9469914408
 40
0.9604172901
 40
0.9718362152
 40
0.9812521827
 40
0.9852131168
 40
0.9886796609
 40
0.9916569314
 40
0.9941537114
 40
0.9961855864
 40
0.9977820155
 40
0.9984356258
 40
0.999008661
 40
0.9995209631
 40
1.0
 40
1.0
 40
1.0
 40
1.0
 10
7.6896682546
 20
4.6547281208
 30
0.0
 10
7.6894864119
 20
4.6603578961
 30
0.0
 10
7.6892093426
 20
4.6685698889
 30
0.0
 10
7.688816408
 20
4.6791993787
 30
0.0
 10
7.6885303887
 20
4.6864479163
 30
0.0
 10
7.6882445515
 20
4.6931865719
 30
0.0
 10
7.6879589283
 20
4.6993982005
 30
0.0
 10
7.6876735907
 20
4.7050669901
 30
0.0
 10
7.6873886565
 20
4.7101785394
 30
0.0
 10
7.6871042087
 20
4.7147198627
 30
0.0
 10
7.6868592037
 20
4.7181419489
 30
0.0
 10
7.6866606946
 20
4.7205856518
 30
0.0
 10
7.6865178444
 20
4.7221958373
 30
0.0
 10
7.6863751412
 20
4.7236558183
 30
0.0
 10
7.6862326148
 20
4.7249646851
 30
0.0
 10
7.6860903356
 20
4.726121638
 30
0.0
 10
7.6859484553
 20
4.727126029
 30
0.0
 10
7.6858070289
 20
4.7279772712
 30
0.0
 10
7.6856839101
 20
4.7285897113
 30
0.0
 10
7.6855830575
 20
4.7290017975
 30
0.0
 10
7.6855119694
 20
4.7292540789
 30
0.0
 10
7.6854410672
 20
4.7294678782
 30
0.0
 10
7.6853703632
 20
4.729643415
 30
0.0
 10
7.6852998869
 20
4.7297808461
 30
0.0
 10
7.6852374583
 20
4.7298697232
 30
0.0
 10
7.6851861682
 20
4.7299192877
 30
0.0
 10
7.6851499698
 20
4.7299443787
 30
0.0
 10
7.6851133256
 20
4.7299597509
 30
0.0
 10
7.6850882502
 20
4.7299632693
 30
0.0
 10
7.6850761861
 20
4.7299632712
 30
0.0
  0
LINE
  5
413
100
AcDbEntity
  8
0
100
AcDbLine
 62
7
  6
CONTINUOUS
 10
2.8718315602
 20
4.730266331
 11
2.8719873527
 21
4.7299051372
  0
SPLINE
  5
414
100
AcDbEntity
  8
0
100
AcDbSpline
 62
7
  6
CONTINUOUS
 70
0
 71
3
 72
18
 73
14
 74
0
 42
0.0000001
 43
0.0000001
 44
0.0000000001
 40
0.0
 40
0.0
 40
0.0
 40
0.0
 40
0.020519074
 40
0.0466295405
 40
0.078385619
 40
0.1158054968
 40
0.158888837
 40
0.2076275571
 40
0.3219996479
 40
0.4587202964
 40
0.6175226989
 40
0.7980766855
 40
1.0
 40
1.0
 40
1.0
 40
1.0
 10
2.8719873527
 20
4.7299051372
 30
0.0
 10
2.8720384971
 20
4.7297565192
 30
0.0
 10
2.8721356624
 20
4.729412329
 30
0.0
 10
2.8722657599
 20
4.7288260611
 30
0.0
 10
2.8723965626
 20
4.7281078461
 30
0.0
 10
2.8725279058
 20
4.7272579897
 30
0.0
 10
2.8726596002
 20
4.7262767665
 30
0.0
 10
2.8728455597
 20
4.7247082994
 30
0.0
 10
2.8730730911
 20
4.7224227689
 30
0.0
 10
2.8733351505
 20
4.7192939374
 30
0.0
 10
2.8735979693
 20
4.715656699
 30
0.0
 10
2.873861428
 20
4.7115189468
 30
0.0
 10
2.8740281324
 20
4.7085939721
 30
0.0
 10
2.8741122609
 20
4.7070495688
 30
0.0
  0
SPLINE
  5
415
100
AcDbEntity
  8
0
100
AcDbSpline
 62
7
  6
CONTINUOUS
 70
0
 71
3
 72
31
 73
27
 74
0
 42
0.0000001
 43
0.0000001
 44
0.0000000001
 40
0.0
 40
0.0
 40
0.0
 40
0.0
 40
0.0012598343
 40
0.0027152122
 40
0.0044877652
 40
0.006646154
 40
0.0092284411
 40
0.0122566149
 40
0.0157440016
 40
0.0196991506
 40
0.0290329629
 40
0.0402874388
 40
0.0534768687
 40
0.0686084092
 40
0.0856838025
 40
0.1047022877
 40
0.1256617581
 40
0.1485591804
 40
0.2001463057
 40
0.2594107262
 40
0.3262906609
 40
0.4007079753
 40
0.4825777954
 40
0.5718030301
 40
0.7718861171
 40
1.0
 40
1.0
 40
1.0
 40
1.0
 10
2.8787486231
 20
4.2230837983
 30
0.0
 10
2.8787317407
 20
4.2230843258
 30
0.0
 10
2.8786954047
 20
4.2230934985
 30
0.0
 10
2.8786450033
 20
4.2231277421
 30
0.0
 10
2.8785957538
 20
4.223181102
 30
0.0
 10
2.8785468697
 20
4.2232537302
 30
0.0
 10
2.8784980124
 20
4.2233458661
 30
0.0
 10
2.8784491071
 20
4.223457699
 30
0.0
 10
2.8784001267
 20
4.2235893173
 30
0.0
 10
2.8783308651
 20
4.223803365
 30
0.0
 10
2.8782461378
 20
4.2241215302
 30
0.0
 10
2.8781487539
 20
4.2245638749
 30
0.0
 10
2.8780510857
 20
4.2250854712
 30
0.0
 10
2.8779531803
 20
4.225686217
 30
0.0
 10
2.8778551161
 20
4.2263659927
 30
0.0
 10
2.8777569321
 20
4.2271246039
 30
0.0
 10
2.8776586519
 20
4.2279618453
 30
0.0
 10
2.8775220314
 20
4.229234171
 30
0.0
 10
2.8773533719
 20
4.2310194713
 30
0.0
 10
2.877157634
 20
4.2333943112
 30
0.0
 10
2.8769615734
 20
4.2360761266
 30
0.0
 10
2.8767652284
 20
4.2390617107
 30
0.0
 10
2.8765686797
 20
4.2423474507
 30
0.0
 10
2.8762958737
 20
4.2473163885
 30
0.0
 10
2.8759591518
 20
4.2542453828
 30
0.0
 10
2.8757138864
 20
4.2599810248
 30
0.0
 10
2.8755896315
 20
4.2630368346
 30
0.0
  0
SPLINE
  5
416
100
AcDbEntity
  8
0
100
AcDbSpline
 62
7
  6
CONTINUOUS
 70
0
 71
3
 72
37
 73
33
 74
0
 42
0.0000001
 43
0.0000001
 44
0.0000000001
 40
0.0
 40
0.0
 40
0.0
 40
0.0
 40
0.0956337008
 40
0.1903940093
 40
0.2834143655
 40
0.3738394623
 40
0.4608402879
 40
0.5436187988
 40
0.6214162227
 40
0.6935197115
 40
0.759269071
 40
0.7895705053
 40
0.8180627973
 40
0.8446807143
 40
0.8693638402
 40
0.8920556708
 40
0.9127049531
 40
0.9312650313
 40
0.9476941519
 40
0.961956358
 40
0.9682649227
 40
0.9740208328
 40
0.9792212762
 40
0.9838637206
 40
0.9879465964
 40
0.9914690581
 40
0.9944310617
 40
0.9968345719
 40
0.9978286572
 40
0.998685861
 40
0.9994083771
 40
1.0
 40
1.0
 40
1.0
 40
1.0
 10
2.6864333343
 20
4.4863548137
 30
0.0
 10
2.6866147929
 20
4.4781451337
 30
0.0
 10
2.6869760513
 20
4.4618007501
 30
0.0
 10
2.6875186965
 20
4.4374711374
 30
0.0
 10
2.6880612466
 20
4.4135888772
 30
0.0
 10
2.6886036438
 20
4.3903730651
 30
0.0
 10
2.6891458152
 20
4.3680369214
 30
0.0
 10
2.6896876751
 20
4.3467853909
 30
0.0
 10
2.690229085
 20
4.3268134606
 30
0.0
 10
2.6907699211
 20
4.3083043145
 30
0.0
 10
2.6912315392
 20
4.2938729275
 30
0.0
 10
2.6916041506
 20
4.283185395
 30
0.0
 10
2.6918758414
 20
4.2758564645
 30
0.0
 10
2.6921473957
 20
4.269010303
 30
0.0
 10
2.6924187807
 20
4.2626626163
 30
0.0
 10
2.6926899517
 20
4.2568279274
 30
0.0
 10
2.6929608404
 20
4.2515196042
 30
0.0
 10
2.6932313185
 20
4.246749778
 30
0.0
 10
2.6935013059
 20
4.2425293424
 30
0.0
 10
2.6937340886
 20
4.2393607695
 30
0.0
 10
2.6939228447
 20
4.2371080774
 30
0.0
 10
2.6940584437
 20
4.2356318029
 30
0.0
 10
2.694193885
 20
4.2342992366
 30
0.0
 10
2.694329133
 20
4.233111122
 30
0.0
 10
2.6944641162
 20
4.2320681045
 30
0.0
 10
2.6945986499
 20
4.2311706613
 30
0.0
 10
2.6947326714
 20
4.2304192523
 30
0.0
 10
2.6948496427
 20
4.229885552
 30
0.0
 10
2.6949458591
 20
4.2295330275
 30
0.0
 10
2.6950132344
 20
4.229322436
 30
0.0
 10
2.6950803911
 20
4.2291483946
 30
0.0
 10
2.6951297804
 20
4.2290466364
 30
0.0
 10
2.6951551946
 20
4.2290026502
 30
0.0
  0
LINE
  5
417
100
AcDbEntity
  8
0
100
AcDbLine
 62
7
  6
CONTINUOUS
 10
7.7384172927
 20
4.244625555
 11
7.7383509923
 21
4.2447567449
  0
SPLINE
  5
418
100
AcDbEntity
  8
0
100
AcDbSpline
 62
7
  6
CONTINUOUS
 70
0
 71
3
 72
67
 73
63
 74
0
 42
0.0000001
 43
0.0000001
 44
0.0000000001
 40
0.0
 40
0.0
 40
0.0
 40
0.0
 40
0.0003792809
 40
0.0008268076
 40
0.001930629
 40
0.0033167194
 40
0.0049868722
 40
0.006941551
 40
0.0091806358
 40
0.011703446
 40
0.0145088311
 40
0.0209619371
 40
0.0285265793
 40
0.0371862244
 40
0.0469211286
 40
0.0577091592
 40
0.0695253961
 40
0.0823424654
 40
0.0961307391
 40
0.1264902313
 40
0.1603215688
 40
0.1973098049
 40
0.2371104583
 40
0.2793527369
 40
0.3236431756
 40
0.369569225
 40
0.4167032067
 40
0.464606169
 40
0.5128321673
 40
0.5609322755
 40
0.6084589013
 40
0.6549698098
 40
0.7000324342
 40
0.7432277333
 40
0.7841542518
 40
0.8224317004
 40
0.8577046588
 40
0.889645831
 40
0.9042732809
 40
0.9179593312
 40
0.9306725017
 40
0.9423833398
 40
0.9530649844
 40
0.9626930196
 40
0.9712454504
 40
0.9787033069
 40
0.9820165051
 40
0.9850502575
 40
0.9878030077
 40
0.9902733976
 40
0.9924605589
 40
0.9943638975
 40
0.9959832029
 40
0.9973192396
 40
0.9978817234
 40
0.9983744479
 40
0.9987982258
 40
0.9991544001
 40
0.9994453502
 40
0.9996755355
 40
0.9998540474
 40
1.0
 40
1.0
 40
1.0
 40
1.0
 10
7.7383509923
 20
4.2447567449
 30
0.0
 10
7.7383258862
 20
4.2448126468
 30
0.0
 10
7.738276701
 20
4.2449370012
 30
0.0
 10
7.7381791462
 20
4.2452333968
 30
0.0
 10
7.7380611699
 20
4.2456935597
 30
0.0
 10
7.737926377
 20
4.2463521611
 30
0.0
 10
7.7377909847
 20
4.247150513
 30
0.0
 10
7.7376550581
 20
4.2480882092
 30
0.0
 10
7.7375188375
 20
4.2491648781
 30
0.0
 10
7.7373823793
 20
4.2503799237
 30
0.0
 10
7.7371911799
 20
4.2522738462
 30
0.0
 10
7.7369562128
 20
4.2549819258
 30
0.0
 10
7.7366846489
 20
4.2586359159
 30
0.0
 10
7.736412467
 20
4.2628213785
 30
0.0
 10
7.7361397668
 20
4.2675285764
 30
0.0
 10
7.7358667393
 20
4.2727465356
 30
0.0
 10
7.7355934622
 20
4.2784630869
 30
0.0
 10
7.7353199868
 20
4.2846648887
 30
0.0
 10
7.7349429638
 20
4.2938610456
 30
0.0
 10
7.7344769189
 20
4.3064516397
 30
0.0
 10
7.7339329136
 20
4.322790222
 30
0.0
 10
7.73338819
 20
4.3406549684
 30
0.0
 10
7.7328429106
 20
4.359879243
 30
0.0
 10
7.7322972641
 20
4.380283776
 30
0.0
 10
7.7317513598
 20
4.4016783238
 30
0.0
 10
7.7312052866
 20
4.4238634715
 30
0.0
 10
7.7306591121
 20
4.4466324673
 30
0.0
 10
7.7301128925
 20
4.4697731717
 30
0.0
 10
7.7295666776
 20
4.4930700174
 30
0.0
 10
7.7290205146
 20
4.5163060424
 30
0.0
 10
7.7284744518
 20
4.539264884
 30
0.0
 10
7.7279285418
 20
4.5617328188
 30
0.0
 10
7.727382846
 20
4.58350073
 30
0.0
 10
7.7268374429
 20
4.6043660796
 30
0.0
 10
7.7262924281
 20
4.6241347596
 30
0.0
 10
7.7257479596
 20
4.6426229208
 30
0.0
 10
7.7252041767
 20
4.6596586534
 30
0.0
 10
7.7247393235
 20
4.6728737512
 30
0.0
 10
7.7243637738
 20
4.6826019273
 30
0.0
 10
7.7240905643
 20
4.6892250277
 30
0.0
 10
7.7238175323
 20
4.695376467
 30
0.0
 10
7.7235447053
 20
4.7010419767
 30
0.0
 10
7.7232721472
 20
4.7062084037
 30
0.0
 10
7.7229999782
 20
4.7108637706
 30
0.0
 10
7.7227282692
 20
4.7149973017
 30
0.0
 10
7.7224942179
 20
4.7181107089
 30
0.0
 10
7.7223045867
 20
4.720333109
 30
0.0
 10
7.7221681385
 20
4.7217970304
 30
0.0
 10
7.7220318301
 20
4.7231241472
 30
0.0
 10
7.7218956892
 20
4.7243137069
 30
0.0
 10
7.7217597818
 20
4.7253650532
 30
0.0
 10
7.721624251
 20
4.726277665
 30
0.0
 10
7.7214891507
 20
4.7270510628
 30
0.0
 10
7.7213715402
 20
4.7276073765
 30
0.0
 10
7.7212752247
 20
4.7279816005
 30
0.0
 10
7.7212073075
 20
4.728210775
 30
0.0
 10
7.7211395588
 20
4.7284050342
 30
0.0
 10
7.721071978
 20
4.7285644875
 30
0.0
 10
7.721004565
 20
4.7286895492
 30
0.0
 10
7.7209368361
 20
4.7287807083
 30
0.0
 10
7.7208673271
 20
4.7288394454
 30
0.0
 10
7.7208146885
 20
4.7288547436
 30
0.0
 10
7.7207911068
 20
4.7288547475
 30
0.0
  0
LINE
  5
419
100
AcDbEntity
  8
0
100
AcDbLine
 62
7
  6
CONTINUOUS
 10
7.7741312354
 20
4.2457177002
 11
7.7740627757
 21
4.2458536383
  0
SPLINE
  5
41A
100
AcDbEntity
  8
0
100
AcDbSpline
 62
7
  6
CONTINUOUS
 70
0
 71
3
 72
67
 73
63
 74
0
 42
0.0000001
 43
0.0000001
 44
0.0000000001
 40
0.0
 40
0.0
 40
0.0
 40
0.0
 40
0.0003826046
 40
0.0008334651
 40
0.001943921
 40
0.0033365543
 40
0.0050131372
 40
0.0069741232
 40
0.0092193865
 40
0.0117482434
 40
0.0145595382
 40
0.021024034
 40
0.0285994815
 40
0.0372693284
 40
0.0470138093
 40
0.0578107755
 40
0.0696352843
 40
0.0824599616
 40
0.0962551704
 40
0.1266264627
 40
0.1604668592
 40
0.1974614212
 40
0.2372657583
 40
0.2795091716
 40
0.323798355
 40
0.369720918
 40
0.4168494167
 40
0.4647451268
 40
0.5129623749
 40
0.5610525035
 40
0.6085682315
 40
0.6550676121
 40
0.7001183644
 40
0.743301716
 40
0.7842164675
 40
0.8224825762
 40
0.8577448455
 40
0.8896761711
 40
0.9042990576
 40
0.9179808403
 40
0.9306900433
 40
0.942397205
 40
0.9530755275
 40
0.9627005711
 40
0.9712503898
 40
0.9787060139
 40
0.9820182382
 40
0.9850511108
 40
0.9878031042
 40
0.9902728464
 40
0.9924594564
 40
0.9943623728
 40
0.9959814008
 40
0.9973172814
 40
0.9978797474
 40
0.9983725049
 40
0.9987963773
 40
0.999152717
 40
0.9994439078
 40
0.9996744369
 40
0.9998534309
 40
1.0
 40
1.0
 40
1.0
 40
1.0
 10
7.7740627757
 20
4.2458536383
 30
0.0
 10
7.7740376968
 20
4.2459098285
 30
0.0
 10
7.7739885495
 20
4.246034683
 30
0.0
 10
7.7738910606
 20
4.2463318344
 30
0.0
 10
7.7737731175
 20
4.2467924802
 30
0.0
 10
7.7736383416
 20
4.2474511396
 30
0.0
 10
7.7735029726
 20
4.2482488518
 30
0.0
 10
7.7733670761
 20
4.2491852109
 30
0.0
 10
7.7732308883
 20
4.250259843
 30
0.0
 10
7.773094465
 20
4.2514721531
 30
0.0
 10
7.7729033394
 20
4.2533610331
 30
0.0
 10
7.7726684459
 20
4.2560610727
 30
0.0
 10
7.7723969498
 20
4.2597033475
 30
0.0
 10
7.7721248381
 20
4.263874359
 30
0.0
 10
7.7718522098
 20
4.2685644046
 30
0.0
 10
7.7715792552
 20
4.2737625501
 30
0.0
 10
7.7713060511
 20
4.2794566758
 30
0.0
 10
7.7710326486
 20
4.2856334955
 30
0.0
 10
7.7706557405
 20
4.2947914137
 30
0.0
 10
7.7701898264
 20
4.307328339
 30
0.0
 10
7.7696459551
 20
4.3235958638
 30
0.0
 10
7.7691013626
 20
4.3413812144
 30
0.0
 10
7.768556211
 20
4.3605185527
 30
0.0
 10
7.7680106881
 20
4.3808294899
 30
0.0
 10
7.767464903
 20
4.4021247253
 30
0.0
 10
7.7669189442
 20
4.4242058519
 30
0.0
 10
7.7663728793
 20
4.4468671705
 30
0.0
 10
7.7658267643
 20
4.4698976376
 30
0.0
 10
7.7652806492
 20
4.4930828025
 30
0.0
 10
7.7647345813
 20
4.5162068408
 30
0.0
 10
7.7641886092
 20
4.5390545261
 30
0.0
 10
7.7636427857
 20
4.561413263
 30
0.0
 10
7.7630971726
 20
4.5830750338
 30
0.0
 10
7.7625518484
 20
4.6038383643
 30
0.0
 10
7.7620069092
 20
4.6235101648
 30
0.0
 10
7.7614625131
 20
4.6419075499
 30
0.0
 10
7.7609187995
 20
4.6588595076
 30
0.0
 10
7.7604540032
 20
4.6720095456
 30
0.0
 10
7.7600784978
 20
4.6816897844
 30
0.0
 10
7.7598053204
 20
4.6882802286
 30
0.0
 10
7.7595323203
 20
4.6944013257
 30
0.0
 10
7.7592595236
 20
4.7000388815
 30
0.0
 10
7.7589869968
 20
4.7051798076
 30
0.0
 10
7.7587148569
 20
4.7098121946
 30
0.0
 10
7.7584431774
 20
4.7139253188
 30
0.0
 10
7.7582091513
 20
4.7170233499
 30
0.0
 10
7.7580195408
 20
4.719234768
 30
0.0
 10
7.7578831061
 20
4.7206914588
 30
0.0
 10
7.7577468122
 20
4.7220120227
 30
0.0
 10
7.7576106858
 20
4.7231957095
 30
0.0
 10
7.757474791
 20
4.724241865
 30
0.0
 10
7.7573392723
 20
4.7251499739
 30
0.0
 10
7.7572041865
 20
4.7259195594
 30
0.0
 10
7.7570865864
 20
4.7264731226
 30
0.0
 10
7.7569902821
 20
4.7268454861
 30
0.0
 10
7.75692237
 20
4.7270735311
 30
0.0
 10
7.7568546252
 20
4.7272668371
 30
0.0
 10
7.7567870481
 20
4.7274255134
 30
0.0
 10
7.7567196319
 20
4.7275499672
 30
0.0
 10
7.7566518945
 20
4.7276406865
 30
0.0
 10
7.7565823676
 20
4.727699115
 30
0.0
 10
7.7565297882
 20
4.7277143046
 30
0.0
 10
7.7565062161
 20
4.7277143079
 30
0.0
  0
SPLINE
  5
41B
100
AcDbEntity
  8
0
100
AcDbSpline
 62
7
  6
CONTINUOUS
 70
0
 71
3
 72
43
 73
39
 74
0
 42
0.0000001
 43
0.0000001
 44
0.0000000001
 40
0.0
 40
0.0
 40
0.0
 40
0.0
 40
0.0001343666
 40
0.00027781
 40
0.0004388407
 40
0.0006235482
 40
0.0010782984
 40
0.0016615069
 40
0.0023816575
 40
0.0032431596
 40
0.0042485271
 40
0.0053992268
 40
0.0066961186
 40
0.0081397325
 40
0.0114681893
 40
0.0153858413
 40
0.0198920324
 40
0.0249850185
 40
0.0306626746
 40
0.0369221932
 40
0.0437600139
 40
0.0591553167
 40
0.0768132353
 40
0.0966926145
 40
0.1187460504
 40
0.1429210611
 40
0.1691598882
 40
0.1973993577
 40
0.2275718783
 40
0.2934211215
 40
0.366074515
 40
0.4448330711
 40
0.5289388623
 40
0.6175826589
 40
0.7099114631
 40
0.8050372994
 40
0.9020434167
 40
1.0
 40
1.0
 40
1.0
 40
1.0
 10
7.7541843648
 20
4.2260248037
 30
0.0
 10
7.7541726947
 20
4.2260244389
 30
0.0
 10
7.7541483341
 20
4.2260272191
 30
0.0
 10
7.7541126631
 20
4.2260417078
 30
0.0
 10
7.7540774893
 20
4.2260660442
 30
0.0
 10
7.7540275586
 20
4.2261148147
 30
0.0
 10
7.7539669386
 20
4.2262030305
 30
0.0
 10
7.7538985938
 20
4.2263398636
 30
0.0
 10
7.7538299953
 20
4.2265152528
 30
0.0
 10
7.7537611757
 20
4.2267293484
 30
0.0
 10
7.7536921735
 20
4.2269823918
 30
0.0
 10
7.7536230385
 20
4.2272744077
 30
0.0
 10
7.7535537932
 20
4.2276054018
 30
0.0
 10
7.7534566964
 20
4.2281237827
 30
0.0
 10
7.7533373369
 20
4.2288695095
 30
0.0
 10
7.7531994955
 20
4.2298814432
 30
0.0
 10
7.7530613272
 20
4.2310478894
 30
0.0
 10
7.75292288
 20
4.2323681689
 30
0.0
 10
7.7527842532
 20
4.2338415297
 30
0.0
 10
7.7526454769
 20
4.2354670969
 30
0.0
 10
7.7524525777
 20
4.2379354718
 30
0.0
 10
7.7522144848
 20
4.2413937099
 30
0.0
 10
7.7519380662
 20
4.2459850411
 30
0.0
 10
7.7516611433
 20
4.2511558317
 30
0.0
 10
7.7513837921
 20
4.2568936283
 30
0.0
 10
7.7511061379
 20
4.2631846029
 30
0.0
 10
7.7508282464
 20
4.2700135845
 30
0.0
 10
7.7505501493
 20
4.2773641135
 30
0.0
 10
7.7501679214
 20
4.2881551028
 30
0.0
 10
7.7496947585
 20
4.3028046188
 30
0.0
 10
7.7491410864
 20
4.3216755471
 30
0.0
 10
7.7485866529
 20
4.3421334929
 30
0.0
 10
7.748031615
 20
4.36398139
 30
0.0
 10
7.7474761494
 20
4.3870088291
 30
0.0
 10
7.7469203685
 20
4.410994119
 30
0.0
 10
7.746364372
 20
4.4357062405
 30
0.0
 10
7.7458082344
 20
4.4609075085
 30
0.0
 10
7.7454380449
 20
4.4778448547
 30
0.0
 10
7.7452520523
 20
4.4863548137
 30
0.0
  0
SPLINE
  5
41C
100
AcDbEntity
  8
0
100
AcDbSpline
 62
7
  6
CONTINUOUS
 70
0
 71
3
 72
42
 73
38
 74
0
 42
0.0000001
 43
0.0000001
 44
0.0000000001
 40
0.0
 40
0.0
 40
0.0
 40
0.0
 40
0.0001368459
 40
0.0002847198
 40
0.0004515353
 40
0.000642865
 40
0.0011121493
 40
0.0017104947
 40
0.00244586
 40
0.0033224431
 40
0.0043426631
 40
0.0055079386
 40
0.0082765321
 40
0.0116319663
 40
0.0155753124
 40
0.0201059103
 40
0.0252220281
 40
0.0309215551
 40
0.0372016942
 40
0.0440589017
 40
0.0594893448
 40
0.0771776668
 40
0.0970828529
 40
0.1191576443
 40
0.1433497065
 40
0.1696014306
 40
0.1978497905
 40
0.2280273433
 40
0.2938756411
 40
0.3665142914
 40
0.4452452335
 40
0.5293112777
 40
0.6179036999
 40
0.7101697555
 40
0.8052214319
 40
0.9021416555
 40
1.0
 40
1.0
 40
1.0
 40
1.0
 10
7.8386433651
 20
4.7440454799
 30
0.0
 10
7.83865513
 20
4.7440451122
 30
0.0
 10
7.8386796011
 20
4.7440407796
 30
0.0
 10
7.8387151242
 20
4.744024275
 30
0.0
 10
7.8387502037
 20
4.74399811
 30
0.0
 10
7.8388000062
 20
4.7439469674
 30
0.0
 10
7.8388605234
 20
4.743856298
 30
0.0
 10
7.8389288892
 20
4.7437169022
 30
0.0
 10
7.838997495
 20
4.7435393847
 30
0.0
 10
7.8390663111
 20
4.7433236071
 30
0.0
 10
7.8391353083
 20
4.7430693536
 30
0.0
 10
7.8392331756
 20
4.742654564
 30
0.0
 10
7.8393526629
 20
4.7420388507
 30
0.0
 10
7.8394899413
 20
4.7411837832
 30
0.0
 10
7.8396276616
 20
4.7401755755
 30
0.0
 10
7.8397657615
 20
4.7390147819
 30
0.0
 10
7.8399041044
 20
4.7377020244
 30
0.0
 10
7.840042623
 20
4.7362380607
 30
0.0
 10
7.8401812793
 20
4.7346237487
 30
0.0
 10
7.8403739629
 20
4.732174062
 30
0.0
 10
7.840611796
 20
4.7287437246
 30
0.0
 10
7.8408879211
 20
4.7241912401
 30
0.0
 10
7.8411645228
 20
4.7190663459
 30
0.0
 10
7.8414415284
 20
4.7133813344
 30
0.0
 10
7.8417188164
 20
4.7071498568
 30
0.0
 10
7.841996324
 20
4.7003868936
 30
0.0
 10
7.8422740222
 20
4.6931087003
 30
0.0
 10
7.8426556608
 20
4.6824261579
 30
0.0
 10
7.843128084
 20
4.6679262722
 30
0.0
 10
7.8436808957
 20
4.6492506073
 30
0.0
 10
7.8442344634
 20
4.6290073492
 30
0.0
 10
7.8447886485
 20
4.6073913813
 30
0.0
 10
7.8453432933
 20
4.5846108522
 30
0.0
 10
7.8458983034
 20
4.5608851445
 30
0.0
 10
7.8464535976
 20
4.5364429449
 30
0.0
 10
7.8470091184
 20
4.5115196132
 30
0.0
 10
7.8473789918
 20
4.4947699705
 30
0.0
 10
7.8475648468
 20
4.4863548137
 30
0.0
  0
SPLINE
  5
41D
100
AcDbEntity
  8
0
100
AcDbSpline
 62
7
  6
CONTINUOUS
 70
0
 71
3
 72
43
 73
39
 74
0
 42
0.0000001
 43
0.0000001
 44
0.0000000001
 40
0.0
 40
0.0
 40
0.0
 40
0.0
 40
0.0001362787
 40
0.0002836159
 40
0.0004499425
 40
0.0006408351
 40
0.0011093953
 40
0.0017072024
 40
0.0024421926
 40
0.003318474
 40
0.0043383716
 40
0.0055032907
 40
0.0082712697
 40
0.0116264277
 40
0.0155694286
 40
0.0200996031
 40
0.0252155778
 40
0.0309149307
 40
0.0371947369
 40
0.0440518552
 40
0.0594819836
 40
0.0771702736
 40
0.0970752109
 40
0.1191499799
 40
0.1433421233
 40
0.1695937657
 40
0.1978423144
 40
0.2280200026
 40
0.2600543883
 40
0.293868751
 40
0.3665078565
 40
0.445239463
 40
0.5293063136
 40
0.6178995896
 40
0.7101665917
 40
0.8052192212
 40
0.9021405821
 40
1.0
 40
1.0
 40
1.0
 40
1.0
 10
7.8029336819
 20
4.7451614101
 30
0.0
 10
7.8029454486
 20
4.7451610417
 30
0.0
 10
7.80296993
 20
4.7451566914
 30
0.0
 10
7.8030054575
 20
4.74514012
 30
0.0
 10
7.8030405373
 20
4.7451138509
 30
0.0
 10
7.803090352
 20
4.7450624894
 30
0.0
 10
7.8031508697
 20
4.7449714336
 30
0.0
 10
7.8032192306
 20
4.7448314481
 30
0.0
 10
7.8032878314
 20
4.7446531611
 30
0.0
 10
7.8033566462
 20
4.7444364479
 30
0.0
 10
7.8034256466
 20
4.7441811045
 30
0.0
 10
7.8035235237
 20
4.7437645411
 30
0.0
 10
7.803643022
 20
4.7431461816
 30
0.0
 10
7.8037802931
 20
4.742287433
 30
0.0
 10
7.8039180194
 20
4.7412748816
 30
0.0
 10
7.8040561285
 20
4.7401090836
 30
0.0
 10
7.8041944677
 20
4.7387906566
 30
0.0
 10
7.8043329875
 20
4.7373203691
 30
0.0
 10
7.804471651
 20
4.7356990848
 30
0.0
 10
7.8046643298
 20
4.7332388143
 30
0.0
 10
7.8049021692
 20
4.7297936264
 30
0.0
 10
7.8051782838
 20
4.7252214552
 30
0.0
 10
7.8054548849
 20
4.7200743849
 30
0.0
 10
7.8057318797
 20
4.7143647733
 30
0.0
 10
7.8060091541
 20
4.7081063256
 30
0.0
 10
7.8062866524
 20
4.7013140823
 30
0.0
 10
7.8065643228
 20
4.6940043814
 30
0.0
 10
7.8068421343
 20
4.6861948035
 30
0.0
 10
7.8071200722
 20
4.6779041376
 30
0.0
 10
7.8074999079
 20
4.6659467829
 30
0.0
 10
7.8079710507
 20
4.6499563445
 30
0.0
 10
7.8085245806
 20
4.6296254098
 30
0.0
 10
7.8090786741
 20
4.607915801
 30
0.0
 10
7.8096332292
 20
4.58503658
 30
0.0
 10
7.8101881348
 20
4.5612080865
 30
0.0
 10
7.8107433143
 20
4.5366599831
 30
0.0
 10
7.811298709
 20
4.5116286589
 30
0.0
 10
7.8116684912
 20
4.4948064334
 30
0.0
 10
7.8118542984
 20
4.4863548137
 30
0.0
  0
SPLINE
  5
41E
100
AcDbEntity
  8
0
100
AcDbSpline
 62
7
  6
CONTINUOUS
 70
0
 71
3
 72
70
 73
66
 74
0
 42
0.0000001
 43
0.0000001
 44
0.0000000001
 40
0.0
 40
0.0
 40
0.0
 40
0.0
 40
0.0001480828
 40
0.00032889
 40
0.0005617404
 40
0.0008558279
 40
0.0012156473
 40
0.0016435986
 40
0.0021410722
 40
0.0027089266
 40
0.004057682
 40
0.0056922083
 40
0.0076131526
 40
0.0098205001
 40
0.0123136281
 40
0.0150914256
 40
0.0181526373
 40
0.0214957893
 40
0.0290202309
 40
0.0376483045
 40
0.0473602299
 40
0.0581337778
 40
0.0699438946
 40
0.0827630277
 40
0.0965613624
 40
0.1113064476
 40
0.1434968541
 40
0.1790325466
 40
0.2175802061
 40
0.2587782242
 40
0.3022400358
 40
0.3475578847
 40
0.3943065649
 40
0.4420475955
 40
0.4903331894
 40
0.5387106128
 40
0.586726267
 40
0.6339301568
 40
0.6798799216
 40
0.7241451418
 40
0.7663112201
 40
0.8059835055
 40
0.8427908024
 40
0.8763890164
 40
0.8918853388
 40
0.9064643082
 40
0.9200918046
 40
0.9327362445
 40
0.9443681671
 40
0.9549606504
 40
0.9644894014
 40
0.9729324896
 40
0.9802711023
 40
0.9835210637
 40
0.9864892178
 40
0.9891740226
 40
0.9915742414
 40
0.9936890976
 40
0.9955180813
 40
0.9970612039
 40
0.9983196587
 40
0.9988430526
 40
0.9992966949
 40
0.999681703
 40
1.0
 40
1.0
 40
1.0
 40
1.0
 10
7.8011486275
 20
4.2466500119
 30
0.0
 10
7.8011249146
 20
4.2466500079
 30
0.0
 10
7.8010720199
 20
4.2466652589
 30
0.0
 10
7.8010020652
 20
4.2467240013
 30
0.0
 10
7.8009339221
 20
4.2468152205
 30
0.0
 10
7.8008661012
 20
4.2469403487
 30
0.0
 10
7.8007981164
 20
4.2470998646
 30
0.0
 10
7.8007299623
 20
4.2472941756
 30
0.0
 10
7.8006616426
 20
4.2475233996
 30
0.0
 10
7.8005647611
 20
4.247897703
 30
0.0
 10
7.8004464737
 20
4.2484541561
 30
0.0
 10
7.8003105926
 20
4.2492277271
 30
0.0
 10
7.8001742711
 20
4.2501405011
 30
0.0
 10
7.8000375878
 20
4.2511920052
 30
0.0
 10
7.7999006794
 20
4.2523817041
 30
0.0
 10
7.7997635955
 20
4.2537089147
 30
0.0
 10
7.7996263788
 20
4.2551728805
 30
0.0
 10
7.7994357044
 20
4.2573951909
 30
0.0
 10
7.799200355
 20
4.2605082773
 30
0.0
 10
7.7989271764
 20
4.2646410413
 30
0.0
 10
7.7986535373
 20
4.269295068
 30
0.0
 10
7.7983795366
 20
4.2744594058
 30
0.0
 10
7.7981052833
 20
4.2801219299
 30
0.0
 10
7.7978308383
 20
4.2862693313
 30
0.0
 10
7.7975562428
 20
4.2928871429
 30
0.0
 10
7.7971788363
 20
4.3026052974
 30
0.0
 10
7.7967117461
 20
4.3158034052
 30
0.0
 10
7.7961653797
 20
4.3328125549
 30
0.0
 10
7.7956184031
 20
4.3512647806
 30
0.0
 10
7.795070956
 20
4.3709867391
 30
0.0
 10
7.7945231978
 20
4.3917932107
 30
0.0
 10
7.7939752243
 20
4.4134888123
 30
0.0
 10
7.7934271148
 20
4.4358698638
 30
0.0
 10
7.7928789314
 20
4.4587262851
 30
0.0
 10
7.7923307276
 20
4.4818435947
 30
0.0
 10
7.7917825526
 20
4.5050048934
 30
0.0
 10
7.7912344541
 20
4.5279929291
 30
0.0
 10
7.7906864835
 20
4.5505921088
 30
0.0
 10
7.7901386983
 20
4.5725905459
 30
0.0
 10
7.7895911703
 20
4.5937820138
 30
0.0
 10
7.7890439845
 20
4.6139679118
 30
0.0
 10
7.7884972778
 20
4.6329591052
 30
0.0
 10
7.7879511716
 20
4.6505777137
 30
0.0
 10
7.7874851766
 20
4.6643255406
 30
0.0
 10
7.7871090577
 20
4.6745148182
 30
0.0
 10
7.7868347388
 20
4.6815076921
 30
0.0
 10
7.7865605597
 20
4.6880435186
 30
0.0
 10
7.7862865514
 20
4.6941069899
 30
0.0
 10
7.7860127626
 20
4.6996839327
 30
0.0
 10
7.7857392522
 20
4.7047613124
 30
0.0
 10
7.7854661546
 20
4.70932727
 30
0.0
 10
7.7851935428
 20
4.7133711649
 30
0.0
 10
7.784958555
 20
4.7164097656
 30
0.0
 10
7.7847680525
 20
4.7185722861
 30
0.0
 10
7.7846311404
 20
4.7199913652
 30
0.0
 10
7.7844943777
 20
4.7212736958
 30
0.0
 10
7.7843578024
 20
4.7224185532
 30
0.0
 10
7.7842214878
 20
4.723425307
 30
0.0
 10
7.7840855997
 20
4.7242934751
 30
0.0
 10
7.783950192
 20
4.7250226087
 30
0.0
 10
7.7838320967
 20
4.7255420817
 30
0.0
 10
7.7837350959
 20
4.7258867427
 30
0.0
 10
7.7836670161
 20
4.7260940576
 30
0.0
 10
7.7835991284
 20
4.7262665471
 30
0.0
 10
7.7835494183
 20
4.7263678788
 30
0.0
 10
7.7835239176
 20
4.7264120107
 30
0.0
  0
SPLINE
  5
41F
100
AcDbEntity
  8
0
100
AcDbSpline
 62
7
  6
CONTINUOUS
 70
0
 71
3
 72
70
 73
66
 74
0
 42
0.0000001
 43
0.0000001
 44
0.0000000001
 40
0.0
 40
0.0
 40
0.0
 40
0.0
 40
0.0001487238
 40
0.0003300613
 40
0.0005633089
 40
0.0008576897
 40
0.0012177296
 40
0.0016458527
 40
0.0021434677
 40
0.0027114478
 40
0.0040603679
 40
0.0056949388
 40
0.0076158787
 40
0.0098232002
 40
0.0123162066
 40
0.0150938341
 40
0.0181548785
 40
0.021497794
 40
0.0290216396
 40
0.0376489712
 40
0.04736005
 40
0.0581325768
 40
0.0699415966
 40
0.0827594863
 40
0.0965564745
 40
0.1113001375
 40
0.1434873782
 40
0.1790195896
 40
0.2175635146
 40
0.2587576444
 40
0.302215466
 40
0.3475293072
 40
0.3942740516
 40
0.4420113206
 40
0.4902934086
 40
0.5386676815
 40
0.5866806334
 40
0.6338823517
 40
0.6798305557
 40
0.724094906
 40
0.7662608837
 40
0.8059339011
 40
0.8427428158
 40
0.8763435638
 40
0.8918414992
 40
0.9064223318
 40
0.9200519433
 40
0.9326987221
 40
0.9443332681
 40
0.9549285851
 40
0.964460426
 40
0.9729068674
 40
0.9802490579
 40
0.9835009208
 40
0.9864710351
 40
0.989157838
 40
0.9915601445
 40
0.9936771657
 40
0.995508365
 40
0.9970537916
 40
0.9983146494
 40
0.9988392722
 40
0.9992941565
 40
0.9996804204
 40
1.0
 40
1.0
 40
1.0
 40
1.0
 10
7.8368634832
 20
4.2477647197
 30
0.0
 10
7.8368397778
 20
4.2477647158
 30
0.0
 10
7.836786935
 20
4.2477798704
 30
0.0
 10
7.8367169655
 20
4.2478383301
 30
0.0
 10
7.836648809
 20
4.2479291296
 30
0.0
 10
7.8365809806
 20
4.2480536723
 30
0.0
 10
7.8365129934
 20
4.2482124362
 30
0.0
 10
7.8364448392
 20
4.2484058294
 30
0.0
 10
7.8363765205
 20
4.2486339738
 30
0.0
 10
7.8362796471
 20
4.249006505
 30
0.0
 10
7.836161365
 20
4.2495603278
 30
0.0
 10
7.8360254853
 20
4.2503302476
 30
0.0
 10
7.8358891688
 20
4.251238713
 30
0.0
 10
7.8357524942
 20
4.2522852526
 30
0.0
 10
7.8356155898
 20
4.2534693303
 30
0.0
 10
7.8354785109
 20
4.2547902691
 30
0.0
 10
7.8353413027
 20
4.2562473191
 30
0.0
 10
7.8351506365
 20
4.2584591247
 30
0.0
 10
7.8349152989
 20
4.2615574921
 30
0.0
 10
7.8346421329
 20
4.265670726
 30
0.0
 10
7.8343685092
 20
4.2703027552
 30
0.0
 10
7.8340945206
 20
4.2754426874
 30
0.0
 10
7.8338202832
 20
4.2810784464
 30
0.0
 10
7.8335458523
 20
4.2871967945
 30
0.0
 10
7.8332712719
 20
4.2937833312
 30
0.0
 10
7.8328938873
 20
4.3034555619
 30
0.0
 10
7.8324268233
 20
4.3165913152
 30
0.0
 10
7.8318804894
 20
4.3335201252
 30
0.0
 10
7.8313335462
 20
4.3518852332
 30
0.0
 10
7.8307861338
 20
4.3715141299
 30
0.0
 10
7.830238411
 20
4.392222488
 30
0.0
 10
7.8296904739
 20
4.4138158622
 30
0.0
 10
7.8291424016
 20
4.436091557
 30
0.0
 10
7.8285942562
 20
4.4588405061
 30
0.0
 10
7.8280460912
 20
4.4818492637
 30
0.0
 10
7.8274979555
 20
4.5049019762
 30
0.0
 10
7.826949897
 20
4.5277824388
 30
0.0
 10
7.826401967
 20
4.5502760948
 30
0.0
 10
7.825854223
 20
4.572172075
 30
0.0
 10
7.8253067365
 20
4.593265143
 30
0.0
 10
7.8247595923
 20
4.6133576507
 30
0.0
 10
7.8242129275
 20
4.6322613676
 30
0.0
 10
7.8236668632
 20
4.6497992573
 30
0.0
 10
7.8232009079
 20
4.6634843995
 30
0.0
 10
7.8228248224
 20
4.6736274851
 30
0.0
 10
7.8225505251
 20
4.680588886
 30
0.0
 10
7.8222763684
 20
4.6870954641
 30
0.0
 10
7.8220023806
 20
4.6931319873
 30
0.0
 10
7.8217286142
 20
4.6986843406
 30
0.0
 10
7.8214551243
 20
4.7037395537
 30
0.0
 10
7.821182047
 20
4.7082858179
 30
0.0
 10
7.8209094558
 20
4.7123125423
 30
0.0
 10
7.8206744881
 20
4.7153384308
 30
0.0
 10
7.8204840073
 20
4.7174920724
 30
0.0
 10
7.8203471063
 20
4.718905472
 30
0.0
 10
7.8202103516
 20
4.7201827793
 30
0.0
 10
7.8200737855
 20
4.7213232753
 30
0.0
 10
7.8199374804
 20
4.7223263332
 30
0.0
 10
7.8198015975
 20
4.7231914705
 30
0.0
 10
7.819666194
 20
4.7239182419
 30
0.0
 10
7.819548111
 20
4.724436164
 30
0.0
 10
7.8194511297
 20
4.7247799188
 30
0.0
 10
7.8193830512
 20
4.7249867979
 30
0.0
 10
7.8193151598
 20
4.7251590132
 30
0.0
 10
7.8192654652
 20
4.725260221
 30
0.0
 10
7.8192399784
 20
4.7253043251
 30
0.0
  0
SPLINE
  5
420
100
AcDbEntity
  8
0
100
AcDbSpline
 62
7
  6
CONTINUOUS
 70
0
 71
3
 72
37
 73
33
 74
0
 42
0.0000001
 43
0.0000001
 44
0.0000000001
 40
0.0
 40
0.0
 40
0.0
 40
0.0
 40
0.0003659286
 40
0.000780962
 40
0.0012768894
 40
0.0018726613
 40
0.0025792163
 40
0.0034030718
 40
0.0054170338
 40
0.0079342445
 40
0.0109636303
 40
0.0145096034
 40
0.0185744588
 40
0.0231593647
 40
0.0282648195
 40
0.0338906894
 40
0.0400361592
 40
0.0538814459
 40
0.0697906926
 40
0.0877494728
 40
0.1077407755
 40
0.1537409354
 40
0.2076072745
 40
0.2691204279
 40
0.3380280724
 40
0.4140464355
 40
0.496861815
 40
0.586132035
 40
0.6814875237
 40
0.7825334444
 40
0.8888511557
 40
1.0
 40
1.0
 40
1.0
 40
1.0
 10
7.6957878254
 20
4.7485097155
 30
0.0
 10
7.6958034031
 20
4.7485092286
 30
0.0
 10
7.695836625
 20
4.7485015159
 30
0.0
 10
7.6958833447
 20
4.7484724372
 30
0.0
 10
7.6959290834
 20
4.7484269033
 30
0.0
 10
7.6959744509
 20
4.7483649395
 30
0.0
 10
7.6960197643
 20
4.7482863894
 30
0.0
 10
7.6960846064
 20
4.7481499382
 30
0.0
 10
7.6961632639
 20
4.7479354352
 30
0.0
 10
7.6962530669
 20
4.7476260795
 30
0.0
 10
7.6963432209
 20
4.747249331
 30
0.0
 10
7.6964336925
 20
4.7468052153
 30
0.0
 10
7.6965243597
 20
4.7462937111
 30
0.0
 10
7.6966151762
 20
4.7457149104
 30
0.0
 10
7.6967060961
 20
4.7450689165
 30
0.0
 10
7.6967971003
 20
4.7443558788
 30
0.0
 10
7.6969236085
 20
4.7432721749
 30
0.0
 10
7.6970798031
 20
4.7417510739
 30
0.0
 10
7.6972610422
 20
4.7397269603
 30
0.0
 10
7.6974426068
 20
4.737440184
 30
0.0
 10
7.6976970813
 20
4.7338736694
 30
0.0
 10
7.6980096433
 20
4.7287782284
 30
0.0
 10
7.6983709827
 20
4.7219143075
 30
0.0
 10
7.698733234
 20
4.7140735926
 30
0.0
 10
7.6990962346
 20
4.7052885444
 30
0.0
 10
7.6994597357
 20
4.6955955296
 30
0.0
 10
7.6998236258
 20
4.6850347053
 30
0.0
 10
7.7001878133
 20
4.6736498467
 30
0.0
 10
7.7005522406
 20
4.661488163
 30
0.0
 10
7.7009168639
 20
4.6486001037
 30
0.0
 10
7.7012816518
 20
4.6350391345
 30
0.0
 10
7.701519979
 20
4.6257800085
 30
0.0
 10
7.7016395496
 20
4.6210475413
 30
0.0
  0
SPLINE
  5
421
100
AcDbEntity
  8
0
100
AcDbSpline
 62
7
  6
CONTINUOUS
 70
0
 71
3
 72
43
 73
39
 74
0
 42
0.0000001
 43
0.0000001
 44
0.0000000001
 40
0.0
 40
0.0
 40
0.0
 40
0.0
 40
0.0001351626
 40
0.0002814673
 40
0.000446883
 40
0.0006369849
 40
0.0011042506
 40
0.0017009976
 40
0.0024350525
 40
0.0033105301
 40
0.0043297967
 40
0.0054942361
 40
0.0082614239
 40
0.0116157084
 40
0.015558093
 40
0.0200878752
 40
0.0252032954
 40
0.030902224
 40
0.0371818496
 40
0.0440386181
 40
0.0594683787
 40
0.0771562381
 40
0.097061149
 40
0.1191358362
 40
0.1433279466
 40
0.1695798516
 40
0.19782852
 40
0.228006504
 40
0.2600413287
 40
0.2938560055
 40
0.3664962177
 40
0.4452290543
 40
0.5292972907
 40
0.6178921528
 40
0.7101608637
 40
0.8052153712
 40
0.9021385687
 40
1.0
 40
1.0
 40
1.0
 40
1.0
 10
7.7314985296
 20
4.747393756
 30
0.0
 10
7.7315103005
 20
4.7473933881
 30
0.0
 10
7.7315348058
 20
4.7473889998
 30
0.0
 10
7.7315703434
 20
4.7473722793
 30
0.0
 10
7.7316054245
 20
4.7473457815
 30
0.0
 10
7.7316552639
 20
4.7472939523
 30
0.0
 10
7.7317157818
 20
4.7472021042
 30
0.0
 10
7.7317841413
 20
4.7470609505
 30
0.0
 10
7.7318527492
 20
4.7468811693
 30
0.0
 10
7.7319215735
 20
4.746662625
 30
0.0
 10
7.7319905815
 20
4.7464051003
 30
0.0
 10
7.7320884737
 20
4.7459849301
 30
0.0
 10
7.7322079845
 20
4.7453612481
 30
0.0
 10
7.7323452881
 20
4.7444951299
 30
0.0
 10
7.7324830351
 20
4.7434738745
 30
0.0
 10
7.732621163
 20
4.7422980449
 30
0.0
 10
7.7327595346
 20
4.7409682728
 30
0.0
 10
7.7328980824
 20
4.7394853263
 30
0.0
 10
7.7330367682
 20
4.7378500752
 30
0.0
 10
7.7332294946
 20
4.7353685877
 30
0.0
 10
7.7334673798
 20
4.7318937183
 30
0.0
 10
7.733743565
 20
4.7272821385
 30
0.0
 10
7.7340202278
 20
4.7220907019
 30
0.0
 10
7.7342972955
 20
4.7163318611
 30
0.0
 10
7.7345746458
 20
4.710019446
 30
0.0
 10
7.7348522187
 20
4.7031686322
 30
0.0
 10
7.735129973
 20
4.6957958863
 30
0.0
 10
7.7354078687
 20
4.6879189523
 30
0.0
 10
7.7356858934
 20
4.6795567783
 30
0.0
 10
7.7360658569
 20
4.6674962712
 30
0.0
 10
7.7365371617
 20
4.6513678929
 30
0.0
 10
7.7370908988
 20
4.6308615662
 30
0.0
 10
7.7376452123
 20
4.6089646681
 30
0.0
 10
7.7382000009
 20
4.585888058
 30
0.0
 10
7.7387551536
 20
4.5618539685
 30
0.0
 10
7.739310594
 20
4.5370940585
 30
0.0
 10
7.7398662631
 20
4.5118467453
 30
0.0
 10
7.7402362369
 20
4.4948793665
 30
0.0
 10
7.7404221426
 20
4.4863548137
 30
0.0
  0
SPLINE
  5
422
100
AcDbEntity
  8
0
100
AcDbSpline
 62
7
  6
CONTINUOUS
 70
0
 71
3
 72
69
 73
65
 74
0
 42
0.0000001
 43
0.0000001
 44
0.0000000001
 40
0.0
 40
0.0
 40
0.0
 40
0.0
 40
0.0001493813
 40
0.0003312459
 40
0.0005648689
 40
0.000859512
 40
0.0012197404
 40
0.0016480095
 40
0.0021457518
 40
0.0027138248
 40
0.0040627576
 40
0.0056972093
 40
0.0076180144
 40
0.0098250955
 40
0.0123177295
 40
0.0150949666
 40
0.0181555967
 40
0.021497959
 40
0.0290206274
 40
0.0376464908
 40
0.0473560164
 40
0.0581267372
 40
0.0699338455
 40
0.0827497028
 40
0.0965444597
 40
0.1112858832
 40
0.1434682862
 40
0.1789954381
 40
0.2175342315
 40
0.2587232524
 40
0.3021760939
 40
0.3474851807
 40
0.3942255366
 40
0.4419588722
 40
0.4902375837
 40
0.5386090749
 40
0.5866199557
 40
0.6338203484
 40
0.6797680327
 40
0.7240326821
 40
0.7661998693
 40
0.8058749858
 40
0.842686916
 40
0.8762915593
 40
0.8917917898
 40
0.9063751192
 40
0.9200075031
 40
0.9326572013
 40
0.9442949539
 40
0.954893655
 40
0.9644290693
 40
0.9728793667
 40
0.9802255374
 40
0.9864517215
 40
0.9891406855
 40
0.9915452716
 40
0.9936646182
 40
0.9954981421
 40
0.9970460184
 40
0.9983094167
 40
0.998835321
 40
0.9992914876
 40
0.9996790662
 40
1.0
 40
1.0
 40
1.0
 40
1.0
 10
7.8725789901
 20
4.2488860837
 30
0.0
 10
7.8725552923
 20
4.2488860851
 30
0.0
 10
7.8725025104
 20
4.2489011509
 30
0.0
 10
7.8724325254
 20
4.2489593052
 30
0.0
 10
7.872364357
 20
4.2490496623
 30
0.0
 10
7.872296523
 20
4.2491735896
 30
0.0
 10
7.8722285359
 20
4.2493315707
 30
0.0
 10
7.872160384
 20
4.2495240161
 30
0.0
 10
7.8720920716
 20
4.2497510493
 30
0.0
 10
7.8719952118
 20
4.250121744
 30
0.0
 10
7.8718769341
 20
4.2506728321
 30
0.0
 10
7.8717410595
 20
4.2514389648
 30
0.0
 10
7.8716047571
 20
4.2523429661
 30
0.0
 10
7.8714680922
 20
4.2533843603
 30
0.0
 10
7.8713311936
 20
4.2545626113
 30
0.0
 10
7.8711941248
 20
4.2558770572
 30
0.0
 10
7.8710569288
 20
4.2573269491
 30
0.0
 10
7.87086627
 20
4.2595278895
 30
0.0
 10
7.8706309525
 20
4.2626110317
 30
0.0
 10
7.870357797
 20
4.2667040857
 30
0.0
 10
7.8700841929
 20
4.2713133949
 30
0.0
 10
7.8698102156
 20
4.2764281447
 30
0.0
 10
7.8695359926
 20
4.2820363096
 30
0.0
 10
7.8692615756
 20
4.2881247217
 30
0.0
 10
7.8689870049
 20
4.2946790629
 30
0.0
 10
7.8686096377
 20
4.3043040634
 30
0.0
 10
7.8681425883
 20
4.3173757702
 30
0.0
 10
7.8675962725
 20
4.3342221547
 30
0.0
 10
7.8670493448
 20
4.3524980167
 30
0.0
 10
7.866501946
 20
4.3720317158
 30
0.0
 10
7.8659542347
 20
4.3926398412
 30
0.0
 10
7.8654063076
 20
4.4141289198
 30
0.0
 10
7.8648582439
 20
4.4362972644
 30
0.0
 10
7.8643101059
 20
4.458936848
 30
0.0
 10
7.8637619473
 20
4.4818352687
 30
0.0
 10
7.8632138172
 20
4.5047777322
 30
0.0
 10
7.8626657636
 20
4.5275490844
 30
0.0
 10
7.8621178381
 20
4.5499358149
 30
0.0
 10
7.8615700982
 20
4.5717280669
 30
0.0
 10
7.8610226151
 20
4.5927215989
 30
0.0
 10
7.8604754748
 20
4.6127197087
 30
0.0
 10
7.8599288136
 20
4.6315350695
 30
0.0
 10
7.8593827533
 20
4.6489914749
 30
0.0
 10
7.8589168047
 20
4.6626133667
 30
0.0
 10
7.8585407277
 20
4.6727098584
 30
0.0
 10
7.8582664319
 20
4.6796395294
 30
0.0
 10
7.8579922802
 20
4.6861166217
 30
0.0
 10
7.8577182937
 20
4.692125988
 30
0.0
 10
7.8574445296
 20
4.6976535632
 30
0.0
 10
7.8571710494
 20
4.7026864465
 30
0.0
 10
7.8568979508
 20
4.7072128739
 30
0.0
 10
7.8566254314
 20
4.7112223233
 30
0.0
 10
7.8563536091
 20
4.714705465
 30
0.0
 10
7.8561181563
 20
4.717274533
 30
0.0
 10
7.8559263008
 20
4.7190600518
 30
0.0
 10
7.8557897258
 20
4.7201961641
 30
0.0
 10
7.8556534263
 20
4.7211955073
 30
0.0
 10
7.8555175348
 20
4.7220575968
 30
0.0
 10
7.8553821284
 20
4.7227819966
 30
0.0
 10
7.8552640511
 20
4.7232983679
 30
0.0
 10
7.8551670844
 20
4.7236412154
 30
0.0
 10
7.8550990004
 20
4.7238476576
 30
0.0
 10
7.8550311026
 20
4.7240196045
 30
0.0
 10
7.8549814234
 20
4.724120697
 30
0.0
 10
7.8549559504
 20
4.7241647793
 30
0.0
  0
SPLINE
  5
423
100
AcDbEntity
  8
0
100
AcDbSpline
 62
7
  6
CONTINUOUS
 70
0
 71
3
 72
34
 73
30
 74
0
 42
0.0000001
 43
0.0000001
 44
0.0000000001
 40
0.0
 40
0.0
 40
0.0
 40
0.0
 40
0.0004829662
 40
0.0009989066
 40
0.001575132
 40
0.0022314592
 40
0.0038320725
 40
0.0058668699
 40
0.0083656691
 40
0.0113442491
 40
0.0148114185
 40
0.0187723928
 40
0.0281869908
 40
0.0396030142
 40
0.0530245486
 40
0.0684488326
 40
0.0858704322
 40
0.1052821391
 40
0.1266732496
 40
0.1500315444
 40
0.2025961696
 40
0.2628497946
 40
0.3306464536
 40
0.4058180503
 40
0.4881777705
 40
0.5775208388
 40
0.6736229462
 40
0.7762445077
 40
1.0
 40
1.0
 40
1.0
 40
1.0
 10
2.8448161973
 20
4.7294111676
 30
0.0
 10
2.8448281813
 20
4.7294111653
 30
0.0
 10
2.8448530746
 20
4.729407705
 30
0.0
 10
2.8448894743
 20
4.7293925774
 30
0.0
 10
2.8449254402
 20
4.7293678741
 30
0.0
 10
2.8449763762
 20
4.7293190936
 30
0.0
 10
2.8450384056
 20
4.7292315868
 30
0.0
 10
2.8451084365
 20
4.7290962242
 30
0.0
 10
2.845178685
 20
4.7289233386
 30
0.0
 10
2.8452491236
 20
4.7287127748
 30
0.0
 10
2.8453197459
 20
4.7284643195
 30
0.0
 10
2.8454199279
 20
4.7280585167
 30
0.0
 10
2.8455422307
 20
4.7274553968
 30
0.0
 10
2.8456827141
 20
4.7266170901
 30
0.0
 10
2.845823643
 20
4.7256279672
 30
0.0
 10
2.8459649628
 20
4.7244886048
 30
0.0
 10
2.8461065224
 20
4.7231996352
 30
0.0
 10
2.8462482521
 20
4.7217618381
 30
0.0
 10
2.8463901222
 20
4.7201761023
 30
0.0
 10
2.8465872642
 20
4.7177694591
 30
0.0
 10
2.8468305678
 20
4.7143991597
 30
0.0
 10
2.8471130206
 20
4.7099263704
 30
0.0
 10
2.8473959326
 20
4.7048916661
 30
0.0
 10
2.847679228
 20
4.6993076868
 30
0.0
 10
2.8479627843
 20
4.6931884588
 30
0.0
 10
2.8482465327
 20
4.6865493739
 30
0.0
 10
2.8485304435
 20
4.6794071073
 30
0.0
 10
2.8489204801
 20
4.6689312384
 30
0.0
 10
2.849195429
 20
4.660837377
 30
0.0
 10
2.8493758542
 20
4.6552881881
 30
0.0
  0
SPLINE
  5
424
100
AcDbEntity
  8
0
100
AcDbSpline
 62
7
  6
CONTINUOUS
 70
0
 71
3
 72
25
 73
21
 74
0
 42
0.0000001
 43
0.0000001
 44
0.0000000001
 40
0.0
 40
0.0
 40
0.0
 40
0.0
 40
0.2148476629
 40
0.4059345798
 40
0.4921941391
 40
0.5720855385
 40
0.6454853777
 40
0.7122839385
 40
0.7723791626
 40
0.8256842349
 40
0.872120812
 40
0.911628607
 40
0.9441598978
 40
0.9578026735
 40
0.9696964136
 40
0.979844609
 40
0.9882579331
 40
0.994959037
 40
0.9976821726
 40
1.0
 40
1.0
 40
1.0
 40
1.0
 10
2.8588614028
 20
4.2954951079
 30
0.0
 10
2.8590031607
 20
4.2917210405
 30
0.0
 10
2.8592833994
 20
4.2845907489
 30
0.0
 10
2.8596644097
 20
4.2759469886
 30
0.0
 10
2.8599726064
 20
4.2696747887
 30
0.0
 10
2.8601956562
 20
4.2654697114
 30
0.0
 10
2.8604185348
 20
4.2616072414
 30
0.0
 10
2.8606411888
 20
4.2580933776
 30
0.0
 10
2.8608635532
 20
4.254933509
 30
0.0
 10
2.8610855075
 20
4.2521325323
 30
0.0
 10
2.8613068285
 20
4.2496946629
 30
0.0
 10
2.8615273573
 20
4.2476236454
 30
0.0
 10
2.8617193384
 20
4.2461295266
 30
0.0
 10
2.8618767789
 20
4.245120919
 30
0.0
 10
2.8619875793
 20
4.2445034326
 30
0.0
 10
2.8620979508
 20
4.2439794335
 30
0.0
 10
2.8622078579
 20
4.24354905
 30
0.0
 10
2.8623041215
 20
4.2432501554
 30
0.0
 10
2.8623836367
 20
4.2430595595
 30
0.0
 10
2.8624236927
 20
4.2429803582
 30
0.0
 10
2.8624440755
 20
4.2429450788
 30
0.0
  0
SPLINE
  5
425
100
AcDbEntity
  8
0
100
AcDbSpline
 62
7
  6
CONTINUOUS
 70
0
 71
3
 72
40
 73
36
 74
0
 42
0.0000001
 43
0.0000001
 44
0.0000000001
 40
0.0
 40
0.0
 40
0.0
 40
0.0
 40
0.000309056
 40
0.0006809292
 40
0.0011539881
 40
0.0017472288
 40
0.00247019
 40
0.0033280557
 40
0.0043238723
 40
0.0054595443
 40
0.0081545432
 40
0.0114183877
 40
0.0152530059
 40
0.0196588546
 40
0.0246350097
 40
0.0301796849
 40
0.0362908033
 40
0.0429658969
 40
0.0579945027
 40
0.0752366636
 40
0.09465745
 40
0.1162176437
 40
0.1398724145
 40
0.1655732495
 40
0.1932663787
 40
0.2228944251
 40
0.2877039636
 40
0.3594613484
 40
0.4375674721
 40
0.5213700628
 40
0.6101689861
 40
0.7032225526
 40
0.799753401
 40
0.8989553874
 40
1.0
 40
1.0
 40
1.0
 40
1.0
 10
2.8091014058
 20
4.7282841403
 30
0.0
 10
2.8091237164
 20
4.7282841419
 30
0.0
 10
2.8091731272
 20
4.7282706907
 30
0.0
 10
2.8092393286
 20
4.7282180536
 30
0.0
 10
2.8093037708
 20
4.7281359954
 30
0.0
 10
2.8093678568
 20
4.7280234942
 30
0.0
 10
2.8094320481
 20
4.7278801049
 30
0.0
 10
2.8094963799
 20
4.7277054667
 30
0.0
 10
2.8095608561
 20
4.7274994554
 30
0.0
 10
2.8096522463
 20
4.7271631671
 30
0.0
 10
2.8097638623
 20
4.7266630918
 30
0.0
 10
2.8098920888
 20
4.7259677431
 30
0.0
 10
2.8100207225
 20
4.7251471919
 30
0.0
 10
2.8101496908
 20
4.7242018011
 30
0.0
 10
2.8102788722
 20
4.7231319871
 30
0.0
 10
2.810408217
 20
4.7219382971
 30
0.0
 10
2.8105376872
 20
4.7206213284
 30
0.0
 10
2.8107176167
 20
4.7186214475
 30
0.0
 10
2.8109397084
 20
4.715818671
 30
0.0
 10
2.8111974733
 20
4.7120959516
 30
0.0
 10
2.811455673
 20
4.7079007509
 30
0.0
 10
2.8117142093
 20
4.7032418682
 30
0.0
 10
2.8119729916
 20
4.6981290134
 30
0.0
 10
2.8122319454
 20
4.6925729154
 30
0.0
 10
2.812491051
 20
4.686585184
 30
0.0
 10
2.8128474062
 20
4.6777758121
 30
0.0
 10
2.8132884717
 20
4.6657863351
 30
0.0
 10
2.8138041019
 20
4.6502977338
 30
0.0
 10
2.8143203161
 20
4.6334373567
 30
0.0
 10
2.8148369849
 20
4.61534624
 30
0.0
 10
2.8153539603
 20
4.5961756697
 30
0.0
 10
2.8158711542
 20
4.576085941
 30
0.0
 10
2.8163884949
 20
4.5552449848
 30
0.0
 10
2.8169059286
 20
4.5338269886
 30
0.0
 10
2.8172487229
 20
4.5193753318
 30
0.0
 10
2.8174208571
 20
4.5120829932
 30
0.0
  0
SPLINE
  5
426
100
AcDbEntity
  8
0
100
AcDbSpline
 62
7
  6
CONTINUOUS
 70
0
 71
3
 72
34
 73
30
 74
0
 42
0.0000001
 43
0.0000001
 44
0.0000000001
 40
0.0
 40
0.0
 40
0.0
 40
0.0
 40
0.1005998642
 40
0.1988297833
 40
0.2940056427
 40
0.3854648191
 40
0.4725708208
 40
0.5547175981
 40
0.6313340244
 40
0.7018876502
 40
0.7658887442
 40
0.8228936733
 40
0.84864755
 40
0.8725084143
 40
0.8944357915
 40
0.9143916716
 40
0.9323427811
 40
0.9482586048
 40
0.9621137605
 40
0.973886293
 40
0.9789866508
 40
0.9835608725
 40
0.9876080112
 40
0.9911281758
 40
0.9941224003
 40
0.9965933294
 40
0.9985472475
 40
0.9993347667
 40
1.0
 40
1.0
 40
1.0
 40
1.0
 10
2.8191358532
 20
4.4393472013
 30
0.0
 10
2.8192926195
 20
4.4327921
 30
0.0
 10
2.8196049575
 20
4.4198363827
 30
0.0
 10
2.8200778362
 20
4.40067929
 30
0.0
 10
2.8205505676
 20
4.3821181587
 30
0.0
 10
2.8210231107
 20
4.3642823087
 30
0.0
 10
2.8214954125
 20
4.3472959825
 30
0.0
 10
2.8219674002
 20
4.3312774724
 30
0.0
 10
2.8224389823
 20
4.316338311
 30
0.0
 10
2.8229099944
 20
4.3025824746
 30
0.0
 10
2.8233803001
 20
4.290105685
 30
0.0
 10
2.8237837341
 20
4.2805485134
 30
0.0
 10
2.824110094
 20
4.2736068291
 30
0.0
 10
2.8243463666
 20
4.2689497786
 30
0.0
 10
2.8245824387
 20
4.2646711485
 30
0.0
 10
2.8248182846
 20
4.2607783323
 30
0.0
 10
2.8250538066
 20
4.2572781115
 30
0.0
 10
2.8252888695
 20
4.2541764875
 30
0.0
 10
2.8255233425
 20
4.2514788437
 30
0.0
 10
2.8257263747
 20
4.2494862141
 30
0.0
 10
2.8258916521
 20
4.2480980886
 30
0.0
 10
2.8260094588
 20
4.2472114836
 30
0.0
 10
2.8261270497
 20
4.2464288465
 30
0.0
 10
2.8262443648
 20
4.2457504667
 30
0.0
 10
2.8263611989
 20
4.2451764371
 30
0.0
 10
2.8264774986
 20
4.2447069469
 30
0.0
 10
2.8265794537
 20
4.244382339
 30
0.0
 10
2.8266638666
 20
4.2441768375
 30
0.0
 10
2.8267064157
 20
4.244092063
 30
0.0
 10
2.8267281074
 20
4.2440545199
 30
0.0
  0
SPLINE
  5
427
100
AcDbEntity
  8
0
100
AcDbSpline
 62
7
  6
CONTINUOUS
 70
0
 71
3
 72
37
 73
33
 74
0
 42
0.0000001
 43
0.0000001
 44
0.0000000001
 40
0.0
 40
0.0
 40
0.0
 40
0.0
 40
0.0003659103
 40
0.0007808814
 40
0.0012767145
 40
0.0018723982
 40
0.0025789156
 40
0.0034028158
 40
0.0054170049
 40
0.0079343497
 40
0.0109635851
 40
0.0145093568
 40
0.0185742565
 40
0.0231594254
 40
0.0282650135
 40
0.0338907342
 40
0.0400360221
 40
0.0538816514
 40
0.069790888
 40
0.0877496112
 40
0.1077413007
 40
0.1537415815
 40
0.2076079097
 40
0.2691211751
 40
0.3380291236
 40
0.4140477239
 40
0.496863181
 40
0.5861332369
 40
0.6814885497
 40
0.7825342992
 40
0.8888516947
 40
1.0
 40
1.0
 40
1.0
 40
1.0
 10
2.8430320504
 20
4.2241999411
 30
0.0
 10
2.8430164726
 20
4.2242004278
 30
0.0
 10
2.842983252
 20
4.2242081345
 30
0.0
 10
2.842936529
 20
4.2242371994
 30
0.0
 10
2.8428907871
 20
4.2242827207
 30
0.0
 10
2.8428454172
 20
4.2243446763
 30
0.0
 10
2.8428001022
 20
4.2244232273
 30
0.0
 10
2.8427352589
 20
4.2245596979
 30
0.0
 10
2.8426566045
 20
4.2247742333
 30
0.0
 10
2.8425668002
 20
4.2250836155
 30
0.0
 10
2.8424766386
 20
4.2254603736
 30
0.0
 10
2.8423861611
 20
4.2259044993
 30
0.0
 10
2.8422954924
 20
4.2264160358
 30
0.0
 10
2.8422046772
 20
4.2269948872
 30
0.0
 10
2.8421137554
 20
4.2276409262
 30
0.0
 10
2.8420227461
 20
4.2283539931
 30
0.0
 10
2.8418962293
 20
4.2294377547
 30
0.0
 10
2.8417400392
 20
4.2309589441
 30
0.0
 10
2.8415587902
 20
4.2329831765
 30
0.0
 10
2.8413772183
 20
4.2352700877
 30
0.0
 10
2.8411227424
 20
4.2388368113
 30
0.0
 10
2.8408101671
 20
4.2439325435
 30
0.0
 10
2.8404488174
 20
4.2507968377
 30
0.0
 10
2.8400865553
 20
4.2586379854
 30
0.0
 10
2.8397235449
 20
4.267423527
 30
0.0
 10
2.8393600333
 20
4.2771170817
 30
0.0
 10
2.8389961327
 20
4.2876784718
 30
0.0
 10
2.8386319339
 20
4.2990639223
 30
0.0
 10
2.838267496
 20
4.3112262283
 30
0.0
 10
2.8379028623
 20
4.324114942
 30
0.0
 10
2.8375380639
 20
4.3376765858
 30
0.0
 10
2.8372997294
 20
4.3469361657
 30
0.0
 10
2.8371801552
 20
4.3516688606
 30
0.0
  0
SPLINE
  5
428
100
AcDbEntity
  8
0
100
AcDbSpline
 62
7
  6
CONTINUOUS
 70
0
 71
3
 72
70
 73
66
 74
0
 42
0.0000001
 43
0.0000001
 44
0.0000000001
 40
0.0
 40
0.0
 40
0.0
 40
0.0
 40
0.0001474383
 40
0.0003277361
 40
0.0005602092
 40
0.0008540154
 40
0.0012136248
 40
0.0016414226
 40
0.0021387907
 40
0.0027065826
 40
0.0040553143
 40
0.0056899096
 40
0.0076110076
 40
0.0098185908
 40
0.012312025
 40
0.0150901887
 40
0.0181518188
 40
0.0214954514
 40
0.0290210071
 40
0.0376503751
 40
0.0473637394
 40
0.058138901
 40
0.0699507191
 40
0.082771714
 40
0.0965719622
 40
0.1113190388
 40
0.1435136437
 40
0.1790536921
 40
0.2176057592
 40
0.2588080906
 40
0.3022740659
 40
0.3475958243
 40
0.3943481261
 40
0.4420923816
 40
0.4903807647
 40
0.5387604603
 40
0.5867778933
 40
0.6339829759
 40
0.679933324
 40
0.7241984805
 40
0.7663638646
 40
0.8060347344
 40
0.8428398505
 40
0.8764350278
 40
0.891929545
 40
0.9065064436
 40
0.9201317803
 40
0.9327736877
 40
0.9444029787
 40
0.9549925584
 40
0.9645181456
 40
0.9729579474
 40
0.9802929118
 40
0.9835410465
 40
0.9865072658
 40
0.9891900134
 40
0.9915882017
 40
0.9937009632
 40
0.9955276999
 40
0.9970685635
 40
0.9983247138
 40
0.9988469004
 40
0.9992992813
 40
0.9996829965
 40
1.0
 40
1.0
 40
1.0
 40
1.0
 10
2.7733864567
 20
4.7271928523
 30
0.0
 10
2.7734101761
 20
4.7271928569
 30
0.0
 10
2.773463125
 20
4.7271774999
 30
0.0
 10
2.773533051
 20
4.7271184508
 30
0.0
 10
2.7736011774
 20
4.7270267998
 30
0.0
 10
2.7736689867
 20
4.7269010738
 30
0.0
 10
2.7737369653
 20
4.726740794
 30
0.0
 10
2.7738051147
 20
4.7265455483
 30
0.0
 10
2.7738734311
 20
4.7263152181
 30
0.0
 10
2.7739703114
 20
4.7259390911
 30
0.0
 10
2.7740885936
 20
4.7253799393
 30
0.0
 10
2.7742244698
 20
4.7246026301
 30
0.0
 10
2.7743607863
 20
4.7236854452
 30
0.0
 10
2.7744974647
 20
4.722628859
 30
0.0
 10
2.7746343684
 20
4.7214334109
 30
0.0
 10
2.7747714476
 20
4.7200997901
 30
0.0
 10
2.7749086603
 20
4.7186287564
 30
0.0
 10
2.7750993287
 20
4.716395717
 30
0.0
 10
2.7753346708
 20
4.7132676148
 30
0.0
 10
2.7756078404
 20
4.7091149404
 30
0.0
 10
2.7758814725
 20
4.7044385097
 30
0.0
 10
2.7761554638
 20
4.6992493381
 30
0.0
 10
2.7764297116
 20
4.6935596029
 30
0.0
 10
2.7767041485
 20
4.6873826938
 30
0.0
 10
2.7769787384
 20
4.6807331456
 30
0.0
 10
2.7773561365
 20
4.670968455
 30
0.0
 10
2.7778232183
 20
4.6577072373
 30
0.0
 10
2.7783695788
 20
4.6406168731
 30
0.0
 10
2.7789165529
 20
4.6220767145
 30
0.0
 10
2.7794640016
 20
4.602260958
 30
0.0
 10
2.7800117656
 20
4.5813557321
 30
0.0
 10
2.7805597488
 20
4.5595573584
 30
0.0
 10
2.7811078722
 20
4.5370705025
 30
0.0
 10
2.7816560738
 20
4.5141062492
 30
0.0
 10
2.7822043
 20
4.4908801131
 30
0.0
 10
2.7827525017
 20
4.4676100164
 30
0.0
 10
2.7833006305
 20
4.4445142444
 30
0.0
 10
2.7838486351
 20
4.4218094065
 30
0.0
 10
2.7843964577
 20
4.3997083979
 30
0.0
 10
2.7849440264
 20
4.3784184103
 30
0.0
 10
2.7854912553
 20
4.3581389845
 30
0.0
 10
2.7860380076
 20
4.339060152
 30
0.0
 10
2.7865841609
 20
4.3213606551
 30
0.0
 10
2.7870502037
 20
4.3075499968
 30
0.0
 10
2.7874263607
 20
4.2973144165
 30
0.0
 10
2.7877007097
 20
4.2902899676
 30
0.0
 10
2.7879749118
 20
4.2837248038
 30
0.0
 10
2.788248952
 20
4.2776342771
 30
0.0
 10
2.7885227661
 20
4.2720326551
 30
0.0
 10
2.7887963041
 20
4.266933014
 30
0.0
 10
2.7890694335
 20
4.2623472709
 30
0.0
 10
2.7893420656
 20
4.2582861276
 30
0.0
 10
2.7895770893
 20
4.2552347383
 30
0.0
 10
2.7897676135
 20
4.2530632888
 30
0.0
 10
2.7899045389
 20
4.2516384953
 30
0.0
 10
2.7900413209
 20
4.2503511142
 30
0.0
 10
2.7901779078
 20
4.2492018641
 30
0.0
 10
2.7903142306
 20
4.2481913818
 30
0.0
 10
2.7904501357
 20
4.2473201582
 30
0.0
 10
2.790585551
 20
4.246588636
 30
0.0
 10
2.7907036553
 20
4.246067579
 30
0.0
 10
2.7908006781
 20
4.2457219936
 30
0.0
 10
2.790868763
 20
4.2455142498
 30
0.0
 10
2.7909366565
 20
4.2453415023
 30
0.0
 10
2.7909863851
 20
4.2452400581
 30
0.0
 10
2.7910119011
 20
4.2451959017
 30
0.0
  0
SPLINE
  5
429
100
AcDbEntity
  8
0
100
AcDbSpline
 62
7
  6
CONTINUOUS
 70
0
 71
3
 72
43
 73
39
 74
0
 42
0.0000001
 43
0.0000001
 44
0.0000000001
 40
0.0
 40
0.0
 40
0.0
 40
0.0
 40
0.000135074
 40
0.0002791708
 40
0.0004407753
 40
0.000625976
 40
0.0010815094
 40
0.0016653095
 40
0.0023859233
 40
0.0032477992
 40
0.0042534752
 40
0.0054044339
 40
0.006701546
 40
0.008145349
 40
0.0114741112
 40
0.0153919961
 40
0.0198983658
 40
0.0249914884
 40
0.030669247
 40
0.0369288402
 40
0.0437667121
 40
0.0591620604
 40
0.0768199636
 40
0.0966992777
 40
0.118752609
 40
0.142927482
 40
0.1691661426
 40
0.19740542
 40
0.2275777259
 40
0.2934264822
 40
0.3660793242
 40
0.4448372747
 40
0.5289424186
 40
0.6175855322
 40
0.7099136321
 40
0.8050387481
 40
0.9020441389
 40
1.0
 40
1.0
 40
1.0
 40
1.0
 10
7.7898892803
 20
4.2271405823
 30
0.0
 10
7.7898775988
 20
4.2271402172
 30
0.0
 10
7.7898532252
 20
4.2271429785
 30
0.0
 10
7.7898175221
 20
4.2271573923
 30
0.0
 10
7.7897823111
 20
4.2271816153
 30
0.0
 10
7.789732344
 20
4.2272301513
 30
0.0
 10
7.7896716622
 20
4.2273179698
 30
0.0
 10
7.7896032491
 20
4.2274542182
 30
0.0
 10
7.7895345893
 20
4.2276288529
 30
0.0
 10
7.7894657147
 20
4.2278420258
 30
0.0
 10
7.7893966618
 20
4.2280939779
 30
0.0
 10
7.7893274801
 20
4.2283847347
 30
0.0
 10
7.789258192
 20
4.228714302
 30
0.0
 10
7.7891610414
 20
4.2292304419
 30
0.0
 10
7.7890416243
 20
4.2299729545
 30
0.0
 10
7.7889037289
 20
4.2309805372
 30
0.0
 10
7.7887655198
 20
4.2321419699
 30
0.0
 10
7.7886270447
 20
4.2334565764
 30
0.0
 10
7.7884884026
 20
4.2349236084
 30
0.0
 10
7.7883496233
 20
4.2365421949
 30
0.0
 10
7.7881567371
 20
4.2389999684
 30
0.0
 10
7.7879186925
 20
4.2424433626
 30
0.0
 10
7.7876423738
 20
4.2470149969
 30
0.0
 10
7.7873655934
 20
4.2521636096
 30
0.0
 10
7.787088425
 20
4.2578768007
 30
0.0
 10
7.786810992
 20
4.2641408019
 30
0.0
 10
7.7865333579
 20
4.2709405073
 30
0.0
 10
7.786255552
 20
4.2782595275
 30
0.0
 10
7.785873768
 20
4.2890042633
 30
0.0
 10
7.7854012333
 20
4.3035909958
 30
0.0
 10
7.7848483942
 20
4.3223810593
 30
0.0
 10
7.784294876
 20
4.342751347
 30
0.0
 10
7.7837408184
 20
4.3645056363
 30
0.0
 10
7.7831863803
 20
4.3874344191
 30
0.0
 10
7.7826316569
 20
4.4113169533
 30
0.0
 10
7.78207673
 20
4.4359232091
 30
0.0
 10
7.7815216569
 20
4.4610165189
 30
0.0
 10
7.7811521602
 20
4.4778813092
 30
0.0
 10
7.7809665094
 20
4.4863548137
 30
0.0
  0
LINE
  5
42A
100
AcDbEntity
  8
0
100
AcDbLine
 62
7
  6
CONTINUOUS
 10
2.836116305
 20
4.7292120267
 11
2.8362506512
 21
4.7289117374
  0
SPLINE
  5
42B
100
AcDbEntity
  8
0
100
AcDbSpline
 62
7
  6
CONTINUOUS
 70
0
 71
3
 72
26
 73
22
 74
0
 42
0.0000001
 43
0.0000001
 44
0.0000000001
 40
0.0
 40
0.0
 40
0.0
 40
0.0
 40
0.0025316654
 40
0.0054981466
 40
0.0127509929
 40
0.0217781681
 40
0.0325857123
 40
0.0451720345
 40
0.0595321957
 40
0.07565943
 40
0.0935435958
 40
0.1345352591
 40
0.1823977044
 40
0.2369983077
 40
0.2981823831
 40
0.36577653
 40
0.4395878861
 40
0.5194046833
 40
0.6049988017
 40
0.792520004
 40
1.0
 40
1.0
 40
1.0
 40
1.0
 10
2.8362506512
 20
4.7289117374
 30
0.0
 10
2.8362784244
 20
4.7288356422
 30
0.0
 10
2.8363328765
 20
4.7286682387
 30
0.0
 10
2.8364409013
 20
4.7282747183
 30
0.0
 10
2.8365718237
 20
4.727672588
 30
0.0
 10
2.8367216476
 20
4.726818819
 30
0.0
 10
2.8368720821
 20
4.7257922998
 30
0.0
 10
2.8370230711
 20
4.7245937126
 30
0.0
 10
2.837174376
 20
4.7232237798
 30
0.0
 10
2.8373259239
 20
4.7216834551
 30
0.0
 10
2.8375379797
 20
4.7192929577
 30
0.0
 10
2.8377987344
 20
4.7158875333
 30
0.0
 10
2.8381003176
 20
4.7113073115
 30
0.0
 10
2.8384025666
 20
4.7060798181
 30
0.0
 10
2.8387053645
 20
4.7002200796
 30
0.0
 10
2.8390085169
 20
4.6937449404
 30
0.0
 10
2.839311933
 20
4.6866730337
 30
0.0
 10
2.8396155627
 20
4.6790247082
 30
0.0
 10
2.8400334131
 20
4.6677397443
 30
0.0
 10
2.8405499532
 20
4.6523708841
 30
0.0
 10
2.8409345743
 20
4.6397379617
 30
0.0
 10
2.8411291511
 20
4.6331021249
 30
0.0
  0
SPLINE
  5
42C
100
AcDbEntity
  8
0
100
AcDbSpline
 62
7
  6
CONTINUOUS
 70
0
 71
3
 72
34
 73
30
 74
0
 42
0.0000001
 43
0.0000001
 44
0.0000000001
 40
0.0
 40
0.0
 40
0.0
 40
0.0
 40
0.2236614777
 40
0.3262631224
 40
0.4223599209
 40
0.5117071018
 40
0.5940794963
 40
0.6692688409
 40
0.7370855206
 40
0.7973611059
 40
0.8499457
 40
0.8733140005
 40
0.8947134249
 40
0.9141327055
 40
0.9315617244
 40
0.9469914965
 40
0.9604169196
 40
0.9718363576
 40
0.9812523899
 40
0.9852130217
 40
0.9886793243
 40
0.9916566293
 40
0.9941536901
 40
0.9961858296
 40
0.9977822763
 40
0.9984358081
 40
0.9990087533
 40
0.9995209881
 40
1.0
 40
1.0
 40
1.0
 40
1.0
 10
2.8491515647
 20
4.3179832668
 30
0.0
 10
2.8493334102
 20
4.3123533647
 30
0.0
 10
2.8496104819
 20
4.304141187
 30
0.0
 10
2.8500034227
 20
4.2935114486
 30
0.0
 10
2.8502894428
 20
4.2862627493
 30
0.0
 10
2.8505752873
 20
4.2795239333
 30
0.0
 10
2.8508609114
 20
4.2733121635
 30
0.0
 10
2.8511462518
 20
4.2676432403
 30
0.0
 10
2.8514311945
 20
4.262531565
 30
0.0
 10
2.8517156369
 20
4.2579901394
 30
0.0
 10
2.851960656
 20
4.2545679568
 30
0.0
 10
2.8521591582
 20
4.2521242027
 30
0.0
 10
2.8523020137
 20
4.2505139814
 30
0.0
 10
2.8524447231
 20
4.249053967
 30
0.0
 10
2.8525872432
 20
4.2477450637
 30
0.0
 10
2.8527295251
 20
4.2465880835
 30
0.0
 10
2.8528714168
 20
4.2455836723
 30
0.0
 10
2.8530128358
 20
4.2447324047
 30
0.0
 10
2.8531359526
 20
4.244119942
 30
0.0
 10
2.8532368122
 20
4.2437078597
 30
0.0
 10
2.8533079039
 20
4.2434555863
 30
0.0
 10
2.853378808
 20
4.2432417803
 30
0.0
 10
2.8534495101
 20
4.2430662225
 30
0.0
 10
2.8535199823
 20
4.2429287696
 30
0.0
 10
2.8535824113
 20
4.242839882
 30
0.0
 10
2.8536337056
 20
4.2427903244
 30
0.0
 10
2.8536699055
 20
4.2427652438
 30
0.0
 10
2.8537065513
 20
4.2427498843
 30
0.0
 10
2.853731626
 20
4.2427463744
 30
0.0
 10
2.8537436897
 20
4.2427463757
 30
0.0
  0
LINE
  5
42D
100
AcDbEntity
  8
0
100
AcDbLine
 62
7
  6
CONTINUOUS
 10
7.809845306
 20
4.2468519322
 11
7.8097196665
 21
4.2471278419
  0
SPLINE
  5
42E
100
AcDbEntity
  8
0
100
AcDbSpline
 62
7
  6
CONTINUOUS
 70
0
 71
3
 72
66
 73
62
 74
0
 42
0.0000001
 43
0.0000001
 44
0.0000000001
 40
0.0
 40
0.0
 40
0.0
 40
0.0
 40
0.0004392006
 40
0.0009471997
 40
0.0021722685
 40
0.0036785669
 40
0.0054672328
 40
0.0075385472
 40
0.0098920814
 40
0.0154418174
 40
0.0221065332
 40
0.0298721087
 40
0.0387215277
 40
0.0486349092
 40
0.059589578
 40
0.0715606226
 40
0.0845203746
 40
0.0984390604
 40
0.1290224826
 40
0.1630285184
 40
0.2001427365
 40
0.240021919
 40
0.282297163
 40
0.3265774956
 40
0.3724533269
 40
0.4195004431
 40
0.4672837622
 40
0.5153615731
 40
0.5632894493
 40
0.6106245291
 40
0.6569294357
 40
0.7017765253
 40
0.7447516837
 40
0.7854582721
 40
0.8235206872
 40
0.8585879775
 40
0.8903370743
 40
0.904874784
 40
0.9184759039
 40
0.9311093638
 40
0.9427461259
 40
0.9533596507
 40
0.9629259121
 40
0.9714231884
 40
0.978832791
 40
0.9821245333
 40
0.9851386518
 40
0.9878736065
 40
0.9903280805
 40
0.9925012344
 40
0.9943924892
 40
0.9960016639
 40
0.9973295794
 40
0.9978887764
 40
0.9983787439
 40
0.9988003101
 40
0.9991548404
 40
0.9994447431
 40
0.9996745144
 40
0.9998532712
 40
1.0
 40
1.0
 40
1.0
 40
1.0
 10
7.8097196665
 20
4.2471278419
 30
0.0
 10
7.8096949438
 20
4.2471936362
 30
0.0
 10
7.8096463013
 20
4.2473372938
 30
0.0
 10
7.8095496954
 20
4.2476713077
 30
0.0
 10
7.8094321852
 20
4.2481765331
 30
0.0
 10
7.8092975062
 20
4.2488873296
 30
0.0
 10
7.8091623296
 20
4.2497354987
 30
0.0
 10
7.8090267135
 20
4.2507206154
 30
0.0
 10
7.8088348637
 20
4.2523053462
 30
0.0
 10
7.8086003668
 20
4.2546250529
 30
0.0
 10
7.8083305187
 20
4.2578111525
 30
0.0
 10
7.8080598191
 20
4.261526857
 30
0.0
 10
7.8077884272
 20
4.2657635828
 30
0.0
 10
7.8075166104
 20
4.2705115633
 30
0.0
 10
7.8072444674
 20
4.2757598156
 30
0.0
 10
7.8069721038
 20
4.2814961662
 30
0.0
 10
7.8066995499
 20
4.2877073338
 30
0.0
 10
7.8063240797
 20
4.2968953731
 30
0.0
 10
7.8058597994
 20
4.3094505984
 30
0.0
 10
7.805317587
 20
4.3257173601
 30
0.0
 10
7.8047746861
 20
4.3434724649
 30
0.0
 10
7.8042312525
 20
4.3625514548
 30
0.0
 10
7.803687466
 20
4.3827776729
 30
0.0
 10
7.803143432
 20
4.4039638646
 30
0.0
 10
7.802599236
 20
4.4259139423
 30
0.0
 10
7.8020549432
 20
4.4484247722
 30
0.0
 10
7.8015106086
 20
4.4712880875
 30
0.0
 10
7.8009662809
 20
4.4942923916
 30
0.0
 10
7.8004220067
 20
4.5172249445
 30
0.0
 10
7.7998778333
 20
4.5398736994
 30
0.0
 10
7.7993338129
 20
4.5620292911
 30
0.0
 10
7.7987900065
 20
4.5834869487
 30
0.0
 10
7.7982464923
 20
4.60404841
 30
0.0
 10
7.7977033652
 20
4.6235237246
 30
0.0
 10
7.7971607824
 20
4.6417330291
 30
0.0
 10
7.7966188826
 20
4.6585081909
 30
0.0
 10
7.7961556228
 20
4.6715191871
 30
0.0
 10
7.7957813616
 20
4.6810958293
 30
0.0
 10
7.795509101
 20
4.6876149987
 30
0.0
 10
7.7952370165
 20
4.6936695006
 30
0.0
 10
7.7949651377
 20
4.6992453843
 30
0.0
 10
7.7946935249
 20
4.7043298003
 30
0.0
 10
7.7944223011
 20
4.7089110403
 30
0.0
 10
7.7941515346
 20
4.7129785783
 30
0.0
 10
7.7939182942
 20
4.7160421693
 30
0.0
 10
7.7937293208
 20
4.7182289411
 30
0.0
 10
7.7935933468
 20
4.7196693692
 30
0.0
 10
7.793457511
 20
4.7209751712
 30
0.0
 10
7.7933218422
 20
4.7221456129
 30
0.0
 10
7.793186406
 20
4.7231800543
 30
0.0
 10
7.7930513436
 20
4.7240779863
 30
0.0
 10
7.7929167068
 20
4.7248389412
 30
0.0
 10
7.792799502
 20
4.7253862812
 30
0.0
 10
7.7927035258
 20
4.7257544482
 30
0.0
 10
7.7926358409
 20
4.7259799375
 30
0.0
 10
7.7925683211
 20
4.7261710789
 30
0.0
 10
7.7925009646
 20
4.7263279839
 30
0.0
 10
7.7924337621
 20
4.7264510558
 30
0.0
 10
7.7923662312
 20
4.7265407792
 30
0.0
 10
7.7922969031
 20
4.7265985309
 30
0.0
 10
7.7922445862
 20
4.7266135016
 30
0.0
 10
7.792221105
 20
4.726613503
 30
0.0
  0
LINE
  5
42F
100
AcDbEntity
  8
0
100
AcDbLine
 62
7
  6
CONTINUOUS
 10
2.800402583
 20
4.7280840537
 11
2.800501826
 21
4.7278754766
  0
SPLINE
  5
430
100
AcDbEntity
  8
0
100
AcDbSpline
 62
7
  6
CONTINUOUS
 70
0
 71
3
 72
66
 73
62
 74
0
 42
0.0000001
 43
0.0000001
 44
0.0000000001
 40
0.0
 40
0.0
 40
0.0
 40
0.0
 40
0.0004110459
 40
0.0008907353
 40
0.0020592535
 40
0.003509572
 40
0.0052430839
 40
0.0072602061
 40
0.0095606151
 40
0.0150074702
 40
0.0215740984
 40
0.0292465681
 40
0.0380081099
 40
0.047838913
 40
0.0587164916
 40
0.070616012
 40
0.0835098444
 40
0.0973683473
 40
0.1278485434
 40
0.161774213
 40
0.1988306854
 40
0.2386741203
 40
0.2809347305
 40
0.3252203494
 40
0.3711200226
 40
0.4182079078
 40
0.4660471357
 40
0.5141940237
 40
0.5622020532
 40
0.6096261668
 40
0.6560267602
 40
0.7009738901
 40
0.7440511297
 40
0.7848596355
 40
0.8230216543
 40
0.8581841991
 40
0.8900222186
 40
0.9046013567
 40
0.9182418293
 40
0.9309120464
 40
0.9425830403
 40
0.953228027
 40
0.9628226834
 40
0.9713454396
 40
0.9787771065
 40
0.9820787578
 40
0.9851018223
 40
0.9878448109
 40
0.9903065668
 40
0.992486069
 40
0.9943826308
 40
0.9959962776
 40
0.9973277363
 40
0.9978882715
 40
0.9983792695
 40
0.9988015831
 40
0.9991565902
 40
0.9994466595
 40
0.9996762185
 40
0.999854317
 40
1.0
 40
1.0
 40
1.0
 40
1.0
 10
2.800501826
 20
4.7278754766
 30
0.0
 10
2.8005267215
 20
4.7278139186
 30
0.0
 10
2.80057561
 20
4.7276784716
 30
0.0
 10
2.8006726466
 20
4.7273601918
 30
0.0
 10
2.800790373
 20
4.7268733148
 30
0.0
 10
2.8009251156
 20
4.7261831518
 30
0.0
 10
2.8010604004
 20
4.7253538229
 30
0.0
 10
2.8011961708
 20
4.7243857394
 30
0.0
 10
2.8013885509
 20
4.7228200856
 30
0.0
 10
2.8016234697
 20
4.7205195317
 30
0.0
 10
2.8018936324
 20
4.7173508196
 30
0.0
 10
2.8021646882
 20
4.7136450532
 30
0.0
 10
2.8024364662
 20
4.7094108284
 30
0.0
 10
2.802708689
 20
4.7046579262
 30
0.0
 10
2.8029812477
 20
4.6993973816
 30
0.0
 10
2.8032540347
 20
4.6936414354
 30
0.0
 10
2.8035270191
 20
4.6874034554
 30
0.0
 10
2.8039032094
 20
4.6781655825
 30
0.0
 10
2.8043683103
 20
4.6655310285
 30
0.0
 10
2.8049113557
 20
4.6491494669
 30
0.0
 10
2.8054551029
 20
4.6312546055
 30
0.0
 10
2.8059993928
 20
4.6120127373
 30
0.0
 10
2.8065440414
 20
4.5916026237
 30
0.0
 10
2.8070889419
 20
4.5702138436
 30
0.0
 10
2.8076340071
 20
4.5480450125
 30
0.0
 10
2.8081791705
 20
4.5253019549
 30
0.0
 10
2.8087243769
 20
4.5021957744
 30
0.0
 10
2.8092695768
 20
4.4789409099
 30
0.0
 10
2.8098147238
 20
4.4557531214
 30
0.0
 10
2.8103597698
 20
4.4328475107
 30
0.0
 10
2.8109046624
 20
4.4104365055
 30
0.0
 10
2.8114493404
 20
4.388727915
 30
0.0
 10
2.811993726
 20
4.367922974
 30
0.0
 10
2.8125377238
 20
4.3482145028
 30
0.0
 10
2.813081176
 20
4.3297850938
 30
0.0
 10
2.8136239446
 20
4.3128054616
 30
0.0
 10
2.814087935
 20
4.2996349598
 30
0.0
 10
2.8144627952
 20
4.2899403021
 30
0.0
 10
2.8147354881
 20
4.2833404563
 30
0.0
 10
2.8150080128
 20
4.2772108224
 30
0.0
 10
2.8152803275
 20
4.2715655928
 30
0.0
 10
2.8155523725
 20
4.2664178128
 30
0.0
 10
2.8158240389
 20
4.2617793622
 30
0.0
 10
2.8160952283
 20
4.2576609649
 30
0.0
 10
2.8163288543
 20
4.2545589896
 30
0.0
 10
2.8165181225
 20
4.252344798
 30
0.0
 10
2.8166543155
 20
4.2508863002
 30
0.0
 10
2.816790375
 20
4.2495641135
 30
0.0
 10
2.8169262566
 20
4.2483789698
 30
0.0
 10
2.8170619039
 20
4.247331533
 30
0.0
 10
2.8171971908
 20
4.2464223286
 30
0.0
 10
2.8173320391
 20
4.2456518153
 30
0.0
 10
2.8174494212
 20
4.245097566
 30
0.0
 10
2.8175455566
 20
4.2447247416
 30
0.0
 10
2.8176133495
 20
4.2444964393
 30
0.0
 10
2.8176809759
 20
4.244302921
 30
0.0
 10
2.8177484324
 20
4.2441440642
 30
0.0
 10
2.8178157209
 20
4.244019455
 30
0.0
 10
2.8178833255
 20
4.2439286159
 30
0.0
 10
2.8179527097
 20
4.2438700876
 30
0.0
 10
2.8180052349
 20
4.243854862
 30
0.0
 10
2.818028769
 20
4.2438548648
 30
0.0
  0
SPLINE
  5
431
100
AcDbEntity
  8
0
100
AcDbSpline
 62
7
  6
CONTINUOUS
 70
0
 71
3
 72
37
 73
33
 74
0
 42
0.0000001
 43
0.0000001
 44
0.0000000001
 40
0.0
 40
0.0
 40
0.0
 40
0.0
 40
0.0005929374
 40
0.0013167235
 40
0.002175204
 40
0.0031706299
 40
0.0055770584
 40
0.0085418842
 40
0.0120670378
 40
0.0161528626
 40
0.0207982749
 40
0.0260014217
 40
0.0317601547
 40
0.0380716538
 40
0.0523390419
 40
0.0687732852
 40
0.0873377729
 40
0.1079908511
 40
0.130685975
 40
0.1553712879
 40
0.181990777
 40
0.2104836115
 40
0.2407846287
 40
0.3065304277
 40
0.3786269081
 40
0.4564143885
 40
0.5391811082
 40
0.6261697057
 40
0.7165841584
 40
0.8095975546
 40
0.9043573921
 40
1.0
 40
1.0
 40
1.0
 40
1.0
 10
7.8562814143
 20
4.2294111466
 30
0.0
 10
7.8562559845
 20
4.229455161
 30
0.0
 10
7.8562065561
 20
4.2295569464
 30
0.0
 10
7.8561393327
 20
4.2297310004
 30
0.0
 10
7.8560718942
 20
4.2299415537
 30
0.0
 10
7.8559755983
 20
4.2302939485
 30
0.0
 10
7.8558585431
 20
4.2308273662
 30
0.0
 10
7.8557244114
 20
4.2315782612
 30
0.0
 10
7.8555897692
 20
4.2324749681
 30
0.0
 10
7.8554546989
 20
4.2335170382
 30
0.0
 10
7.8553193679
 20
4.23470398
 30
0.0
 10
7.8551838395
 20
4.236035136
 30
0.0
 10
7.8550481676
 20
4.2375097731
 30
0.0
 10
7.854859329
 20
4.2397598047
 30
0.0
 10
7.8546264402
 20
4.2429244598
 30
0.0
 10
7.854356372
 20
4.2471394392
 30
0.0
 10
7.8540858265
 20
4.2519028232
 30
0.0
 10
7.8538148987
 20
4.2572036977
 30
0.0
 10
7.8535437195
 20
4.2630299164
 30
0.0
 10
7.8532723438
 20
4.2693681314
 30
0.0
 10
7.853000833
 20
4.2762037978
 30
0.0
 10
7.8527292073
 20
4.2835212465
 30
0.0
 10
7.8523567283
 20
4.2941915322
 30
0.0
 10
7.8518953427
 20
4.3085990921
 30
0.0
 10
7.8513548781
 20
4.3270771341
 30
0.0
 10
7.8508139468
 20
4.3470149403
 30
0.0
 10
7.850272674
 20
4.3682298749
 30
0.0
 10
7.8497311992
 20
4.3905276468
 30
0.0
 10
7.8491896091
 20
4.4137041103
 30
0.0
 10
7.8486479788
 20
4.4375469765
 30
0.0
 10
7.8481063616
 20
4.4618381653
 30
0.0
 10
7.8477458932
 20
4.4781573767
 30
0.0
 10
7.8475648468
 20
4.4863548137
 30
0.0
  0
LINE
  5
432
100
AcDbEntity
  8
0
100
AcDbLine
 62
7
  6
CONTINUOUS
 10
2.7646886404
 20
4.7269919173
 11
2.764867374
 21
4.7265636763
  0
SPLINE
  5
433
100
AcDbEntity
  8
0
100
AcDbSpline
 62
7
  6
CONTINUOUS
 70
0
 71
3
 72
64
 73
60
 74
0
 42
0.0000001
 43
0.0000001
 44
0.0000000001
 40
0.0
 40
0.0
 40
0.0
 40
0.0
 40
0.0010485156
 40
0.0023752386
 40
0.0039822916
 40
0.0058703331
 40
0.008039374
 40
0.010488842
 40
0.0162245607
 40
0.0230668935
 40
0.0310011941
 40
0.0400101574
 40
0.0500734942
 40
0.0611683766
 40
0.0732696485
 40
0.1003779968
 40
0.1311501046
 40
0.1653034208
 40
0.2025240305
 40
0.2424697519
 40
0.2847732278
 40
0.329045517
 40
0.3748795465
 40
0.4218540243
 40
0.4695371447
 40
0.517490777
 40
0.5652742902
 40
0.6124488233
 40
0.6585811158
 40
0.7032476659
 40
0.7460384387
 40
0.7865608659
 40
0.8244432708
 40
0.8593384661
 40
0.8909268332
 40
0.9053893832
 40
0.9189194718
 40
0.9314861002
 40
0.9430608346
 40
0.9536172291
 40
0.9631315928
 40
0.9715825291
 40
0.9789513702
 40
0.982225003
 40
0.9852224776
 40
0.9879422116
 40
0.9903830639
 40
0.9925441531
 40
0.9944248096
 40
0.9960249518
 40
0.997345434
 40
0.9979014761
 40
0.9983886413
 40
0.9988077493
 40
0.9991601906
 40
0.9994483626
 40
0.9996767199
 40
0.9998543086
 40
1.0
 40
1.0
 40
1.0
 40
1.0
 10
2.764867374
 20
4.7265636763
 30
0.0
 10
2.7649197086
 20
4.7264034894
 30
0.0
 10
2.7650193658
 20
4.7260345256
 30
0.0
 10
2.7651530868
 20
4.7254084966
 30
0.0
 10
2.7652875186
 20
4.7246451278
 30
0.0
 10
2.7654224858
 20
4.7237447774
 30
0.0
 10
2.7655577907
 20
4.7227077714
 30
0.0
 10
2.765748688
 20
4.7210545623
 30
0.0
 10
2.7659823928
 20
4.7186504719
 30
0.0
 10
2.7662516291
 20
4.7153646326
 30
0.0
 10
2.7665216546
 20
4.7115512548
 30
0.0
 10
2.7667923127
 20
4.7072191176
 30
0.0
 10
2.7670633683
 20
4.7023781506
 30
0.0
 10
2.7673347433
 20
4.6970395009
 30
0.0
 10
2.7677112538
 20
4.6889632258
 30
0.0
 10
2.7681753652
 20
4.6777251454
 30
0.0
 10
2.7687149905
 20
4.6629431278
 30
0.0
 10
2.7692555794
 20
4.6465349136
 30
0.0
 10
2.7697969201
 20
4.6286516009
 30
0.0
 10
2.7703387512
 20
4.6094578401
 30
0.0
 10
2.7708809343
 20
4.5891303083
 30
0.0
 10
2.7714233578
 20
4.5678560843
 30
0.0
 10
2.7719659419
 20
4.5458308986
 30
0.0
 10
2.772508622
 20
4.5232573593
 30
0.0
 10
2.7730513447
 20
4.5003430584
 30
0.0
 10
2.773594062
 20
4.4772986917
 30
0.0
 10
2.7741367284
 20
4.4543360875
 30
0.0
 10
2.7746792963
 20
4.4316662921
 30
0.0
 10
2.7752217139
 20
4.4094976025
 30
0.0
 10
2.7757639202
 20
4.3880336896
 30
0.0
 10
2.7763058377
 20
4.3674716943
 30
0.0
 10
2.7768473717
 20
4.3480004446
 30
0.0
 10
2.7773883651
 20
4.3297986884
 30
0.0
 10
2.7779286803
 20
4.3130334917
 30
0.0
 10
2.7783905978
 20
4.3000318554
 30
0.0
 10
2.7787637809
 20
4.290463157
 30
0.0
 10
2.7790352408
 20
4.2839500459
 30
0.0
 10
2.7793065342
 20
4.2779014933
 30
0.0
 10
2.7795776153
 20
4.272331385
 30
0.0
 10
2.7798484358
 20
4.2672524595
 30
0.0
 10
2.7801188705
 20
4.2626763532
 30
0.0
 10
2.7803888415
 20
4.2586135254
 30
0.0
 10
2.7806214096
 20
4.2555535483
 30
0.0
 10
2.7808098302
 20
4.2533694059
 30
0.0
 10
2.7809454052
 20
4.251930738
 30
0.0
 10
2.7810808503
 20
4.2506265509
 30
0.0
 10
2.7812161228
 20
4.2494575647
 30
0.0
 10
2.7813511601
 20
4.2484244134
 30
0.0
 10
2.781485832
 20
4.2475276132
 30
0.0
 10
2.7816200786
 20
4.2467676215
 30
0.0
 10
2.7817369369
 20
4.2462209648
 30
0.0
 10
2.7818326335
 20
4.2458532531
 30
0.0
 10
2.78190012
 20
4.2456280564
 30
0.0
 10
2.7819674462
 20
4.2454371726
 30
0.0
 10
2.782034608
 20
4.245280482
 30
0.0
 10
2.7821016132
 20
4.2451575743
 30
0.0
 10
2.7821689437
 20
4.2450679672
 30
0.0
 10
2.7822380612
 20
4.2450102779
 30
0.0
 10
2.7822902439
 20
4.2449953088
 30
0.0
 10
2.7823136597
 20
4.2449953048
 30
0.0
  0
LINE
  5
434
100
AcDbEntity
  8
0
100
AcDbLine
 62
7
  6
CONTINUOUS
 10
7.8455590752
 20
4.2479675743
 11
7.8454654662
 21
4.2481618757
  0
SPLINE
  5
435
100
AcDbEntity
  8
0
100
AcDbSpline
 62
7
  6
CONTINUOUS
 70
0
 71
3
 72
67
 73
63
 74
0
 42
0.0000001
 43
0.0000001
 44
0.0000000001
 40
0.0
 40
0.0
 40
0.0
 40
0.0
 40
0.0004094308
 40
0.0008873878
 40
0.0020521045
 40
0.0034984092
 40
0.005227952
 40
0.0072410662
 40
0.0095373583
 40
0.0121161426
 40
0.014976377
 40
0.0215351196
 40
0.0292001662
 40
0.0379544705
 40
0.0477784344
 40
0.0586496032
 40
0.070542957
 40
0.0834312133
 40
0.0972844043
 40
0.1277554218
 40
0.1616736306
 40
0.1987243453
 40
0.2385637449
 40
0.2808220079
 40
0.3251069171
 40
0.3710073628
 40
0.4180973997
 40
0.4659400265
 40
0.5140914351
 40
0.5621049223
 40
0.6095352846
 40
0.6559427337
 40
0.700897173
 40
0.7439820022
 40
0.7847981767
 40
0.8229677735
 40
0.8581376707
 40
0.8899826947
 40
0.9045651873
 40
0.9182088483
 40
0.9308821109
 40
0.9425560218
 40
0.9532037067
 40
0.9628009598
 40
0.971326109
 40
0.9787600332
 40
0.9820627475
 40
0.9850868742
 40
0.987830882
 40
0.9902936328
 40
0.9924741434
 40
0.9943717271
 40
0.9959864204
 40
0.9973190116
 40
0.9978801739
 40
0.9983718521
 40
0.9987949197
 40
0.9991507882
 40
0.9994418782
 40
0.9996726955
 40
0.999852388
 40
1.0
 40
1.0
 40
1.0
 40
1.0
 10
7.8454654662
 20
4.2481618757
 30
0.0
 10
7.8454405629
 20
4.2482221656
 30
0.0
 10
7.8453916613
 20
4.2483549362
 30
0.0
 10
7.8452946025
 20
4.2486672308
 30
0.0
 10
7.8451768472
 20
4.2491454554
 30
0.0
 10
7.845042087
 20
4.2498238445
 30
0.0
 10
7.8449067941
 20
4.2506395241
 30
0.0
 10
7.8447710277
 20
4.2515920803
 30
0.0
 10
7.8446349808
 20
4.2526810893
 30
0.0
 10
7.8444987142
 20
4.2539059554
 30
0.0
 10
7.8443080252
 20
4.2558079394
 30
0.0
 10
7.8440735111
 20
4.2585197696
 30
0.0
 10
7.8438023364
 20
4.2621706488
 30
0.0
 10
7.8435305519
 20
4.2663429513
 30
0.0
 10
7.8432582856
 20
4.2710269729
 30
0.0
 10
7.8429856982
 20
4.2762118482
 30
0.0
 10
7.842712869
 20
4.2818855265
 30
0.0
 10
7.8424398544
 20
4.2880347968
 30
0.0
 10
7.8420635984
 20
4.2971421586
 30
0.0
 10
7.8415984323
 20
4.3095991456
 30
0.0
 10
7.8410553149
 20
4.3257515045
 30
0.0
 10
7.8405114957
 20
4.3433971837
 30
0.0
 10
7.8399671324
 20
4.3623721678
 30
0.0
 10
7.83942241
 20
4.3825001411
 30
0.0
 10
7.8388774354
 20
4.4035940913
 30
0.0
 10
7.8383322956
 20
4.4254580841
 30
0.0
 10
7.837787057
 20
4.4478890625
 30
0.0
 10
7.8372417754
 20
4.470678768
 30
0.0
 10
7.8366965001
 20
4.4936156398
 30
0.0
 10
7.8361512776
 20
4.5164868122
 30
0.0
 10
7.8356061559
 20
4.5390800591
 30
0.0
 10
7.8350611874
 20
4.5611857967
 30
0.0
 10
7.8345164335
 20
4.5825989915
 30
0.0
 10
7.8339719723
 20
4.603121091
 30
0.0
 10
7.8334278986
 20
4.6225618384
 30
0.0
 10
7.8328843705
 20
4.6407410697
 30
0.0
 10
7.8323415261
 20
4.6574903466
 30
0.0
 10
7.8318774711
 20
4.6704822415
 30
0.0
 10
7.8315025607
 20
4.6800454755
 30
0.0
 10
7.8312298292
 20
4.6865558906
 30
0.0
 10
7.8309572656
 20
4.6926024818
 30
0.0
 10
7.8306849145
 20
4.6981712412
 30
0.0
 10
7.8304128289
 20
4.7032493063
 30
0.0
 10
7.8301411264
 20
4.7078249454
 30
0.0
 10
7.8298698964
 20
4.711887589
 30
0.0
 10
7.8296362399
 20
4.7149475555
 30
0.0
 10
7.8294469448
 20
4.7171317586
 30
0.0
 10
7.8293107338
 20
4.7185705159
 30
0.0
 10
7.8291746545
 20
4.7198748091
 30
0.0
 10
7.8290387521
 20
4.7210439148
 30
0.0
 10
7.8289030849
 20
4.7220771819
 30
0.0
 10
7.8287677771
 20
4.7229740932
 30
0.0
 10
7.828632905
 20
4.7237341947
 30
0.0
 10
7.8285155039
 20
4.7242809332
 30
0.0
 10
7.8284193612
 20
4.7246486861
 30
0.0
 10
7.8283515548
 20
4.724873909
 30
0.0
 10
7.8282839113
 20
4.7250648214
 30
0.0
 10
7.8282164324
 20
4.7252215479
 30
0.0
 10
7.8281491064
 20
4.7253444931
 30
0.0
 10
7.8280814496
 20
4.7254341338
 30
0.0
 10
7.8280119895
 20
4.7254918243
 30
0.0
 10
7.8279596082
 20
4.7255067595
 30
0.0
 10
7.8279360906
 20
4.7255067569
 30
0.0
  0
LINE
  5
436
100
AcDbEntity
  8
0
100
AcDbLine
 62
7
  6
CONTINUOUS
 10
7.8812734616
 20
4.2490899213
 11
7.8811008131
 21
4.2494980862
  0
SPLINE
  5
437
100
AcDbEntity
  8
0
100
AcDbSpline
 62
7
  6
CONTINUOUS
 70
0
 71
3
 72
64
 73
60
 74
0
 42
0.0000001
 43
0.0000001
 44
0.0000000001
 40
0.0
 40
0.0
 40
0.0
 40
0.0
 40
0.0010440244
 40
0.0023659986
 40
0.0039681682
 40
0.0058512671
 40
0.0080153511
 40
0.0104598567
 40
0.0161857615
 40
0.023018496
 40
0.0309435194
 40
0.0399435157
 40
0.049998325
 40
0.0610850851
 40
0.0731787149
 40
0.1002732406
 40
0.131033666
 40
0.1651775164
 40
0.2023909221
 40
0.2423316596
 40
0.2846323756
 40
0.3289040223
 40
0.3747394388
 40
0.4217171402
 40
0.4694051415
 40
0.5173650733
 40
0.5651561024
 40
0.6123390866
 40
0.6584804993
 40
0.7031565966
 40
0.7459571411
 40
0.7864893404
 40
0.8243813031
 40
0.8592856237
 40
0.8908824941
 40
0.9053490866
 40
0.918882931
 40
0.931453271
 40
0.9430313257
 40
0.9535909789
 40
0.9631082977
 40
0.9715619625
 40
0.9789334311
 40
0.9822082302
 40
0.9852068096
 40
0.9879277477
 40
0.9903697233
 40
0.992531821
 40
0.9944135829
 40
0.9960149183
 40
0.9973365381
 40
0.9978931942
 40
0.9983810542
 40
0.9988009735
 40
0.999154344
 40
0.9994435745
 40
0.9996731941
 40
0.9998523722
 40
1.0
 40
1.0
 40
1.0
 40
1.0
 10
7.8811008131
 20
4.2494980862
 30
0.0
 10
7.8810484437
 20
4.2496550496
 30
0.0
 10
7.8809487375
 20
4.2500170044
 30
0.0
 10
7.8808149931
 20
4.2506316558
 30
0.0
 10
7.8806805344
 20
4.2513817559
 30
0.0
 10
7.8805455382
 20
4.2522669585
 30
0.0
 10
7.8804102033
 20
4.2532869506
 30
0.0
 10
7.8802192385
 20
4.2549137572
 30
0.0
 10
7.8799854688
 20
4.2572802898
 30
0.0
 10
7.8797161695
 20
4.2605156624
 30
0.0
 10
7.8794460808
 20
4.2642714337
 30
0.0
 10
7.8791753532
 20
4.2685389691
 30
0.0
 10
7.8789042302
 20
4.2733084835
 30
0.0
 10
7.8786327838
 20
4.2785690056
 30
0.0
 10
7.8782561594
 20
4.2865282736
 30
0.0
 10
7.8777919162
 20
4.2976048905
 30
0.0
 10
7.877252154
 20
4.3121759742
 30
0.0
 10
7.876711428
 20
4.3283517672
 30
0.0
 10
7.8761699504
 20
4.3459832733
 30
0.0
 10
7.8756279837
 20
4.3649081232
 30
0.0
 10
7.8750856675
 20
4.3849520648
 30
0.0
 10
7.8745431136
 20
4.4059305818
 30
0.0
 10
7.8740004026
 20
4.4276505956
 30
0.0
 10
7.873457599
 20
4.4499122347
 30
0.0
 10
7.8729147566
 20
4.4725106888
 30
0.0
 10
7.8723719233
 20
4.4952380855
 30
0.0
 10
7.8718291451
 20
4.5178854198
 30
0.0
 10
7.8712864691
 20
4.5402444531
 30
0.0
 10
7.8707439471
 20
4.5621096519
 30
0.0
 10
7.8702016399
 20
4.5832800567
 30
0.0
 10
7.8696596251
 20
4.6035611539
 30
0.0
 10
7.8691179975
 20
4.622766631
 30
0.0
 10
7.868576914
 20
4.6407201133
 30
0.0
 10
7.8680365128
 20
4.6572567497
 30
0.0
 10
7.8675745222
 20
4.6700811875
 30
0.0
 10
7.8672012868
 20
4.6795194957
 30
0.0
 10
7.8669297826
 20
4.6859439001
 30
0.0
 10
7.8666584556
 20
4.6919100662
 30
0.0
 10
7.8663873297
 20
4.6974043332
 30
0.0
 10
7.8661164755
 20
4.7024140962
 30
0.0
 10
7.8658460026
 20
4.7069279017
 30
0.0
 10
7.8655759911
 20
4.7109354237
 30
0.0
 10
7.8653433981
 20
4.7139537319
 30
0.0
 10
7.8651549529
 20
4.7161081188
 30
0.0
 10
7.8650193548
 20
4.7175271975
 30
0.0
 10
7.8648838972
 20
4.7188136381
 30
0.0
 10
7.8647486095
 20
4.7199667167
 30
0.0
 10
7.864613547
 20
4.7209858013
 30
0.0
 10
7.8644788546
 20
4.7218704045
 30
0.0
 10
7.8643445983
 20
4.7226200734
 30
0.0
 10
7.8642277182
 20
4.7231592751
 30
0.0
 10
7.8641320126
 20
4.7235219367
 30
0.0
 10
7.8640645118
 20
4.7237440744
 30
0.0
 10
7.8639971713
 20
4.7239323845
 30
0.0
 10
7.8639299928
 20
4.7240869794
 30
0.0
 10
7.8638629539
 20
4.7242082457
 30
0.0
 10
7.8637955707
 20
4.724296657
 30
0.0
 10
7.863726376
 20
4.7243534978
 30
0.0
 10
7.8636743383
 20
4.7243681644
 30
0.0
 10
7.8636509405
 20
4.7243681649
 30
0.0
  0
SPLINE
  5
438
100
AcDbEntity
  8
0
100
AcDbSpline
 62
7
  6
CONTINUOUS
 70
0
 71
3
 72
24
 73
20
 74
0
 42
0.0000001
 43
0.0000001
 44
0.0000000001
 40
0.0
 40
0.0
 40
0.0
 40
0.0
 40
0.0051704104
 40
0.0110090353
 40
0.0179944488
 40
0.0264113521
 40
0.0364226488
 40
0.0481244929
 40
0.0768095596
 40
0.1127523794
 40
0.1560793046
 40
0.2068510543
 40
0.2650982229
 40
0.3308352238
 40
0.4040661874
 40
0.4847828074
 40
0.5729693988
 40
0.7716752769
 40
1.0
 40
1.0
 40
1.0
 40
1.0
 10
7.6582874875
 20
4.2422449733
 30
0.0
 10
7.6582705382
 20
4.2422449725
 30
0.0
 10
7.6582342208
 20
4.2422523234
 30
0.0
 10
7.658182986
 20
4.2422830619
 30
0.0
 10
7.6581329383
 20
4.2423320767
 30
0.0
 10
7.6580833318
 20
4.2423993004
 30
0.0
 10
7.6580337937
 20
4.2424849144
 30
0.0
 10
7.6579628346
 20
4.2426342546
 30
0.0
 10
7.6578768258
 20
4.2428696943
 30
0.0
 10
7.6577786678
 20
4.2432098262
 30
0.0
 10
7.657680118
 20
4.2436247085
 30
0.0
 10
7.6575812135
 20
4.2441142888
 30
0.0
 10
7.6574820937
 20
4.2446785716
 30
0.0
 10
7.657382811
 20
4.2453174317
 30
0.0
 10
7.6572834189
 20
4.2460307188
 30
0.0
 10
7.6571839339
 20
4.2468182249
 30
0.0
 10
7.6570456319
 20
4.2480153512
 30
0.0
 10
7.6568749026
 20
4.2496957243
 30
0.0
 10
7.6567513624
 20
4.2510901536
 30
0.0
 10
7.6566887949
 20
4.2518360121
 30
0.0
  0
SPLINE
  5
439
100
AcDbEntity
  8
0
100
AcDbSpline
 62
7
  6
CONTINUOUS
 70
0
 71
3
 72
27
 73
23
 74
0
 42
0.0000001
 43
0.0000001
 44
0.0000000001
 40
0.0
 40
0.0
 40
0.0
 40
0.0
 40
0.0625102677
 40
0.093773264
 40
0.1250337357
 40
0.1875405692
 40
0.2500459225
 40
0.281305086
 40
0.3125638699
 40
0.3750653607
 40
0.4375648818
 40
0.5000624007
 40
0.5625578636
 40
0.6250512217
 40
0.6875424132
 40
0.7187950985
 40
0.7500473195
 40
0.8125339435
 40
0.8750186418
 40
0.9062676317
 40
0.937515944
 40
1.0
 40
1.0
 40
1.0
 40
1.0
 10
7.1556420796
 20
4.5690123303
 30
0.0
 10
7.1535459105
 20
4.5656798233
 30
0.0
 10
7.1506100083
 20
4.5605446915
 30
0.0
 10
7.147142562
 20
4.553472591
 30
0.0
 10
7.143978187
 20
4.5462595061
 30
0.0
 10
7.1406031664
 20
4.5370006266
 30
0.0
 10
7.1380327942
 20
4.5274867451
 30
0.0
 10
7.136473793
 20
4.5197663637
 30
0.0
 10
7.1352495798
 20
4.511986169
 30
0.0
 10
7.1343533589
 20
4.5021721786
 30
0.0
 10
7.1343076329
 20
4.4903487396
 30
0.0
 10
7.1352977813
 20
4.4785665424
 30
0.0
 10
7.1373226009
 20
4.4669176724
 30
0.0
 10
7.1403722759
 20
4.4554948708
 30
0.0
 10
7.1437538654
 20
4.4462389625
 30
0.0
 10
7.1469484497
 20
4.4390414132
 30
0.0
 10
7.1504641907
 20
4.4319954366
 30
0.0
 10
7.1554513194
 20
4.4234972684
 30
0.0
 10
7.1611912672
 20
4.4154883528
 30
0.0
 10
7.1662070529
 20
4.4094186027
 30
0.0
 10
7.1714961548
 20
4.4035863161
 30
0.0
 10
7.1757630654
 20
4.3994906736
 30
0.0
 10
7.1787256214
 20
4.3969003465
 30
0.0
  0
SPLINE
  5
43A
100
AcDbEntity
  8
0
100
AcDbSpline
 62
7
  6
CONTINUOUS
 70
0
 71
3
 72
43
 73
39
 74
0
 42
0.0000001
 43
0.0000001
 44
0.0000000001
 40
0.0
 40
0.0
 40
0.0
 40
0.0
 40
0.0001351602
 40
0.0002814507
 40
0.0004468395
 40
0.0006369074
 40
0.0011041195
 40
0.0017008891
 40
0.0024350268
 40
0.0033105781
 40
0.0043298405
 40
0.005494204
 40
0.0082612862
 40
0.0116157305
 40
0.0155581058
 40
0.0200877391
 40
0.02520327
 40
0.0309022637
 40
0.0371817407
 40
0.0440385514
 40
0.0594683075
 40
0.0771562834
 40
0.0970610332
 40
0.1191358385
 40
0.1433279269
 40
0.1695797689
 40
0.1978285487
 40
0.2280064214
 40
0.2600413033
 40
0.2938560099
 40
0.3664962249
 40
0.4452290215
 40
0.529297245
 40
0.6178921454
 40
0.7101608438
 40
0.8052153943
 40
0.902138555
 40
1.0
 40
1.0
 40
1.0
 40
1.0
 10
2.8073213461
 20
4.2253159005
 30
0.0
 10
2.8073095755
 20
4.2253162683
 30
0.0
 10
2.8072850715
 20
4.2253206531
 30
0.0
 10
2.8072495336
 20
4.2253373635
 30
0.0
 10
2.8072144514
 20
4.2253638494
 30
0.0
 10
2.8071646098
 20
4.2254156627
 30
0.0
 10
2.8071040883
 20
4.2255075027
 30
0.0
 10
2.8070357323
 20
4.2256486634
 30
0.0
 10
2.8069671279
 20
4.2258284626
 30
0.0
 10
2.8068983056
 20
4.2260470213
 30
0.0
 10
2.8068292964
 20
4.2263045449
 30
0.0
 10
2.8067314
 20
4.2267246976
 30
0.0
 10
2.8066118844
 20
4.2273483769
 30
0.0
 10
2.8064745929
 20
4.2282145009
 30
0.0
 10
2.8063368426
 20
4.2292357558
 30
0.0
 10
2.8061987079
 20
4.2304115805
 30
0.0
 10
2.8060603426
 20
4.2317413557
 30
0.0
 10
2.8059217963
 20
4.2332243045
 30
0.0
 10
2.8057831047
 20
4.2348595515
 30
0.0
 10
2.8055903833
 20
4.2373410295
 30
0.0
 10
2.8053524938
 20
4.2408159119
 30
0.0
 10
2.8050763141
 20
4.2454274876
 30
0.0
 10
2.8047996449
 20
4.25061893
 30
0.0
 10
2.8045225818
 20
4.2563777651
 30
0.0
 10
2.8042452301
 20
4.2626901828
 30
0.0
 10
2.8039676558
 20
4.2695409985
 30
0.0
 10
2.8036899044
 20
4.2769137386
 30
0.0
 10
2.803412006
 20
4.2847906772
 30
0.0
 10
2.8031339827
 20
4.2931528488
 30
0.0
 10
2.802754019
 20
4.3052133631
 30
0.0
 10
2.8022827142
 20
4.3213417401
 30
0.0
 10
2.8017289769
 20
4.3418480615
 30
0.0
 10
2.8011746634
 20
4.3637449572
 30
0.0
 10
2.800619875
 20
4.3868215675
 30
0.0
 10
2.8000647221
 20
4.4108556619
 30
0.0
 10
2.7995092818
 20
4.4356155702
 30
0.0
 10
2.7989536126
 20
4.460862884
 30
0.0
 10
2.7985836389
 20
4.47783026
 30
0.0
 10
2.7983977331
 20
4.4863548137
 30
0.0
  0
ENDSEC
  0
SECTION
  2
OBJECTS
  0
DICTIONARY
  5
C
100
AcDbDictionary
280
0
281
1
  3
ACAD_GROUP
350
D
  3
ACAD_MLINESTYLE
350
17
  3
ACAD_LAYOUT
350
1A
  3
ACAD_PLOTSETTINGS
350
19
  3
ACAD_PLOTSTYLENAME
350
E
  0
DICTIONARY
  5
D
102
{ACAD_REACTORS
330
C
102
}
100
AcDbDictionary
280
0
281
1
  0
ACDBDICTIONARYWDFLT
  5
E
102
{ACAD_REACTORS
330
C
102
}
100
AcDbDictionary
281
1
  3
Normal
350
F
100
AcDbDictionaryWithDefault
340
F
  0
DICTIONARY
  5
17
102
{ACAD_REACTORS
330
C
102
}
100
AcDbDictionary
280
0
281
1
  3
Standard
350
18
  0
DICTIONARY
  5
19
102
{ACAD_REACTORS
330
C
102
}
100
AcDbDictionary
281
1
  0
DICTIONARY
  5
1A
102
{ACAD_REACTORS
330
C
102
}
100
AcDbDictionary
281
1
  3
Model
350
43B
  3
Layout1
350
43C
  0
ACDBPLACEHOLDER
  5
F
102
{ACAD_REACTORS
330
E
102
}
  0
MLINESTYLE
  5
18
102
{ACAD_REACTORS
330
17
102
}
100
AcDbMlineStyle
  2
STANDARD
 70
0
  3

 62
256
 51
90.0
 52
90.0
 71
2
 49
0.5
 62
256
  6
BYLAYER
 49
-0.5
 62
256
  6
BYLAYER
  0
LAYOUT
  5
43B
102
{ACAD_REACTORS
330
1A
102
}
100
AcDbPlotSettings
  1

  2
none_device
  4
ANSI_A_(11.00_x_8.50_Inches)
  6

 40
0.0
 41
0.0
 42
0.0
 43
0.0
 44
279.4
 45
215.9
 46
0.0
 47
0.0
 48
0.0
 49
0.0
140
0.0
141
0.0
142
1.0
143
1.0
 70
1024
 72
0
 73
0
 74
0
  7

 75
0
147
1.0
148
0.0
149
0.0
100
AcDbLayout
  1
Model
 70
0
 71
0
 10
0.0
 20
0.0
 11
11.0
 21
8.5
 12
0.0
 22
0.0
 32
0.0
 14
0.0
 24
0.0
 34
0.0
 15
0.0
 25
0.0
 35
0.0
146
0.0
 13
0.0
 23
0.0
 33
0.0
 16
1.0
 26
0.0
 36
0.0
 17
0.0
 27
1.0
 37
0.0
 76
0
330
202
345
0
346
0
  0
LAYOUT
  5
43C
102
{ACAD_REACTORS
330
1A
102
}
100
AcDbPlotSettings
  1

  2
none_device
  4
ANSI_A_(11.00_x_8.50_Inches)
  6

 40
0.0
 41
0.0
 42
0.0
 43
0.0
 44
279.4
 45
215.9
 46
0.0
 47
0.0
 48
0.0
 49
0.0
140
0.0
141
0.0
142
1.0
143
1.0
 70
0
 72
0
 73
0
 74
0
  7

 75
0
147
1.0
148
0.0
149
0.0
100
AcDbLayout
  1
Layout1
 70
0
 71
1
 10
0.0
 20
0.0
 11
11.0
 21
8.5
 12
0.0
 22
0.0
 32
0.0
 14
0.0
 24
0.0
 34
0.0
 15
0.0
 25
0.0
 35
0.0
146
0.0
 13
0.0
 23
0.0
 33
0.0
 16
1.0
 26
0.0
 36
0.0
 17
0.0
 27
1.0
 37
0.0
 76
0
330
203
345
0
346
0
  0
ENDSEC
  0
EOF
