  0
SECTION
  2
HEADER
  9
$ACADVER
  1
AC1015
  9
$DWGCODEPAGE
  3
ANSI_1252
  9
$EXTMAX
 10
33.1102362205
 20
23.3858267717
 30
0.0
  9
$EXTMIN
 10
0.0
 20
0.0
 30
0.0
  9
$LIMMIN
 10
0.0
 20
0.0
  9
$LIMMAX
 10
33.1102362205
 20
23.3858267717
  9
$VIEWCTR
 10
16.5551181102
 20
11.6929133858
  9
$VIEWSIZE
 40
23.3858267717
  9
$CLAYER
  8
0
  9
$LTSCALE
 40
1.8210629921
  9
$CELTYPE
  6
BYLAYER
  9
$DIMSCALE
 40
1.0
  9
$DIMASZ
 40
0.1
  9
$DIMEXO
 40
0.2069389764
  9
$DIMDLI
 40
1.2581889764
  9
$DIMEXE
 40
0.595984252
  9
$DIMCEN
 40
0.297992126
  9
$DIMLFAC
 40
1.0
  9
$DIMBLK
  1
_FILLED
  9
$DIMTXT
 40
0.08
  9
$DIMTOL
 70
1
  9
$DIMLIM
 70
0
  9
$DIMTFAC
 40
1.0
  9
$DIMTP
 40
0.01
  9
$DIMTM
 40
0.01
  9
$PDMODE
 70
3
  9
$PDSIZE
 40
0.06
  9
$HANDSEED
  5
283
  9
$TILEMODE
 70
1
  9
$MEASUREMENT
 70
0
  9
$INSUNITS
 70
1
  0
ENDSEC
  0
SECTION
  2
CLASSES
  0
CLASS
  1
ACDBDICTIONARYWDFLT
  2
AcDbDictionaryWithDefault
  3
AutoCAD 2000
 90
0
280
0
281
0
  0
CLASS
  1
ACDBPLACEHOLDER
  2
AcDbPlaceHolder
  3
AutoCAD 2000
 90
0
280
0
281
0
  0
CLASS
  1
LAYOUT
  2
AcDbLayout
  3
AutoCAD 2000
 90
0
280
0
281
0
  0
ENDSEC
  0
SECTION
  2
TABLES
  0
TABLE
  2
VPORT
  5
8
100
AcDbSymbolTable
 70
2
  0
VPORT
  5
1F4
100
AcDbSymbolTableRecord
100
AcDbViewportTableRecord
  2
*ACTIVE
 70
0
 10
0.0
 20
0.0
 11
1.0
 21
1.0
 12
16.5551181102
 22
11.6929133858
 13
0.0
 23
0.0
 14
1.0
 24
1.0
 15
0.0
 25
0.0
 16
0.0
 26
0.0
 36
1.0
 17
0.0
 27
0.0
 37
0.0
 40
23.3858267717
 41
1.4158249158
 42
50.0
 43
0.0
 44
0.0
 50
0.0
 51
0.0
 71
0
 72
100
 73
1
 74
1
 75
0
 76
0
 77
0
 78
0
  0
ENDTAB
  0
TABLE
  2
LTYPE
  5
5
100
AcDbSymbolTable
 70
6
  0
LTYPE
  5
14
100
AcDbSymbolTableRecord
100
AcDbLinetypeTableRecord
  2
BYBLOCK
 70
0
  3

 72
65
 73
0
 40
0.0
  0
LTYPE
  5
15
100
AcDbSymbolTableRecord
100
AcDbLinetypeTableRecord
  2
BYLAYER
 70
0
  3

 72
65
 73
0
 40
0.0
  0
LTYPE
  5
16
100
AcDbSymbolTableRecord
100
AcDbLinetypeTableRecord
  2
CONTINUOUS
 70
64
  3
Solid line
 72
65
 73
0
 40
0.0
  0
LTYPE
  5
1F5
100
AcDbSymbolTableRecord
100
AcDbLinetypeTableRecord
  2
CENTER
 70
64
  3
____ _ ____ _ ____ _ ____ _ ____ _ ____ _ ____
 72
65
 73
4
 40
0.6
 49
0.375
 74
0
 49
-0.075
 74
0
 49
0.075
 74
0
 49
-0.075
 74
0
  0
LTYPE
  5
1F6
100
AcDbSymbolTableRecord
100
AcDbLinetypeTableRecord
  2
HIDDEN
 70
64
  3
- - - - - - - - - - - - - - - - - - - -
 72
65
 73
2
 40
0.2
 49
0.1
 74
0
 49
-0.1
 74
0
  0
LTYPE
  5
1F7
100
AcDbSymbolTableRecord
100
AcDbLinetypeTableRecord
  2
PHANTOM
 70
64
  3
_____ _ _ _____ _ _ _____ _ _ _____
 72
65
 73
6
 40
0.8
 49
0.45
 74
0
 49
-0.05
 74
0
 49
0.1
 74
0
 49
-0.05
 74
0
 49
0.1
 74
0
 49
-0.05
 74
0
  0
LTYPE
  5
1F8
100
AcDbSymbolTableRecord
100
AcDbLinetypeTableRecord
  2
DOT
 70
64
  3
. . . . . . . . . . . . . . . . . . . .
 72
65
 73
2
 40
0.2
 49
0.1
 74
0
 49
-0.1
 74
0
  0
LTYPE
  5
1F9
100
AcDbSymbolTableRecord
100
AcDbLinetypeTableRecord
  2
DASHED
 70
64
  3
- - - - - - - - - - - - - - - - - - - -
 72
65
 73
2
 40
0.2
 49
0.1
 74
0
 49
-0.1
 74
0
  0
ENDTAB
  0
TABLE
  2
LAYER
  5
2
100
AcDbSymbolTable
 70
36
  0
LAYER
  5
10
100
AcDbSymbolTableRecord
100
AcDbLayerTableRecord
  2
0
 70
0
 62
7
  6
CONTINUOUS
370
-3
390
F
  0
LAYER
  5
1FA
100
AcDbSymbolTableRecord
100
AcDbLayerTableRecord
  2
DEFAULT_1
 70
0
 62
7
  6
CENTER
370
-3
390
F
  0
LAYER
  5
1FB
100
AcDbSymbolTableRecord
100
AcDbLayerTableRecord
  2
DEFAULT_2
 70
0
 62
8
  6
HIDDEN
370
-3
390
F
  0
LAYER
  5
1FC
100
AcDbSymbolTableRecord
100
AcDbLayerTableRecord
  2
DEFAULT_3
 70
0
 62
7
  6
PHANTOM
370
-3
390
F
  0
LAYER
  5
1FD
100
AcDbSymbolTableRecord
100
AcDbLayerTableRecord
  2
3_ALL_SYMBOLS
 70
0
 62
7
  6
CONTINUOUS
370
-3
390
F
  0
LAYER
  5
1FE
100
AcDbSymbolTableRecord
100
AcDbLayerTableRecord
  2
DEFAULT_COORDINATE_SYSTEM
 70
0
 62
7
  6
CONTINUOUS
370
-3
390
F
  0
LAYER
  5
1FF
100
AcDbSymbolTableRecord
100
AcDbLayerTableRecord
  2
DEFAULT_DATUM_AXES
 70
0
 62
7
  6
CONTINUOUS
370
-3
390
F
  0
LAYER
  5
200
100
AcDbSymbolTableRecord
100
AcDbLayerTableRecord
  2
DEFAULT_DATUM_CURVES
 70
0
 62
7
  6
CONTINUOUS
370
-3
390
F
  0
LAYER
  5
201
100
AcDbSymbolTableRecord
100
AcDbLayerTableRecord
  2
DEFAULT_DATUM_PLANES
 70
0
 62
7
  6
CONTINUOUS
370
-3
390
F
  0
ENDTAB
  0
TABLE
  2
STYLE
  5
3
100
AcDbSymbolTable
 70
1
  0
STYLE
  5
11
100
AcDbSymbolTableRecord
100
AcDbTextStyleTableRecord
  2
STANDARD
 70
0
 40
0.0
 41
0.8
 50
0.0
 71
0
 42
0.2
  3
txt
  4

  0
STYLE
  5
202
100
AcDbSymbolTableRecord
100
AcDbTextStyleTableRecord
  2
TEXTSTYLE_1
 70
0
 40
0.0
 41
0.8
 50
0.0
 71
0
 42
0.2
  3
gdt
  4

  0
ENDTAB
  0
TABLE
  2
VIEW
  5
6
100
AcDbSymbolTable
 70
0
  0
ENDTAB
  0
TABLE
  2
UCS
  5
7
100
AcDbSymbolTable
 70
0
  0
ENDTAB
  0
TABLE
  2
APPID
  5
9
100
AcDbSymbolTable
 70
1
  0
APPID
  5
203
100
AcDbSymbolTableRecord
100
AcDbRegAppTableRecord
  2
ACAD
 70
0
  0
ENDTAB
  0
TABLE
  2
BLOCK_RECORD
  5
1
100
AcDbSymbolTable
 70
0
  0
BLOCK_RECORD
  5
204
100
AcDbSymbolTableRecord
100
AcDbBlockTableRecord
  2
*Model_Space
  0
BLOCK_RECORD
  5
205
100
AcDbSymbolTableRecord
100
AcDbBlockTableRecord
  2
*Paper_Space
  0
ENDTAB
  0
TABLE
  2
DIMSTYLE
  5
A
100
AcDbSymbolTable
 70
1
100
AcDbDimStyleTable
 71
0
  0
DIMSTYLE
105
206
100
AcDbSymbolTableRecord
100
AcDbDimStyleTableRecord
  2
STANDARD
 70
0
  3

  4

 40
1.0
 41
0.1
 42
0.0625
 43
0.38
 44
0.18
 45
0.0
 46
0.0
 47
0.01
 48
0.01
140
0.08
141
0.09
142
0.0
143
25.4
144
1.0
145
0.0
146
1.0
147
0.09
 71
1.0
 72
0.0
 73
1
 74
1
 75
0
 76
0
 77
0
 78
4
170
0
171
2
172
0
173
0
174
0
175
0
176
0
177
0
178
0
270
2
271
2
272
2
273
2
274
2
275
0
280
0
281
0
282
0
283
1
284
4
285
0
286
0
287
3
288
0
340
11
  0
ENDTAB
  0
ENDSEC
  0
SECTION
  2
BLOCKS
  0
BLOCK
  5
20
100
AcDbEntity
  8
0
100
AcDbBlockBegin
  2
*Model_Space
 70
0
 10
0.0
 20
0.0
 30
0.0
  3
*Model_Space
  1

  0
ENDBLK
  5
21
100
AcDbEntity
  8
0
100
AcDbBlockEnd
  0
BLOCK
  5
1C
100
AcDbEntity
  8
0
100
AcDbBlockBegin
  2
*Paper_Space
 70
0
 10
0.0
 20
0.0
 30
0.0
  3
*Paper_Space
  1

  0
ENDBLK
  5
1D
100
AcDbEntity
  8
0
100
AcDbBlockEnd
  0
ENDSEC
  0
SECTION
  2
ENTITIES
  0
LINE
  5
207
100
AcDbEntity
  8
0
100
AcDbLine
 62
6
  6
CONTINUOUS
 10
12.509415789
 20
0.5888327988
 11
19.559415789
 21
0.5888327988
  0
LINE
  5
208
100
AcDbEntity
  8
0
100
AcDbLine
 62
6
  6
CONTINUOUS
 10
19.584415789
 20
0.6388327988
 11
19.6917037024
 21
0.6388327988
  0
LINE
  5
209
100
AcDbEntity
  8
0
100
AcDbLine
 62
9
  6
CONTINUOUS
 10
12.309415789
 20
0.7888327988
 11
19.6362382444
 21
0.7888327988
  0
LINE
  5
20A
100
AcDbEntity
  8
0
100
AcDbLine
 62
6
  6
CONTINUOUS
 10
19.794415789
 20
1.0588327988
 11
12.274415789
 21
1.0588327988
  0
LINE
  5
20B
100
AcDbEntity
  8
0
100
AcDbLine
 62
9
  6
CONTINUOUS
 10
12.274415789
 20
1.5413628031
 11
19.794415789
 21
1.5413628031
  0
LINE
  5
20C
100
AcDbEntity
  8
0
100
AcDbLine
 62
9
  6
CONTINUOUS
 10
12.3032010371
 20
1.6028205055
 11
19.765630541
 21
1.6028205055
  0
LINE
  5
20D
100
AcDbEntity
  8
0
100
AcDbLine
 62
9
  6
CONTINUOUS
 10
12.4935330797
 20
1.761430541
 11
19.5752984984
 21
1.761430541
  0
LINE
  5
20E
100
AcDbEntity
  8
0
100
AcDbLine
 62
9
  6
CONTINUOUS
 10
12.7283971346
 20
1.8972626592
 11
19.3404344434
 21
1.8972626592
  0
LINE
  5
20F
100
AcDbEntity
  8
0
100
AcDbLine
 62
9
  6
CONTINUOUS
 10
12.9177206051
 20
2.1156398069
 11
19.1511109729
 21
2.1156398069
  0
LINE
  5
210
100
AcDbEntity
  8
0
100
AcDbLine
 62
9
  6
CONTINUOUS
 10
12.9959352104
 20
2.1788327988
 11
19.0728963677
 21
2.1788327988
  0
LINE
  5
211
100
AcDbEntity
  8
0
100
AcDbLine
 62
9
  6
CONTINUOUS
 10
14.3036788311
 20
2.3853620133
 11
17.765152747
 21
2.3853620133
  0
LINE
  5
212
100
AcDbEntity
  8
0
100
AcDbLine
 62
9
  6
CONTINUOUS
 10
14.3583395663
 20
2.4375329853
 11
17.7104920118
 21
2.4375329853
  0
LINE
  5
213
100
AcDbEntity
  8
0
100
AcDbLine
 62
9
  6
CONTINUOUS
 10
14.5640153962
 20
2.6353305937
 11
17.5048161819
 21
2.6353305937
  0
LINE
  5
214
100
AcDbEntity
  8
0
100
AcDbLine
 62
9
  6
CONTINUOUS
 10
14.6216434423
 20
2.6887935573
 11
17.4471881358
 21
2.6887935573
  0
LINE
  5
215
100
AcDbEntity
  8
0
100
AcDbLine
 62
9
  6
CONTINUOUS
 10
16.894415789
 20
3.0788327988
 11
15.174415789
 21
3.0788327988
  0
LINE
  5
216
100
AcDbEntity
  8
0
100
AcDbLine
 62
6
  6
CONTINUOUS
 10
16.629415789
 20
3.2288327988
 11
15.439415789
 21
3.2288327988
  0
LINE
  5
217
100
AcDbEntity
  8
0
100
AcDbLine
 62
7
  6
CONTINUOUS
 10
16.5398642445
 20
3.2322810745
 11
15.5289673336
 21
3.2322810745
  0
LINE
  5
218
100
AcDbEntity
  8
0
100
AcDbLine
 62
9
  6
CONTINUOUS
 10
16.5423445915
 20
3.398647599
 11
15.5264869866
 21
3.398647599
  0
LINE
  5
219
100
AcDbEntity
  8
0
100
AcDbLine
 62
6
  6
CONTINUOUS
 10
15.5297234214
 20
3.399595178
 11
16.5391081567
 21
3.399595178
  0
LINE
  5
21A
100
AcDbEntity
  8
0
100
AcDbLine
 62
6
  6
CONTINUOUS
 10
19.765630541
 20
1.6028205055
 11
19.5752984984
 21
1.761430541
  0
LINE
  5
21B
100
AcDbEntity
  8
0
100
AcDbLine
 62
6
  6
CONTINUOUS
 10
12.274415789
 20
1.5413628031
 11
12.274415789
 21
1.0588327988
  0
LINE
  5
21C
100
AcDbEntity
  8
0
100
AcDbLine
 62
6
  6
CONTINUOUS
 10
12.309415789
 20
1.0588327988
 11
12.309415789
 21
0.7888327988
  0
LINE
  5
21D
100
AcDbEntity
  8
0
100
AcDbLine
 62
6
  6
CONTINUOUS
 10
15.550040789
 20
3.399595178
 11
15.550040789
 21
21.2580704196
  0
LINE
  5
21E
100
AcDbEntity
  8
0
100
AcDbLine
 62
6
  6
CONTINUOUS
 10
15.596915789
 20
21.4697672428
 11
15.596915789
 21
21.4297672428
  0
LINE
  5
21F
100
AcDbEntity
  8
0
100
AcDbLine
 62
6
  6
CONTINUOUS
 10
15.784415789
 20
21.6547672428
 11
15.784415789
 21
21.6297672428
  0
LINE
  5
220
100
AcDbEntity
  8
0
100
AcDbLine
 62
6
  6
CONTINUOUS
 10
16.284415789
 20
21.6547672428
 11
16.284415789
 21
21.6297672428
  0
LINE
  5
221
100
AcDbEntity
  8
0
100
AcDbLine
 62
6
  6
CONTINUOUS
 10
16.334415789
 20
21.6547672428
 11
16.334415789
 21
22.4547672428
  0
LINE
  5
222
100
AcDbEntity
  8
0
100
AcDbLine
 62
6
  6
CONTINUOUS
 10
16.471915789
 20
21.4697672428
 11
16.471915789
 21
21.4297672428
  0
LINE
  5
223
100
AcDbEntity
  8
0
100
AcDbLine
 62
6
  6
CONTINUOUS
 10
16.518790789
 20
3.399595178
 11
16.518790789
 21
21.2580704196
  0
LINE
  5
224
100
AcDbEntity
  8
0
100
AcDbLine
 62
9
  6
CONTINUOUS
 10
18.6541789136
 20
22.4297672428
 11
18.6541789136
 21
21.6797672428
  0
LINE
  5
225
100
AcDbEntity
  8
0
100
AcDbLine
 62
6
  6
CONTINUOUS
 10
19.584415789
 20
0.5904014505
 11
19.584415789
 21
0.656448875
  0
LINE
  5
226
100
AcDbEntity
  8
0
100
AcDbLine
 62
6
  6
CONTINUOUS
 10
19.6362382444
 20
0.7888327988
 11
19.6362382444
 21
1.0588327988
  0
LINE
  5
227
100
AcDbEntity
  8
0
100
AcDbLine
 62
6
  6
CONTINUOUS
 10
19.6939351976
 20
1.0588327988
 11
19.6939351976
 21
0.6410822561
  0
LINE
  5
228
100
AcDbEntity
  8
0
100
AcDbLine
 62
6
  6
CONTINUOUS
 10
19.794415789
 20
1.5413628031
 11
19.794415789
 21
1.0588327988
  0
LINE
  5
229
100
AcDbEntity
  8
0
100
AcDbLine
 62
6
  6
CONTINUOUS
 10
12.4935330797
 20
1.761430541
 11
12.3032010371
 21
1.6028205055
  0
LINE
  5
22A
100
AcDbEntity
  8
0
100
AcDbLine
 62
9
  6
CONTINUOUS
 10
18.1863781018
 20
21.6908917581
 11
18.1864463216
 21
21.6907985656
  0
LINE
  5
22B
100
AcDbEntity
  8
0
100
AcDbLine
 62
6
  6
CONTINUOUS
 10
18.1863838889
 20
21.690895486
 11
18.1864463216
 21
21.6907985656
  0
LWPOLYLINE
  5
22C
100
AcDbEntity
  8
0
100
AcDbPolyline
 62
6
  6
CONTINUOUS
 90
8
 70
0
 10
18.1863781018
 20
21.6908917581
 10
18.1910549626
 20
21.6849235582
 10
18.1966863926
 20
21.6788954379
 10
18.2028778225
 20
21.6736209018
 10
18.2098102435
 20
21.6692112709
 10
18.2174350868
 20
21.6659717134
 10
18.2253553955
 20
21.664245329
 10
18.2296886327
 20
21.6639951762
  0
LWPOLYLINE
  5
22D
100
AcDbEntity
  8
0
100
AcDbPolyline
 62
6
  6
CONTINUOUS
 90
5
 70
0
 10
17.7507087768
 20
21.6691268398
 10
17.755220466
 20
21.6693776397
 10
17.7640513504
 20
21.6713029979
 10
17.772632595
 20
21.6750488456
 10
17.7797174892
 20
21.6797672428
  0
LWPOLYLINE
  5
22E
100
AcDbEntity
  8
0
100
AcDbPolyline
 62
6
  6
CONTINUOUS
 90
3
 70
0
 10
16.7907135427
 20
21.6789943712
 10
16.795156036
 20
21.6792353012
 10
16.7976382103
 20
21.6797672428
  0
LWPOLYLINE
  5
22F
100
AcDbEntity
  8
0
100
AcDbPolyline
 62
6
  6
CONTINUOUS
 90
5
 70
0
 10
17.2707118386
 20
21.6740606033
 10
17.2749959137
 20
21.6742858813
 10
17.2834695669
 20
21.6760409886
 10
17.2917641223
 20
21.6794859038
 10
17.2922073092
 20
21.6797672428
  0
LWPOLYLINE
  5
230
100
AcDbEntity
  8
0
100
AcDbPolyline
 62
6
  6
CONTINUOUS
 90
7
 70
0
 10
18.229697242
 20
21.6639951775
 10
18.2335058378
 20
21.6641899644
 10
18.2414392179
 20
21.6658382464
 10
18.2492382558
 20
21.6691702098
 10
18.2562814062
 20
21.6738644082
 10
18.2623257225
 20
21.679494026
 10
18.2625487227
 20
21.6797672428
  0
LINE
  5
231
100
AcDbEntity
  8
0
100
AcDbLine
 62
6
  6
CONTINUOUS
 10
16.5391081567
 20
21.2580704196
 11
15.5297234214
 21
21.2580704196
  0
LINE
  5
232
100
AcDbEntity
  8
0
100
AcDbLine
 62
9
  6
CONTINUOUS
 10
15.5264869866
 20
21.2590179986
 11
16.5423445915
 21
21.2590179986
  0
LINE
  5
233
100
AcDbEntity
  8
0
100
AcDbLine
 62
9
  6
CONTINUOUS
 10
15.5289673336
 20
21.4253845231
 11
16.5398642445
 21
21.4253845231
  0
LINE
  5
234
100
AcDbEntity
  8
0
100
AcDbLine
 62
9
  6
CONTINUOUS
 10
15.5401982564
 20
21.4288327988
 11
16.5286333217
 21
21.4288327988
  0
LINE
  5
235
100
AcDbEntity
  8
0
100
AcDbLine
 62
7
  6
CONTINUOUS
 10
15.596915789
 20
21.4297672428
 11
16.471915789
 21
21.4297672428
  0
LINE
  5
236
100
AcDbEntity
  8
0
100
AcDbLine
 62
6
  6
CONTINUOUS
 10
15.596915789
 20
21.4697672428
 11
16.471915789
 21
21.4697672428
  0
LINE
  5
237
100
AcDbEntity
  8
0
100
AcDbLine
 62
6
  6
CONTINUOUS
 10
15.721915789
 20
21.5297672428
 11
16.346915789
 21
21.5297672428
  0
LINE
  5
238
100
AcDbEntity
  8
0
100
AcDbLine
 62
6
  6
CONTINUOUS
 10
15.784415789
 20
21.6297672428
 11
16.284415789
 21
21.6297672428
  0
LINE
  5
239
100
AcDbEntity
  8
0
100
AcDbLine
 62
6
  6
CONTINUOUS
 10
16.334415789
 20
21.6547672428
 11
13.434775246
 21
21.6547672428
  0
LINE
  5
23A
100
AcDbEntity
  8
0
100
AcDbLine
 62
6
  6
CONTINUOUS
 10
19.6917033547
 20
0.6388327988
 11
19.6939351976
 21
0.6410822561
  0
LWPOLYLINE
  5
23B
100
AcDbEntity
  8
0
100
AcDbPolyline
 62
6
  6
CONTINUOUS
 90
5
 70
0
 10
17.5107038488
 20
22.4379407656
 10
17.5053332749
 20
22.4375874147
 10
17.4964551672
 20
22.4354660907
 10
17.4881343835
 20
22.4316750228
 10
17.4853238912
 20
22.4297672428
  0
LWPOLYLINE
  5
23C
100
AcDbEntity
  8
0
100
AcDbPolyline
 62
6
  6
CONTINUOUS
 90
4
 70
0
 10
14.150280001
 20
22.4572549602
 10
14.1453943933
 20
22.4569568188
 10
14.1366348956
 20
22.4549438345
 10
14.1362425844
 20
22.4547672428
  0
LWPOLYLINE
  5
23D
100
AcDbEntity
  8
0
100
AcDbPolyline
 62
6
  6
CONTINUOUS
 90
6
 70
0
 10
17.9906995958
 20
22.4428745287
 10
17.9858305164
 20
22.4425822168
 10
17.9770109009
 20
22.4405790683
 10
17.9684833744
 20
22.4367752085
 10
17.9607248161
 20
22.4315313997
 10
17.9588045427
 20
22.4297672428
  0
LWPOLYLINE
  5
23E
100
AcDbEntity
  8
0
100
AcDbPolyline
 62
6
  6
CONTINUOUS
 90
6
 70
0
 10
13.6702851902
 20
22.4660415843
 10
13.6655267671
 20
22.4657564616
 10
13.6570037108
 20
22.4638348397
 10
13.6488214537
 20
22.4602284164
 10
13.6414025941
 20
22.4552897884
 10
13.6408241541
 20
22.4547672428
  0
LWPOLYLINE
  5
23F
100
AcDbEntity
  8
0
100
AcDbPolyline
 62
6
  6
CONTINUOUS
 90
5
 70
0
 10
13.9102894046
 20
21.6478862162
 10
13.9149022273
 20
21.6481533754
 10
13.9236673583
 20
21.6501173668
 10
13.932098525
 20
21.6538697966
 10
13.9334246143
 20
21.6547672428
  0
LWPOLYLINE
  5
240
100
AcDbEntity
  8
0
100
AcDbPolyline
 62
6
  6
CONTINUOUS
 90
4
 70
0
 10
17.0307024332
 20
22.4330069984
 10
17.0260096109
 20
22.4327378359
 10
17.0172598653
 20
22.4308142937
 10
17.0148531106
 20
22.4297672428
  0
LWPOLYLINE
  5
241
100
AcDbEntity
  8
0
100
AcDbPolyline
 62
6
  6
CONTINUOUS
 90
10
 70
0
 10
13.4715459138
 20
21.6381889715
 10
13.473863266
 20
21.6382873825
 10
13.4787458836
 20
21.6391280098
 10
13.4833623877
 20
21.6407278957
 10
13.4875341869
 20
21.6429197199
 10
13.4911243285
 20
21.6454902289
 10
13.4940883118
 20
21.648226187
 10
13.4964933766
 20
21.6509875784
 10
13.4984686292
 20
21.6537333581
 10
13.499097718
 20
21.6547672428
  0
LWPOLYLINE
  5
242
100
AcDbEntity
  8
0
100
AcDbPolyline
 62
6
  6
CONTINUOUS
 90
13
 70
0
 10
13.4427252531
 20
22.472447954
 10
13.440808137
 20
22.4723759369
 10
13.4366730035
 20
22.4717382435
 10
13.4327552928
 20
22.4705184076
 10
13.4291755095
 20
22.468832818
 10
13.4260198819
 20
22.4668116664
 10
13.4233505221
 20
22.4646000222
 10
13.4211783934
 20
22.4623321548
 10
13.4194542291
 20
22.4600915531
 10
13.4181198598
 20
22.4579395653
 10
13.4171042304
 20
22.4559080019
 10
13.4163419648
 20
22.4540289993
 10
13.4159874996
 20
22.4529602002
  0
LWPOLYLINE
  5
243
100
AcDbEntity
  8
0
100
AcDbPolyline
 62
6
  6
CONTINUOUS
 90
12
 70
0
 10
18.3172308871
 20
22.4473949714
 10
18.3153820229
 20
22.4473280936
 10
18.3112684554
 20
22.4467073581
 10
18.3073493572
 20
22.4455034554
 10
18.3037663546
 20
22.4438342529
 10
18.3006241194
 20
22.4418434847
 10
18.297997736
 20
22.4396992022
 10
18.2958948703
 20
22.4375546903
 10
18.2942086981
 20
22.4354420164
 10
18.2928428571
 20
22.4333451582
 10
18.2917570565
 20
22.4312928348
 10
18.2910991903
 20
22.4297672428
  0
LINE
  5
244
100
AcDbEntity
  8
0
100
AcDbLine
 62
6
  6
CONTINUOUS
 10
18.6541789136
 20
21.6797672428
 11
18.3598277961
 21
21.6797672428
  0
LINE
  5
245
100
AcDbEntity
  8
0
100
AcDbLine
 62
6
  6
CONTINUOUS
 10
16.783706051
 20
21.6797672428
 11
16.334415789
 21
21.6797672428
  0
LINE
  5
246
100
AcDbEntity
  8
0
100
AcDbLine
 62
6
  6
CONTINUOUS
 10
16.7907135427
 20
21.6797672428
 11
18.3082537473
 21
21.6797672428
  0
LINE
  5
247
100
AcDbEntity
  8
0
100
AcDbLine
 62
6
  6
CONTINUOUS
 10
18.6541789136
 20
22.4297672428
 11
16.334415789
 21
22.4297672428
  0
LINE
  5
248
100
AcDbEntity
  8
0
100
AcDbLine
 62
6
  6
CONTINUOUS
 10
16.334415789
 20
22.4547672428
 11
13.4688101781
 21
22.4547672428
  0
LINE
  5
249
100
AcDbEntity
  8
0
100
AcDbLine
 62
6
  6
CONTINUOUS
 10
18.3338722891
 20
21.6617891968
 11
18.334415789
 21
21.6617672428
  0
ARC
  5
24A
100
AcDbEntity
  8
0
100
AcDbCircle
 62
6
  6
CONTINUOUS
 10
13.0056805994
 20
1.1468535173
 40
0.8
100
AcDbArc
 50
110.2797608935
 51
129.8055710923
  0
ARC
  5
24B
100
AcDbEntity
  8
0
100
AcDbCircle
 62
6
  6
CONTINUOUS
 10
12.6244158354
 20
2.1786660873
 40
0.3
100
AcDbArc
 50
290.2797608935
 51
347.872514038
  0
ARC
  5
24C
100
AcDbEntity
  8
0
100
AcDbCircle
 62
6
  6
CONTINUOUS
 10
12.509415789
 20
0.7888327988
 40
0.2
100
AcDbArc
 50
180.0
 51
270.0
  0
ARC
  5
24D
100
AcDbEntity
  8
0
100
AcDbCircle
 62
6
  6
CONTINUOUS
 10
12.9959352104
 20
2.0988327988
 40
0.08
100
AcDbArc
 50
90.0
 51
167.872514038
  0
ARC
  5
24E
100
AcDbEntity
  8
0
100
AcDbCircle
 62
6
  6
CONTINUOUS
 10
12.354415789
 20
1.5413628031
 40
0.08
100
AcDbArc
 50
129.8055710921
 51
180.0
  0
ARC
  5
24F
100
AcDbEntity
  8
0
100
AcDbCircle
 62
6
  6
CONTINUOUS
 10
14.0186117999
 20
2.4788327988
 40
0.3
100
AcDbArc
 50
270.0
 51
341.8461716462
  0
ARC
  5
250
100
AcDbEntity
  8
0
100
AcDbCircle
 62
6
  6
CONTINUOUS
 10
14.2782502922
 20
2.7266449155
 40
0.3
100
AcDbArc
 50
285.4837014011
 51
342.2790683755
  0
ARC
  5
251
100
AcDbEntity
  8
0
100
AcDbCircle
 62
6
  6
CONTINUOUS
 10
14.3796967061
 20
2.3604364706
 40
0.08
100
AcDbArc
 50
105.4837014003
 51
161.8461716452
  0
ARC
  5
252
100
AcDbEntity
  8
0
100
AcDbCircle
 62
6
  6
CONTINUOUS
 10
14.6402194239
 20
2.610980108
 40
0.08
100
AcDbArc
 50
103.4266161016
 51
162.2790683741
  0
ARC
  5
253
100
AcDbEntity
  8
0
100
AcDbCircle
 62
6
  6
CONTINUOUS
 10
14.4099614025
 20
3.5755143786
 40
0.9116375929
100
AcDbArc
 50
283.4266161026
 51
326.987397256
  0
ARC
  5
254
100
AcDbEntity
  8
0
100
AcDbCircle
 62
6
  6
CONTINUOUS
 10
15.4511375363
 20
2.8990410453
 40
0.33
100
AcDbArc
 50
92.0355998582
 51
146.987397256
  0
ARC
  5
255
100
AcDbEntity
  8
0
100
AcDbCircle
 62
6
  6
CONTINUOUS
 10
15.585978289
 20
3.3163327988
 40
0.1015625
100
AcDbArc
 50
125.8567352357
 51
235.8515758657
  0
ARC
  5
256
100
AcDbEntity
  8
0
100
AcDbCircle
 62
6
  6
CONTINUOUS
 10
15.529415789
 20
3.394595178
 40
0.005
100
AcDbArc
 50
90.0
 51
125.85673412
  0
ARC
  5
257
100
AcDbEntity
  8
0
100
AcDbCircle
 62
6
  6
CONTINUOUS
 10
13.146465789
 20
22.0547672428
 40
0.4375
100
AcDbArc
 50
59.2829147353
 51
300.7170852647
  0
ARC
  5
258
100
AcDbEntity
  8
0
100
AcDbCircle
 62
6
  6
CONTINUOUS
 10
15.8188927462
 20
21.167523582
 40
0.375
100
AcDbArc
 50
104.9873168706
 51
126.294694778
  0
ARC
  5
259
100
AcDbEntity
  8
0
100
AcDbCircle
 62
6
  6
CONTINUOUS
 10
15.8466321202
 20
21.5213507858
 40
0.125
100
AcDbArc
 50
119.8499741826
 51
176.1392594012
  0
ARC
  5
25A
100
AcDbEntity
  8
0
100
AcDbCircle
 62
6
  6
CONTINUOUS
 10
15.585978289
 20
21.3413327988
 40
0.1015625
100
AcDbArc
 50
124.1484241343
 51
234.1432647643
  0
ARC
  5
25B
100
AcDbEntity
  8
0
100
AcDbCircle
 62
6
  6
CONTINUOUS
 10
13.434775246
 20
21.7547672428
 40
0.1
100
AcDbArc
 50
229.4340916309
 51
270.0
  0
ARC
  5
25C
100
AcDbEntity
  8
0
100
AcDbCircle
 62
6
  6
CONTINUOUS
 10
13.434775246
 20
22.3547672428
 40
0.1
100
AcDbArc
 50
108.2491499861
 51
130.5659083691
  0
ARC
  5
25D
100
AcDbEntity
  8
0
100
AcDbCircle
 62
6
  6
CONTINUOUS
 10
15.5401941061
 20
21.4088327988
 40
0.02
100
AcDbArc
 50
89.9999990241
 51
124.1484232755
  0
ARC
  5
25E
100
AcDbEntity
  8
0
100
AcDbCircle
 62
6
  6
CONTINUOUS
 10
15.529415789
 20
21.2630704196
 40
0.005
100
AcDbArc
 50
234.1432658801
 51
270.0
  0
ARC
  5
25F
100
AcDbEntity
  8
0
100
AcDbCircle
 62
6
  6
CONTINUOUS
 10
16.6176940418
 20
2.8990410453
 40
0.33
100
AcDbArc
 50
33.012602744
 51
87.9644001418
  0
ARC
  5
260
100
AcDbEntity
  8
0
100
AcDbCircle
 62
6
  6
CONTINUOUS
 10
16.482853289
 20
3.3163327988
 40
0.1015625
100
AcDbArc
 50
304.1484241343
 51
54.1432647643
  0
ARC
  5
261
100
AcDbEntity
  8
0
100
AcDbCircle
 62
6
  6
CONTINUOUS
 10
16.539415789
 20
3.394595178
 40
0.005
100
AcDbArc
 50
54.14326588
 51
90.0
  0
ARC
  5
262
100
AcDbEntity
  8
0
100
AcDbCircle
 62
6
  6
CONTINUOUS
 10
17.689134872
 20
2.3604364706
 40
0.08
100
AcDbArc
 50
18.1538283548
 51
74.5162985997
  0
ARC
  5
263
100
AcDbEntity
  8
0
100
AcDbCircle
 62
6
  6
CONTINUOUS
 10
17.4286121541
 20
2.610980108
 40
0.08
100
AcDbArc
 50
17.7209316259
 51
76.5733838984
  0
ARC
  5
264
100
AcDbEntity
  8
0
100
AcDbCircle
 62
6
  6
CONTINUOUS
 10
18.0502197782
 20
2.4788327988
 40
0.3
100
AcDbArc
 50
198.1538283538
 51
270.0
  0
ARC
  5
265
100
AcDbEntity
  8
0
100
AcDbCircle
 62
6
  6
CONTINUOUS
 10
17.7905812858
 20
2.7266449155
 40
0.3
100
AcDbArc
 50
197.7209316245
 51
254.5162985989
  0
ARC
  5
266
100
AcDbEntity
  8
0
100
AcDbCircle
 62
6
  6
CONTINUOUS
 10
17.6588701756
 20
3.5755143786
 40
0.9116375929
100
AcDbArc
 50
213.012602744
 51
256.5733838974
  0
ARC
  5
267
100
AcDbEntity
  8
0
100
AcDbCircle
 62
6
  6
CONTINUOUS
 10
18.180415789
 20
1.0888327988
 40
1.579
100
AcDbArc
 50
343.5454321336
 51
358.9097520658
  0
ARC
  5
268
100
AcDbEntity
  8
0
100
AcDbCircle
 62
6
  6
CONTINUOUS
 10
19.0631509787
 20
1.1468535173
 40
0.8
100
AcDbArc
 50
50.1944289077
 51
69.7202391065
  0
ARC
  5
269
100
AcDbEntity
  8
0
100
AcDbCircle
 62
6
  6
CONTINUOUS
 10
19.559415789
 20
0.7888327988
 40
0.2
100
AcDbArc
 50
311.4097728516
 51
312.582992397
  0
ARC
  5
26A
100
AcDbEntity
  8
0
100
AcDbCircle
 62
6
  6
CONTINUOUS
 10
19.559415789
 20
0.7888327988
 40
0.2
100
AcDbArc
 50
270.0
 51
277.1807557816
  0
ARC
  5
26B
100
AcDbEntity
  8
0
100
AcDbCircle
 62
6
  6
CONTINUOUS
 10
19.4444157427
 20
2.1786660873
 40
0.3
100
AcDbArc
 50
192.127485962
 51
249.7202391065
  0
ARC
  5
26C
100
AcDbEntity
  8
0
100
AcDbCircle
 62
6
  6
CONTINUOUS
 10
19.0728963677
 20
2.0988327988
 40
0.08
100
AcDbArc
 50
12.127485962
 51
90.0
  0
ARC
  5
26D
100
AcDbEntity
  8
0
100
AcDbCircle
 62
6
  6
CONTINUOUS
 10
19.714415789
 20
1.5413628031
 40
0.08
100
AcDbArc
 50
0.0
 51
50.1944289079
  0
ARC
  5
26E
100
AcDbEntity
  8
0
100
AcDbCircle
 62
6
  6
CONTINUOUS
 10
16.034415789
 20
22.0547672428
 40
0.4375
100
AcDbArc
 50
66.169063289
 51
113.830936711
  0
ARC
  5
26F
100
AcDbEntity
  8
0
100
AcDbCircle
 62
6
  6
CONTINUOUS
 10
18.922365789
 20
22.0547672428
 40
0.4375
100
AcDbArc
 50
237.5610446094
 51
122.4389553906
  0
ARC
  5
270
100
AcDbEntity
  8
0
100
AcDbCircle
 62
6
  6
CONTINUOUS
 10
16.2499388319
 20
21.167523582
 40
0.375
100
AcDbArc
 50
53.705305222
 51
75.0126831294
  0
ARC
  5
271
100
AcDbEntity
  8
0
100
AcDbCircle
 62
6
  6
CONTINUOUS
 10
16.2221994579
 20
21.5213507858
 40
0.125
100
AcDbArc
 50
3.8607405988
 51
60.1500258174
  0
ARC
  5
272
100
AcDbEntity
  8
0
100
AcDbCircle
 62
6
  6
CONTINUOUS
 10
16.482853289
 20
21.3413327988
 40
0.1015625
100
AcDbArc
 50
305.8567352357
 51
55.8515758657
  0
ARC
  5
273
100
AcDbEntity
  8
0
100
AcDbCircle
 62
6
  6
CONTINUOUS
 10
18.6541789136
 20
22.3297672428
 40
0.1
100
AcDbArc
 50
70.3247837908
 51
90.0
  0
ARC
  5
274
100
AcDbEntity
  8
0
100
AcDbCircle
 62
6
  6
CONTINUOUS
 10
18.6541789136
 20
21.7797672428
 40
0.1
100
AcDbArc
 50
270.0
 51
289.6752162092
  0
ARC
  5
275
100
AcDbEntity
  8
0
100
AcDbCircle
 62
9
  6
CONTINUOUS
 10
18.2071005181
 20
21.7057009514
 40
0.0254533148
100
AcDbArc
 50
215.8124391808
 51
217.8070093169
  0
ARC
  5
276
100
AcDbEntity
  8
0
100
AcDbCircle
 62
9
  6
CONTINUOUS
 10
18.20691388
 20
21.7055561509
 40
0.0252170925
100
AcDbArc
 50
217.8070225788
 51
219.8355056688
  0
ARC
  5
277
100
AcDbEntity
  8
0
100
AcDbCircle
 62
6
  6
CONTINUOUS
 10
16.528637472
 20
21.4088327988
 40
0.02
100
AcDbArc
 50
55.8515767245
 51
90.0000009759
  0
ARC
  5
278
100
AcDbEntity
  8
0
100
AcDbCircle
 62
6
  6
CONTINUOUS
 10
16.539415789
 20
21.2630704196
 40
0.005
100
AcDbArc
 50
270.0
 51
305.8567341199
  0
SPLINE
  5
279
100
AcDbEntity
  8
0
100
AcDbSpline
 62
6
  6
CONTINUOUS
 70
0
 71
3
 72
11
 73
7
 74
5
 42
0.0000001
 43
0.0000001
 44
0.0000000001
 12
0.0980133425
 22
0.107220048
 32
0.0
 13
0.0
 23
0.1452678698
 33
0.0
 40
0.0
 40
0.0
 40
0.0
 40
0.0
 40
0.2499807894
 40
0.499997092
 40
0.750016659
 40
1.0
 40
1.0
 40
1.0
 40
1.0
 10
19.584415789
 20
0.656448875
 30
0.0
 10
19.5925829399
 20
0.6653831924
 30
0.0
 10
19.6073437037
 20
0.684771605
 30
0.0
 10
19.6237959408
 20
0.7173734988
 30
0.0
 10
19.6339507417
 20
0.7524555687
 30
0.0
 10
19.6362382444
 20
0.7767279496
 30
0.0
 10
19.6362382444
 20
0.7888327988
 30
0.0
 11
19.584415789
 21
0.656448875
 31
0.0
 11
19.6063945617
 21
0.6853565381
 31
0.0
 11
19.6227462525
 21
0.7177867147
 31
0.0
 11
19.6328305122
 21
0.7526784945
 31
0.0
 11
19.6362382444
 21
0.7888327988
 31
0.0
  0
SPLINE
  5
27A
100
AcDbEntity
  8
0
100
AcDbSpline
 62
6
  6
CONTINUOUS
 70
0
 71
3
 72
15
 73
11
 74
9
 42
0.0000001
 43
0.0000001
 44
0.0000000001
 12
0.033401083
 22
0.0
 32
0.0
 13
0.0119971522
 23
0.031172114
 33
0.0
 40
0.0
 40
0.0
 40
0.0
 40
0.0
 40
0.1243423622
 40
0.2494804781
 40
0.3750446651
 40
0.5004423183
 40
0.6254178755
 40
0.7500772442
 40
0.8748803522
 40
1.0
 40
1.0
 40
1.0
 40
1.0
 10
18.334415789
 20
21.6617672428
 30
0.0
 10
18.3358001789
 20
21.6617672428
 30
0.0
 10
18.3385821793
 20
21.6619984701
 30
0.0
 10
18.3426563528
 20
21.6629761973
 30
0.0
 10
18.3465595358
 20
21.6645310304
 30
0.0
 10
18.3502054036
 20
21.6666151481
 30
0.0
 10
18.3535066142
 20
21.6691963509
 30
0.0
 10
18.3563766634
 20
21.6722442871
 30
0.0
 10
18.3587197861
 20
21.6757146245
 30
0.0
 10
18.3599132142
 20
21.6782417142
 30
0.0
 10
18.360413574
 20
21.6795417956
 30
0.0
 11
18.334415789
 21
21.6617672428
 31
0.0
 11
18.3385554572
 21
21.6621018549
 31
0.0
 11
18.3426214223
 21
21.6630704754
 31
0.0
 11
18.3465185455
 21
21.6646202811
 31
0.0
 11
18.3501532489
 21
21.6667015721
 31
0.0
 11
18.3534382268
 21
21.6692771999
 31
0.0
 11
18.356287749
 21
21.6723131682
 31
0.0
 11
18.3586255619
 21
21.6757644745
 31
0.0
 11
18.360413574
 21
21.6795417956
 31
0.0
  0
SPLINE
  5
27B
100
AcDbEntity
  8
0
100
AcDbSpline
 62
9
  6
CONTINUOUS
 70
0
 71
3
 72
18
 73
14
 74
12
 42
0.0000001
 43
0.0000001
 44
0.0000000001
 12
0.0012933873
 22
-0.0384637782
 32
0.0
 13
0.0384855179
 23
0.0
 33
0.0
 40
0.0
 40
0.0
 40
0.0
 40
0.0
 40
0.0543388735
 40
0.1091204796
 40
0.2210405919
 40
0.3375873234
 40
0.3980404904
 40
0.4600684544
 40
0.5237096019
 40
0.5888974519
 40
0.7231782015
 40
0.8610445089
 40
1.0
 40
1.0
 40
1.0
 40
1.0
 10
13.4315151807
 20
21.7526955031
 30
0.0
 10
13.4315386078
 20
21.7519988103
 30
0.0
 10
13.4316712284
 20
21.7506010334
 30
0.0
 10
13.4322799686
 20
21.7478255896
 30
0.0
 10
13.4337014531
 20
21.7444427047
 30
0.0
 10
13.4358826626
 20
21.7414077443
 30
0.0
 10
13.4380481562
 20
21.739230106
 30
0.0
 10
13.4399015427
 20
21.7377182537
 30
0.0
 10
13.4419383688
 20
21.7363535805
 30
0.0
 10
13.4448977877
 20
21.7347233146
 30
0.0
 10
13.4489307914
 20
21.733102841
 30
0.0
 10
13.4540763391
 20
21.7318707603
 30
0.0
 10
13.4576331977
 20
21.7315735923
 30
0.0
 10
13.459415789
 20
21.7315735923
 30
0.0
 11
13.4315151807
 21
21.7526955031
 31
0.0
 11
13.431712324
 21
21.7506135565
 31
0.0
 11
13.4321633775
 21
21.7485540728
 31
0.0
 11
13.4338170021
 21
21.744576839
 31
0.0
 11
13.4364220259
 21
21.7409254944
 31
0.0
 11
13.438060693
 21
21.7392739179
 31
0.0
 11
13.4399073417
 21
21.7377611361
 31
0.0
 11
13.4419399661
 21
21.7363946352
 31
0.0
 11
13.4441357166
 21
21.7351810875
 31
0.0
 11
13.4489250918
 21
21.733239772
 31
0.0
 11
13.4540855332
 21
21.7320060969
 31
0.0
 11
13.459415789
 21
21.7315735923
 31
0.0
  0
SPLINE
  5
27C
100
AcDbEntity
  8
0
100
AcDbSpline
 62
6
  6
CONTINUOUS
 70
0
 71
3
 72
15
 73
11
 74
9
 42
0.0000001
 43
0.0000001
 44
0.0000000001
 12
0.0118023769
 22
-0.0306660307
 32
0.0
 13
0.0328511375
 23
-0.0007101425
 33
0.0
 40
0.0
 40
0.0
 40
0.0
 40
0.0
 40
0.1251051814
 40
0.2499000341
 40
0.3745377299
 40
0.499471688
 40
0.6248249456
 40
0.7503805958
 40
0.875572934
 40
1.0
 40
1.0
 40
1.0
 40
1.0
 10
18.308418004
 20
21.6795417956
 30
0.0
 10
18.3089101835
 20
21.6782629691
 30
0.0
 10
18.3100810322
 20
21.6757761177
 30
0.0
 10
18.3123722639
 20
21.6723540982
 30
0.0
 10
18.3151751865
 20
21.6693382043
 30
0.0
 10
18.3183998771
 20
21.6667723596
 30
0.0
 10
18.3219636563
 20
21.6646853575
 30
0.0
 10
18.3257833561
 20
21.6631074702
 30
0.0
 10
18.3297766765
 20
21.6620829861
 30
0.0
 10
18.3325094183
 20
21.6618025858
 30
0.0
 10
18.3338719418
 20
21.6617731321
 30
0.0
 11
18.308418004
 21
21.6795417956
 31
0.0
 11
18.3101721867
 21
21.6758240567
 31
0.0
 11
18.3124587397
 21
21.6724201349
 31
0.0
 11
18.315242296
 21
21.6694160548
 31
0.0
 11
18.3184512245
 21
21.6668557242
 31
0.0
 11
18.3220039436
 21
21.6647714949
 31
0.0
 11
18.3258177161
 21
21.6631980296
 31
0.0
 11
18.3298038937
 21
21.6621818201
 31
0.0
 11
18.3338719418
 21
21.6617731321
 31
0.0
  0
SPLINE
  5
27D
100
AcDbEntity
  8
0
100
AcDbSpline
 62
9
  6
CONTINUOUS
 70
0
 71
3
 72
21
 73
17
 74
15
 42
0.0000001
 43
0.0000001
 44
0.0000000001
 12
0.0555402106
 22
0.0
 32
0.0
 13
-0.025452564
 23
0.0493647848
 33
0.0
 40
0.0
 40
0.0
 40
0.0
 40
0.0
 40
0.0635832475
 40
0.1274410206
 40
0.1914138802
 40
0.2552212324
 40
0.3186304932
 40
0.3815627825
 40
0.4440611727
 40
0.5063054564
 40
0.5684066575
 40
0.6303502757
 40
0.6920775743
 40
0.7536262337
 40
0.8764629533
 40
1.0
 40
1.0
 40
1.0
 40
1.0
 10
18.209415789
 20
21.6792506506
 30
0.0
 10
18.2105929314
 20
21.6792506506
 30
0.0
 10
18.2129549113
 20
21.6794131261
 30
0.0
 10
18.2164390501
 20
21.6801050144
 30
0.0
 10
18.2198189921
 20
21.6812106027
 30
0.0
 10
18.2230405588
 20
21.6826956854
 30
0.0
 10
18.2260513349
 20
21.6845359236
 30
0.0
 10
18.228797405
 20
21.6867142412
 30
0.0
 10
18.2312266647
 20
21.6892130444
 30
0.0
 10
18.2332803597
 20
21.6920099869
 30
0.0
 10
18.2349385948
 20
21.6950452892
 30
0.0
 10
18.2361853475
 20
21.6982609252
 30
0.0
 10
18.2370012056
 20
21.701601979
 30
0.0
 10
18.2374976832
 20
21.7061421276
 30
0.0
 10
18.2370121218
 20
21.7118891956
 30
0.0
 10
18.23544212
 20
21.7162359521
 30
0.0
 10
18.2343940084
 20
21.7182687454
 30
0.0
 11
18.209415789
 21
21.6792506506
 31
0.0
 11
18.212939298
 21
21.6794869991
 31
0.0
 11
18.2164189316
 21
21.6801733283
 31
0.0
 11
18.2197967055
 21
21.6812755635
 31
0.0
 11
18.2230147401
 21
21.6827599133
 31
0.0
 11
18.2260177703
 21
21.6845996495
 31
0.0
 11
18.2287532637
 21
21.6867754267
 31
0.0
 11
18.2311688164
 21
21.6892682468
 31
0.0
 11
18.2332168093
 21
21.6920533848
 31
0.0
 11
18.2348719037
 21
21.6950794464
 31
0.0
 11
18.2361152416
 21
21.6982872803
 31
0.0
 11
18.2369281975
 21
21.7016178459
 31
0.0
 11
18.2373002051
 21
21.7050159694
 31
0.0
 11
18.2367195289
 21
21.7118135901
 31
0.0
 11
18.2343940084
 21
21.7182687454
 31
0.0
  0
SPLINE
  5
27E
100
AcDbEntity
  8
0
100
AcDbSpline
 62
9
  6
CONTINUOUS
 70
0
 71
3
 72
18
 73
14
 74
12
 42
0.0000001
 43
0.0000001
 44
0.0000000001
 12
0.039636227
 22
0.0
 32
0.0
 13
-0.0013369263
 23
0.0396136734
 33
0.0
 40
0.0
 40
0.0
 40
0.0
 40
0.0
 40
0.1395756699
 40
0.2779333072
 40
0.412391747
 40
0.4775370089
 40
0.54104986
 40
0.6028852187
 40
0.6631211392
 40
0.7219101839
 40
0.7794028942
 40
0.8909598522
 40
1.0
 40
1.0
 40
1.0
 40
1.0
 10
13.459415789
 20
21.7315735923
 30
0.0
 10
13.4612598734
 20
21.7315735923
 30
0.0
 10
13.4649381547
 20
21.7318914439
 30
0.0
 10
13.4702453632
 20
21.7332051668
 30
0.0
 10
13.474386482
 20
21.7349310696
 30
0.0
 10
13.4774025933
 20
21.7366674787
 30
0.0
 10
13.4794631622
 20
21.7381193717
 30
0.0
 10
13.4813202457
 20
21.7397273747
 30
0.0
 10
13.4829474056
 20
21.7414840087
 30
0.0
 10
13.4843341931
 20
21.7433655523
 30
0.0
 10
13.4858349964
 20
21.7459811733
 30
0.0
 10
13.4870926116
 20
21.7494737418
 30
0.0
 10
13.4873649192
 20
21.7524120207
 30
0.0
 10
13.4873163263
 20
21.7538518477
 30
0.0
 11
13.459415789
 21
21.7315735923
 31
0.0
 11
13.4649286859
 21
21.7320359677
 31
0.0
 11
13.4702523127
 21
21.7333523931
 31
0.0
 11
13.4751642194
 21
21.7354202292
 31
0.0
 11
13.4773999961
 21
21.7367119749
 31
0.0
 11
13.4794552306
 21
21.738165716
 31
0.0
 11
13.4813046174
 21
21.7397740627
 31
0.0
 11
13.4829256585
 21
21.7415269174
 31
0.0
 11
13.4843066531
 21
21.7434037694
 31
0.0
 11
13.4854384954
 21
21.7453816055
 31
0.0
 11
13.4869185058
 21
21.7495482556
 31
0.0
 11
13.4873163263
 21
21.7538518477
 31
0.0
  0
LINE
  5
27F
100
AcDbEntity
  8
0
100
AcDbLine
 62
6
  6
CONTINUOUS
 10
19.6947472766
 20
0.6415732033
 11
19.6939351976
 21
0.6410822561
  0
SPLINE
  5
280
100
AcDbEntity
  8
0
100
AcDbSpline
 62
9
  6
CONTINUOUS
 70
0
 71
3
 72
11
 73
7
 74
5
 42
0.0000001
 43
0.0000001
 44
0.0000000001
 12
0.015890174
 22
-0.0190468073
 32
0.0
 13
0.0248048079
 23
0.0
 33
0.0
 40
0.0
 40
0.0
 40
0.0
 40
0.0
 40
0.2468559196
 40
0.4969399681
 40
0.7489934187
 40
1.0
 40
1.0
 40
1.0
 40
1.0
 10
18.1875500099
 20
21.6894024426
 30
0.0
 10
18.1888575377
 20
21.6878351703
 30
0.0
 10
18.1918853511
 20
21.684993874
 30
0.0
 10
18.1972473609
 20
21.6818121305
 30
0.0
 10
18.2031690326
 20
21.6797567838
 30
0.0
 10
18.207340399
 20
21.6792506506
 30
0.0
 10
18.209415789
 20
21.6792506506
 30
0.0
 11
18.1875500099
 21
21.6894024426
 31
0.0
 11
18.1919964066
 21
21.6851925374
 31
0.0
 11
18.1973209024
 21
21.6820096909
 31
0.0
 11
18.2032314902
 21
21.6799715118
 31
0.0
 11
18.209415789
 21
21.6792506506
 31
0.0
  0
ENDSEC
  0
SECTION
  2
OBJECTS
  0
DICTIONARY
  5
C
100
AcDbDictionary
280
0
281
1
  3
ACAD_GROUP
350
D
  3
ACAD_MLINESTYLE
350
17
  3
ACAD_LAYOUT
350
1A
  3
ACAD_PLOTSETTINGS
350
19
  3
ACAD_PLOTSTYLENAME
350
E
  0
DICTIONARY
  5
D
102
{ACAD_REACTORS
330
C
102
}
100
AcDbDictionary
280
0
281
1
  0
ACDBDICTIONARYWDFLT
  5
E
102
{ACAD_REACTORS
330
C
102
}
100
AcDbDictionary
281
1
  3
Normal
350
F
100
AcDbDictionaryWithDefault
340
F
  0
DICTIONARY
  5
17
102
{ACAD_REACTORS
330
C
102
}
100
AcDbDictionary
280
0
281
1
  3
Standard
350
18
  0
DICTIONARY
  5
19
102
{ACAD_REACTORS
330
C
102
}
100
AcDbDictionary
281
1
  0
DICTIONARY
  5
1A
102
{ACAD_REACTORS
330
C
102
}
100
AcDbDictionary
281
1
  3
Model
350
281
  3
Layout1
350
282
  0
ACDBPLACEHOLDER
  5
F
102
{ACAD_REACTORS
330
E
102
}
  0
MLINESTYLE
  5
18
102
{ACAD_REACTORS
330
17
102
}
100
AcDbMlineStyle
  2
STANDARD
 70
0
  3

 62
256
 51
90.0
 52
90.0
 71
2
 49
0.5
 62
256
  6
BYLAYER
 49
-0.5
 62
256
  6
BYLAYER
  0
LAYOUT
  5
281
102
{ACAD_REACTORS
330
1A
102
}
100
AcDbPlotSettings
  1

  2
none_device
  4
ISO_A1_(594.00_x_841.00_MM)
  6

 40
0.0
 41
0.0
 42
0.0
 43
0.0
 44
841.0
 45
594.0
 46
0.0
 47
0.0
 48
0.0
 49
0.0
140
0.0
141
0.0
142
1.0
143
1.0
 70
1024
 72
0
 73
0
 74
0
  7

 75
0
147
1.0
148
0.0
149
0.0
100
AcDbLayout
  1
Model
 70
0
 71
0
 10
0.0
 20
0.0
 11
33.1102362205
 21
23.3858267717
 12
0.0
 22
0.0
 32
0.0
 14
0.0
 24
0.0
 34
0.0
 15
0.0
 25
0.0
 35
0.0
146
0.0
 13
0.0
 23
0.0
 33
0.0
 16
1.0
 26
0.0
 36
0.0
 17
0.0
 27
1.0
 37
0.0
 76
0
330
204
345
0
346
0
  0
LAYOUT
  5
282
102
{ACAD_REACTORS
330
1A
102
}
100
AcDbPlotSettings
  1

  2
none_device
  4
ISO_A1_(594.00_x_841.00_MM)
  6

 40
0.0
 41
0.0
 42
0.0
 43
0.0
 44
841.0
 45
594.0
 46
0.0
 47
0.0
 48
0.0
 49
0.0
140
0.0
141
0.0
142
1.0
143
1.0
 70
0
 72
0
 73
0
 74
0
  7

 75
0
147
1.0
148
0.0
149
0.0
100
AcDbLayout
  1
Layout1
 70
0
 71
1
 10
0.0
 20
0.0
 11
33.1102362205
 21
23.3858267717
 12
0.0
 22
0.0
 32
0.0
 14
0.0
 24
0.0
 34
0.0
 15
0.0
 25
0.0
 35
0.0
146
0.0
 13
0.0
 23
0.0
 33
0.0
 16
1.0
 26
0.0
 36
0.0
 17
0.0
 27
1.0
 37
0.0
 76
0
330
205
345
0
346
0
  0
ENDSEC
  0
EOF
