  0
SECTION
  2
HEADER
  9
$ACADVER
  1
AC1015
  9
$DWGCODEPAGE
  3
ANSI_1252
  9
$EXTMAX
 10
33.1102362205
 20
23.3858267717
 30
0.0
  9
$EXTMIN
 10
0.0
 20
0.0
 30
0.0
  9
$LIMMIN
 10
0.0
 20
0.0
  9
$LIMMAX
 10
33.1102362205
 20
23.3858267717
  9
$VIEWCTR
 10
16.5551181102
 20
11.6929133858
  9
$VIEWSIZE
 40
23.3858267717
  9
$CLAYER
  8
0
  9
$LTSCALE
 40
1.8210629921
  9
$CELTYPE
  6
BYLAYER
  9
$DIMSCALE
 40
1.0
  9
$DIMASZ
 40
0.1
  9
$DIMEXO
 40
0.2069389764
  9
$DIMDLI
 40
1.2581889764
  9
$DIMEXE
 40
0.595984252
  9
$DIMCEN
 40
0.297992126
  9
$DIMLFAC
 40
1.0
  9
$DIMBLK
  1
_FILLED
  9
$DIMTXT
 40
0.08
  9
$DIMTOL
 70
1
  9
$DIMLIM
 70
0
  9
$DIMTFAC
 40
1.0
  9
$DIMTP
 40
0.01
  9
$DIMTM
 40
0.01
  9
$PDMODE
 70
3
  9
$PDSIZE
 40
0.06
  9
$HANDSEED
  5
273
  9
$TILEMODE
 70
1
  9
$MEASUREMENT
 70
0
  9
$INSUNITS
 70
1
  0
ENDSEC
  0
SECTION
  2
CLASSES
  0
CLASS
  1
ACDBDICTIONARYWDFLT
  2
AcDbDictionaryWithDefault
  3
AutoCAD 2000
 90
0
280
0
281
0
  0
CLASS
  1
ACDBPLACEHOLDER
  2
AcDbPlaceHolder
  3
AutoCAD 2000
 90
0
280
0
281
0
  0
CLASS
  1
LAYOUT
  2
AcDbLayout
  3
AutoCAD 2000
 90
0
280
0
281
0
  0
ENDSEC
  0
SECTION
  2
TABLES
  0
TABLE
  2
VPORT
  5
8
100
AcDbSymbolTable
 70
2
  0
VPORT
  5
1F4
100
AcDbSymbolTableRecord
100
AcDbViewportTableRecord
  2
*ACTIVE
 70
0
 10
0.0
 20
0.0
 11
1.0
 21
1.0
 12
16.5551181102
 22
11.6929133858
 13
0.0
 23
0.0
 14
1.0
 24
1.0
 15
0.0
 25
0.0
 16
0.0
 26
0.0
 36
1.0
 17
0.0
 27
0.0
 37
0.0
 40
23.3858267717
 41
1.4158249158
 42
50.0
 43
0.0
 44
0.0
 50
0.0
 51
0.0
 71
0
 72
100
 73
1
 74
1
 75
0
 76
0
 77
0
 78
0
  0
ENDTAB
  0
TABLE
  2
LTYPE
  5
5
100
AcDbSymbolTable
 70
6
  0
LTYPE
  5
14
100
AcDbSymbolTableRecord
100
AcDbLinetypeTableRecord
  2
BYBLOCK
 70
0
  3

 72
65
 73
0
 40
0.0
  0
LTYPE
  5
15
100
AcDbSymbolTableRecord
100
AcDbLinetypeTableRecord
  2
BYLAYER
 70
0
  3

 72
65
 73
0
 40
0.0
  0
LTYPE
  5
16
100
AcDbSymbolTableRecord
100
AcDbLinetypeTableRecord
  2
CONTINUOUS
 70
64
  3
Solid line
 72
65
 73
0
 40
0.0
  0
LTYPE
  5
1F5
100
AcDbSymbolTableRecord
100
AcDbLinetypeTableRecord
  2
CENTER
 70
64
  3
____ _ ____ _ ____ _ ____ _ ____ _ ____ _ ____
 72
65
 73
4
 40
0.6
 49
0.375
 74
0
 49
-0.075
 74
0
 49
0.075
 74
0
 49
-0.075
 74
0
  0
LTYPE
  5
1F6
100
AcDbSymbolTableRecord
100
AcDbLinetypeTableRecord
  2
HIDDEN
 70
64
  3
- - - - - - - - - - - - - - - - - - - -
 72
65
 73
2
 40
0.2
 49
0.1
 74
0
 49
-0.1
 74
0
  0
LTYPE
  5
1F7
100
AcDbSymbolTableRecord
100
AcDbLinetypeTableRecord
  2
PHANTOM
 70
64
  3
_____ _ _ _____ _ _ _____ _ _ _____
 72
65
 73
6
 40
0.8
 49
0.45
 74
0
 49
-0.05
 74
0
 49
0.1
 74
0
 49
-0.05
 74
0
 49
0.1
 74
0
 49
-0.05
 74
0
  0
LTYPE
  5
1F8
100
AcDbSymbolTableRecord
100
AcDbLinetypeTableRecord
  2
DOT
 70
64
  3
. . . . . . . . . . . . . . . . . . . .
 72
65
 73
2
 40
0.2
 49
0.1
 74
0
 49
-0.1
 74
0
  0
LTYPE
  5
1F9
100
AcDbSymbolTableRecord
100
AcDbLinetypeTableRecord
  2
DASHED
 70
64
  3
- - - - - - - - - - - - - - - - - - - -
 72
65
 73
2
 40
0.2
 49
0.1
 74
0
 49
-0.1
 74
0
  0
ENDTAB
  0
TABLE
  2
LAYER
  5
2
100
AcDbSymbolTable
 70
36
  0
LAYER
  5
10
100
AcDbSymbolTableRecord
100
AcDbLayerTableRecord
  2
0
 70
0
 62
7
  6
CONTINUOUS
370
-3
390
F
  0
LAYER
  5
1FA
100
AcDbSymbolTableRecord
100
AcDbLayerTableRecord
  2
DEFAULT_1
 70
0
 62
7
  6
CENTER
370
-3
390
F
  0
LAYER
  5
1FB
100
AcDbSymbolTableRecord
100
AcDbLayerTableRecord
  2
DEFAULT_2
 70
0
 62
8
  6
HIDDEN
370
-3
390
F
  0
LAYER
  5
1FC
100
AcDbSymbolTableRecord
100
AcDbLayerTableRecord
  2
DEFAULT_3
 70
0
 62
7
  6
PHANTOM
370
-3
390
F
  0
LAYER
  5
1FD
100
AcDbSymbolTableRecord
100
AcDbLayerTableRecord
  2
3_ALL_SYMBOLS
 70
0
 62
7
  6
CONTINUOUS
370
-3
390
F
  0
LAYER
  5
1FE
100
AcDbSymbolTableRecord
100
AcDbLayerTableRecord
  2
DEFAULT_COORDINATE_SYSTEM
 70
0
 62
7
  6
CONTINUOUS
370
-3
390
F
  0
LAYER
  5
1FF
100
AcDbSymbolTableRecord
100
AcDbLayerTableRecord
  2
DEFAULT_DATUM_AXES
 70
0
 62
7
  6
CONTINUOUS
370
-3
390
F
  0
LAYER
  5
200
100
AcDbSymbolTableRecord
100
AcDbLayerTableRecord
  2
DEFAULT_DATUM_CURVES
 70
0
 62
7
  6
CONTINUOUS
370
-3
390
F
  0
LAYER
  5
201
100
AcDbSymbolTableRecord
100
AcDbLayerTableRecord
  2
DEFAULT_DATUM_PLANES
 70
0
 62
7
  6
CONTINUOUS
370
-3
390
F
  0
ENDTAB
  0
TABLE
  2
STYLE
  5
3
100
AcDbSymbolTable
 70
1
  0
STYLE
  5
11
100
AcDbSymbolTableRecord
100
AcDbTextStyleTableRecord
  2
STANDARD
 70
0
 40
0.0
 41
0.8
 50
0.0
 71
0
 42
0.2
  3
txt
  4

  0
STYLE
  5
202
100
AcDbSymbolTableRecord
100
AcDbTextStyleTableRecord
  2
TEXTSTYLE_1
 70
0
 40
0.0
 41
0.8
 50
0.0
 71
0
 42
0.2
  3
gdt
  4

  0
ENDTAB
  0
TABLE
  2
VIEW
  5
6
100
AcDbSymbolTable
 70
0
  0
ENDTAB
  0
TABLE
  2
UCS
  5
7
100
AcDbSymbolTable
 70
0
  0
ENDTAB
  0
TABLE
  2
APPID
  5
9
100
AcDbSymbolTable
 70
1
  0
APPID
  5
203
100
AcDbSymbolTableRecord
100
AcDbRegAppTableRecord
  2
ACAD
 70
0
  0
ENDTAB
  0
TABLE
  2
BLOCK_RECORD
  5
1
100
AcDbSymbolTable
 70
0
  0
BLOCK_RECORD
  5
204
100
AcDbSymbolTableRecord
100
AcDbBlockTableRecord
  2
*Model_Space
  0
BLOCK_RECORD
  5
205
100
AcDbSymbolTableRecord
100
AcDbBlockTableRecord
  2
*Paper_Space
  0
ENDTAB
  0
TABLE
  2
DIMSTYLE
  5
A
100
AcDbSymbolTable
 70
1
100
AcDbDimStyleTable
 71
0
  0
DIMSTYLE
105
206
100
AcDbSymbolTableRecord
100
AcDbDimStyleTableRecord
  2
STANDARD
 70
0
  3

  4

 40
1.0
 41
0.1
 42
0.0625
 43
0.38
 44
0.18
 45
0.0
 46
0.0
 47
0.01
 48
0.01
140
0.08
141
0.09
142
0.0
143
25.4
144
1.0
145
0.0
146
1.0
147
0.09
 71
1.0
 72
0.0
 73
1
 74
1
 75
0
 76
0
 77
0
 78
4
170
0
171
2
172
0
173
0
174
0
175
0
176
0
177
0
178
0
270
2
271
2
272
2
273
2
274
2
275
0
280
0
281
0
282
0
283
1
284
4
285
0
286
0
287
3
288
0
340
11
  0
ENDTAB
  0
ENDSEC
  0
SECTION
  2
BLOCKS
  0
BLOCK
  5
20
100
AcDbEntity
  8
0
100
AcDbBlockBegin
  2
*Model_Space
 70
0
 10
0.0
 20
0.0
 30
0.0
  3
*Model_Space
  1

  0
ENDBLK
  5
21
100
AcDbEntity
  8
0
100
AcDbBlockEnd
  0
BLOCK
  5
1C
100
AcDbEntity
  8
0
100
AcDbBlockBegin
  2
*Paper_Space
 70
0
 10
0.0
 20
0.0
 30
0.0
  3
*Paper_Space
  1

  0
ENDBLK
  5
1D
100
AcDbEntity
  8
0
100
AcDbBlockEnd
  0
ENDSEC
  0
SECTION
  2
ENTITIES
  0
LINE
  5
207
100
AcDbEntity
  8
0
100
AcDbLine
 62
9
  6
CONTINUOUS
 10
11.4254413667
 20
0.6510888085
 11
18.4753821961
 21
0.6510888085
  0
LINE
  5
208
100
AcDbEntity
  8
0
100
AcDbLine
 62
9
  6
CONTINUOUS
 10
11.2254117814
 20
0.8510888085
 11
14.0004117814
 21
0.8510888085
  0
LINE
  5
209
100
AcDbEntity
  8
0
100
AcDbLine
 62
9
  6
CONTINUOUS
 10
15.9004117814
 20
0.8510888085
 11
18.6754117814
 21
0.8510888085
  0
LINE
  5
20A
100
AcDbEntity
  8
0
100
AcDbLine
 62
6
  6
CONTINUOUS
 10
11.1904117814
 20
1.1210888085
 11
18.7104117814
 21
1.1210888085
  0
LINE
  5
20B
100
AcDbEntity
  8
0
100
AcDbLine
 62
9
  6
CONTINUOUS
 10
11.1904117814
 20
1.6036188129
 11
18.7104117814
 21
1.6036188129
  0
LINE
  5
20C
100
AcDbEntity
  8
0
100
AcDbLine
 62
9
  6
CONTINUOUS
 10
11.2191970294
 20
1.6650765152
 11
18.6816265334
 21
1.6650765152
  0
LINE
  5
20D
100
AcDbEntity
  8
0
100
AcDbLine
 62
9
  6
CONTINUOUS
 10
11.4095290727
 20
1.8236865512
 11
18.4912944902
 21
1.8236865512
  0
LINE
  5
20E
100
AcDbEntity
  8
0
100
AcDbLine
 62
9
  6
CONTINUOUS
 10
11.6443931272
 20
1.959518669
 11
18.2564304356
 21
1.959518669
  0
LINE
  5
20F
100
AcDbEntity
  8
0
100
AcDbLine
 62
9
  6
CONTINUOUS
 10
11.8337165984
 20
2.1778958205
 11
18.0671069645
 21
2.1778958205
  0
LINE
  5
210
100
AcDbEntity
  8
0
100
AcDbLine
 62
9
  6
CONTINUOUS
 10
11.9119313595
 20
2.2410888085
 11
17.9888922033
 21
2.2410888085
  0
LINE
  5
211
100
AcDbEntity
  8
0
100
AcDbLine
 62
9
  6
CONTINUOUS
 10
13.2196748233
 20
2.4476180227
 11
16.6811487395
 21
2.4476180227
  0
LINE
  5
212
100
AcDbEntity
  8
0
100
AcDbLine
 62
9
  6
CONTINUOUS
 10
13.2743355576
 20
2.4997889947
 11
16.6264880053
 21
2.4997889947
  0
LINE
  5
213
100
AcDbEntity
  8
0
100
AcDbLine
 62
9
  6
CONTINUOUS
 10
13.4800113893
 20
2.6975866056
 11
16.4208121736
 21
2.6975866056
  0
LINE
  5
214
100
AcDbEntity
  8
0
100
AcDbLine
 62
9
  6
CONTINUOUS
 10
13.5376394417
 20
2.7510495688
 11
16.3631841212
 21
2.7510495688
  0
LINE
  5
215
100
AcDbEntity
  8
0
100
AcDbLine
 62
9
  6
CONTINUOUS
 10
14.0904117814
 20
3.1410888085
 11
15.8104117814
 21
3.1410888085
  0
LINE
  5
216
100
AcDbEntity
  8
0
100
AcDbLine
 62
6
  6
CONTINUOUS
 10
14.3554279994
 20
3.2910888085
 11
15.5453955635
 21
3.2910888085
  0
LINE
  5
217
100
AcDbEntity
  8
0
100
AcDbLine
 62
7
  6
CONTINUOUS
 10
15.4558602372
 20
3.2945370844
 11
14.4449633257
 21
3.2945370844
  0
LINE
  5
218
100
AcDbEntity
  8
0
100
AcDbLine
 62
9
  6
CONTINUOUS
 10
15.458340584
 20
3.4609036087
 11
14.4424829788
 21
3.4609036087
  0
LINE
  5
219
100
AcDbEntity
  8
0
100
AcDbLine
 62
6
  6
CONTINUOUS
 10
14.4454117814
 20
3.4618511877
 11
15.4554117814
 21
3.4618511877
  0
LINE
  5
21A
100
AcDbEntity
  8
0
100
AcDbLine
 62
6
  6
CONTINUOUS
 10
18.4912944903
 20
1.8236865511
 11
18.6816265334
 21
1.6650765152
  0
LINE
  5
21B
100
AcDbEntity
  8
0
100
AcDbLine
 62
6
  6
CONTINUOUS
 10
11.1904117814
 20
1.6036188129
 11
11.1904117814
 21
1.1210888085
  0
LINE
  5
21C
100
AcDbEntity
  8
0
100
AcDbLine
 62
6
  6
CONTINUOUS
 10
11.2254117814
 20
1.1210888085
 11
11.2254117814
 21
0.8510888085
  0
LINE
  5
21D
100
AcDbEntity
  8
0
100
AcDbLine
 62
6
  6
CONTINUOUS
 10
11.8804074938
 20
22.3936113959
 11
11.8804074938
 21
21.8401216615
  0
LINE
  5
21E
100
AcDbEntity
  8
0
100
AcDbLine
 62
6
  6
CONTINUOUS
 10
11.9264074938
 20
22.3940270081
 11
11.9264074938
 21
21.8400194969
  0
LINE
  5
21F
100
AcDbEntity
  8
0
100
AcDbLine
 62
6
  6
CONTINUOUS
 10
11.9724074938
 20
22.3940270081
 11
11.9724074938
 21
21.8400194969
  0
LINE
  5
220
100
AcDbEntity
  8
0
100
AcDbLine
 62
6
  6
CONTINUOUS
 10
12.2084117814
 20
22.3940232525
 11
12.2084117814
 21
21.8400232525
  0
LINE
  5
221
100
AcDbEntity
  8
0
100
AcDbLine
 62
6
  6
CONTINUOUS
 10
12.2544117814
 20
22.3940232525
 11
12.2544117814
 21
21.8400232525
  0
LINE
  5
222
100
AcDbEntity
  8
0
100
AcDbLine
 62
6
  6
CONTINUOUS
 10
12.3004117814
 20
22.3940232525
 11
12.3004117814
 21
21.8400232525
  0
LINE
  5
223
100
AcDbEntity
  8
0
100
AcDbLine
 62
9
  6
CONTINUOUS
 10
13.4504117814
 20
21.9295232525
 11
13.4504117814
 21
22.3045232525
  0
LINE
  5
224
100
AcDbEntity
  8
0
100
AcDbLine
 62
6
  6
CONTINUOUS
 10
14.0004117814
 20
0.7187048848
 11
14.0004117814
 21
1.1210888085
  0
LINE
  5
225
100
AcDbEntity
  8
0
100
AcDbLine
 62
6
  6
CONTINUOUS
 10
14.4660367814
 20
3.4618511877
 11
14.4660367814
 21
21.3203264293
  0
LINE
  5
226
100
AcDbEntity
  8
0
100
AcDbLine
 62
6
  6
CONTINUOUS
 10
14.5129117814
 20
21.5320232525
 11
14.5129117814
 21
21.4920232525
  0
LINE
  5
227
100
AcDbEntity
  8
0
100
AcDbLine
 62
6
  6
CONTINUOUS
 10
14.7004117814
 20
21.7579880871
 11
14.7004117814
 21
21.6920232525
  0
LINE
  5
228
100
AcDbEntity
  8
0
100
AcDbLine
 62
6
  6
CONTINUOUS
 10
15.2004117814
 20
21.7579880871
 11
15.2004117814
 21
21.6920232525
  0
LINE
  5
229
100
AcDbEntity
  8
0
100
AcDbLine
 62
6
  6
CONTINUOUS
 10
15.3879117814
 20
21.5320232525
 11
15.3879117814
 21
21.4920232525
  0
LINE
  5
22A
100
AcDbEntity
  8
0
100
AcDbLine
 62
6
  6
CONTINUOUS
 10
15.4347867814
 20
3.4618511877
 11
15.4347867814
 21
21.3203264293
  0
LINE
  5
22B
100
AcDbEntity
  8
0
100
AcDbLine
 62
6
  6
CONTINUOUS
 10
15.9004117814
 20
0.7187048848
 11
15.9004117814
 21
1.1210888085
  0
LINE
  5
22C
100
AcDbEntity
  8
0
100
AcDbLine
 62
6
  6
CONTINUOUS
 10
18.6754117814
 20
1.1210888085
 11
18.6754117814
 21
0.8510888085
  0
LINE
  5
22D
100
AcDbEntity
  8
0
100
AcDbLine
 62
6
  6
CONTINUOUS
 10
18.7104117814
 20
1.6036188129
 11
18.7104117814
 21
1.1210888085
  0
LINE
  5
22E
100
AcDbEntity
  8
0
100
AcDbLine
 62
6
  6
CONTINUOUS
 10
11.4095290726
 20
1.8236865511
 11
11.2191970294
 21
1.6650765152
  0
LINE
  5
22F
100
AcDbEntity
  8
0
100
AcDbLine
 62
6
  6
CONTINUOUS
 10
15.4554117814
 20
21.3203264293
 11
14.4454117814
 21
21.3203264293
  0
LINE
  5
230
100
AcDbEntity
  8
0
100
AcDbLine
 62
9
  6
CONTINUOUS
 10
14.4424829788
 20
21.3212740084
 11
15.458340584
 21
21.3212740084
  0
LINE
  5
231
100
AcDbEntity
  8
0
100
AcDbLine
 62
9
  6
CONTINUOUS
 10
14.4449633257
 20
21.4876405327
 11
15.4558602372
 21
21.4876405327
  0
LINE
  5
232
100
AcDbEntity
  8
0
100
AcDbLine
 62
9
  6
CONTINUOUS
 10
14.4561900985
 20
21.4910888085
 11
15.4446334643
 21
21.4910888085
  0
LINE
  5
233
100
AcDbEntity
  8
0
100
AcDbLine
 62
7
  6
CONTINUOUS
 10
15.3879117814
 20
21.4920232525
 11
14.5129117814
 21
21.4920232525
  0
LINE
  5
234
100
AcDbEntity
  8
0
100
AcDbLine
 62
6
  6
CONTINUOUS
 10
15.3879117814
 20
21.5320232525
 11
14.5129117814
 21
21.5320232525
  0
LINE
  5
235
100
AcDbEntity
  8
0
100
AcDbLine
 62
6
  6
CONTINUOUS
 10
15.2629117814
 20
21.5920232525
 11
14.6379117814
 21
21.5920232525
  0
LINE
  5
236
100
AcDbEntity
  8
0
100
AcDbLine
 62
6
  6
CONTINUOUS
 10
15.2004117814
 20
21.6920232525
 11
14.7004117814
 21
21.6920232525
  0
LINE
  5
237
100
AcDbEntity
  8
0
100
AcDbLine
 62
6
  6
CONTINUOUS
 10
15.2004117814
 20
21.7579880871
 11
14.7004117814
 21
21.7579880871
  0
LINE
  5
238
100
AcDbEntity
  8
0
100
AcDbLine
 62
6
  6
CONTINUOUS
 10
14.9504117814
 20
21.9295232525
 11
12.3004117814
 21
21.9295232525
  0
LINE
  5
239
100
AcDbEntity
  8
0
100
AcDbLine
 62
6
  6
CONTINUOUS
 10
14.9504117814
 20
22.3045232525
 11
12.3004117814
 21
22.3045232525
  0
ARC
  5
23A
100
AcDbEntity
  8
0
100
AcDbCircle
 62
6
  6
CONTINUOUS
 10
14.9502763043
 20
-1.3655063678
 40
2.0693355852
100
AcDbArc
 50
88.7518979843
 51
89.9962489087
  0
ARC
  5
23B
100
AcDbEntity
  8
0
100
AcDbCircle
 62
6
  6
CONTINUOUS
 10
13.3259573949
 20
3.6377703884
 40
0.9116375929
100
AcDbArc
 50
283.4266165967
 51
326.987397256
  0
ARC
  5
23C
100
AcDbEntity
  8
0
100
AcDbCircle
 62
6
  6
CONTINUOUS
 10
11.9216765918
 20
1.209109527
 40
0.8
100
AcDbArc
 50
110.2797608806
 51
129.8055710453
  0
ARC
  5
23D
100
AcDbEntity
  8
0
100
AcDbCircle
 62
6
  6
CONTINUOUS
 10
14.3671335287
 20
2.9612970551
 40
0.33
100
AcDbArc
 50
92.0355998582
 51
146.987397256
  0
ARC
  5
23E
100
AcDbEntity
  8
0
100
AcDbCircle
 62
6
  6
CONTINUOUS
 10
12.9346077923
 20
2.5410888085
 40
0.3
100
AcDbArc
 50
270.0
 51
341.8461716446
  0
ARC
  5
23F
100
AcDbEntity
  8
0
100
AcDbCircle
 62
6
  6
CONTINUOUS
 10
13.1942462846
 20
2.7889009252
 40
0.3
100
AcDbArc
 50
285.4837013969
 51
342.2790688463
  0
ARC
  5
240
100
AcDbEntity
  8
0
100
AcDbCircle
 62
6
  6
CONTINUOUS
 10
11.5404118277
 20
2.2409220971
 40
0.3
100
AcDbArc
 50
290.2797609277
 51
347.8725148013
  0
ARC
  5
241
100
AcDbEntity
  8
0
100
AcDbCircle
 62
6
  6
CONTINUOUS
 10
11.4254117814
 20
0.8510888085
 40
0.2
100
AcDbArc
 50
180.0
 51
270.0000000647
  0
ARC
  5
242
100
AcDbEntity
  8
0
100
AcDbCircle
 62
6
  6
CONTINUOUS
 10
14.5019742814
 20
3.3785888085
 40
0.1015625
100
AcDbArc
 50
125.8567352935
 51
235.8515756551
  0
ARC
  5
243
100
AcDbEntity
  8
0
100
AcDbCircle
 62
6
  6
CONTINUOUS
 10
11.9119312028
 20
2.1610888085
 40
0.08
100
AcDbArc
 50
89.9999837143
 51
167.8725111753
  0
ARC
  5
244
100
AcDbEntity
  8
0
100
AcDbCircle
 62
6
  6
CONTINUOUS
 10
11.2704117814
 20
1.6036188129
 40
0.08
100
AcDbArc
 50
129.8055710908
 51
180.0
  0
ARC
  5
245
100
AcDbEntity
  8
0
100
AcDbCircle
 62
6
  6
CONTINUOUS
 10
13.2956926984
 20
2.4226924803
 40
0.08
100
AcDbArc
 50
105.4837014169
 51
161.846171652
  0
ARC
  5
246
100
AcDbEntity
  8
0
100
AcDbCircle
 62
6
  6
CONTINUOUS
 10
13.5562154163
 20
2.6732361177
 40
0.08
100
AcDbArc
 50
103.426610473
 51
162.2790666099
  0
ARC
  5
247
100
AcDbEntity
  8
0
100
AcDbCircle
 62
6
  6
CONTINUOUS
 10
14.4454117814
 20
3.4568511877
 40
0.005
100
AcDbArc
 50
90.0
 51
125.8567352912
  0
ARC
  5
248
100
AcDbEntity
  8
0
100
AcDbCircle
 62
6
  6
CONTINUOUS
 10
12.0904160188
 20
21.4390232525
 40
0.418
100
AcDbArc
 50
73.6032815076
 51
106.3985420189
  0
ARC
  5
249
100
AcDbEntity
  8
0
100
AcDbCircle
 62
6
  6
CONTINUOUS
 10
11.9034074938
 20
21.8400194969
 40
0.023
100
AcDbArc
 50
179.5515303813
 51
360.0
  0
ARC
  5
24A
100
AcDbEntity
  8
0
100
AcDbCircle
 62
6
  6
CONTINUOUS
 10
11.9494074938
 20
21.8400194969
 40
0.023
100
AcDbArc
 50
180.0
 51
360.0
  0
ARC
  5
24B
100
AcDbEntity
  8
0
100
AcDbCircle
 62
6
  6
CONTINUOUS
 10
12.2774117814
 20
21.8400232525
 40
0.023
100
AcDbArc
 50
180.0
 51
360.0
  0
ARC
  5
24C
100
AcDbEntity
  8
0
100
AcDbCircle
 62
6
  6
CONTINUOUS
 10
12.2314117814
 20
21.8400232525
 40
0.023
100
AcDbArc
 50
180.0
 51
360.0
  0
ARC
  5
24D
100
AcDbEntity
  8
0
100
AcDbCircle
 62
6
  6
CONTINUOUS
 10
11.5414117814
 20
22.1170232525
 40
0.4375
100
AcDbArc
 50
39.2079175514
 51
320.7920824486
  0
ARC
  5
24E
100
AcDbEntity
  8
0
100
AcDbCircle
 62
6
  6
CONTINUOUS
 10
12.0904160188
 20
22.7950232525
 40
0.418
100
AcDbArc
 50
253.6014579811
 51
286.3967184924
  0
ARC
  5
24F
100
AcDbEntity
  8
0
100
AcDbCircle
 62
6
  6
CONTINUOUS
 10
11.9034074938
 20
22.3940270081
 40
0.023
100
AcDbArc
 50
0.0
 51
180.0
  0
ARC
  5
250
100
AcDbEntity
  8
0
100
AcDbCircle
 62
6
  6
CONTINUOUS
 10
11.9494074938
 20
22.3940270081
 40
0.023
100
AcDbArc
 50
0.0
 51
180.0
  0
ARC
  5
251
100
AcDbEntity
  8
0
100
AcDbCircle
 62
6
  6
CONTINUOUS
 10
12.2774117814
 20
22.3940232525
 40
0.023
100
AcDbArc
 50
0.0
 51
180.0
  0
ARC
  5
252
100
AcDbEntity
  8
0
100
AcDbCircle
 62
6
  6
CONTINUOUS
 10
12.2314117814
 20
22.3940232525
 40
0.023
100
AcDbArc
 50
0.0
 51
180.0
  0
ARC
  5
253
100
AcDbEntity
  8
0
100
AcDbCircle
 62
6
  6
CONTINUOUS
 10
14.7348887386
 20
21.2297795918
 40
0.375
100
AcDbArc
 50
104.9873168706
 51
126.294694778
  0
ARC
  5
254
100
AcDbEntity
  8
0
100
AcDbCircle
 62
6
  6
CONTINUOUS
 10
14.7626281126
 20
21.5836067956
 40
0.125
100
AcDbArc
 50
119.8499741826
 51
176.1392594012
  0
ARC
  5
255
100
AcDbEntity
  8
0
100
AcDbCircle
 62
6
  6
CONTINUOUS
 10
14.5019742814
 20
21.4035888085
 40
0.1015625
100
AcDbArc
 50
124.1484243449
 51
234.1432647065
  0
ARC
  5
256
100
AcDbEntity
  8
0
100
AcDbCircle
 62
6
  6
CONTINUOUS
 10
14.4561900985
 20
21.4710888085
 40
0.02
100
AcDbArc
 50
90.0
 51
124.1484243446
  0
ARC
  5
257
100
AcDbEntity
  8
0
100
AcDbCircle
 62
6
  6
CONTINUOUS
 10
14.4454117814
 20
21.3253264293
 40
0.005
100
AcDbArc
 50
234.1432647088
 51
270.0
  0
ARC
  5
258
100
AcDbEntity
  8
0
100
AcDbCircle
 62
6
  6
CONTINUOUS
 10
14.9504458528
 20
-1.3562243042
 40
2.0600535175
100
AcDbArc
 50
90.0009476188
 51
91.2509054882
  0
ARC
  5
259
100
AcDbEntity
  8
0
100
AcDbCircle
 62
6
  6
CONTINUOUS
 10
16.574866168
 20
3.6377703884
 40
0.9116375929
100
AcDbArc
 50
213.012602744
 51
256.5733834033
  0
ARC
  5
25A
100
AcDbEntity
  8
0
100
AcDbCircle
 62
6
  6
CONTINUOUS
 10
17.9791469711
 20
1.209109527
 40
0.8
100
AcDbArc
 50
50.1944289547
 51
69.7202391194
  0
ARC
  5
25B
100
AcDbEntity
  8
0
100
AcDbCircle
 62
6
  6
CONTINUOUS
 10
14.9504117814
 20
1.1510888085
 40
0.45
100
AcDbArc
 50
183.8479682799
 51
356.1520317201
  0
ARC
  5
25C
100
AcDbEntity
  8
0
100
AcDbCircle
 62
6
  6
CONTINUOUS
 10
15.5336900342
 20
2.9612970551
 40
0.33
100
AcDbArc
 50
33.012602744
 51
87.9644001418
  0
ARC
  5
25D
100
AcDbEntity
  8
0
100
AcDbCircle
 62
6
  6
CONTINUOUS
 10
16.9662157706
 20
2.5410888085
 40
0.3
100
AcDbArc
 50
198.1538283554
 51
270.0
  0
ARC
  5
25E
100
AcDbEntity
  8
0
100
AcDbCircle
 62
6
  6
CONTINUOUS
 10
16.7065772782
 20
2.7889009252
 40
0.3
100
AcDbArc
 50
197.7209311537
 51
254.5162986031
  0
ARC
  5
25F
100
AcDbEntity
  8
0
100
AcDbCircle
 62
6
  6
CONTINUOUS
 10
18.3604117351
 20
2.2409220971
 40
0.3
100
AcDbArc
 50
192.1274851987
 51
249.7202390723
  0
ARC
  5
260
100
AcDbEntity
  8
0
100
AcDbCircle
 62
6
  6
CONTINUOUS
 10
18.4754117814
 20
0.8510888085
 40
0.2
100
AcDbArc
 50
269.9999999354
 51
360.0
  0
ARC
  5
261
100
AcDbEntity
  8
0
100
AcDbCircle
 62
6
  6
CONTINUOUS
 10
15.3988492814
 20
3.3785888085
 40
0.1015625
100
AcDbArc
 50
304.1484243449
 51
54.1432647065
  0
ARC
  5
262
100
AcDbEntity
  8
0
100
AcDbCircle
 62
6
  6
CONTINUOUS
 10
17.98889236
 20
2.1610888085
 40
0.08
100
AcDbArc
 50
12.1274888247
 51
90.0000162857
  0
ARC
  5
263
100
AcDbEntity
  8
0
100
AcDbCircle
 62
6
  6
CONTINUOUS
 10
18.6304117814
 20
1.6036188129
 40
0.08
100
AcDbArc
 50
0.0
 51
50.1944289092
  0
ARC
  5
264
100
AcDbEntity
  8
0
100
AcDbCircle
 62
6
  6
CONTINUOUS
 10
16.6051308644
 20
2.4226924803
 40
0.08
100
AcDbArc
 50
18.153828348
 51
74.5162985831
  0
ARC
  5
265
100
AcDbEntity
  8
0
100
AcDbCircle
 62
6
  6
CONTINUOUS
 10
16.3446081465
 20
2.6732361177
 40
0.08
100
AcDbArc
 50
17.7209333901
 51
76.573389527
  0
ARC
  5
266
100
AcDbEntity
  8
0
100
AcDbCircle
 62
6
  6
CONTINUOUS
 10
15.4554117814
 20
3.4568511877
 40
0.005
100
AcDbArc
 50
54.1432647084
 51
90.0
  0
ARC
  5
267
100
AcDbEntity
  8
0
100
AcDbCircle
 62
6
  6
CONTINUOUS
 10
15.1659348242
 20
21.2297795918
 40
0.375
100
AcDbArc
 50
53.705305222
 51
75.0126831294
  0
ARC
  5
268
100
AcDbEntity
  8
0
100
AcDbCircle
 62
6
  6
CONTINUOUS
 10
15.1381954503
 20
21.5836067956
 40
0.125
100
AcDbArc
 50
3.8607405988
 51
60.1500258174
  0
ARC
  5
269
100
AcDbEntity
  8
0
100
AcDbCircle
 62
6
  6
CONTINUOUS
 10
14.9504117814
 20
22.1170232525
 40
0.4375
100
AcDbArc
 50
205.4372771766
 51
235.150095421
  0
ARC
  5
26A
100
AcDbEntity
  8
0
100
AcDbCircle
 62
6
  6
CONTINUOUS
 10
14.9504117814
 20
22.1170232525
 40
0.4375
100
AcDbArc
 50
304.849904579
 51
154.6198368302
  0
ARC
  5
26B
100
AcDbEntity
  8
0
100
AcDbCircle
 62
9
  6
CONTINUOUS
 10
14.9504117814
 20
22.1170232525
 40
0.1875
100
AcDbArc
 50
270.0
 51
90.0
  0
ARC
  5
26C
100
AcDbEntity
  8
0
100
AcDbCircle
 62
6
  6
CONTINUOUS
 10
15.3988492814
 20
21.4035888085
 40
0.1015625
100
AcDbArc
 50
305.8567352935
 51
55.8515756551
  0
ARC
  5
26D
100
AcDbEntity
  8
0
100
AcDbCircle
 62
6
  6
CONTINUOUS
 10
15.4446334643
 20
21.4710888085
 40
0.02
100
AcDbArc
 50
55.8515756554
 51
90.0
  0
ARC
  5
26E
100
AcDbEntity
  8
0
100
AcDbCircle
 62
6
  6
CONTINUOUS
 10
15.4554117814
 20
21.3253264293
 40
0.005
100
AcDbArc
 50
270.0
 51
305.8567352916
  0
SPLINE
  5
26F
100
AcDbEntity
  8
0
100
AcDbSpline
 62
6
  6
CONTINUOUS
 70
0
 71
3
 72
19
 73
15
 74
13
 42
0.0000001
 43
0.0000001
 44
0.0000000001
 12
-0.9163872238
 22
-0.2682656551
 32
0.0
 13
-0.9548465875
 23
-0.0
 33
0.0
 40
0.0
 40
0.0
 40
0.0
 40
0.0
 40
0.0624999879
 40
0.0937708986
 40
0.1250424779
 40
0.1563024016
 40
0.1875547517
 40
0.2500520312
 40
0.3750436069
 40
0.5000348821
 40
0.6250261595
 40
0.7500174378
 40
0.8750087189
 40
1.0
 40
1.0
 40
1.0
 40
1.0
 10
15.9004117814
 20
0.7187048848
 30
0.0
 10
15.8813203846
 20
0.713116018
 30
0.0
 10
15.8523649688
 20
0.7057704203
 30
0.0
 10
15.8134108325
 20
0.6976070977
 30
0.0
 10
15.7840501971
 20
0.6921772599
 30
0.0
 10
15.7545950201
 20
0.6873301421
 30
0.0
 10
15.7152225174
 20
0.6815796402
 30
0.0
 10
15.6460978379
 20
0.6731926248
 30
0.0
 10
15.5469523848
 20
0.6649377287
 30
0.0
 10
15.427743937
 20
0.6589413348
 30
0.0
 10
15.3084400696
 20
0.6554989079
 30
0.0
 10
15.1891046351
 20
0.6536694908
 30
0.0
 10
15.0697593949
 20
0.6528191506
 30
0.0
 10
14.9901942809
 20
0.6526574602
 30
0.0
 10
14.9504117815
 20
0.6526574602
 30
0.0
 11
15.9004117814
 21
0.7187048848
 31
0.0
 11
15.8426077053
 21
0.7038677504
 31
0.0
 11
15.8133879335
 21
0.6977228189
 31
0.0
 11
15.784029815
 21
0.6922735761
 31
0.0
 11
15.7545788727
 21
0.6874185932
 31
0.0
 11
15.7250522996
 21
0.683096709
 31
0.0
 11
15.665820189
 21
0.6758372198
 31
0.0
 11
15.546913198
 21
0.6655892939
 31
0.0
 11
15.4277280186
 21
0.6593669952
 31
0.0
 11
15.308434809
 21
0.6557677429
 31
0.0
 11
15.1891030019
 21
0.6538326703
 31
0.0
 11
15.0697589899
 21
0.6529204513
 31
0.0
 11
14.9504117815
 21
0.6526574602
 31
0.0
  0
SPLINE
  5
270
100
AcDbEntity
  8
0
100
AcDbSpline
 62
6
  6
CONTINUOUS
 70
0
 71
3
 72
19
 73
15
 74
13
 42
0.0000001
 43
0.0000001
 44
0.0000000001
 12
-0.9548465665
 22
-0.0
 32
0.0
 13
-0.9163872037
 23
0.2682656492
 33
0.0
 40
0.0
 40
0.0
 40
0.0
 40
0.0
 40
0.1249913453
 40
0.2499826915
 40
0.3749740345
 40
0.4999653817
 40
0.6249566927
 40
0.7499483629
 40
0.8124458082
 40
0.8436981233
 40
0.8749578217
 40
0.9062291337
 40
0.9374999679
 40
1.0
 40
1.0
 40
1.0
 40
1.0
 10
14.9504117815
 20
0.6526574602
 30
0.0
 10
14.9106292625
 20
0.6526574602
 30
0.0
 10
14.831064109
 20
0.6528191507
 30
0.0
 10
14.7117188098
 20
0.6536694918
 30
0.0
 10
14.5923833142
 20
0.655498911
 30
0.0
 10
14.4730793964
 20
0.6589413521
 30
0.0
 10
14.3538708841
 20
0.6649377292
 30
0.0
 10
14.2547253545
 20
0.6731927712
 30
0.0
 10
14.1856005797
 20
0.6815795649
 30
0.0
 10
14.1462280898
 20
0.6873299516
 30
0.0
 10
14.1167731304
 20
0.6921773707
 30
0.0
 10
14.0874127589
 20
0.6976076235
 30
0.0
 10
14.0484586841
 20
0.7057707373
 30
0.0
 10
14.0195031913
 20
0.7131160142
 30
0.0
 10
14.0004117814
 20
0.7187048848
 30
0.0
 11
14.9504117815
 21
0.6526574602
 31
0.0
 11
14.8310645144
 21
0.6529204516
 31
0.0
 11
14.7117204428
 21
0.6538326715
 31
0.0
 11
14.5923885767
 21
0.655767748
 31
0.0
 11
14.4730953031
 21
0.6593670077
 31
0.0
 11
14.3539100931
 21
0.6655893244
 31
0.0
 11
14.2350030157
 21
0.6758372675
 31
0.0
 11
14.1757707298
 21
0.6830966167
 31
0.0
 11
14.146244188
 21
0.6874184802
 31
0.0
 11
14.1167935048
 21
0.6922737083
 31
0.0
 11
14.087435699
 21
0.6977232339
 31
0.0
 11
14.058215986
 21
0.7038680865
 31
0.0
 11
14.0004117814
 21
0.7187048848
 31
0.0
  0
ENDSEC
  0
SECTION
  2
OBJECTS
  0
DICTIONARY
  5
C
100
AcDbDictionary
280
0
281
1
  3
ACAD_GROUP
350
D
  3
ACAD_MLINESTYLE
350
17
  3
ACAD_LAYOUT
350
1A
  3
ACAD_PLOTSETTINGS
350
19
  3
ACAD_PLOTSTYLENAME
350
E
  0
DICTIONARY
  5
D
102
{ACAD_REACTORS
330
C
102
}
100
AcDbDictionary
280
0
281
1
  0
ACDBDICTIONARYWDFLT
  5
E
102
{ACAD_REACTORS
330
C
102
}
100
AcDbDictionary
281
1
  3
Normal
350
F
100
AcDbDictionaryWithDefault
340
F
  0
DICTIONARY
  5
17
102
{ACAD_REACTORS
330
C
102
}
100
AcDbDictionary
280
0
281
1
  3
Standard
350
18
  0
DICTIONARY
  5
19
102
{ACAD_REACTORS
330
C
102
}
100
AcDbDictionary
281
1
  0
DICTIONARY
  5
1A
102
{ACAD_REACTORS
330
C
102
}
100
AcDbDictionary
281
1
  3
Model
350
271
  3
Layout1
350
272
  0
ACDBPLACEHOLDER
  5
F
102
{ACAD_REACTORS
330
E
102
}
  0
MLINESTYLE
  5
18
102
{ACAD_REACTORS
330
17
102
}
100
AcDbMlineStyle
  2
STANDARD
 70
0
  3

 62
256
 51
90.0
 52
90.0
 71
2
 49
0.5
 62
256
  6
BYLAYER
 49
-0.5
 62
256
  6
BYLAYER
  0
LAYOUT
  5
271
102
{ACAD_REACTORS
330
1A
102
}
100
AcDbPlotSettings
  1

  2
none_device
  4
ISO_A1_(594.00_x_841.00_MM)
  6

 40
0.0
 41
0.0
 42
0.0
 43
0.0
 44
841.0
 45
594.0
 46
0.0
 47
0.0
 48
0.0
 49
0.0
140
0.0
141
0.0
142
1.0
143
1.0
 70
1024
 72
0
 73
0
 74
0
  7

 75
0
147
1.0
148
0.0
149
0.0
100
AcDbLayout
  1
Model
 70
0
 71
0
 10
0.0
 20
0.0
 11
33.1102362205
 21
23.3858267717
 12
0.0
 22
0.0
 32
0.0
 14
0.0
 24
0.0
 34
0.0
 15
0.0
 25
0.0
 35
0.0
146
0.0
 13
0.0
 23
0.0
 33
0.0
 16
1.0
 26
0.0
 36
0.0
 17
0.0
 27
1.0
 37
0.0
 76
0
330
204
345
0
346
0
  0
LAYOUT
  5
272
102
{ACAD_REACTORS
330
1A
102
}
100
AcDbPlotSettings
  1

  2
none_device
  4
ISO_A1_(594.00_x_841.00_MM)
  6

 40
0.0
 41
0.0
 42
0.0
 43
0.0
 44
841.0
 45
594.0
 46
0.0
 47
0.0
 48
0.0
 49
0.0
140
0.0
141
0.0
142
1.0
143
1.0
 70
0
 72
0
 73
0
 74
0
  7

 75
0
147
1.0
148
0.0
149
0.0
100
AcDbLayout
  1
Layout1
 70
0
 71
1
 10
0.0
 20
0.0
 11
33.1102362205
 21
23.3858267717
 12
0.0
 22
0.0
 32
0.0
 14
0.0
 24
0.0
 34
0.0
 15
0.0
 25
0.0
 35
0.0
146
0.0
 13
0.0
 23
0.0
 33
0.0
 16
1.0
 26
0.0
 36
0.0
 17
0.0
 27
1.0
 37
0.0
 76
0
330
205
345
0
346
0
  0
ENDSEC
  0
EOF
