999
DXF file: 100-2_right.dxf
999
Pro/ENGINEER 2013150 by Parametric Technology Corporation
  0
SECTION
  2
HEADER
  9
$ACADVER
  1
AC1021
  9
$DWGCODEPAGE
  3
ANSI_1252
  9
$EXTMAX
 10
11.0
 20
8.5
 30
0.0
  9
$EXTMIN
 10
0.0
 20
0.0
 30
0.0
  9
$LIMMIN
 10
0.0
 20
0.0
  9
$LIMMAX
 10
11.0
 20
8.5
  9
$VIEWCTR
 10
5.5
 20
4.25
  9
$VIEWSIZE
 40
8.5
  9
$CLAYER
  8
0
  9
$LTSCALE
 40
0.605
  9
$CELTYPE
  6
BYLAYER
  9
$DIMSCALE
 40
1.0
  9
$DIMASZ
 40
0.1
  9
$DIMEXO
 40
0.0625
  9
$DIMDLI
 40
0.418
  9
$DIMEXE
 40
0.125
  9
$DIMCEN
 40
0.099
  9
$DIMLFAC
 40
1.0
  9
$DIMBLK
  1
_FILLED
  9
$DIMTXT
 40
0.08
  9
$DIMTOL
 70
1
  9
$DIMLIM
 70
0
  9
$DIMTFAC
 40
1.0
  9
$DIMTP
 40
0.001
  9
$DIMTM
 40
0.001
  9
$DIMGAP
 40
0.09
  9
$DIMDSEP
 70
46
  9
$PDMODE
 70
3
  9
$PDSIZE
 40
0.3125
  9
$HANDSEED
  5
238
  9
$TILEMODE
 70
1
  9
$MEASUREMENT
 70
0
  9
$INSUNITS
 70
1
  0
ENDSEC
  0
SECTION
  2
CLASSES
  0
CLASS
  1
ACDBDICTIONARYWDFLT
  2
AcDbDictionaryWithDefault
  3
AutoCAD 2000
 90
0
 91
1
280
0
281
0
  0
CLASS
  1
ACDBPLACEHOLDER
  2
AcDbPlaceHolder
  3
AutoCAD 2000
 90
0
 91
1
280
0
281
0
  0
CLASS
  1
LAYOUT
  2
AcDbLayout
  3
AutoCAD 2000
 90
0
 91
0
280
0
281
0
  0
ENDSEC
  0
SECTION
  2
TABLES
  0
TABLE
  2
VPORT
  5
8
100
AcDbSymbolTable
 70
2
  0
VPORT
  5
1F4
100
AcDbSymbolTableRecord
100
AcDbViewportTableRecord
  2
*ACTIVE
 70
0
 10
0.0
 20
0.0
 11
1.0
 21
1.0
 12
5.5
 22
4.25
 13
0.0
 23
0.0
 14
1.0
 24
1.0
 15
0.0
 25
0.0
 16
0.0
 26
0.0
 36
1.0
 17
0.0
 27
0.0
 37
0.0
 40
8.5
 41
1.2941176471
 42
50.0
 43
0.0
 44
0.0
 50
0.0
 51
0.0
 71
0
 72
100
 73
1
 74
1
 75
0
 76
0
 77
0
 78
0
  0
ENDTAB
  0
TABLE
  2
LTYPE
  5
5
100
AcDbSymbolTable
 70
6
  0
LTYPE
  5
14
100
AcDbSymbolTableRecord
100
AcDbLinetypeTableRecord
  2
BYBLOCK
 70
0
  3

 72
65
 73
0
 40
0.0
  0
LTYPE
  5
15
100
AcDbSymbolTableRecord
100
AcDbLinetypeTableRecord
  2
BYLAYER
 70
0
  3

 72
65
 73
0
 40
0.0
  0
LTYPE
  5
16
100
AcDbSymbolTableRecord
100
AcDbLinetypeTableRecord
  2
CONTINUOUS
 70
64
  3
Solid line
 72
65
 73
0
 40
0.0
  0
LTYPE
  5
1F5
100
AcDbSymbolTableRecord
100
AcDbLinetypeTableRecord
  2
CENTER
 70
64
  3
____ _ ____ _ ____ _ ____ _ ____ _ ____ _ ____
 72
65
 73
4
 40
0.6
 49
0.375
 74
0
 49
-0.075
 74
0
 49
0.075
 74
0
 49
-0.075
 74
0
  0
LTYPE
  5
1F6
100
AcDbSymbolTableRecord
100
AcDbLinetypeTableRecord
  2
HIDDEN
 70
64
  3
- - - - - - - - - - - - - - - - - - - -
 72
65
 73
2
 40
0.2
 49
0.1
 74
0
 49
-0.1
 74
0
  0
LTYPE
  5
1F7
100
AcDbSymbolTableRecord
100
AcDbLinetypeTableRecord
  2
PHANTOM
 70
64
  3
_____ _ _ _____ _ _ _____ _ _ _____
 72
65
 73
6
 40
0.8
 49
0.45
 74
0
 49
-0.05
 74
0
 49
0.1
 74
0
 49
-0.05
 74
0
 49
0.1
 74
0
 49
-0.05
 74
0
  0
LTYPE
  5
1F8
100
AcDbSymbolTableRecord
100
AcDbLinetypeTableRecord
  2
DOT
 70
64
  3
. . . . . . . . . . . . . . . . . . . .
 72
65
 73
2
 40
0.2
 49
0.1
 74
0
 49
-0.1
 74
0
  0
LTYPE
  5
1F9
100
AcDbSymbolTableRecord
100
AcDbLinetypeTableRecord
  2
DASHED
 70
64
  3
- - - - - - - - - - - - - - - - - - - -
 72
65
 73
2
 40
0.2
 49
0.1
 74
0
 49
-0.1
 74
0
  0
ENDTAB
  0
TABLE
  2
LAYER
  5
2
100
AcDbSymbolTable
 70
36
  0
LAYER
  5
10
100
AcDbSymbolTableRecord
100
AcDbLayerTableRecord
  2
0
 70
0
 62
7
  6
CONTINUOUS
370
-3
390
F
  0
LAYER
  5
1FA
100
AcDbSymbolTableRecord
100
AcDbLayerTableRecord
  2
DEFAULT_1
 70
0
 62
7
  6
CENTER
370
-3
390
F
  0
LAYER
  5
1FB
100
AcDbSymbolTableRecord
100
AcDbLayerTableRecord
  2
DEFAULT_2
 70
0
 62
8
  6
HIDDEN
370
-3
390
F
  0
LAYER
  5
1FC
100
AcDbSymbolTableRecord
100
AcDbLayerTableRecord
  2
DEFAULT_3
 70
0
 62
7
  6
PHANTOM
370
-3
390
F
  0
LAYER
  5
1FD
100
AcDbSymbolTableRecord
100
AcDbLayerTableRecord
  2
DEFAULT_COORDINATE_SYSTEM
 70
0
 62
7
  6
CONTINUOUS
370
-3
390
F
  0
LAYER
  5
1FE
100
AcDbSymbolTableRecord
100
AcDbLayerTableRecord
  2
DEFAULT_DATUM_AXES
 70
0
 62
7
  6
CONTINUOUS
370
-3
390
F
  0
LAYER
  5
1FF
100
AcDbSymbolTableRecord
100
AcDbLayerTableRecord
  2
DEFAULT_DATUM_PLANES
 70
0
 62
7
  6
CONTINUOUS
370
-3
390
F
  0
LAYER
  5
200
100
AcDbSymbolTableRecord
100
AcDbLayerTableRecord
  2
LAY0001
 70
0
 62
7
  6
CONTINUOUS
370
-3
390
F
  0
ENDTAB
  0
TABLE
  2
STYLE
  5
3
100
AcDbSymbolTable
 70
1
  0
STYLE
  5
11
100
AcDbSymbolTableRecord
100
AcDbTextStyleTableRecord
  2
STANDARD
 70
0
 40
0.0
 41
0.8
 50
0.0
 71
0
 42
0.2
  3
txt
  4

  0
STYLE
  5
201
100
AcDbSymbolTableRecord
100
AcDbTextStyleTableRecord
  2
TEXTSTYLE_1
 70
0
 40
0.0
 41
0.8
 50
0.0
 71
0
 42
0.2
  3
gdt
  4

  0
ENDTAB
  0
TABLE
  2
VIEW
  5
6
100
AcDbSymbolTable
 70
0
  0
ENDTAB
  0
TABLE
  2
UCS
  5
7
100
AcDbSymbolTable
 70
0
  0
ENDTAB
  0
TABLE
  2
APPID
  5
9
100
AcDbSymbolTable
 70
1
  0
APPID
  5
202
100
AcDbSymbolTableRecord
100
AcDbRegAppTableRecord
  2
ACAD
 70
0
  0
ENDTAB
  0
TABLE
  2
BLOCK_RECORD
  5
1
100
AcDbSymbolTable
 70
0
  0
BLOCK_RECORD
  5
203
100
AcDbSymbolTableRecord
100
AcDbBlockTableRecord
  2
*Model_Space
  0
BLOCK_RECORD
  5
204
100
AcDbSymbolTableRecord
100
AcDbBlockTableRecord
  2
*Paper_Space
  0
ENDTAB
  0
TABLE
  2
DIMSTYLE
  5
A
100
AcDbSymbolTable
 70
1
100
AcDbDimStyleTable
 71
0
  0
DIMSTYLE
105
205
100
AcDbSymbolTableRecord
100
AcDbDimStyleTableRecord
  2
STANDARD
 70
0
  3

  4

 40
1.0
 41
0.1
 42
0.0625
 43
0.38
 44
0.125
 45
0.0
 46
0.0
 47
0.001
 48
0.001
140
0.08
141
0.09
142
0.0
143
25.4
144
1.0
145
0.0
146
1.0
147
0.09
 71
1.0
 72
0.0
 73
1
 74
1
 75
0
 76
0
 77
0
 78
4
170
0
171
2
172
0
173
0
174
0
175
0
176
0
177
0
178
0
270
2
271
3
272
3
273
2
274
2
275
0
280
0
281
0
282
0
283
1
284
4
285
0
286
0
287
3
288
0
340
11
278
46
  0
ENDTAB
  0
ENDSEC
  0
SECTION
  2
BLOCKS
  0
BLOCK
  5
20
100
AcDbEntity
  8
0
100
AcDbBlockBegin
  2
*Model_Space
 70
0
 10
0.0
 20
0.0
 30
0.0
  3
*Model_Space
  1

  0
ENDBLK
  5
21
100
AcDbEntity
  8
0
100
AcDbBlockEnd
  0
BLOCK
  5
1C
100
AcDbEntity
  8
0
100
AcDbBlockBegin
  2
*Paper_Space
 70
0
 10
0.0
 20
0.0
 30
0.0
  3
*Paper_Space
  1

  0
ENDBLK
  5
1D
100
AcDbEntity
  8
0
100
AcDbBlockEnd
  0
ENDSEC
  0
SECTION
  2
ENTITIES
  0
LINE
  5
206
100
AcDbEntity
  8
0
100
AcDbLine
 62
7
  6
CONTINUOUS
 10
0.0
 20
0.0
 11
0.0
 21
8.5
  0
LINE
  5
207
100
AcDbEntity
  8
0
100
AcDbLine
 62
7
  6
CONTINUOUS
 10
0.0
 20
0.0
 11
11.0
 21
0.0
  0
LINE
  5
208
100
AcDbEntity
  8
0
100
AcDbLine
 62
7
  6
CONTINUOUS
 10
0.0
 20
8.5
 11
11.0
 21
8.5
  0
LINE
  5
209
100
AcDbEntity
  8
0
100
AcDbLine
 62
7
  6
CONTINUOUS
 10
11.0
 20
0.0
 11
11.0
 21
8.5
  0
LINE
  5
20A
100
AcDbEntity
  8
0
100
AcDbLine
 62
7
  6
CONTINUOUS
 10
5.7157544975
 20
2.9749240074
 11
3.7757544975
 21
2.9749240074
  0
LINE
  5
20B
100
AcDbEntity
  8
0
100
AcDbLine
 62
7
  6
CONTINUOUS
 10
3.7757544975
 20
3.3149240074
 11
3.7757544975
 21
2.9749240074
  0
LINE
  5
20C
100
AcDbEntity
  8
0
100
AcDbLine
 62
7
  6
CONTINUOUS
 10
5.7157544975
 20
3.3149240074
 11
3.7757544975
 21
3.3149240074
  0
LINE
  5
20D
100
AcDbEntity
  8
0
100
AcDbLine
 62
7
  6
CONTINUOUS
 10
5.6657544975
 20
3.3649240074
 11
3.8257544975
 21
3.3649240074
  0
LINE
  5
20E
100
AcDbEntity
  8
0
100
AcDbLine
 62
7
  6
CONTINUOUS
 10
5.5607544975
 20
3.3659240074
 11
3.9307544975
 21
3.3659240074
  0
LINE
  5
20F
100
AcDbEntity
  8
0
100
AcDbLine
 62
7
  6
CONTINUOUS
 10
3.9307544975
 20
5.1799240074
 11
3.9307544975
 21
5.0119240074
  0
LINE
  5
210
100
AcDbEntity
  8
0
100
AcDbLine
 62
7
  6
CONTINUOUS
 10
3.9307544975
 20
4.8249240074
 11
3.9307544975
 21
4.6119240074
  0
LINE
  5
211
100
AcDbEntity
  8
0
100
AcDbLine
 62
7
  6
CONTINUOUS
 10
3.9307544975
 20
4.4249240074
 11
3.9307544975
 21
3.3659240074
  0
LINE
  5
212
100
AcDbEntity
  8
0
100
AcDbLine
 62
7
  6
CONTINUOUS
 10
4.2457544975
 20
4.4299240074
 11
4.2457544975
 21
4.4249240074
  0
LINE
  5
213
100
AcDbEntity
  8
0
100
AcDbLine
 62
7
  6
CONTINUOUS
 10
4.4407544975
 20
4.4299240074
 11
4.4407544975
 21
4.4249240074
  0
LINE
  5
214
100
AcDbEntity
  8
0
100
AcDbLine
 62
7
  6
CONTINUOUS
 10
4.4907544975
 20
4.4249240074
 11
4.4907544975
 21
4.5249240074
  0
LINE
  5
215
100
AcDbEntity
  8
0
100
AcDbLine
 62
7
  6
CONTINUOUS
 10
4.5032544975
 20
4.5121580515
 11
4.5032544975
 21
4.4844984744
  0
LINE
  5
216
100
AcDbEntity
  8
0
100
AcDbLine
 62
7
  6
CONTINUOUS
 10
4.5032544975
 20
4.4717325185
 11
4.5032544975
 21
4.4249240074
  0
LINE
  5
217
100
AcDbEntity
  8
0
100
AcDbLine
 62
7
  6
CONTINUOUS
 10
4.5574211662
 20
4.4844984744
 11
4.5574211662
 21
4.4717325185
  0
LINE
  5
218
100
AcDbEntity
  8
0
100
AcDbLine
 62
7
  6
CONTINUOUS
 10
4.5657544975
 20
4.5249240074
 11
4.5657544975
 21
4.5121580515
  0
LINE
  5
219
100
AcDbEntity
  8
0
100
AcDbLine
 62
7
  6
CONTINUOUS
 10
4.5824211662
 20
4.5249240074
 11
4.5824211662
 21
4.4249240074
  0
LINE
  5
21A
100
AcDbEntity
  8
0
100
AcDbLine
 62
7
  6
CONTINUOUS
 10
4.5949211602
 20
4.5249240074
 11
4.5949211602
 21
4.4376899649
  0
LINE
  5
21B
100
AcDbEntity
  8
0
100
AcDbLine
 62
7
  6
CONTINUOUS
 10
4.6574211602
 20
4.4376899649
 11
4.6574211602
 21
4.4249240074
  0
LINE
  5
21C
100
AcDbEntity
  8
0
100
AcDbLine
 62
7
  6
CONTINUOUS
 10
4.6574211602
 20
4.4249240074
 11
4.5824211662
 21
4.4249240074
  0
LINE
  5
21D
100
AcDbEntity
  8
0
100
AcDbLine
 62
7
  6
CONTINUOUS
 10
4.5032544975
 20
4.4249240074
 11
4.4907544975
 21
4.4249240074
  0
LINE
  5
21E
100
AcDbEntity
  8
0
100
AcDbLine
 62
7
  6
CONTINUOUS
 10
4.4407544975
 20
4.4249240074
 11
4.2457544975
 21
4.4249240074
  0
LINE
  5
21F
100
AcDbEntity
  8
0
100
AcDbLine
 62
7
  6
CONTINUOUS
 10
4.0069114831
 20
4.4249240074
 11
3.9307544975
 21
4.4249240074
  0
LINE
  5
220
100
AcDbEntity
  8
0
100
AcDbLine
 62
7
  6
CONTINUOUS
 10
4.4407544975
 20
4.4299240074
 11
4.2457544975
 21
4.4299240074
  0
LINE
  5
221
100
AcDbEntity
  8
0
100
AcDbLine
 62
7
  6
CONTINUOUS
 10
4.6574211602
 20
4.4376899649
 11
4.5949211602
 21
4.4376899649
  0
LINE
  5
222
100
AcDbEntity
  8
0
100
AcDbLine
 62
7
  6
CONTINUOUS
 10
4.5574211662
 20
4.4717325185
 11
4.5032544975
 21
4.4717325185
  0
LINE
  5
223
100
AcDbEntity
  8
0
100
AcDbLine
 62
7
  6
CONTINUOUS
 10
4.5574211662
 20
4.4844984744
 11
4.5032544975
 21
4.4844984744
  0
LINE
  5
224
100
AcDbEntity
  8
0
100
AcDbLine
 62
7
  6
CONTINUOUS
 10
4.5657544975
 20
4.5121580515
 11
4.5032544975
 21
4.5121580515
  0
LINE
  5
225
100
AcDbEntity
  8
0
100
AcDbLine
 62
7
  6
CONTINUOUS
 10
4.5949211602
 20
4.5249240074
 11
4.5824211662
 21
4.5249240074
  0
LINE
  5
226
100
AcDbEntity
  8
0
100
AcDbLine
 62
7
  6
CONTINUOUS
 10
4.4907544975
 20
4.5249240074
 11
4.5657544975
 21
4.5249240074
  0
LINE
  5
227
100
AcDbEntity
  8
0
100
AcDbLine
 62
7
  6
CONTINUOUS
 10
4.0069114831
 20
4.6119240074
 11
3.9307544975
 21
4.6119240074
  0
LINE
  5
228
100
AcDbEntity
  8
0
100
AcDbLine
 62
7
  6
CONTINUOUS
 10
4.0069114831
 20
4.8249240074
 11
3.9307544975
 21
4.8249240074
  0
LINE
  5
229
100
AcDbEntity
  8
0
100
AcDbLine
 62
7
  6
CONTINUOUS
 10
5.5607544975
 20
5.1799240074
 11
5.5607544975
 21
3.3659240074
  0
LINE
  5
22A
100
AcDbEntity
  8
0
100
AcDbLine
 62
7
  6
CONTINUOUS
 10
4.0069114831
 20
5.0119240074
 11
3.9307544975
 21
5.0119240074
  0
LINE
  5
22B
100
AcDbEntity
  8
0
100
AcDbLine
 62
7
  6
CONTINUOUS
 10
5.7157544975
 20
3.3149240074
 11
5.7157544975
 21
2.9749240074
  0
LINE
  5
22C
100
AcDbEntity
  8
0
100
AcDbLine
 62
7
  6
CONTINUOUS
 10
5.5607544975
 20
5.1799240074
 11
3.9307544975
 21
5.1799240074
  0
LINE
  5
22D
100
AcDbEntity
  8
0
100
AcDbLine
 62
7
  6
CONTINUOUS
 10
5.3307544975
 20
5.4099240074
 11
4.1607544975
 21
5.4099240074
  0
ARC
  5
22E
100
AcDbEntity
  8
0
100
AcDbCircle
 62
7
  6
CONTINUOUS
 10
5.3307544975
 20
5.1799240074
 40
0.23
100
AcDbArc
 50
0.0
 51
90.0
  0
ARC
  5
22F
100
AcDbEntity
  8
0
100
AcDbCircle
 62
7
  6
CONTINUOUS
 10
4.1607544975
 20
5.1799240074
 40
0.23
100
AcDbArc
 50
90.0
 51
180.0
  0
ARC
  5
230
100
AcDbEntity
  8
0
100
AcDbCircle
 62
7
  6
CONTINUOUS
 10
3.8257544975
 20
3.3149240074
 40
0.05
100
AcDbArc
 50
90.0
 51
180.0
  0
ARC
  5
231
100
AcDbEntity
  8
0
100
AcDbCircle
 62
7
  6
CONTINUOUS
 10
5.6657544975
 20
3.3149240074
 40
0.05
100
AcDbArc
 50
0.0
 51
90.0
  0
ARC
  5
232
100
AcDbEntity
  8
0
100
AcDbCircle
 62
7
  6
CONTINUOUS
 10
3.9297544975
 20
3.3659240074
 40
0.001
100
AcDbArc
 50
270.0
 51
360.0
  0
ARC
  5
233
100
AcDbEntity
  8
0
100
AcDbCircle
 62
7
  6
CONTINUOUS
 10
5.5617544975
 20
3.3659240074
 40
0.001
100
AcDbArc
 50
179.9999999999
 51
270.0
  0
SPLINE
  5
234
100
AcDbEntity
  8
0
100
AcDbSpline
 62
7
  6
CONTINUOUS
 70
0
 71
3
 72
39
 73
35
 74
0
 42
0.0000001
 43
0.0000001
 44
0.0000000001
 40
0.0
 40
0.0
 40
0.0
 40
0.0
 40
0.0183144102
 40
0.03765807
 40
0.058434155
 40
0.0809372165
 40
0.1053657536
 40
0.1318319922
 40
0.1603949509
 40
0.1910657062
 40
0.2238270474
 40
0.258612623
 40
0.2953293304
 40
0.3338105152
 40
0.3738520597
 40
0.4151453647
 40
0.4573400046
 40
0.4999947936
 40
0.5426505194
 40
0.5848453874
 40
0.6261401245
 40
0.6661829962
 40
0.7046652074
 40
0.7413828937
 40
0.7761692676
 40
0.8089314525
 40
0.8396028595
 40
0.8681664394
 40
0.8946331527
 40
0.9190620709
 40
0.941565433
 40
0.9623417762
 40
0.9816855637
 40
1.0
 40
1.0
 40
1.0
 40
1.0
 10
4.0069114831
 20
4.8249240074
 30
0.0
 10
4.0083139038
 20
4.8249240074
 30
0.0
 10
4.0112037837
 20
4.8252278179
 30
0.0
 10
4.0155101547
 20
4.8265186886
 30
0.0
 10
4.0198384161
 20
4.8286249577
 30
0.0
 10
4.0241543726
 20
4.8315228633
 30
0.0
 10
4.02842736
 20
4.8351913343
 30
0.0
 10
4.0326191476
 20
4.8396144422
 30
0.0
 10
4.0366870085
 20
4.8447743922
 30
0.0
 10
4.0405816691
 20
4.8506531603
 30
0.0
 10
4.0442492925
 20
4.8572271011
 30
0.0
 10
4.0476299884
 20
4.8644672963
 30
0.0
 10
4.0506579738
 20
4.8723331012
 30
0.0
 10
4.0532672155
 20
4.8807699389
 30
0.0
 10
4.0553856478
 20
4.889703861
 30
0.0
 10
4.0569560972
 20
4.8990389447
 30
0.0
 10
4.0579174975
 20
4.9086574868
 30
0.0
 10
4.0582463025
 20
4.918422882
 30
0.0
 10
4.0579175852
 20
4.9281882917
 30
0.0
 10
4.0569564593
 20
4.937807066
 30
0.0
 10
4.0553858913
 20
4.9471423603
 30
0.0
 10
4.0532676983
 20
4.9560766366
 30
0.0
 10
4.0506583389
 20
4.9645137078
 30
0.0
 10
4.0476304356
 20
4.9723797729
 30
0.0
 10
4.0442496555
 20
4.979620152
 30
0.0
 10
4.0405820358
 20
4.9861942951
 30
0.0
 10
4.0366873039
 20
4.992073212
 30
0.0
 10
4.032619395
 20
4.9972332943
 30
0.0
 10
4.028427548
 20
5.0016565023
 30
0.0
 10
4.0241545132
 20
5.0053250542
 30
0.0
 10
4.0198385057
 20
5.008223015
 30
0.0
 10
4.0155101966
 20
5.0103293068
 30
0.0
 10
4.0112037976
 20
5.0116201933
 30
0.0
 10
4.0083139058
 20
5.0119240074
 30
0.0
 10
4.0069114831
 20
5.0119240074
 30
0.0
  0
SPLINE
  5
235
100
AcDbEntity
  8
0
100
AcDbSpline
 62
7
  6
CONTINUOUS
 70
0
 71
3
 72
39
 73
35
 74
0
 42
0.0000001
 43
0.0000001
 44
0.0000000001
 40
0.0
 40
0.0
 40
0.0
 40
0.0
 40
0.0183144102
 40
0.03765807
 40
0.058434155
 40
0.0809372165
 40
0.1053657536
 40
0.1318319922
 40
0.1603949509
 40
0.1910657062
 40
0.2238270474
 40
0.258612623
 40
0.2953293304
 40
0.3338105152
 40
0.3738520597
 40
0.4151453647
 40
0.4573400046
 40
0.4999947936
 40
0.5426505194
 40
0.5848453874
 40
0.6261401245
 40
0.6661829962
 40
0.7046652074
 40
0.7413828937
 40
0.7761692676
 40
0.8089314525
 40
0.8396028595
 40
0.8681664394
 40
0.8946331527
 40
0.9190620709
 40
0.941565433
 40
0.9623417762
 40
0.9816855637
 40
1.0
 40
1.0
 40
1.0
 40
1.0
 10
4.0069114831
 20
4.4249240074
 30
0.0
 10
4.0083139038
 20
4.4249240074
 30
0.0
 10
4.0112037837
 20
4.4252278179
 30
0.0
 10
4.0155101547
 20
4.4265186886
 30
0.0
 10
4.0198384161
 20
4.4286249577
 30
0.0
 10
4.0241543726
 20
4.4315228633
 30
0.0
 10
4.02842736
 20
4.4351913343
 30
0.0
 10
4.0326191476
 20
4.4396144422
 30
0.0
 10
4.0366870085
 20
4.4447743922
 30
0.0
 10
4.0405816691
 20
4.4506531603
 30
0.0
 10
4.0442492925
 20
4.4572271011
 30
0.0
 10
4.0476299884
 20
4.4644672963
 30
0.0
 10
4.0506579738
 20
4.4723331012
 30
0.0
 10
4.0532672155
 20
4.4807699389
 30
0.0
 10
4.0553856478
 20
4.489703861
 30
0.0
 10
4.0569560972
 20
4.4990389447
 30
0.0
 10
4.0579174975
 20
4.5086574868
 30
0.0
 10
4.0582463025
 20
4.518422882
 30
0.0
 10
4.0579175852
 20
4.5281882917
 30
0.0
 10
4.0569564593
 20
4.537807066
 30
0.0
 10
4.0553858913
 20
4.5471423603
 30
0.0
 10
4.0532676983
 20
4.5560766366
 30
0.0
 10
4.0506583389
 20
4.5645137078
 30
0.0
 10
4.0476304356
 20
4.5723797729
 30
0.0
 10
4.0442496555
 20
4.579620152
 30
0.0
 10
4.0405820358
 20
4.5861942951
 30
0.0
 10
4.0366873039
 20
4.592073212
 30
0.0
 10
4.032619395
 20
4.5972332943
 30
0.0
 10
4.028427548
 20
4.6016565023
 30
0.0
 10
4.0241545132
 20
4.6053250542
 30
0.0
 10
4.0198385057
 20
4.608223015
 30
0.0
 10
4.0155101966
 20
4.6103293068
 30
0.0
 10
4.0112037976
 20
4.6116201933
 30
0.0
 10
4.0083139058
 20
4.6119240074
 30
0.0
 10
4.0069114831
 20
4.6119240074
 30
0.0
  0
ENDSEC
  0
SECTION
  2
OBJECTS
  0
DICTIONARY
  5
C
100
AcDbDictionary
280
0
281
1
  3
ACAD_GROUP
350
D
  3
ACAD_MLINESTYLE
350
17
  3
ACAD_LAYOUT
350
1A
  3
ACAD_PLOTSETTINGS
350
19
  3
ACAD_PLOTSTYLENAME
350
E
  0
DICTIONARY
  5
D
102
{ACAD_REACTORS
330
C
102
}
100
AcDbDictionary
280
0
281
1
  0
ACDBDICTIONARYWDFLT
  5
E
102
{ACAD_REACTORS
330
C
102
}
100
AcDbDictionary
281
1
  3
Normal
350
F
100
AcDbDictionaryWithDefault
340
F
  0
DICTIONARY
  5
17
102
{ACAD_REACTORS
330
C
102
}
100
AcDbDictionary
280
0
281
1
  3
Standard
350
18
  0
DICTIONARY
  5
19
102
{ACAD_REACTORS
330
C
102
}
100
AcDbDictionary
281
1
  0
DICTIONARY
  5
1A
102
{ACAD_REACTORS
330
C
102
}
100
AcDbDictionary
281
1
  3
Model
350
236
  3
Layout1
350
237
  0
ACDBPLACEHOLDER
  5
F
102
{ACAD_REACTORS
330
E
102
}
  0
MLINESTYLE
  5
18
102
{ACAD_REACTORS
330
17
102
}
100
AcDbMlineStyle
  2
STANDARD
 70
0
  3

 62
256
 51
90.0
 52
90.0
 71
2
 49
0.5
 62
256
  6
BYLAYER
 49
-0.5
 62
256
  6
BYLAYER
  0
LAYOUT
  5
236
102
{ACAD_REACTORS
330
1A
102
}
100
AcDbPlotSettings
  1

  2
none_device
  4
ANSI_A_(11.00_x_8.50_Inches)
  6

 40
0.0
 41
0.0
 42
0.0
 43
0.0
 44
279.4
 45
215.9
 46
0.0
 47
0.0
 48
0.0
 49
0.0
140
0.0
141
0.0
142
1.0
143
1.0
 70
1024
 72
0
 73
0
 74
0
  7

 75
0
147
1.0
148
0.0
149
0.0
100
AcDbLayout
  1
Model
 70
0
 71
0
 10
0.0
 20
0.0
 11
11.0
 21
8.5
 12
0.0
 22
0.0
 32
0.0
 14
0.0
 24
0.0
 34
0.0
 15
0.0
 25
0.0
 35
0.0
146
0.0
 13
0.0
 23
0.0
 33
0.0
 16
1.0
 26
0.0
 36
0.0
 17
0.0
 27
1.0
 37
0.0
 76
0
330
203
345
0
346
0
  0
LAYOUT
  5
237
102
{ACAD_REACTORS
330
1A
102
}
100
AcDbPlotSettings
  1

  2
none_device
  4
ANSI_A_(11.00_x_8.50_Inches)
  6

 40
0.0
 41
0.0
 42
0.0
 43
0.0
 44
279.4
 45
215.9
 46
0.0
 47
0.0
 48
0.0
 49
0.0
140
0.0
141
0.0
142
1.0
143
1.0
 70
0
 72
0
 73
0
 74
0
  7

 75
0
147
1.0
148
0.0
149
0.0
100
AcDbLayout
  1
Layout1
 70
0
 71
1
 10
0.0
 20
0.0
 11
11.0
 21
8.5
 12
0.0
 22
0.0
 32
0.0
 14
0.0
 24
0.0
 34
0.0
 15
0.0
 25
0.0
 35
0.0
146
0.0
 13
0.0
 23
0.0
 33
0.0
 16
1.0
 26
0.0
 36
0.0
 17
0.0
 27
1.0
 37
0.0
 76
0
330
204
345
0
346
0
  0
ENDSEC
  0
EOF
