999
DXF file: E:\BT Custom\CADOUTPUT\_RIGHT.dxf
999
Pro/ENGINEER 2018400 by Parametric Technology Corporation
  0
SECTION
  2
HEADER
  9
$ACADVER
  1
AC1018
  9
$DWGCODEPAGE
  3
ANSI_1252
  9
$EXTMAX
 10
22.0
 20
17.0
 30
0.0
  9
$EXTMIN
 10
0.0
 20
0.0
 30
0.0
  9
$LIMMIN
 10
0.0
 20
0.0
  9
$LIMMAX
 10
22.0
 20
17.0
  9
$VIEWCTR
 10
11.0
 20
8.5
  9
$VIEWSIZE
 40
17.0
  9
$CLAYER
  8
0
  9
$LTSCALE
 40
1.21
  9
$CELTYPE
  6
BYLAYER
  9
$DIMSCALE
 40
1.0
  9
$DIMASZ
 40
0.1
  9
$DIMEXO
 40
0.0625
  9
$DIMDLI
 40
0.836
  9
$DIMEXE
 40
0.125
  9
$DIMCEN
 40
0.198
  9
$DIMLFAC
 40
1.0
  9
$DIMBLK
  1
_FILLED
  9
$DIMALT
 70
1
  9
$DIMALTD
 70
2
  9
$DIMALTTD
 70
2
  9
$DIMALTF
 40
25.4
  9
$DIMTXT
 40
0.08
  9
$DIMTOL
 70
1
  9
$DIMLIM
 70
0
  9
$DIMTFAC
 40
1.0
  9
$DIMTP
 40
0.001
  9
$DIMTM
 40
0.001
  9
$DIMGAP
 40
0.09
  9
$DIMDSEP
 70
46
  9
$AUNITS
 70
0
  9
$PDMODE
 70
3
  9
$PDSIZE
 40
0.06
  9
$HANDSEED
  5
63C
  9
$TILEMODE
 70
1
  9
$MEASUREMENT
 70
0
  9
$INSUNITS
 70
1
  0
ENDSEC
  0
SECTION
  2
CLASSES
  0
CLASS
  1
ACDBDICTIONARYWDFLT
  2
AcDbDictionaryWithDefault
  3
AutoCAD 2000
 90
0
 91
1
280
0
281
0
  0
CLASS
  1
ACDBPLACEHOLDER
  2
AcDbPlaceHolder
  3
AutoCAD 2000
 90
0
 91
1
280
0
281
0
  0
CLASS
  1
LAYOUT
  2
AcDbLayout
  3
AutoCAD 2000
 90
0
 91
0
280
0
281
0
  0
ENDSEC
  0
SECTION
  2
TABLES
  0
TABLE
  2
VPORT
  5
8
100
AcDbSymbolTable
 70
2
  0
VPORT
  5
1F4
100
AcDbSymbolTableRecord
100
AcDbViewportTableRecord
  2
*ACTIVE
 70
0
 10
0.0
 20
0.0
 11
1.0
 21
1.0
 12
11.0
 22
8.5
 13
0.0
 23
0.0
 14
1.0
 24
1.0
 15
0.0
 25
0.0
 16
0.0
 26
0.0
 36
1.0
 17
0.0
 27
0.0
 37
0.0
 40
17.0
 41
1.2941176471
 42
50.0
 43
0.0
 44
0.0
 50
0.0
 51
0.0
 71
0
 72
100
 73
1
 74
1
 75
0
 76
0
 77
0
 78
0
  0
ENDTAB
  0
TABLE
  2
LTYPE
  5
5
100
AcDbSymbolTable
 70
6
  0
LTYPE
  5
14
100
AcDbSymbolTableRecord
100
AcDbLinetypeTableRecord
  2
BYBLOCK
 70
0
  3

 72
65
 73
0
 40
0.0
  0
LTYPE
  5
15
100
AcDbSymbolTableRecord
100
AcDbLinetypeTableRecord
  2
BYLAYER
 70
0
  3

 72
65
 73
0
 40
0.0
  0
LTYPE
  5
16
100
AcDbSymbolTableRecord
100
AcDbLinetypeTableRecord
  2
CONTINUOUS
 70
64
  3
Solid line
 72
65
 73
0
 40
0.0
  0
LTYPE
  5
1F5
100
AcDbSymbolTableRecord
100
AcDbLinetypeTableRecord
  2
CENTER
 70
64
  3
____ _ ____ _ ____ _ ____ _ ____ _ ____ _ ____
 72
65
 73
4
 40
0.6
 49
0.375
 74
0
 49
-0.075
 74
0
 49
0.075
 74
0
 49
-0.075
 74
0
  0
LTYPE
  5
1F6
100
AcDbSymbolTableRecord
100
AcDbLinetypeTableRecord
  2
HIDDEN
 70
64
  3
- - - - - - - - - - - - - - - - - - - -
 72
65
 73
2
 40
0.2
 49
0.1
 74
0
 49
-0.1
 74
0
  0
LTYPE
  5
1F7
100
AcDbSymbolTableRecord
100
AcDbLinetypeTableRecord
  2
PHANTOM
 70
64
  3
_____ _ _ _____ _ _ _____ _ _ _____
 72
65
 73
6
 40
0.8
 49
0.45
 74
0
 49
-0.05
 74
0
 49
0.1
 74
0
 49
-0.05
 74
0
 49
0.1
 74
0
 49
-0.05
 74
0
  0
LTYPE
  5
1F8
100
AcDbSymbolTableRecord
100
AcDbLinetypeTableRecord
  2
DOT
 70
64
  3
. . . . . . . . . . . . . . . . . . . .
 72
65
 73
2
 40
0.2
 49
0.1
 74
0
 49
-0.1
 74
0
  0
LTYPE
  5
1F9
100
AcDbSymbolTableRecord
100
AcDbLinetypeTableRecord
  2
DASHED
 70
64
  3
- - - - - - - - - - - - - - - - - - - -
 72
65
 73
2
 40
0.2
 49
0.1
 74
0
 49
-0.1
 74
0
  0
ENDTAB
  0
TABLE
  2
LAYER
  5
2
100
AcDbSymbolTable
 70
36
  0
LAYER
  5
10
100
AcDbSymbolTableRecord
100
AcDbLayerTableRecord
  2
0
 70
0
 62
7
  6
CONTINUOUS
370
-3
390
F
  0
LAYER
  5
1FA
100
AcDbSymbolTableRecord
100
AcDbLayerTableRecord
  2
DEFAULT_1
 70
0
 62
7
  6
CENTER
370
-3
390
F
  0
LAYER
  5
1FB
100
AcDbSymbolTableRecord
100
AcDbLayerTableRecord
  2
DEFAULT_2
 70
0
 62
8
  6
HIDDEN
370
-3
390
F
  0
LAYER
  5
1FC
100
AcDbSymbolTableRecord
100
AcDbLayerTableRecord
  2
DEFAULT_3
 70
0
 62
7
  6
PHANTOM
370
-3
390
F
  0
LAYER
  5
1FD
100
AcDbSymbolTableRecord
100
AcDbLayerTableRecord
  2
ALL_FEATURES
 70
0
 62
7
  6
CONTINUOUS
370
-3
390
F
  0
LAYER
  5
1FE
100
AcDbSymbolTableRecord
100
AcDbLayerTableRecord
  2
AXES_FEATURES
 70
0
 62
7
  6
CONTINUOUS
370
-3
390
F
  0
LAYER
  5
1FF
100
AcDbSymbolTableRecord
100
AcDbLayerTableRecord
  2
DIMENSIONS
 70
0
 62
7
  6
CONTINUOUS
370
-3
390
F
  0
ENDTAB
  0
TABLE
  2
STYLE
  5
3
100
AcDbSymbolTable
 70
1
  0
STYLE
  5
11
100
AcDbSymbolTableRecord
100
AcDbTextStyleTableRecord
  2
STANDARD
 70
0
 40
0.0
 41
0.8
 50
0.0
 71
0
 42
0.2
  3
txt
  4

  0
STYLE
  5
200
100
AcDbSymbolTableRecord
100
AcDbTextStyleTableRecord
  2
TEXTSTYLE_1
 70
0
 40
0.0
 41
0.8
 50
0.0
 71
0
 42
0.2
  3
gdt
  4

  0
ENDTAB
  0
TABLE
  2
VIEW
  5
6
100
AcDbSymbolTable
 70
0
  0
ENDTAB
  0
TABLE
  2
UCS
  5
7
100
AcDbSymbolTable
 70
0
  0
ENDTAB
  0
TABLE
  2
APPID
  5
9
100
AcDbSymbolTable
 70
1
  0
APPID
  5
201
100
AcDbSymbolTableRecord
100
AcDbRegAppTableRecord
  2
ACAD
 70
0
  0
ENDTAB
  0
TABLE
  2
BLOCK_RECORD
  5
1
100
AcDbSymbolTable
 70
0
  0
BLOCK_RECORD
  5
202
100
AcDbSymbolTableRecord
100
AcDbBlockTableRecord
  2
*Model_Space
  0
BLOCK_RECORD
  5
203
100
AcDbSymbolTableRecord
100
AcDbBlockTableRecord
  2
*Paper_Space
  0
BLOCK_RECORD
  5
204
100
AcDbSymbolTableRecord
100
AcDbBlockTableRecord
  2
_FILLED
  0
ENDTAB
  0
TABLE
  2
DIMSTYLE
  5
A
100
AcDbSymbolTable
 70
1
100
AcDbDimStyleTable
 71
0
  0
DIMSTYLE
105
205
100
AcDbSymbolTableRecord
100
AcDbDimStyleTableRecord
  2
STANDARD
 70
0
  3

  4

 40
1.0
 41
0.1
 42
0.0625
 43
0.38
 44
0.125
 45
0.0
 46
0.0
 47
0.001
 48
0.001
140
0.08
141
0.09
142
0.0
143
25.4
144
1.0
145
0.0
146
1.0
147
0.09
 71
1.0
 72
0.0
 73
1
 74
1
 75
0
 76
0
 77
0
 78
4
 79
1
170
1
171
2
172
0
173
0
174
0
175
0
176
0
177
0
178
0
270
2
179
3
271
3
272
3
273
2
274
2
275
0
280
0
281
0
282
0
283
1
284
4
285
0
286
0
287
3
288
0
340
11
278
46
341
204
342
204
343
204
344
204
  0
ENDTAB
  0
ENDSEC
  0
SECTION
  2
BLOCKS
  0
BLOCK
  5
20
100
AcDbEntity
  8
0
100
AcDbBlockBegin
  2
*Model_Space
 70
0
 10
0.0
 20
0.0
 30
0.0
  3
*Model_Space
  1

  0
ENDBLK
  5
21
100
AcDbEntity
  8
0
100
AcDbBlockEnd
  0
BLOCK
  5
1C
100
AcDbEntity
  8
0
100
AcDbBlockBegin
  2
*Paper_Space
 70
0
 10
0.0
 20
0.0
 30
0.0
  3
*Paper_Space
  1

  0
ENDBLK
  5
1D
100
AcDbEntity
  8
0
100
AcDbBlockEnd
  0
BLOCK
  5
206
100
AcDbEntity
  8
0
100
AcDbBlockBegin
  2
_FILLED
 70
64
 10
0.0
 20
0.0
  3
_FILLED
  1

  0
SOLID
  5
207
100
AcDbEntity
  8
0
  6
BYBLOCK
 62
0
100
AcDbTrace
 10
0.0
 20
0.0
 11
-1.0
 21
0.2
 12
-1.0
 22
-0.2
 13
-1.0
 23
-0.2
  0
ENDBLK
  5
208
100
AcDbEntity
  8
0
  6
BYBLOCK
 62
0
100
AcDbBlockEnd
  0
ENDSEC
  0
SECTION
  2
ENTITIES
  0
LINE
  5
209
100
AcDbEntity
  8
0
100
AcDbLine
 62
7
  6
CONTINUOUS
 10
-0.3902053198
 20
6.833391804
 11
-0.3902053198
 21
6.913391804
  0
LINE
  5
20A
100
AcDbEntity
  8
0
100
AcDbLine
 62
7
  6
CONTINUOUS
 10
0.5347946802
 20
6.833391804
 11
0.5347946802
 21
6.913391804
  0
LINE
  5
20B
100
AcDbEntity
  8
0
100
AcDbLine
 62
7
  6
CONTINUOUS
 10
3.4922946802
 20
7.263391804
 11
3.4922946802
 21
7.053391804
  0
LINE
  5
20C
100
AcDbEntity
  8
0
100
AcDbLine
 62
7
  6
CONTINUOUS
 10
4.6522946802
 20
7.263391804
 11
4.6522946802
 21
7.053391804
  0
LINE
  5
20D
100
AcDbEntity
  8
0
100
AcDbLine
 62
7
  6
CONTINUOUS
 10
-0.7177053198
 20
6.333391804
 11
0.8622946802
 21
6.333391804
  0
LINE
  5
20E
100
AcDbEntity
  8
0
100
AcDbLine
 62
7
  6
CONTINUOUS
 10
3.4162950446
 20
6.333391804
 11
4.7282943159
 21
6.333391804
  0
LINE
  5
20F
100
AcDbEntity
  8
0
100
AcDbLine
 62
7
  6
CONTINUOUS
 10
10.8922953328
 20
6.333391804
 11
13.2522940276
 21
6.333391804
  0
LINE
  5
210
100
AcDbEntity
  8
0
100
AcDbLine
 62
7
  6
CONTINUOUS
 10
20.0598116017
 20
6.333391804
 11
22.0847777587
 21
6.333391804
  0
LINE
  5
211
100
AcDbEntity
  8
0
100
AcDbLine
 62
7
  6
CONTINUOUS
 10
4.5518655777
 20
6.458391804
 11
3.5927237828
 21
6.458391804
  0
LINE
  5
212
100
AcDbEntity
  8
0
100
AcDbLine
 62
7
  6
CONTINUOUS
 10
11.0722946802
 20
6.520391804
 11
13.0722946802
 21
6.520391804
  0
LINE
  5
213
100
AcDbEntity
  8
0
100
AcDbLine
 62
9
  6
CONTINUOUS
 10
22.0847946802
 20
6.5823592717
 11
20.0597946802
 21
6.5823592717
  0
LINE
  5
214
100
AcDbEntity
  8
0
100
AcDbLine
 62
7
  6
CONTINUOUS
 10
4.3657946802
 20
6.583391804
 11
3.7787946802
 21
6.583391804
  0
LINE
  5
215
100
AcDbEntity
  8
0
100
AcDbLine
 62
9
  6
CONTINUOUS
 10
3.7331271
 20
6.6192800031
 11
4.4114622604
 21
6.6192800031
  0
LINE
  5
216
100
AcDbEntity
  8
0
100
AcDbLine
 62
7
  6
CONTINUOUS
 10
22.0472946802
 20
6.653391804
 11
20.0972946802
 21
6.653391804
  0
LINE
  5
217
100
AcDbEntity
  8
0
100
AcDbLine
 62
7
  6
CONTINUOUS
 10
12.8852964973
 20
6.708391804
 11
11.2592928632
 21
6.708391804
  0
LINE
  5
218
100
AcDbEntity
  8
0
100
AcDbLine
 62
7
  6
CONTINUOUS
 10
11.3312952061
 20
6.770391804
 11
12.8132941544
 21
6.770391804
  0
LINE
  5
219
100
AcDbEntity
  8
0
100
AcDbLine
 62
7
  6
CONTINUOUS
 10
0.5672942109
 20
6.833391804
 11
-0.4227048505
 21
6.833391804
  0
LINE
  5
21A
100
AcDbEntity
  8
0
100
AcDbLine
 62
9
  6
CONTINUOUS
 10
0.5347946802
 20
6.913391804
 11
-0.3902053198
 21
6.913391804
  0
LINE
  5
21B
100
AcDbEntity
  8
0
100
AcDbLine
 62
7
  6
CONTINUOUS
 10
3.4922946802
 20
7.053391804
 11
4.6522946802
 21
7.053391804
  0
LINE
  5
21C
100
AcDbEntity
  8
0
100
AcDbLine
 62
9
  6
CONTINUOUS
 10
-0.3549934068
 20
7.0774943681
 11
0.4995827673
 21
7.0774943681
  0
LINE
  5
21D
100
AcDbEntity
  8
0
100
AcDbLine
 62
7
  6
CONTINUOUS
 10
-0.3458737046
 20
7.083391804
 11
0.4904627385
 21
7.083391804
  0
LINE
  5
21E
100
AcDbEntity
  8
0
100
AcDbLine
 62
9
  6
CONTINUOUS
 10
12.7134581199
 20
7.136891804
 11
11.4311312406
 21
7.136891804
  0
LINE
  5
21F
100
AcDbEntity
  8
0
100
AcDbLine
 62
7
  6
CONTINUOUS
 10
4.6522946802
 20
7.263391804
 11
3.4922946802
 21
7.263391804
  0
LINE
  5
220
100
AcDbEntity
  8
0
100
AcDbLine
 62
9
  6
CONTINUOUS
 10
11.4537946802
 20
7.351891804
 11
12.6907946802
 21
7.351891804
  0
LINE
  5
221
100
AcDbEntity
  8
0
100
AcDbLine
 62
7
  6
CONTINUOUS
 10
4.0797744511
 20
7.4434206477
 11
4.0646995219
 21
7.4434206477
  0
LINE
  5
222
100
AcDbEntity
  8
0
100
AcDbLine
 62
9
  6
CONTINUOUS
 10
20.3641024827
 20
7.4941369442
 11
21.7804868778
 21
7.4941369442
  0
LINE
  5
223
100
AcDbEntity
  8
0
100
AcDbLine
 62
9
  6
CONTINUOUS
 10
12.4476837275
 20
8.7438398798
 11
12.7913017459
 21
8.829525846
  0
LINE
  5
224
100
AcDbEntity
  8
0
100
AcDbLine
 62
9
  6
CONTINUOUS
 10
11.457660686
 20
7.5800906156
 11
12.6869286744
 21
7.5800906156
  0
LINE
  5
225
100
AcDbEntity
  8
0
100
AcDbLine
 62
9
  6
CONTINUOUS
 10
20.4154240768
 20
7.6367325769
 11
21.7291652836
 21
7.6367325769
  0
LINE
  5
226
100
AcDbEntity
  8
0
100
AcDbLine
 62
9
  6
CONTINUOUS
 10
12.6127946802
 20
7.6860082428
 11
11.5317946802
 21
7.6860082428
  0
LINE
  5
227
100
AcDbEntity
  8
0
100
AcDbLine
 62
9
  6
CONTINUOUS
 10
12.5020344078
 20
7.9919910467
 11
11.6425549527
 21
7.9919910467
  0
LINE
  5
228
100
AcDbEntity
  8
0
100
AcDbLine
 62
7
  6
CONTINUOUS
 10
12.4711333574
 20
8.020391804
 11
11.6734560031
 21
8.020391804
  0
LINE
  5
229
100
AcDbEntity
  8
0
100
AcDbLine
 62
9
  6
CONTINUOUS
 10
12.3737946802
 20
8.310391804
 11
11.7707946802
 21
8.310391804
  0
LINE
  5
22A
100
AcDbEntity
  8
0
100
AcDbLine
 62
7
  6
CONTINUOUS
 10
11.6647946802
 20
9.220391804
 11
11.6473246603
 21
9.2157107263
  0
LINE
  5
22B
100
AcDbEntity
  8
0
100
AcDbLine
 62
7
  6
CONTINUOUS
 10
12.8378169454
 20
8.9265545985
 11
12.4829242549
 21
8.8380571349
  0
LINE
  5
22C
100
AcDbEntity
  8
0
100
AcDbLine
 62
7
  6
CONTINUOUS
 10
11.2755780316
 20
8.370391804
 11
12.8690113289
 21
8.370391804
  0
LINE
  5
22D
100
AcDbEntity
  8
0
100
AcDbLine
 62
9
  6
CONTINUOUS
 10
11.7154310967
 20
8.380391804
 11
12.4291578263
 21
8.380391804
  0
LINE
  5
22E
100
AcDbEntity
  8
0
100
AcDbLine
 62
9
  6
CONTINUOUS
 10
12.311937452
 20
8.4703918041
 11
12.7983006507
 21
8.470391804
  0
LINE
  5
22F
100
AcDbEntity
  8
0
100
AcDbLine
 62
9
  6
CONTINUOUS
 10
11.8326266313
 20
8.4703918275
 11
11.3462887097
 21
8.470391804
  0
LINE
  5
230
100
AcDbEntity
  8
0
100
AcDbLine
 62
9
  6
CONTINUOUS
 10
12.6222946802
 20
8.925391804
 11
11.5222946802
 21
8.925391804
  0
LINE
  5
231
100
AcDbEntity
  8
0
100
AcDbLine
 62
7
  6
CONTINUOUS
 10
12.6122729172
 20
8.935391804
 11
11.5323164432
 21
8.935391804
  0
LINE
  5
232
100
AcDbEntity
  8
0
100
AcDbLine
 62
7
  6
CONTINUOUS
 10
12.6147946802
 20
8.950391804
 11
11.5297946802
 21
8.950391804
  0
LINE
  5
233
100
AcDbEntity
  8
0
100
AcDbLine
 62
9
  6
CONTINUOUS
 10
11.5147946802
 20
8.965391804
 11
12.6297946802
 21
8.965391804
  0
LINE
  5
234
100
AcDbEntity
  8
0
100
AcDbLine
 62
9
  6
CONTINUOUS
 10
12.6297946802
 20
9.0514020092
 11
11.5147946802
 21
9.0514020092
  0
LINE
  5
235
100
AcDbEntity
  8
0
100
AcDbLine
 62
7
  6
CONTINUOUS
 10
11.5547946802
 20
9.100391804
 11
12.5897946802
 21
9.100391804
  0
LINE
  5
236
100
AcDbEntity
  8
0
100
AcDbLine
 62
9
  6
CONTINUOUS
 10
11.3532876145
 20
8.829525846
 11
11.6964465953
 21
8.7439543473
  0
LINE
  5
237
100
AcDbEntity
  8
0
100
AcDbLine
 62
7
  6
CONTINUOUS
 10
11.6609176133
 20
8.838243532
 11
11.3067724142
 21
8.9265545987
  0
LINE
  5
238
100
AcDbEntity
  8
0
100
AcDbLine
 62
7
  6
CONTINUOUS
 10
12.7134581199
 20
7.136891804
 11
12.7287946802
 21
7.1215994223
  0
LINE
  5
239
100
AcDbEntity
  8
0
100
AcDbLine
 62
7
  6
CONTINUOUS
 10
11.3312946802
 20
6.770391804
 11
11.3312946802
 21
6.708391804
  0
LINE
  5
23A
100
AcDbEntity
  8
0
100
AcDbLine
 62
7
  6
CONTINUOUS
 10
11.4157946802
 20
6.770391804
 11
11.4157946802
 21
7.1215991989
  0
LINE
  5
23B
100
AcDbEntity
  8
0
100
AcDbLine
 62
7
  6
CONTINUOUS
 10
11.5147946802
 20
9.0514020092
 11
11.5147946802
 21
8.965391804
  0
LINE
  5
23C
100
AcDbEntity
  8
0
100
AcDbLine
 62
7
  6
CONTINUOUS
 10
11.5222946802
 20
8.925391804
 11
11.5222946802
 21
8.8728111027
  0
LINE
  5
23D
100
AcDbEntity
  8
0
100
AcDbLine
 62
7
  6
CONTINUOUS
 10
11.5772946802
 20
8.950391804
 11
11.5772946802
 21
8.935391804
  0
LINE
  5
23E
100
AcDbEntity
  8
0
100
AcDbLine
 62
7
  6
CONTINUOUS
 10
11.7659048116
 20
9.2612930658
 11
11.7659600453
 21
9.2614227363
  0
LINE
  5
23F
100
AcDbEntity
  8
0
100
AcDbLine
 62
7
  6
CONTINUOUS
 10
11.7534541982
 20
9.2531801365
 11
11.7532952079
 21
9.25290849
  0
LINE
  5
240
100
AcDbEntity
  8
0
100
AcDbLine
 62
7
  6
CONTINUOUS
 10
11.7727068742
 20
9.2764623283
 11
11.7730098677
 21
9.2766791236
  0
LINE
  5
241
100
AcDbEntity
  8
0
100
AcDbLine
 62
7
  6
CONTINUOUS
 10
12.3731850356
 20
9.2579895183
 11
12.3733579446
 21
9.2581048917
  0
LINE
  5
242
100
AcDbEntity
  8
0
100
AcDbLine
 62
7
  6
CONTINUOUS
 10
12.3503463991
 20
9.2733041991
 11
12.3505193082
 21
9.2734076366
  0
LINE
  5
243
100
AcDbEntity
  8
0
100
AcDbLine
 62
7
  6
CONTINUOUS
 10
12.3958078348
 20
9.2571509773
 11
12.3960611236
 21
9.2572894722
  0
LINE
  5
244
100
AcDbEntity
  8
0
100
AcDbLine
 62
7
  6
CONTINUOUS
 10
12.3960611236
 20
9.2584698876
 11
12.3958078348
 21
9.2583412026
  0
LINE
  5
245
100
AcDbEntity
  8
0
100
AcDbLine
 62
9
  6
CONTINUOUS
 10
11.6473246603
 20
9.2157107263
 11
12.4972647001
 21
9.2157107263
  0
LINE
  5
246
100
AcDbEntity
  8
0
100
AcDbLine
 62
7
  6
CONTINUOUS
 10
11.6647946802
 20
9.220391804
 11
12.4797946802
 21
9.220391804
  0
LINE
  5
247
100
AcDbEntity
  8
0
100
AcDbLine
 62
7
  6
CONTINUOUS
 10
20.3322956821
 20
9.801391804
 11
21.8122936783
 21
9.801391804
  0
LINE
  5
248
100
AcDbEntity
  8
0
100
AcDbLine
 62
9
  6
CONTINUOUS
 10
20.3122946802
 20
9.8762249518
 11
21.8322946802
 21
9.8762249518
  0
LINE
  5
249
100
AcDbEntity
  8
0
100
AcDbLine
 62
7
  6
CONTINUOUS
 10
11.7214901583
 20
9.242803367
 11
11.721422007
 21
9.2428214191
  0
LINE
  5
24A
100
AcDbEntity
  8
0
100
AcDbLine
 62
7
  6
CONTINUOUS
 10
12.4797946802
 20
9.220391804
 11
12.4972647001
 21
9.2157107263
  0
LINE
  5
24B
100
AcDbEntity
  8
0
100
AcDbLine
 62
7
  6
CONTINUOUS
 10
11.7881736737
 20
9.2704049714
 11
11.7883921219
 21
9.2702510911
  0
LINE
  5
24C
100
AcDbEntity
  8
0
100
AcDbLine
 62
7
  6
CONTINUOUS
 10
11.7644415
 20
9.254085994
 11
11.7645871322
 21
9.2539714873
  0
LINE
  5
24D
100
AcDbEntity
  8
0
100
AcDbLine
 62
7
  6
CONTINUOUS
 10
12.6127946802
 20
7.6860082428
 11
12.6869286744
 21
7.5800906156
  0
LINE
  5
24E
100
AcDbEntity
  8
0
100
AcDbLine
 62
7
  6
CONTINUOUS
 10
11.7186056574
 20
9.2404827585
 11
11.7186056574
 21
9.2417130921
  0
LINE
  5
24F
100
AcDbEntity
  8
0
100
AcDbLine
 62
7
  6
CONTINUOUS
 10
11.7265838151
 20
9.2418246051
 11
11.7265838151
 21
9.2430516102
  0
LINE
  5
250
100
AcDbEntity
  8
0
100
AcDbLine
 62
9
  6
CONTINUOUS
 10
11.7349194922
 20
9.2482237742
 11
11.7349194922
 21
9.2470094631
  0
LINE
  5
251
100
AcDbEntity
  8
0
100
AcDbLine
 62
7
  6
CONTINUOUS
 10
11.7357222661
 20
9.2426368855
 11
11.7357222661
 21
9.241408851
  0
LINE
  5
252
100
AcDbEntity
  8
0
100
AcDbLine
 62
9
  6
CONTINUOUS
 10
11.7424963228
 20
9.2444219994
 11
11.7424963228
 21
9.2431983835
  0
LINE
  5
253
100
AcDbEntity
  8
0
100
AcDbLine
 62
7
  6
CONTINUOUS
 10
11.7505569612
 20
9.2622108922
 11
11.7505569612
 21
9.2610296281
  0
LINE
  5
254
100
AcDbEntity
  8
0
100
AcDbLine
 62
9
  6
CONTINUOUS
 10
11.7510863195
 20
9.2433203906
 11
11.7510863195
 21
9.2445437065
  0
LINE
  5
255
100
AcDbEntity
  8
0
100
AcDbLine
 62
7
  6
CONTINUOUS
 10
11.7545408867
 20
9.26239775
 11
11.7545408867
 21
9.2612169153
  0
LINE
  5
256
100
AcDbEntity
  8
0
100
AcDbLine
 62
7
  6
CONTINUOUS
 10
11.7547582116
 20
9.2546602894
 11
11.7547582116
 21
9.2534614128
  0
LINE
  5
257
100
AcDbEntity
  8
0
100
AcDbLine
 62
9
  6
CONTINUOUS
 10
11.7549916908
 20
9.2465788491
 11
11.7549916908
 21
9.2453605295
  0
LINE
  5
258
100
AcDbEntity
  8
0
100
AcDbLine
 62
7
  6
CONTINUOUS
 10
11.7616694446
 20
9.2594978892
 11
11.7616694446
 21
9.2583103567
  0
LINE
  5
259
100
AcDbEntity
  8
0
100
AcDbLine
 62
9
  6
CONTINUOUS
 10
11.7633363455
 20
9.2515086088
 11
11.7633363455
 21
9.2527121155
  0
LINE
  5
25A
100
AcDbEntity
  8
0
100
AcDbLine
 62
7
  6
CONTINUOUS
 10
11.7645871323
 20
9.2527738777
 11
11.7645871323
 21
9.2539743804
  0
LINE
  5
25B
100
AcDbEntity
  8
0
100
AcDbLine
 62
9
  6
CONTINUOUS
 10
11.7647415076
 20
9.2598961643
 11
11.7647415076
 21
9.2610800331
  0
LINE
  5
25C
100
AcDbEntity
  8
0
100
AcDbLine
 62
7
  6
CONTINUOUS
 10
11.7655628974
 20
9.2592858964
 11
11.7655628974
 21
9.2604711724
  0
LINE
  5
25D
100
AcDbEntity
  8
0
100
AcDbLine
 62
9
  6
CONTINUOUS
 10
11.7664644078
 20
9.2599821837
 11
11.7664644078
 21
9.2587957751
  0
LINE
  5
25E
100
AcDbEntity
  8
0
100
AcDbLine
 62
7
  6
CONTINUOUS
 10
11.7681237849
 20
9.2408810884
 11
11.7681237849
 21
9.2421104321
  0
LINE
  5
25F
100
AcDbEntity
  8
0
100
AcDbLine
 62
7
  6
CONTINUOUS
 10
11.7700731491
 20
9.2676919093
 11
11.7700731491
 21
9.2665231092
  0
LINE
  5
260
100
AcDbEntity
  8
0
100
AcDbLine
 62
7
  6
CONTINUOUS
 10
11.7707946802
 20
8.310391804
 11
11.7707946802
 21
8.020391804
  0
LINE
  5
261
100
AcDbEntity
  8
0
100
AcDbLine
 62
9
  6
CONTINUOUS
 10
11.7724115481
 20
9.258768245
 11
11.7724115481
 21
9.2599547173
  0
LINE
  5
262
100
AcDbEntity
  8
0
100
AcDbLine
 62
9
  6
CONTINUOUS
 10
11.7763169195
 20
9.2617949163
 11
11.7763169195
 21
9.2606126955
  0
LINE
  5
263
100
AcDbEntity
  8
0
100
AcDbLine
 62
7
  6
CONTINUOUS
 10
11.7803802473
 20
9.2429648086
 11
11.7803802473
 21
9.2441889995
  0
LINE
  5
264
100
AcDbEntity
  8
0
100
AcDbLine
 62
9
  6
CONTINUOUS
 10
11.781387898
 20
9.2499291103
 11
11.781387898
 21
9.2487189271
  0
LINE
  5
265
100
AcDbEntity
  8
0
100
AcDbLine
 62
7
  6
CONTINUOUS
 10
11.7860761495
 20
9.2762960775
 11
11.7860761495
 21
9.2751463211
  0
LINE
  5
266
100
AcDbEntity
  8
0
100
AcDbLine
 62
9
  6
CONTINUOUS
 10
11.7865159419
 20
9.2673900398
 11
11.7865159419
 21
9.2685568968
  0
LINE
  5
267
100
AcDbEntity
  8
0
100
AcDbLine
 62
7
  6
CONTINUOUS
 10
11.7883921221
 20
9.26909229
 11
11.7883921221
 21
9.2702553506
  0
LINE
  5
268
100
AcDbEntity
  8
0
100
AcDbLine
 62
9
  6
CONTINUOUS
 10
11.8014790175
 20
9.2647494776
 11
11.8014790175
 21
9.2659222729
  0
LINE
  5
269
100
AcDbEntity
  8
0
100
AcDbLine
 62
7
  6
CONTINUOUS
 10
11.8044794426
 20
9.242465655
 11
11.8044794426
 21
9.2436910763
  0
LINE
  5
26A
100
AcDbEntity
  8
0
100
AcDbLine
 62
7
  6
CONTINUOUS
 10
11.8050057291
 20
9.2661766126
 11
11.8050057291
 21
9.2650043931
  0
LINE
  5
26B
100
AcDbEntity
  8
0
100
AcDbLine
 62
7
  6
CONTINUOUS
 10
11.8054870933
 20
9.2502958701
 11
11.8054870933
 21
9.249086571
  0
LINE
  5
26C
100
AcDbEntity
  8
0
100
AcDbLine
 62
7
  6
CONTINUOUS
 10
11.8110016856
 20
9.2758111959
 11
11.8110016856
 21
9.2746603829
  0
LINE
  5
26D
100
AcDbEntity
  8
0
100
AcDbLine
 62
9
  6
CONTINUOUS
 10
11.8255782129
 20
9.2651057452
 11
11.8255782129
 21
9.2662777358
  0
LINE
  5
26E
100
AcDbEntity
  8
0
100
AcDbLine
 62
7
  6
CONTINUOUS
 10
11.8301125751
 20
9.2705591726
 11
11.8301125751
 21
9.2717189815
  0
LINE
  5
26F
100
AcDbEntity
  8
0
100
AcDbLine
 62
7
  6
CONTINUOUS
 10
11.8351008809
 20
9.2767795713
 11
11.8351008809
 21
9.2756308667
  0
LINE
  5
270
100
AcDbEntity
  8
0
100
AcDbLine
 62
7
  6
CONTINUOUS
 10
12.0022946802
 20
9.3452001299
 11
12.0022946802
 21
9.3257582586
  0
LINE
  5
271
100
AcDbEntity
  8
0
100
AcDbLine
 62
7
  6
CONTINUOUS
 10
12.0022946802
 20
9.3149732482
 11
12.0022946802
 21
9.2636697312
  0
LINE
  5
272
100
AcDbEntity
  8
0
100
AcDbLine
 62
7
  6
CONTINUOUS
 10
12.0173391247
 20
9.3380926615
 11
12.0173391247
 21
9.3444338194
  0
LINE
  5
273
100
AcDbEntity
  8
0
100
AcDbLine
 62
9
  6
CONTINUOUS
 10
12.0203391247
 20
9.3387322108
 11
12.0203391247
 21
9.3377040057
  0
LINE
  5
274
100
AcDbEntity
  8
0
100
AcDbLine
 62
7
  6
CONTINUOUS
 10
12.0221672123
 20
9.3237626249
 11
12.0221672123
 21
9.3227076822
  0
LINE
  5
275
100
AcDbEntity
  8
0
100
AcDbLine
 62
7
  6
CONTINUOUS
 10
12.0272837665
 20
9.2914274131
 11
12.0272837665
 21
9.3133213917
  0
LINE
  5
276
100
AcDbEntity
  8
0
100
AcDbLine
 62
9
  6
CONTINUOUS
 10
12.0322837665
 20
9.2904720528
 11
12.0322837665
 21
9.2893523528
  0
LINE
  5
277
100
AcDbEntity
  8
0
100
AcDbLine
 62
7
  6
CONTINUOUS
 10
12.0472946802
 20
9.3100912051
 11
12.0472946802
 21
9.3046272979
  0
LINE
  5
278
100
AcDbEntity
  8
0
100
AcDbLine
 62
9
  6
CONTINUOUS
 10
12.0547042544
 20
9.2905417774
 11
12.0547042544
 21
9.291659032
  0
LINE
  5
279
100
AcDbEntity
  8
0
100
AcDbLine
 62
7
  6
CONTINUOUS
 10
12.0647042544
 20
9.3006923642
 11
12.0647042544
 21
9.2956347309
  0
LINE
  5
27A
100
AcDbEntity
  8
0
100
AcDbLine
 62
9
  6
CONTINUOUS
 10
12.0682502358
 20
9.3399709181
 11
12.0682502358
 21
9.3409951988
  0
LINE
  5
27B
100
AcDbEntity
  8
0
100
AcDbLine
 62
7
  6
CONTINUOUS
 10
12.0712502358
 20
9.346955403
 11
12.0712502358
 21
9.3406411835
  0
LINE
  5
27C
100
AcDbEntity
  8
0
100
AcDbLine
 62
7
  6
CONTINUOUS
 10
12.0722932329
 20
7.0203365627
 11
12.0722946802
 21
6.770391804
  0
LINE
  5
27D
100
AcDbEntity
  8
0
100
AcDbLine
 62
7
  6
CONTINUOUS
 10
12.079885106
 20
9.2956347309
 11
12.079885106
 21
9.3006923642
  0
LINE
  5
27E
100
AcDbEntity
  8
0
100
AcDbLine
 62
7
  6
CONTINUOUS
 10
12.0859330039
 20
9.3483164774
 11
12.0859330039
 21
9.3473046901
  0
LINE
  5
27F
100
AcDbEntity
  8
0
100
AcDbLine
 62
7
  6
CONTINUOUS
 10
12.086793146
 20
9.3423406456
 11
12.086793146
 21
9.3427670871
  0
LINE
  5
280
100
AcDbEntity
  8
0
100
AcDbLine
 62
7
  6
CONTINUOUS
 10
12.086793146
 20
9.3404650112
 11
12.086793146
 21
9.3414884405
  0
LINE
  5
281
100
AcDbEntity
  8
0
100
AcDbLine
 62
9
  6
CONTINUOUS
 10
12.089793146
 20
9.3407511506
 11
12.089793146
 21
9.3397264481
  0
LINE
  5
282
100
AcDbEntity
  8
0
100
AcDbLine
 62
9
  6
CONTINUOUS
 10
12.089885106
 20
9.291659032
 11
12.089885106
 21
9.2905417774
  0
LINE
  5
283
100
AcDbEntity
  8
0
100
AcDbLine
 62
7
  6
CONTINUOUS
 10
12.0972946802
 20
9.3046272979
 11
12.0972946802
 21
9.3100912051
  0
LINE
  5
284
100
AcDbEntity
  8
0
100
AcDbLine
 62
9
  6
CONTINUOUS
 10
12.1006440451
 20
9.3393065955
 11
12.1006440451
 21
9.3403320231
  0
LINE
  5
285
100
AcDbEntity
  8
0
100
AcDbLine
 62
9
  6
CONTINUOUS
 10
12.1014440208
 20
9.2900445145
 11
12.1014440208
 21
9.2911627901
  0
LINE
  5
286
100
AcDbEntity
  8
0
100
AcDbLine
 62
9
  6
CONTINUOUS
 10
12.1174104875
 20
9.3507409805
 11
12.1174104875
 21
9.351747018
  0
LINE
  5
287
100
AcDbEntity
  8
0
100
AcDbLine
 62
7
  6
CONTINUOUS
 10
12.1222946802
 20
9.3523794141
 11
12.1222946802
 21
9.3513744293
  0
LINE
  5
288
100
AcDbEntity
  8
0
100
AcDbLine
 62
7
  6
CONTINUOUS
 10
12.1222946802
 20
9.341540131
 11
12.1222946802
 21
9.3405167909
  0
LINE
  5
289
100
AcDbEntity
  8
0
100
AcDbLine
 62
7
  6
CONTINUOUS
 10
12.1222946802
 20
9.2984797656
 11
12.1222946802
 21
9.2973763586
  0
LINE
  5
28A
100
AcDbEntity
  8
0
100
AcDbLine
 62
7
  6
CONTINUOUS
 10
12.1422946802
 20
9.2615295043
 11
12.1422946802
 21
9.2962992598
  0
LINE
  5
28B
100
AcDbEntity
  8
0
100
AcDbLine
 62
7
  6
CONTINUOUS
 10
12.1422946802
 20
9.3257582586
 11
12.1422946802
 21
9.3395181271
  0
LINE
  5
28C
100
AcDbEntity
  8
0
100
AcDbLine
 62
7
  6
CONTINUOUS
 10
12.1422946802
 20
9.3468029533
 11
12.1422946802
 21
9.3503937377
  0
LINE
  5
28D
100
AcDbEntity
  8
0
100
AcDbLine
 62
7
  6
CONTINUOUS
 10
12.3503463991
 20
9.2721489245
 11
12.3503463991
 21
9.2733052297
  0
LINE
  5
28E
100
AcDbEntity
  8
0
100
AcDbLine
 62
9
  6
CONTINUOUS
 10
12.3514425256
 20
9.2749765778
 11
12.3514425256
 21
9.276126703
  0
LINE
  5
28F
100
AcDbEntity
  8
0
100
AcDbLine
 62
9
  6
CONTINUOUS
 10
12.3515329258
 20
9.2722360068
 11
12.3515329258
 21
9.2710773423
  0
LINE
  5
290
100
AcDbEntity
  8
0
100
AcDbLine
 62
9
  6
CONTINUOUS
 10
12.3652361077
 20
9.2619961153
 11
12.3652361077
 21
9.2631751673
  0
LINE
  5
291
100
AcDbEntity
  8
0
100
AcDbLine
 62
9
  6
CONTINUOUS
 10
12.3678766719
 20
9.2619297599
 11
12.3678766719
 21
9.2607478494
  0
LINE
  5
292
100
AcDbEntity
  8
0
100
AcDbLine
 62
9
  6
CONTINUOUS
 10
12.3682339007
 20
9.2749881798
 11
12.3682339007
 21
9.2761382799
  0
LINE
  5
293
100
AcDbEntity
  8
0
100
AcDbLine
 62
9
  6
CONTINUOUS
 10
12.37052046
 20
9.2607193781
 11
12.37052046
 21
9.261901354
  0
LINE
  5
294
100
AcDbEntity
  8
0
100
AcDbLine
 62
7
  6
CONTINUOUS
 10
12.3706565911
 20
9.2713913654
 11
12.3706565911
 21
9.2725493375
  0
LINE
  5
295
100
AcDbEntity
  8
0
100
AcDbLine
 62
7
  6
CONTINUOUS
 10
12.3713417782
 20
9.2611806672
 11
12.3713417782
 21
9.262361585
  0
LINE
  5
296
100
AcDbEntity
  8
0
100
AcDbLine
 62
9
  6
CONTINUOUS
 10
12.371426827
 20
9.271951634
 11
12.371426827
 21
9.2707923403
  0
LINE
  5
297
100
AcDbEntity
  8
0
100
AcDbLine
 62
7
  6
CONTINUOUS
 10
12.3722946802
 20
9.2762719653
 11
12.3722946802
 21
9.2762457669
  0
LINE
  5
298
100
AcDbEntity
  8
0
100
AcDbLine
 62
7
  6
CONTINUOUS
 10
12.3731850355
 20
9.2567999142
 11
12.3731850355
 21
9.2579909573
  0
LINE
  5
299
100
AcDbEntity
  8
0
100
AcDbLine
 62
7
  6
CONTINUOUS
 10
12.3737946802
 20
8.310391804
 11
12.3737946802
 21
8.020391804
  0
LINE
  5
29A
100
AcDbEntity
  8
0
100
AcDbLine
 62
9
  6
CONTINUOUS
 10
12.3743715622
 20
9.2568000174
 11
12.3743715622
 21
9.2556061851
  0
LINE
  5
29B
100
AcDbEntity
  8
0
100
AcDbLine
 62
7
  6
CONTINUOUS
 10
12.3787869082
 20
9.2602235518
 11
12.3787869082
 21
9.2590377025
  0
LINE
  5
29C
100
AcDbEntity
  8
0
100
AcDbLine
 62
7
  6
CONTINUOUS
 10
11.7408943676
 20
9.2452441741
 11
11.7409173644
 21
9.2454799007
  0
LINE
  5
29D
100
AcDbEntity
  8
0
100
AcDbLine
 62
7
  6
CONTINUOUS
 10
12.38487268
 20
9.2437773969
 11
12.384814403
 21
9.2435143544
  0
LINE
  5
29E
100
AcDbEntity
  8
0
100
AcDbLine
 62
7
  6
CONTINUOUS
 10
11.5317946802
 20
7.6860082428
 11
11.457660686
 21
7.5800906156
  0
LINE
  5
29F
100
AcDbEntity
  8
0
100
AcDbLine
 62
9
  6
CONTINUOUS
 10
21.8322946802
 20
10.4356525729
 11
20.3122946802
 21
10.4356525729
  0
LINE
  5
2A0
100
AcDbEntity
  8
0
100
AcDbLine
 62
9
  6
CONTINUOUS
 10
20.2838259015
 20
10.5055330736
 11
21.860763459
 21
10.5055330736
  0
LINE
  5
2A1
100
AcDbEntity
  8
0
100
AcDbLine
 62
7
  6
CONTINUOUS
 10
11.7810550604
 20
9.2430871437
 11
11.7803802476
 21
9.2441961232
  0
LINE
  5
2A2
100
AcDbEntity
  8
0
100
AcDbLine
 62
7
  6
CONTINUOUS
 10
11.7306511112
 20
9.2417130921
 11
11.7305829601
 21
9.2418324846
  0
LINE
  5
2A3
100
AcDbEntity
  8
0
100
AcDbLine
 62
7
  6
CONTINUOUS
 10
11.8051542558
 20
9.2423012843
 11
11.8044794432
 21
9.243698791
  0
LINE
  5
2A4
100
AcDbEntity
  8
0
100
AcDbLine
 62
9
  6
CONTINUOUS
 10
12.3921457321
 20
9.2577693043
 11
12.3921457321
 21
9.2589580919
  0
LINE
  5
2A5
100
AcDbEntity
  8
0
100
AcDbLine
 62
9
  6
CONTINUOUS
 10
12.3926424714
 20
9.2419733904
 11
12.3926424714
 21
9.2432000276
  0
LINE
  5
2A6
100
AcDbEntity
  8
0
100
AcDbLine
 62
9
  6
CONTINUOUS
 10
12.3933317914
 20
9.2583284976
 11
12.3933317914
 21
9.2571382427
  0
LINE
  5
2A7
100
AcDbEntity
  8
0
100
AcDbLine
 62
9
  6
CONTINUOUS
 10
12.3952830356
 20
9.2417830855
 11
12.3952830356
 21
9.2405529264
  0
LINE
  5
2A8
100
AcDbEntity
  8
0
100
AcDbLine
 62
9
  6
CONTINUOUS
 10
12.3958078348
 20
9.2571509773
 11
12.3958078348
 21
9.2583412026
  0
LINE
  5
2A9
100
AcDbEntity
  8
0
100
AcDbLine
 62
7
  6
CONTINUOUS
 10
12.3960611236
 20
9.2572833096
 11
12.3960611236
 21
9.258473227
  0
LINE
  5
2AA
100
AcDbEntity
  8
0
100
AcDbLine
 62
9
  6
CONTINUOUS
 10
12.3989436654
 20
9.2404890918
 11
12.3989436654
 21
9.2417194096
  0
LINE
  5
2AB
100
AcDbEntity
  8
0
100
AcDbLine
 62
7
  6
CONTINUOUS
 10
12.3994128813
 20
9.2530669948
 11
12.3994128813
 21
9.2542668038
  0
LINE
  5
2AC
100
AcDbEntity
  8
0
100
AcDbLine
 62
7
  6
CONTINUOUS
 10
12.3999811199
 20
9.2411286107
 11
12.3999811199
 21
9.24235734
  0
LINE
  5
2AD
100
AcDbEntity
  8
0
100
AcDbLine
 62
9
  6
CONTINUOUS
 10
12.4001831172
 20
9.2535894939
 11
12.4001831172
 21
9.2523880768
  0
LINE
  5
2AE
100
AcDbEntity
  8
0
100
AcDbLine
 62
7
  6
CONTINUOUS
 10
12.4027567909
 20
9.2542077572
 11
12.4027567909
 21
9.2530078082
  0
LINE
  5
2AF
100
AcDbEntity
  8
0
100
AcDbLine
 62
9
  6
CONTINUOUS
 10
12.404747043
 20
9.2492469074
 11
12.404747043
 21
9.2504558213
  0
LINE
  5
2B0
100
AcDbEntity
  8
0
100
AcDbLine
 62
7
  6
CONTINUOUS
 10
12.4152086647
 20
9.2439130213
 11
12.4152086647
 21
9.2426881488
  0
LINE
  5
2B1
100
AcDbEntity
  8
0
100
AcDbLine
 62
9
  6
CONTINUOUS
 10
12.4193029285
 20
9.243404836
 11
12.4193029285
 21
9.2446279442
  0
LINE
  5
2B2
100
AcDbEntity
  8
0
100
AcDbLine
 62
7
  6
CONTINUOUS
 10
12.4226934856
 20
9.2427523727
 11
12.4226934856
 21
9.241524625
  0
LINE
  5
2B3
100
AcDbEntity
  8
0
100
AcDbLine
 62
7
  6
CONTINUOUS
 10
12.4232946802
 20
9.2437952667
 11
12.4232946802
 21
9.242570103
  0
LINE
  5
2B4
100
AcDbEntity
  8
0
100
AcDbLine
 62
7
  6
CONTINUOUS
 10
12.4322946802
 20
9.2365167881
 11
12.4322946802
 21
9.2373119199
  0
LINE
  5
2B5
100
AcDbEntity
  8
0
100
AcDbLine
 62
7
  6
CONTINUOUS
 10
12.5672946802
 20
8.950391804
 11
12.5672946802
 21
8.935391804
  0
LINE
  5
2B6
100
AcDbEntity
  8
0
100
AcDbLine
 62
7
  6
CONTINUOUS
 10
12.6222946802
 20
8.925391804
 11
12.6222946802
 21
8.8728111027
  0
LINE
  5
2B7
100
AcDbEntity
  8
0
100
AcDbLine
 62
7
  6
CONTINUOUS
 10
12.6297946802
 20
9.0514020092
 11
12.6297946802
 21
8.965391804
  0
LINE
  5
2B8
100
AcDbEntity
  8
0
100
AcDbLine
 62
7
  6
CONTINUOUS
 10
12.7287946802
 20
7.1215991989
 11
12.7287946802
 21
6.770391804
  0
LINE
  5
2B9
100
AcDbEntity
  8
0
100
AcDbLine
 62
7
  6
CONTINUOUS
 10
12.8132946802
 20
6.770391804
 11
12.8132946802
 21
6.708391804
  0
LINE
  5
2BA
100
AcDbEntity
  8
0
100
AcDbLine
 62
7
  6
CONTINUOUS
 10
11.4311312406
 20
7.136891804
 11
11.4157946802
 21
7.1215994223
  0
LINE
  5
2BB
100
AcDbEntity
  8
0
100
AcDbLine
 62
7
  6
CONTINUOUS
 10
20.0069170761
 20
10.801391804
 11
20.2049922669
 21
10.801391804
  0
LINE
  5
2BC
100
AcDbEntity
  8
0
100
AcDbLine
 62
7
  6
CONTINUOUS
 10
20.4329256367
 20
10.801391804
 11
20.9111214488
 21
10.801391804
  0
LINE
  5
2BD
100
AcDbEntity
  8
0
100
AcDbLine
 62
7
  6
CONTINUOUS
 10
21.2334679117
 20
10.801391804
 11
21.7116637237
 21
10.801391804
  0
LINE
  5
2BE
100
AcDbEntity
  8
0
100
AcDbLine
 62
7
  6
CONTINUOUS
 10
21.9395970936
 20
10.801391804
 11
22.1376722844
 21
10.801391804
  0
LINE
  5
2BF
100
AcDbEntity
  8
0
100
AcDbLine
 62
9
  6
CONTINUOUS
 10
22.1376722844
 20
11.411391804
 11
21.9395970936
 21
11.411391804
  0
LINE
  5
2C0
100
AcDbEntity
  8
0
100
AcDbLine
 62
9
  6
CONTINUOUS
 10
21.7116637237
 20
11.411391804
 11
21.2334679117
 21
11.411391804
  0
LINE
  5
2C1
100
AcDbEntity
  8
0
100
AcDbLine
 62
9
  6
CONTINUOUS
 10
20.9111214488
 20
11.411391804
 11
20.4329256367
 21
11.411391804
  0
LINE
  5
2C2
100
AcDbEntity
  8
0
100
AcDbLine
 62
9
  6
CONTINUOUS
 10
20.2049922669
 20
11.411391804
 11
20.0069170761
 21
11.411391804
  0
LINE
  5
2C3
100
AcDbEntity
  8
0
100
AcDbLine
 62
7
  6
CONTINUOUS
 10
21.9997796386
 20
11.561391804
 11
20.1448097219
 21
11.561391804
  0
LINE
  5
2C4
100
AcDbEntity
  8
0
100
AcDbLine
 62
9
  6
CONTINUOUS
 10
20.1631582472
 20
11.621391804
 11
21.9814311133
 21
11.621391804
  0
LINE
  5
2C5
100
AcDbEntity
  8
0
100
AcDbLine
 62
7
  6
CONTINUOUS
 10
21.860763459
 20
10.5055330736
 11
22.0622946802
 21
10.7118248749
  0
LINE
  5
2C6
100
AcDbEntity
  8
0
100
AcDbLine
 62
7
  6
CONTINUOUS
 10
20.2838259015
 20
10.5055330736
 11
20.0822946802
 21
10.7118248749
  0
LINE
  5
2C7
100
AcDbEntity
  8
0
100
AcDbLine
 62
7
  6
CONTINUOUS
 10
20.0069170761
 20
10.801391804
 11
20.0069170761
 21
11.411391804
  0
LINE
  5
2C8
100
AcDbEntity
  8
0
100
AcDbLine
 62
7
  6
CONTINUOUS
 10
20.0597946802
 20
6.5823592717
 11
20.0597946802
 21
6.333391804
  0
LINE
  5
2C9
100
AcDbEntity
  8
0
100
AcDbLine
 62
7
  6
CONTINUOUS
 10
20.4337665428
 20
10.7854668373
 11
20.4329256367
 21
10.801391804
  0
LINE
  5
2CA
100
AcDbEntity
  8
0
100
AcDbLine
 62
7
  6
CONTINUOUS
 10
20.2049922669
 20
10.801391804
 11
20.2049922669
 21
11.411391804
  0
LINE
  5
2CB
100
AcDbEntity
  8
0
100
AcDbLine
 62
7
  6
CONTINUOUS
 10
20.3122946802
 20
10.4356525729
 11
20.3122946802
 21
9.8762249518
  0
LINE
  5
2CC
100
AcDbEntity
  8
0
100
AcDbLine
 62
7
  6
CONTINUOUS
 10
20.4329256367
 20
10.801391804
 11
20.4329256367
 21
11.411391804
  0
LINE
  5
2CD
100
AcDbEntity
  8
0
100
AcDbLine
 62
7
  6
CONTINUOUS
 10
20.9111214488
 20
10.801391804
 11
20.9111214488
 21
11.411391804
  0
LINE
  5
2CE
100
AcDbEntity
  8
0
100
AcDbLine
 62
7
  6
CONTINUOUS
 10
20.4967057474
 20
9.801391804
 11
20.4154240768
 21
7.6367325769
  0
LINE
  5
2CF
100
AcDbEntity
  8
0
100
AcDbLine
 62
7
  6
CONTINUOUS
 10
21.647883613
 20
9.801391804
 11
21.7291652836
 21
7.6367325769
  0
LINE
  5
2D0
100
AcDbEntity
  8
0
100
AcDbLine
 62
7
  6
CONTINUOUS
 10
21.2334679117
 20
10.801391804
 11
21.2334679117
 21
11.411391804
  0
LINE
  5
2D1
100
AcDbEntity
  8
0
100
AcDbLine
 62
7
  6
CONTINUOUS
 10
21.7116637237
 20
10.801391804
 11
21.7116637237
 21
11.411391804
  0
LINE
  5
2D2
100
AcDbEntity
  8
0
100
AcDbLine
 62
7
  6
CONTINUOUS
 10
21.8322946802
 20
10.4356525729
 11
21.8322946802
 21
9.8762249518
  0
LINE
  5
2D3
100
AcDbEntity
  8
0
100
AcDbLine
 62
7
  6
CONTINUOUS
 10
21.9395970936
 20
10.801391804
 11
21.9395970936
 21
11.411391804
  0
LINE
  5
2D4
100
AcDbEntity
  8
0
100
AcDbLine
 62
7
  6
CONTINUOUS
 10
22.0847946802
 20
6.5823592717
 11
22.0847946802
 21
6.333391804
  0
LINE
  5
2D5
100
AcDbEntity
  8
0
100
AcDbLine
 62
7
  6
CONTINUOUS
 10
22.1376722844
 20
10.801391804
 11
22.1376722844
 21
11.411391804
  0
LINE
  5
2D6
100
AcDbEntity
  8
0
100
AcDbLine
 62
7
  6
CONTINUOUS
 10
21.7116637237
 20
10.801391804
 11
21.7108228177
 21
10.7854665881
  0
ARC
  5
2D7
100
AcDbEntity
  8
0
100
AcDbCircle
 62
7
  6
CONTINUOUS
 10
4.0798898386
 20
6.4434206477
 40
1.0
100
AcDbArc
 50
55.0819064989
 51
90.0
  0
ARC
  5
2D8
100
AcDbEntity
  8
0
100
AcDbCircle
 62
7
  6
CONTINUOUS
 10
4.0646995219
 20
6.4434206477
 40
1.0
100
AcDbArc
 50
90.0
 51
124.9180935011
  0
ARC
  5
2D9
100
AcDbEntity
  8
0
100
AcDbCircle
 62
7
  6
CONTINUOUS
 10
2.8217187977
 20
6.3975168268
 40
0.938
100
AcDbArc
 50
13.675418161
 51
44.3650233311
  0
ARC
  5
2DA
100
AcDbEntity
  8
0
100
AcDbCircle
 62
7
  6
CONTINUOUS
 10
5.3228705628
 20
6.3975168268
 40
0.938
100
AcDbArc
 50
135.6349766689
 51
166.324581839
  0
ARC
  5
2DB
100
AcDbEntity
  8
0
100
AcDbCircle
 62
7
  6
CONTINUOUS
 10
0.1635150865
 20
6.1504967643
 40
0.9
100
AcDbArc
 50
130.6439171763
 51
168.2748731243
  0
ARC
  5
2DC
100
AcDbEntity
  8
0
100
AcDbCircle
 62
7
  6
CONTINUOUS
 10
-0.0189257261
 20
6.1504967643
 40
0.9
100
AcDbArc
 50
11.7251268757
 51
49.3560828237
  0
ARC
  5
2DD
100
AcDbEntity
  8
0
100
AcDbCircle
 62
7
  6
CONTINUOUS
 10
11.0197557781
 20
8.0443951326
 40
0.625
100
AcDbArc
 50
325.0110095299
 51
355.1903004544
  0
ARC
  5
2DE
100
AcDbEntity
  8
0
100
AcDbCircle
 62
7
  6
CONTINUOUS
 10
0.0097946802
 20
6.913391804
 40
0.4
100
AcDbArc
 50
155.7790568908
 51
180.0
  0
ARC
  5
2DF
100
AcDbEntity
  8
0
100
AcDbCircle
 62
7
  6
CONTINUOUS
 10
0.1347946802
 20
6.913391804
 40
0.4
100
AcDbArc
 50
0.0
 51
24.2209431092
  0
ARC
  5
2E0
100
AcDbEntity
  8
0
100
AcDbCircle
 62
7
  6
CONTINUOUS
 10
11.6247698013
 20
7.4631274008
 40
0.2039751211
100
AcDbArc
 50
145.0110095298
 51
213.0478355063
  0
ARC
  5
2E1
100
AcDbEntity
  8
0
100
AcDbCircle
 62
7
  6
CONTINUOUS
 10
11.0794307913
 20
6.333391804
 40
0.1871361111
100
AcDbArc
 50
92.1854050713
 51
180.0
  0
ARC
  5
2E2
100
AcDbEntity
  8
0
100
AcDbCircle
 62
7
  6
CONTINUOUS
 10
4.5518718926
 20
6.271391804
 40
0.187
100
AcDbArc
 50
19.3629299219
 51
90.0
  0
ARC
  5
2E3
100
AcDbEntity
  8
0
100
AcDbCircle
 62
7
  6
CONTINUOUS
 10
3.5927174679
 20
6.271391804
 40
0.187
100
AcDbArc
 50
90.0
 51
160.6370700781
  0
ARC
  5
2E4
100
AcDbEntity
  8
0
100
AcDbCircle
 62
7
  6
CONTINUOUS
 10
3.7799674679
 20
6.396391804
 40
0.187
100
AcDbArc
 50
90.0
 51
160.6370700781
  0
ARC
  5
2E5
100
AcDbEntity
  8
0
100
AcDbCircle
 62
7
  6
CONTINUOUS
 10
4.3646218926
 20
6.396391804
 40
0.187
100
AcDbArc
 50
19.3629299219
 51
90.0
  0
ARC
  5
2E6
100
AcDbEntity
  8
0
100
AcDbCircle
 62
7
  6
CONTINUOUS
 10
11.2592920064
 20
6.521391804
 40
0.187
100
AcDbArc
 50
90.0
 51
180.3063960032
  0
ARC
  5
2E7
100
AcDbEntity
  8
0
100
AcDbCircle
 62
7
  6
CONTINUOUS
 10
11.3100201466
 20
7.2583527795
 40
0.1715245336
100
AcDbArc
 50
314.9173576842
 51
33.0478355063
  0
ARC
  5
2E8
100
AcDbEntity
  8
0
100
AcDbCircle
 62
7
  6
CONTINUOUS
 10
11.8145150619
 20
8.3028081204
 40
0.1230085692
100
AcDbArc
 50
132.9132414183
 51
134.2196763801
  0
ARC
  5
2E9
100
AcDbEntity
  8
0
100
AcDbCircle
 62
9
  6
CONTINUOUS
 10
11.7580601654
 20
8.3299525737
 40
0.0686103913
100
AcDbArc
 50
113.4478018388
 51
116.0089640335
  0
ARC
  5
2EA
100
AcDbEntity
  8
0
100
AcDbCircle
 62
7
  6
CONTINUOUS
 10
11.7107946802
 20
8.310391804
 40
0.06
100
AcDbArc
 50
0.0
 51
90.0
  0
ARC
  5
2EB
100
AcDbEntity
  8
0
100
AcDbCircle
 62
7
  6
CONTINUOUS
 10
4.3657946802
 20
6.630391804
 40
0.047
100
AcDbArc
 50
270.0
 51
346.3245818389
  0
ARC
  5
2EC
100
AcDbEntity
  8
0
100
AcDbCircle
 62
7
  6
CONTINUOUS
 10
3.7787946802
 20
6.630391804
 40
0.047
100
AcDbArc
 50
193.6754181611
 51
270.0
  0
ARC
  5
2ED
100
AcDbEntity
  8
0
100
AcDbCircle
 62
7
  6
CONTINUOUS
 10
11.6734457917
 20
7.989391804
 40
0.031
100
AcDbArc
 50
90.0
 51
175.1903004544
  0
ARC
  5
2EE
100
AcDbEntity
  8
0
100
AcDbCircle
 62
7
  6
CONTINUOUS
 10
-0.3458737046
 20
7.073391804
 40
0.01
100
AcDbArc
 50
90.0
 51
155.7790568908
  0
ARC
  5
2EF
100
AcDbEntity
  8
0
100
AcDbCircle
 62
7
  6
CONTINUOUS
 10
0.4904630651
 20
7.073391804
 40
0.01
100
AcDbArc
 50
24.2209431092
 51
90.0
  0
ARC
  5
2F0
100
AcDbEntity
  8
0
100
AcDbCircle
 62
7
  6
CONTINUOUS
 10
11.2755577868
 20
8.8015119802
 40
0.1288798254
100
AcDbArc
 50
75.983607971
 51
89.990999812
  0
ARC
  5
2F1
100
AcDbEntity
  8
0
100
AcDbCircle
 62
7
  6
CONTINUOUS
 10
11.5322946802
 20
8.925391804
 40
0.01
100
AcDbArc
 50
90.0
 51
180.0
  0
ARC
  5
2F2
100
AcDbEntity
  8
0
100
AcDbCircle
 62
7
  6
CONTINUOUS
 10
11.5708408611
 20
9.4639094295
 40
0.2668851224
100
AcDbArc
 50
304.1793974407
 51
304.7091354542
  0
ARC
  5
2F3
100
AcDbEntity
  8
0
100
AcDbCircle
 62
7
  6
CONTINUOUS
 10
11.5647946802
 20
9.0514020092
 40
0.05
100
AcDbArc
 50
101.5369590328
 51
180.0
  0
ARC
  5
2F4
100
AcDbEntity
  8
0
100
AcDbCircle
 62
7
  6
CONTINUOUS
 10
11.5297946802
 20
8.965391804
 40
0.015
100
AcDbArc
 50
180.0
 51
270.0
  0
ARC
  5
2F5
100
AcDbEntity
  8
0
100
AcDbCircle
 62
7
  6
CONTINUOUS
 10
11.9550276737
 20
8.8480688716
 40
0.4514186298
100
AcDbArc
 50
118.8151226409
 51
119.0658052409
  0
ARC
  5
2F6
100
AcDbEntity
  8
0
100
AcDbCircle
 62
7
  6
CONTINUOUS
 10
11.9550793501
 20
8.8477258273
 40
0.4506704488
100
AcDbArc
 50
118.8749699224
 51
119.1262079898
  0
ARC
  5
2F7
100
AcDbEntity
  8
0
100
AcDbCircle
 62
7
  6
CONTINUOUS
 10
11.9545494132
 20
8.8489397546
 40
0.4504250656
100
AcDbArc
 50
118.3131240443
 51
118.8152130224
  0
ARC
  5
2F8
100
AcDbEntity
  8
0
100
AcDbCircle
 62
7
  6
CONTINUOUS
 10
11.9545991502
 20
8.8485980852
 40
0.4496747454
100
AcDbArc
 50
118.3718437793
 51
118.8750608879
  0
ARC
  5
2F9
100
AcDbEntity
  8
0
100
AcDbCircle
 62
9
  6
CONTINUOUS
 10
11.7808634936
 20
8.451623802
 40
0.0799903053
100
AcDbArc
 50
228.6083571373
 51
229.3208397944
  0
ARC
  5
2FA
100
AcDbEntity
  8
0
100
AcDbCircle
 62
7
  6
CONTINUOUS
 10
11.7817645616
 20
9.0670111393
 40
0.1711600053
100
AcDbArc
 50
84.055372631
 51
85.1671215354
  0
ARC
  5
2FB
100
AcDbEntity
  8
0
100
AcDbCircle
 62
7
  6
CONTINUOUS
 10
11.7819469931
 20
9.067015097
 40
0.1711556984
100
AcDbArc
 50
93.6226919247
 51
96.5373838156
  0
ARC
  5
2FC
100
AcDbEntity
  8
0
100
AcDbCircle
 62
7
  6
CONTINUOUS
 10
11.7818226583
 20
9.0676989854
 40
0.17046971
100
AcDbArc
 50
85.1671011427
 51
87.4241789723
  0
ARC
  5
2FD
100
AcDbEntity
  8
0
100
AcDbCircle
 62
7
  6
CONTINUOUS
 10
11.7818719682
 20
9.0680536248
 40
0.1701145056
100
AcDbArc
 50
92.1830473919
 51
93.6195748269
  0
ARC
  5
2FE
100
AcDbEntity
  8
0
100
AcDbCircle
 62
7
  6
CONTINUOUS
 10
11.8028905381
 20
9.1370972329
 40
0.1336142342
100
AcDbArc
 50
124.7051152178
 51
125.0843221885
  0
ARC
  5
2FF
100
AcDbEntity
  8
0
100
AcDbCircle
 62
7
  6
CONTINUOUS
 10
11.8025307019
 20
9.1376299887
 40
0.1329713856
100
AcDbArc
 50
124.3346201787
 51
124.7083499446
  0
ARC
  5
300
100
AcDbEntity
  8
0
100
AcDbCircle
 62
7
  6
CONTINUOUS
 10
11.7994638443
 20
9.1421150607
 40
0.1275380185
100
AcDbArc
 50
123.9583113944
 51
124.3333677294
  0
ARC
  5
301
100
AcDbEntity
  8
0
100
AcDbCircle
 62
7
  6
CONTINUOUS
 10
11.6796770409
 20
9.094969998
 40
0.125
100
AcDbArc
 50
105.0
 51
177.5140472804
  0
ARC
  5
302
100
AcDbEntity
  8
0
100
AcDbCircle
 62
7
  6
CONTINUOUS
 10
11.7884698263
 20
9.1574227708
 40
0.1086930111
100
AcDbArc
 50
125.0222102528
 51
126.4257893756
  0
ARC
  5
303
100
AcDbEntity
  8
0
100
AcDbCircle
 62
7
  6
CONTINUOUS
 10
11.7394261769
 20
9.1687840711
 40
0.069383822
100
AcDbArc
 50
81.2971342902
 51
89.7248075647
  0
ARC
  5
304
100
AcDbEntity
  8
0
100
AcDbCircle
 62
7
  6
CONTINUOUS
 10
11.7394382688
 20
9.1690896985
 40
0.0690781407
100
AcDbArc
 50
89.733619373
 51
94.0521375255
  0
ARC
  5
305
100
AcDbEntity
  8
0
100
AcDbCircle
 62
7
  6
CONTINUOUS
 10
11.6886739486
 20
9.3097945909
 40
0.0770077858
100
AcDbArc
 50
304.3366054175
 51
305.0666143462
  0
ARC
  5
306
100
AcDbEntity
  8
0
100
AcDbCircle
 62
7
  6
CONTINUOUS
 10
11.7950177782
 20
9.2006703978
 40
0.0750224921
100
AcDbArc
 50
83.1700822604
 51
86.9079662021
  0
ARC
  5
307
100
AcDbEntity
  8
0
100
AcDbCircle
 62
7
  6
CONTINUOUS
 10
11.7950865057
 20
9.2010003236
 40
0.0746914686
100
AcDbArc
 50
91.9315691674
 51
96.9287137374
  0
ARC
  5
308
100
AcDbEntity
  8
0
100
AcDbCircle
 62
7
  6
CONTINUOUS
 10
11.7950694414
 20
9.2022145672
 40
0.0746253942
100
AcDbArc
 50
81.9221474036
 51
96.9216806611
  0
ARC
  5
309
100
AcDbEntity
  8
0
100
AcDbCircle
 62
7
  6
CONTINUOUS
 10
11.6900764578
 20
9.306430722
 40
0.0744455815
100
AcDbArc
 50
305.1320394554
 51
305.8056586988
  0
ARC
  5
30A
100
AcDbEntity
  8
0
100
AcDbCircle
 62
7
  6
CONTINUOUS
 10
11.7950620675
 20
9.2013381886
 40
0.0743532849
100
AcDbArc
 50
86.9142882767
 51
88.3070475759
  0
ARC
  5
30B
100
AcDbEntity
  8
0
100
AcDbCircle
 62
7
  6
CONTINUOUS
 10
11.7950667636
 20
9.20145956
 40
0.0742318278
100
AcDbArc
 50
88.3079030452
 51
91.9282873002
  0
ARC
  5
30C
100
AcDbEntity
  8
0
100
AcDbCircle
 62
7
  6
CONTINUOUS
 10
11.7607149259
 20
9.180467394
 40
0.0737134382
100
AcDbArc
 50
87.9246434719
 51
89.0266414867
  0
ARC
  5
30D
100
AcDbEntity
  8
0
100
AcDbCircle
 62
7
  6
CONTINUOUS
 10
11.6906402287
 20
9.3055559281
 40
0.0734057337
100
AcDbArc
 50
302.9862972895
 51
305.165090152
  0
ARC
  5
30E
100
AcDbEntity
  8
0
100
AcDbCircle
 62
7
  6
CONTINUOUS
 10
11.6918126997
 20
9.3051407138
 40
0.0713944857
100
AcDbArc
 50
302.9133508928
 51
304.3632896579
  0
ARC
  5
30F
100
AcDbEntity
  8
0
100
AcDbCircle
 62
7
  6
CONTINUOUS
 10
11.7477838557
 20
9.1746116553
 40
0.0700103004
100
AcDbArc
 50
89.6182460581
 51
94.3313922302
  0
ARC
  5
310
100
AcDbEntity
  8
0
100
AcDbCircle
 62
7
  6
CONTINUOUS
 10
11.7477788572
 20
9.1747143345
 40
0.069907657
100
AcDbArc
 50
87.2882169964
 51
89.6135887353
  0
ARC
  5
311
100
AcDbEntity
  8
0
100
AcDbCircle
 62
7
  6
CONTINUOUS
 10
11.7477836833
 20
9.1735641466
 40
0.0698346842
100
AcDbArc
 50
89.6396703709
 51
94.3421636032
  0
ARC
  5
312
100
AcDbEntity
  8
0
100
AcDbCircle
 62
7
  6
CONTINUOUS
 10
11.7477789602
 20
9.1736620691
 40
0.0697367936
100
AcDbArc
 50
87.2816524803
 51
89.6352839294
  0
ARC
  5
313
100
AcDbEntity
  8
0
100
AcDbCircle
 62
7
  6
CONTINUOUS
 10
11.7607183647
 20
9.1847145531
 40
0.0694668676
100
AcDbArc
 50
88.9699697027
 51
93.1101687522
  0
ARC
  5
314
100
AcDbEntity
  8
0
100
AcDbCircle
 62
7
  6
CONTINUOUS
 10
11.760881516
 20
9.1851738216
 40
0.069004065
100
AcDbArc
 50
87.0427444577
 51
87.9213576956
  0
ARC
  5
315
100
AcDbEntity
  8
0
100
AcDbCircle
 62
7
  6
CONTINUOUS
 10
11.6937777978
 20
9.301292177
 40
0.0681127669
100
AcDbArc
 50
305.8093884041
 51
306.5080822387
  0
ARC
  5
316
100
AcDbEntity
  8
0
100
AcDbCircle
 62
7
  6
CONTINUOUS
 10
11.7852126963
 20
9.2032125908
 40
0.0672575899
100
AcDbArc
 50
87.476770195
 51
88.8454792401
  0
ARC
  5
317
100
AcDbEntity
  8
0
100
AcDbCircle
 62
7
  6
CONTINUOUS
 10
11.6973305727
 20
9.295280184
 40
0.0611439533
100
AcDbArc
 50
302.4196900386
 51
302.9700338329
  0
ARC
  5
318
100
AcDbEntity
  8
0
100
AcDbCircle
 62
7
  6
CONTINUOUS
 10
11.6990116361
 20
9.294213491
 40
0.0593093111
100
AcDbArc
 50
306.5124766014
 51
307.2600576186
  0
ARC
  5
319
100
AcDbEntity
  8
0
100
AcDbCircle
 62
7
  6
CONTINUOUS
 10
11.7471814887
 20
9.2904114151
 40
0.0539450773
100
AcDbArc
 50
303.2875694336
 51
304.9216798081
  0
ARC
  5
31A
100
AcDbEntity
  8
0
100
AcDbCircle
 62
7
  6
CONTINUOUS
 10
11.7481411218
 20
9.2890310169
 40
0.0522638923
100
AcDbArc
 50
304.9253856431
 51
305.7547675698
  0
ARC
  5
31B
100
AcDbEntity
  8
0
100
AcDbCircle
 62
7
  6
CONTINUOUS
 10
11.7881902173
 20
9.2846046413
 40
0.0228996177
100
AcDbArc
 50
310.9651729809
 51
312.8998188263
  0
ARC
  5
31C
100
AcDbEntity
  8
0
100
AcDbCircle
 62
7
  6
CONTINUOUS
 10
11.7963219717
 20
9.2352511277
 40
0.0187416387
100
AcDbArc
 50
136.0387247363
 51
138.5670685831
  0
ARC
  5
31D
100
AcDbEntity
  8
0
100
AcDbCircle
 62
7
  6
CONTINUOUS
 10
11.7438840272
 20
9.2601826565
 40
0.0185223011
100
AcDbArc
 50
301.804050431
 51
306.8477947663
  0
ARC
  5
31E
100
AcDbEntity
  8
0
100
AcDbCircle
 62
7
  6
CONTINUOUS
 10
11.7174567864
 20
9.2229179675
 40
0.016192966
100
AcDbArc
 50
63.7189122745
 51
65.5050048661
  0
ARC
  5
31F
100
AcDbEntity
  8
0
100
AcDbCircle
 62
7
  6
CONTINUOUS
 10
11.717859144
 20
9.2238148593
 40
0.0152099747
100
AcDbArc
 50
65.4834601555
 51
68.72033636
  0
ARC
  5
320
100
AcDbEntity
  8
0
100
AcDbCircle
 62
7
  6
CONTINUOUS
 10
11.7190406444
 20
9.2251965293
 40
0.0137386532
100
AcDbArc
 50
104.6582847734
 51
108.824228762
  0
ARC
  5
321
100
AcDbEntity
  8
0
100
AcDbCircle
 62
7
  6
CONTINUOUS
 10
11.9505235424
 20
9.0296954614
 40
0.3026686507
100
AcDbArc
 50
73.8376997361
 51
76.3077570857
  0
ARC
  5
322
100
AcDbEntity
  8
0
100
AcDbCircle
 62
7
  6
CONTINUOUS
 10
11.9504149039
 20
9.0288035705
 40
0.3025363425
100
AcDbArc
 50
74.0692464757
 51
75.4581915224
  0
ARC
  5
323
100
AcDbEntity
  8
0
100
AcDbCircle
 62
7
  6
CONTINUOUS
 10
11.9510505475
 20
9.031226535
 40
0.3000313971
100
AcDbArc
 50
75.4595105526
 51
76.2886416088
  0
ARC
  5
324
100
AcDbEntity
  8
0
100
AcDbCircle
 62
7
  6
CONTINUOUS
 10
11.888955541
 20
9.0528868259
 40
0.2516670996
100
AcDbArc
 50
120.4526946875
 51
121.0190294549
  0
ARC
  5
325
100
AcDbEntity
  8
0
100
AcDbCircle
 62
7
  6
CONTINUOUS
 10
11.9216576201
 20
9.1063088953
 40
0.2233014749
100
AcDbArc
 50
138.3671578834
 51
138.7560002429
  0
ARC
  5
326
100
AcDbEntity
  8
0
100
AcDbCircle
 62
7
  6
CONTINUOUS
 10
11.8305083551
 20
9.0913557395
 40
0.1843396389
100
AcDbArc
 50
95.0331863569
 51
96.0743650953
  0
ARC
  5
327
100
AcDbEntity
  8
0
100
AcDbCircle
 62
7
  6
CONTINUOUS
 10
11.8303341019
 20
9.0926059955
 40
0.1842359173
100
AcDbArc
 50
84.4875575402
 51
86.1692200334
  0
ARC
  5
328
100
AcDbEntity
  8
0
100
AcDbCircle
 62
7
  6
CONTINUOUS
 10
11.8304447526
 20
9.0928032413
 40
0.1840378882
100
AcDbArc
 50
92.938879274
 51
96.0644493413
  0
ARC
  5
329
100
AcDbEntity
  8
0
100
AcDbCircle
 62
7
  6
CONTINUOUS
 10
11.8304436828
 20
9.0921019783
 40
0.1835906037
100
AcDbArc
 50
93.1867150088
 51
95.0335129988
  0
ARC
  5
32A
100
AcDbEntity
  8
0
100
AcDbCircle
 62
7
  6
CONTINUOUS
 10
11.8303544112
 20
9.0921056842
 40
0.1835868343
100
AcDbArc
 50
84.9323096219
 51
87.1716486537
  0
ARC
  5
32B
100
AcDbEntity
  8
0
100
AcDbCircle
 62
7
  6
CONTINUOUS
 10
11.8303829417
 20
9.0933098002
 40
0.1835304222
100
AcDbArc
 50
86.1697537302
 51
88.5269592804
  0
ARC
  5
32C
100
AcDbEntity
  8
0
100
AcDbCircle
 62
7
  6
CONTINUOUS
 10
11.8303920083
 20
9.0927851418
 40
0.1829063492
100
AcDbArc
 50
87.1729092328
 51
88.5247732524
  0
ARC
  5
32D
100
AcDbEntity
  8
0
100
AcDbCircle
 62
7
  6
CONTINUOUS
 10
11.8429099884
 20
9.227799399
 40
0.083045876
100
AcDbArc
 50
151.2906165548
 51
152.4668234568
  0
ARC
  5
32E
100
AcDbEntity
  8
0
100
AcDbCircle
 62
7
  6
CONTINUOUS
 10
11.820517817
 20
9.2354553844
 40
0.0185657084
100
AcDbArc
 50
135.7534677065
 51
138.4266814473
  0
ARC
  5
32F
100
AcDbEntity
  8
0
100
AcDbCircle
 62
7
  6
CONTINUOUS
 10
21.0722946802
 20
5.2959760049
 40
6.3904157991
100
AcDbArc
 50
81.821031102
 51
98.178968898
  0
ARC
  5
330
100
AcDbEntity
  8
0
100
AcDbCircle
 62
7
  6
CONTINUOUS
 10
20.7482746722
 20
6.7038598012
 40
1.3
100
AcDbArc
 50
357.7751307225
 51
37.4382101818
  0
ARC
  5
331
100
AcDbEntity
  8
0
100
AcDbCircle
 62
7
  6
CONTINUOUS
 10
21.3963146883
 20
6.7038598012
 40
1.3
100
AcDbArc
 50
142.5617898181
 51
182.2248692774
  0
ARC
  5
332
100
AcDbEntity
  8
0
100
AcDbCircle
 62
7
  6
CONTINUOUS
 10
13.1248335823
 20
8.0443951326
 40
0.625
100
AcDbArc
 50
184.8096995456
 51
214.9889904701
  0
ARC
  5
333
100
AcDbEntity
  8
0
100
AcDbCircle
 62
7
  6
CONTINUOUS
 10
20.1656001354
 20
7.6461133178
 40
0.25
100
AcDbArc
 50
322.5617898181
 51
357.849587733
  0
ARC
  5
334
100
AcDbEntity
  8
0
100
AcDbCircle
 62
7
  6
CONTINUOUS
 10
21.978989225
 20
7.6461133178
 40
0.25
100
AcDbArc
 50
182.150412267
 51
217.4382101818
  0
ARC
  5
335
100
AcDbEntity
  8
0
100
AcDbCircle
 62
7
  6
CONTINUOUS
 10
12.5198195592
 20
7.4631274008
 40
0.2039751211
100
AcDbArc
 50
326.9521644937
 51
34.9889904702
  0
ARC
  5
336
100
AcDbEntity
  8
0
100
AcDbCircle
 62
7
  6
CONTINUOUS
 10
13.0651585691
 20
6.333391804
 40
0.1871361111
100
AcDbArc
 50
0.0
 51
87.8145949287
  0
ARC
  5
337
100
AcDbEntity
  8
0
100
AcDbCircle
 62
7
  6
CONTINUOUS
 10
12.885297354
 20
6.521391804
 40
0.187
100
AcDbArc
 50
359.6936039968
 51
90.0
  0
ARC
  5
338
100
AcDbEntity
  8
0
100
AcDbCircle
 62
7
  6
CONTINUOUS
 10
12.8345692139
 20
7.2583527795
 40
0.1715245336
100
AcDbArc
 50
146.9521644937
 51
225.0826423158
  0
ARC
  5
339
100
AcDbEntity
  8
0
100
AcDbCircle
 62
7
  6
CONTINUOUS
 10
20.1458196223
 20
6.5823592717
 40
0.0860249421
100
AcDbArc
 50
124.3384233779
 51
180.0
  0
ARC
  5
33A
100
AcDbEntity
  8
0
100
AcDbCircle
 62
7
  6
CONTINUOUS
 10
21.9987697382
 20
6.5823592717
 40
0.0860249421
100
AcDbArc
 50
0.0
 51
55.6615766221
  0
ARC
  5
33B
100
AcDbEntity
  8
0
100
AcDbCircle
 62
7
  6
CONTINUOUS
 10
12.4337946802
 20
8.310391804
 40
0.06
100
AcDbArc
 50
90.0
 51
180.0
  0
ARC
  5
33C
100
AcDbEntity
  8
0
100
AcDbCircle
 62
7
  6
CONTINUOUS
 10
12.4711435687
 20
7.989391804
 40
0.031
100
AcDbArc
 50
4.8096995456
 51
90.0
  0
ARC
  5
33D
100
AcDbEntity
  8
0
100
AcDbCircle
 62
7
  6
CONTINUOUS
 10
12.0478473974
 20
8.7650508697
 40
0.5773948199
100
AcDbArc
 50
123.9721394328
 51
124.3871640314
  0
ARC
  5
33E
100
AcDbEntity
  8
0
100
AcDbCircle
 62
7
  6
CONTINUOUS
 10
12.0476939313
 20
8.7652786053
 40
0.5771202013
100
AcDbArc
 50
123.7095922916
 51
123.9044665285
  0
ARC
  5
33F
100
AcDbEntity
  8
0
100
AcDbCircle
 62
7
  6
CONTINUOUS
 10
12.0475303799
 20
8.7655243815
 40
0.5768249809
100
AcDbArc
 50
123.273217079
 51
123.6424823419
  0
ARC
  5
340
100
AcDbEntity
  8
0
100
AcDbCircle
 62
7
  6
CONTINUOUS
 10
12.0479206385
 20
8.7671400109
 40
0.5762108691
100
AcDbArc
 50
120.2089008074
 51
121.464034083
  0
ARC
  5
341
100
AcDbEntity
  8
0
100
AcDbCircle
 62
7
  6
CONTINUOUS
 10
12.0471425229
 20
8.7661200139
 40
0.5761141973
100
AcDbArc
 50
121.8072078011
 51
123.0958939376
  0
ARC
  5
342
100
AcDbEntity
  8
0
100
AcDbCircle
 62
7
  6
CONTINUOUS
 10
12.0468395375
 20
8.7666056701
 40
0.5755417815
100
AcDbArc
 50
121.3805312863
 51
121.8070571105
  0
ARC
  5
343
100
AcDbEntity
  8
0
100
AcDbCircle
 62
7
  6
CONTINUOUS
 10
12.0475092167
 20
8.7678441983
 40
0.5753953041
100
AcDbArc
 50
119.17907565
 51
120.2087778779
  0
ARC
  5
344
100
AcDbEntity
  8
0
100
AcDbCircle
 62
7
  6
CONTINUOUS
 10
12.0473269123
 20
8.7681687911
 40
0.5750230212
100
AcDbArc
 50
118.9565408394
 51
119.178984207
  0
ARC
  5
345
100
AcDbEntity
  8
0
100
AcDbCircle
 62
7
  6
CONTINUOUS
 10
12.0477775233
 20
8.7673364565
 40
0.5749542283
100
AcDbArc
 50
120.2696765
 51
120.6666775348
  0
ARC
  5
346
100
AcDbEntity
  8
0
100
AcDbCircle
 62
7
  6
CONTINUOUS
 10
12.0476160293
 20
8.7676132064
 40
0.5746338054
100
AcDbArc
 50
119.7799675116
 51
120.2696790061
  0
ARC
  5
347
100
AcDbEntity
  8
0
100
AcDbCircle
 62
7
  6
CONTINUOUS
 10
12.0471224735
 20
8.7685403693
 40
0.5745989168
100
AcDbArc
 50
117.9362405697
 51
118.9566422237
  0
ARC
  5
348
100
AcDbEntity
  8
0
100
AcDbCircle
 62
7
  6
CONTINUOUS
 10
12.0474211814
 20
8.7679542885
 40
0.5742409912
100
AcDbArc
 50
119.1764360328
 51
119.7097792614
  0
ARC
  5
349
100
AcDbEntity
  8
0
100
AcDbCircle
 62
7
  6
CONTINUOUS
 10
12.046870891
 20
8.7690122547
 40
0.5740641569
100
AcDbArc
 50
117.7074646034
 51
117.9361215571
  0
ARC
  5
34A
100
AcDbEntity
  8
0
100
AcDbCircle
 62
7
  6
CONTINUOUS
 10
12.0418676107
 20
8.8004019159
 40
0.5603223846
100
AcDbArc
 50
51.191003884
 51
51.9072576998
  0
ARC
  5
34B
100
AcDbEntity
  8
0
100
AcDbCircle
 62
7
  6
CONTINUOUS
 10
12.0427024101
 20
8.8014645005
 40
0.5589710985
100
AcDbArc
 50
51.9074064597
 51
52.2629330489
  0
ARC
  5
34C
100
AcDbEntity
  8
0
100
AcDbCircle
 62
7
  6
CONTINUOUS
 10
12.0500302551
 20
8.8020410804
 40
0.5585734933
100
AcDbArc
 50
52.1664241149
 51
52.5575584952
  0
ARC
  5
34D
100
AcDbEntity
  8
0
100
AcDbCircle
 62
7
  6
CONTINUOUS
 10
12.0500181781
 20
8.8018900152
 40
0.5577318205
100
AcDbArc
 50
52.0976708382
 51
52.5667738669
  0
ARC
  5
34E
100
AcDbEntity
  8
0
100
AcDbCircle
 62
7
  6
CONTINUOUS
 10
12.0472644099
 20
8.8048263874
 40
0.5549040123
100
AcDbArc
 50
53.0638597764
 51
54.3080953455
  0
ARC
  5
34F
100
AcDbEntity
  8
0
100
AcDbCircle
 62
7
  6
CONTINUOUS
 10
12.0482636328
 20
8.8062132805
 40
0.5531946519
100
AcDbArc
 50
54.3083423346
 51
54.6607294307
  0
ARC
  5
350
100
AcDbEntity
  8
0
100
AcDbCircle
 62
7
  6
CONTINUOUS
 10
12.0492878873
 20
8.8076680878
 40
0.5514154415
100
AcDbArc
 50
54.9572565017
 51
55.5283494126
  0
ARC
  5
351
100
AcDbEntity
  8
0
100
AcDbCircle
 62
7
  6
CONTINUOUS
 10
12.0498316125
 20
8.8429005854
 40
0.5113884545
100
AcDbArc
 50
126.0952014493
 51
127.5145988285
  0
ARC
  5
352
100
AcDbEntity
  8
0
100
AcDbCircle
 62
7
  6
CONTINUOUS
 10
12.0433065924
 20
8.84210436
 40
0.5099368413
100
AcDbArc
 50
126.9556501702
 51
127.2112485859
  0
ARC
  5
353
100
AcDbEntity
  8
0
100
AcDbCircle
 62
7
  6
CONTINUOUS
 10
12.0433240082
 20
8.8418516225
 40
0.5091819137
100
AcDbArc
 50
126.9412532489
 51
127.2782446304
  0
ARC
  5
354
100
AcDbEntity
  8
0
100
AcDbCircle
 62
7
  6
CONTINUOUS
 10
12.0421926579
 20
8.8435903316
 40
0.5080797023
100
AcDbArc
 50
126.298636249
 51
126.8735352586
  0
ARC
  5
355
100
AcDbEntity
  8
0
100
AcDbCircle
 62
7
  6
CONTINUOUS
 10
12.0476712938
 20
8.8458354284
 40
0.5077442809
100
AcDbArc
 50
125.8631076559
 51
126.0933257547
  0
ARC
  5
356
100
AcDbEntity
  8
0
100
AcDbCircle
 62
7
  6
CONTINUOUS
 10
12.0421975877
 20
8.8433534407
 40
0.5073046052
100
AcDbArc
 50
126.3656049821
 51
126.8587957803
  0
ARC
  5
357
100
AcDbEntity
  8
0
100
AcDbCircle
 62
7
  6
CONTINUOUS
 10
12.0470194141
 20
8.846738472
 40
0.506630532
100
AcDbArc
 50
125.5893420795
 51
125.7637987113
  0
ARC
  5
358
100
AcDbEntity
  8
0
100
AcDbCircle
 62
7
  6
CONTINUOUS
 10
12.0313072012
 20
8.8406940457
 40
0.506464529
100
AcDbArc
 50
126.9513688432
 51
127.6148151889
  0
ARC
  5
359
100
AcDbEntity
  8
0
100
AcDbCircle
 62
7
  6
CONTINUOUS
 10
12.0462715521
 20
8.8477867253
 40
0.5053428458
100
AcDbArc
 50
125.2070338015
 51
125.4479655895
  0
ARC
  5
35A
100
AcDbEntity
  8
0
100
AcDbCircle
 62
7
  6
CONTINUOUS
 10
11.9945251833
 20
8.8111337789
 40
0.50522487
100
AcDbArc
 50
117.0530095348
 51
117.314141541
  0
ARC
  5
35B
100
AcDbEntity
  8
0
100
AcDbCircle
 62
7
  6
CONTINUOUS
 10
12.040489907
 20
8.8459146196
 40
0.5051984419
100
AcDbArc
 50
125.4805847085
 51
126.2990496875
  0
ARC
  5
35C
100
AcDbEntity
  8
0
100
AcDbCircle
 62
7
  6
CONTINUOUS
 10
12.0404638169
 20
8.845717217
 40
0.5043731603
100
AcDbArc
 50
125.4488402131
 51
126.3662239051
  0
ARC
  5
35D
100
AcDbEntity
  8
0
100
AcDbCircle
 62
7
  6
CONTINUOUS
 10
11.9945530648
 20
8.8109317364
 40
0.5043633703
100
AcDbArc
 50
117.1065583935
 51
117.3683667749
  0
ARC
  5
35E
100
AcDbEntity
  8
0
100
AcDbCircle
 62
7
  6
CONTINUOUS
 10
12.0298779832
 20
8.842594319
 40
0.5040867747
100
AcDbArc
 50
126.4332794851
 51
126.8605468812
  0
ARC
  5
35F
100
AcDbEntity
  8
0
100
AcDbCircle
 62
7
  6
CONTINUOUS
 10
12.0451253173
 20
8.849417079
 40
0.5033498805
100
AcDbArc
 50
124.3064614478
 51
125.1302540888
  0
ARC
  5
360
100
AcDbEntity
  8
0
100
AcDbCircle
 62
7
  6
CONTINUOUS
 10
12.0393699114
 20
8.8472504125
 40
0.5024897288
100
AcDbArc
 50
125.1892543028
 51
125.448621739
  0
ARC
  5
361
100
AcDbEntity
  8
0
100
AcDbCircle
 62
7
  6
CONTINUOUS
 10
12.0384454632
 20
8.8487965868
 40
0.5016649587
100
AcDbArc
 50
124.4665267573
 51
125.4020201359
  0
ARC
  5
362
100
AcDbEntity
  8
0
100
AcDbCircle
 62
7
  6
CONTINUOUS
 10
12.0385584283
 20
8.8484038532
 40
0.5010794333
100
AcDbArc
 50
124.7703559542
 51
125.0890678909
  0
ARC
  5
363
100
AcDbEntity
  8
0
100
AcDbCircle
 62
7
  6
CONTINUOUS
 10
12.0379700163
 20
8.8492510063
 40
0.5000479794
100
AcDbArc
 50
124.5276492143
 51
124.7703300641
  0
ARC
  5
364
100
AcDbEntity
  8
0
100
AcDbCircle
 62
7
  6
CONTINUOUS
 10
12.0432136882
 20
8.8522187477
 40
0.4999581642
100
AcDbArc
 50
123.5621315364
 51
124.1426962931
  0
ARC
  5
365
100
AcDbEntity
  8
0
100
AcDbCircle
 62
7
  6
CONTINUOUS
 10
12.0323788958
 20
8.8491563636
 40
0.4990171913
100
AcDbArc
 50
124.381209273
 51
124.8592046816
  0
ARC
  5
366
100
AcDbEntity
  8
0
100
AcDbCircle
 62
7
  6
CONTINUOUS
 10
12.0265494818
 20
8.8471737725
 40
0.49842556
100
AcDbArc
 50
124.2543495048
 51
126.3332291159
  0
ARC
  5
367
100
AcDbEntity
  8
0
100
AcDbCircle
 62
7
  6
CONTINUOUS
 10
12.026985629
 20
8.8463399032
 40
0.4983785533
100
AcDbArc
 50
125.0428581858
 51
125.6474060736
  0
ARC
  5
368
100
AcDbEntity
  8
0
100
AcDbCircle
 62
7
  6
CONTINUOUS
 10
12.0311253313
 20
8.8509920632
 40
0.4967943043
100
AcDbArc
 50
123.5361798753
 51
124.3048420028
  0
ARC
  5
369
100
AcDbEntity
  8
0
100
AcDbCircle
 62
7
  6
CONTINUOUS
 10
12.041298454
 20
8.8551248004
 40
0.4964777367
100
AcDbArc
 50
122.1475857745
 51
123.3176085795
  0
ARC
  5
36A
100
AcDbEntity
  8
0
100
AcDbCircle
 62
7
  6
CONTINUOUS
 10
12.0254068071
 20
8.8485963473
 40
0.495624609
100
AcDbArc
 50
124.2377915813
 51
125.0432059104
  0
ARC
  5
36B
100
AcDbEntity
  8
0
100
AcDbCircle
 62
7
  6
CONTINUOUS
 10
12.0240949085
 20
8.8507640524
 40
0.4940764218
100
AcDbArc
 50
123.6167410383
 51
124.1757051497
  0
ARC
  5
36C
100
AcDbEntity
  8
0
100
AcDbCircle
 62
7
  6
CONTINUOUS
 10
12.0396594367
 20
8.8577151087
 40
0.4934124487
100
AcDbArc
 50
121.8307640178
 51
122.0832688755
  0
ARC
  5
36D
100
AcDbEntity
  8
0
100
AcDbCircle
 62
7
  6
CONTINUOUS
 10
12.029205399
 20
8.8538882064
 40
0.493319569
100
AcDbArc
 50
122.2371585345
 51
123.5361425266
  0
ARC
  5
36E
100
AcDbEntity
  8
0
100
AcDbCircle
 62
7
  6
CONTINUOUS
 10
12.0268111845
 20
8.8576692305
 40
0.488844266
100
AcDbArc
 50
120.8723977728
 51
122.2361918695
  0
ARC
  5
36F
100
AcDbEntity
  8
0
100
AcDbCircle
 62
7
  6
CONTINUOUS
 10
12.0564346298
 20
8.7542713691
 40
0.5878805565
100
AcDbArc
 50
118.5547065324
 51
119.1506930822
  0
ARC
  5
370
100
AcDbEntity
  8
0
100
AcDbCircle
 62
7
  6
CONTINUOUS
 10
12.0563714748
 20
8.7543870226
 40
0.587748783
100
AcDbArc
 50
118.0836246792
 51
118.5546879344
  0
ARC
  5
371
100
AcDbEntity
  8
0
100
AcDbCircle
 62
7
  6
CONTINUOUS
 10
12.0563082761
 20
8.7545062398
 40
0.5876138503
100
AcDbArc
 50
117.37939395
 51
117.9642675444
  0
ARC
  5
372
100
AcDbEntity
  8
0
100
AcDbCircle
 62
7
  6
CONTINUOUS
 10
12.0564408982
 20
8.7542438215
 40
0.5868871752
100
AcDbArc
 50
118.6138634845
 51
119.2054994659
  0
ARC
  5
373
100
AcDbEntity
  8
0
100
AcDbCircle
 62
7
  6
CONTINUOUS
 10
12.0563766105
 20
8.7543615509
 40
0.5867530367
100
AcDbArc
 50
118.0827797324
 51
118.6138581184
  0
ARC
  5
374
100
AcDbEntity
  8
0
100
AcDbCircle
 62
7
  6
CONTINUOUS
 10
12.0563152552
 20
8.7544765986
 40
0.5866226508
100
AcDbArc
 50
117.5051791363
 51
118.0221220741
  0
ARC
  5
375
100
AcDbEntity
  8
0
100
AcDbCircle
 62
7
  6
CONTINUOUS
 10
12.0614769452
 20
8.761026646
 40
0.5951025381
100
AcDbArc
 50
53.0718742455
 51
53.9665116183
  0
ARC
  5
376
100
AcDbEntity
  8
0
100
AcDbCircle
 62
7
  6
CONTINUOUS
 10
12.0633238424
 20
8.762018548
 40
0.594095334
100
AcDbArc
 50
55.23967825
 51
55.5126030287
  0
ARC
  5
377
100
AcDbEntity
  8
0
100
AcDbCircle
 62
7
  6
CONTINUOUS
 10
12.0545838352
 20
8.7653338334
 40
0.5828296017
100
AcDbArc
 50
123.8433709425
 51
124.0702833755
  0
ARC
  5
378
100
AcDbEntity
  8
0
100
AcDbCircle
 62
7
  6
CONTINUOUS
 10
12.054262927
 20
8.7658154742
 40
0.582250847
100
AcDbArc
 50
122.6399511132
 51
123.8435385266
  0
ARC
  5
379
100
AcDbEntity
  8
0
100
AcDbCircle
 62
7
  6
CONTINUOUS
 10
12.0531307493
 20
8.7654101427
 40
0.5816894182
100
AcDbArc
 50
123.7274859397
 51
123.9562547778
  0
ARC
  5
37A
100
AcDbEntity
  8
0
100
AcDbCircle
 62
7
  6
CONTINUOUS
 10
12.0538410529
 20
8.7664708526
 40
0.5814714271
100
AcDbArc
 50
121.9889335127
 51
122.6397770337
  0
ARC
  5
37B
100
AcDbEntity
  8
0
100
AcDbCircle
 62
7
  6
CONTINUOUS
 10
12.0529428067
 20
8.7656924269
 40
0.5813502919
100
AcDbArc
 50
123.0831117224
 51
123.7275280147
  0
ARC
  5
37C
100
AcDbEntity
  8
0
100
AcDbCircle
 62
7
  6
CONTINUOUS
 10
12.0536531057
 20
8.7667716115
 40
0.581116772
100
AcDbArc
 50
121.5180560624
 51
121.9274301198
  0
ARC
  5
37D
100
AcDbEntity
  8
0
100
AcDbCircle
 62
7
  6
CONTINUOUS
 10
12.0535162274
 20
8.7669948864
 40
0.58085488
100
AcDbArc
 50
121.1737083743
 51
121.4569749309
  0
ARC
  5
37E
100
AcDbEntity
  8
0
100
AcDbCircle
 62
7
  6
CONTINUOUS
 10
12.0526408936
 20
8.7661560738
 40
0.5807970109
100
AcDbArc
 50
122.2107948782
 51
123.0831232771
  0
ARC
  5
37F
100
AcDbEntity
  8
0
100
AcDbCircle
 62
7
  6
CONTINUOUS
 10
12.0532111377
 20
8.7675032708
 40
0.5802619783
100
AcDbArc
 50
119.6551173223
 51
121.1128054554
  0
ARC
  5
380
100
AcDbEntity
  8
0
100
AcDbCircle
 62
7
  6
CONTINUOUS
 10
12.053492574
 20
8.76698997
 40
0.5798399152
100
AcDbArc
 50
121.1709620203
 51
121.4543701567
  0
ARC
  5
381
100
AcDbEntity
  8
0
100
AcDbCircle
 62
7
  6
CONTINUOUS
 10
12.0533573858
 20
8.767213705
 40
0.5795785089
100
AcDbArc
 50
120.834305706
 51
121.1096764903
  0
ARC
  5
382
100
AcDbEntity
  8
0
100
AcDbCircle
 62
7
  6
CONTINUOUS
 10
12.0527169023
 20
8.7683699107
 40
0.5792643146
100
AcDbArc
 50
118.5387546571
 51
119.6550475237
  0
ARC
  5
383
100
AcDbEntity
  8
0
100
AcDbCircle
 62
7
  6
CONTINUOUS
 10
12.0724534996
 20
8.7467627372
 40
0.6086685787
100
AcDbArc
 50
118.8639038581
 51
119.4697977022
  0
ARC
  5
384
100
AcDbEntity
  8
0
100
AcDbCircle
 62
7
  6
CONTINUOUS
 10
12.0724591256
 20
8.7468285302
 40
0.6086154435
100
AcDbArc
 50
126.2784850443
 51
128.8739552206
  0
ARC
  5
385
100
AcDbEntity
  8
0
100
AcDbCircle
 62
7
  6
CONTINUOUS
 10
12.072194556
 20
8.7468739562
 40
0.6085430983
100
AcDbArc
 50
60.4524881445
 51
61.9218024598
  0
ARC
  5
386
100
AcDbEntity
  8
0
100
AcDbCircle
 62
7
  6
CONTINUOUS
 10
12.0722644769
 20
8.7470017898
 40
0.6083964253
100
AcDbArc
 50
51.0883756641
 51
53.6660925058
  0
ARC
  5
387
100
AcDbEntity
  8
0
100
AcDbCircle
 62
7
  6
CONTINUOUS
 10
12.072291588
 20
8.7470276029
 40
0.6083643552
100
AcDbArc
 50
83.3825896532
 51
84.6471254333
  0
ARC
  5
388
100
AcDbEntity
  8
0
100
AcDbCircle
 62
7
  6
CONTINUOUS
 10
12.0722942884
 20
8.74705861
 40
0.6083332437
100
AcDbArc
 50
61.9219850987
 51
83.3455833094
  0
ARC
  5
389
100
AcDbEntity
  8
0
100
AcDbCircle
 62
7
  6
CONTINUOUS
 10
12.0722931876
 20
8.7470655931
 40
0.6083259601
100
AcDbArc
 50
95.3533979132
 51
118.8644262919
  0
ARC
  5
38A
100
AcDbEntity
  8
0
100
AcDbCircle
 62
7
  6
CONTINUOUS
 10
12.0722946802
 20
8.7470584707
 40
0.6082338731
100
AcDbArc
 50
53.7096386881
 51
54.7545278885
  0
ARC
  5
38B
100
AcDbEntity
  8
0
100
AcDbCircle
 62
7
  6
CONTINUOUS
 10
12.0723408573
 20
8.747757017
 40
0.6076648161
100
AcDbArc
 50
122.0849920798
 51
122.4294489726
  0
ARC
  5
38C
100
AcDbEntity
  8
0
100
AcDbCircle
 62
7
  6
CONTINUOUS
 10
12.0723268786
 20
8.74777951
 40
0.6076383331
100
AcDbArc
 50
121.011467413
 51
121.9539911493
  0
ARC
  5
38D
100
AcDbEntity
  8
0
100
AcDbCircle
 62
7
  6
CONTINUOUS
 10
12.0724357862
 20
8.7478167103
 40
0.6076025336
100
AcDbArc
 50
119.5707683686
 51
120.4416049135
  0
ARC
  5
38E
100
AcDbEntity
  8
0
100
AcDbCircle
 62
7
  6
CONTINUOUS
 10
12.0722946802
 20
8.7470584707
 40
0.607593157
100
AcDbArc
 50
53.6652593487
 51
54.7118236851
  0
ARC
  5
38F
100
AcDbEntity
  8
0
100
AcDbCircle
 62
7
  6
CONTINUOUS
 10
12.0717428616
 20
8.7477368458
 40
0.6074585185
100
AcDbArc
 50
122.4916945053
 51
124.2693536281
  0
ARC
  5
390
100
AcDbEntity
  8
0
100
AcDbCircle
 62
7
  6
CONTINUOUS
 10
12.071736008
 20
8.7477471383
 40
0.6074461558
100
AcDbArc
 50
121.7053447069
 51
122.2975416642
  0
ARC
  5
391
100
AcDbEntity
  8
0
100
AcDbCircle
 62
7
  6
CONTINUOUS
 10
12.0717142799
 20
8.7477825347
 40
0.6074046226
100
AcDbArc
 50
121.0245085531
 51
121.6468860162
  0
ARC
  5
392
100
AcDbEntity
  8
0
100
AcDbCircle
 62
7
  6
CONTINUOUS
 10
12.0722946802
 20
8.7470584707
 40
0.6073824532
100
AcDbArc
 50
83.3820337346
 51
85.2780418942
  0
ARC
  5
393
100
AcDbEntity
  8
0
100
AcDbCircle
 62
7
  6
CONTINUOUS
 10
12.0715666061
 20
8.7478105527
 40
0.6072806923
100
AcDbArc
 50
119.480534145
 51
120.459809932
  0
ARC
  5
394
100
AcDbEntity
  8
0
100
AcDbCircle
 62
7
  6
CONTINUOUS
 10
12.0722946802
 20
8.7470584707
 40
0.6063808851
100
AcDbArc
 50
83.3710537487
 51
85.2702248174
  0
ARC
  5
395
100
AcDbEntity
  8
0
100
AcDbCircle
 62
7
  6
CONTINUOUS
 10
12.0721819882
 20
8.7549827459
 40
0.6007942407
100
AcDbArc
 50
125.9446173071
 51
126.4112935613
  0
ARC
  5
396
100
AcDbEntity
  8
0
100
AcDbCircle
 62
7
  6
CONTINUOUS
 10
12.0693310856
 20
8.7549194229
 40
0.5999803386
100
AcDbArc
 50
126.2385406059
 51
126.472631682
  0
ARC
  5
397
100
AcDbEntity
  8
0
100
AcDbCircle
 62
7
  6
CONTINUOUS
 10
12.0692795532
 20
8.7549897361
 40
0.5998931633
100
AcDbArc
 50
126.0049698884
 51
126.238540746
  0
ARC
  5
398
100
AcDbEntity
  8
0
100
AcDbCircle
 62
7
  6
CONTINUOUS
 10
12.069229165
 20
8.7550590662
 40
0.5998074566
100
AcDbArc
 50
125.7719192559
 51
126.0049692853
  0
ARC
  5
399
100
AcDbEntity
  8
0
100
AcDbCircle
 62
7
  6
CONTINUOUS
 10
12.0722946802
 20
8.7470584707
 40
0.5965806269
100
AcDbArc
 50
83.2616568067
 51
85.1923456147
  0
ARC
  5
39A
100
AcDbEntity
  8
0
100
AcDbCircle
 62
7
  6
CONTINUOUS
 10
12.0722946802
 20
8.7470584707
 40
0.5955608934
100
AcDbArc
 50
83.2500656279
 51
85.1840944106
  0
ARC
  5
39B
100
AcDbEntity
  8
0
100
AcDbCircle
 62
7
  6
CONTINUOUS
 10
12.0722946802
 20
8.7470584707
 40
0.5939504983
100
AcDbArc
 50
90.3901526975
 51
95.0183366294
  0
ARC
  5
39C
100
AcDbEntity
  8
0
100
AcDbCircle
 62
7
  6
CONTINUOUS
 10
12.0722946802
 20
8.7470584707
 40
0.5939504983
100
AcDbArc
 50
87.2642226298
 51
88.3117560614
  0
ARC
  5
39D
100
AcDbEntity
  8
0
100
AcDbCircle
 62
7
  6
CONTINUOUS
 10
12.0722946802
 20
8.7470584707
 40
0.5929262414
100
AcDbArc
 50
87.2594930772
 51
88.3088388395
  0
ARC
  5
39E
100
AcDbEntity
  8
0
100
AcDbCircle
 62
7
  6
CONTINUOUS
 10
12.0722946802
 20
8.7470584707
 40
0.5929262414
100
AcDbArc
 50
90.3908266814
 51
95.0270279035
  0
ARC
  5
39F
100
AcDbEntity
  8
0
100
AcDbCircle
 62
7
  6
CONTINUOUS
 10
12.0722946802
 20
8.7470584707
 40
0.5865042152
100
AcDbArc
 50
87.2294621544
 51
93.2596679873
  0
ARC
  5
3A0
100
AcDbEntity
  8
0
100
AcDbCircle
 62
7
  6
CONTINUOUS
 10
12.0722946802
 20
8.7470584707
 40
0.5829180426
100
AcDbArc
 50
83.1029634054
 51
85.0793879198
  0
ARC
  5
3A1
100
AcDbEntity
  8
0
100
AcDbCircle
 62
7
  6
CONTINUOUS
 10
12.0722946802
 20
8.7470584707
 40
0.5829180426
100
AcDbArc
 50
95.4140756503
 51
96.8970365946
  0
ARC
  5
3A2
100
AcDbEntity
  8
0
100
AcDbCircle
 62
7
  6
CONTINUOUS
 10
12.0722946802
 20
8.7470584707
 40
0.5635874909
100
AcDbArc
 50
87.4576003205
 51
92.5423996795
  0
ARC
  5
3A3
100
AcDbEntity
  8
0
100
AcDbCircle
 62
7
  6
CONTINUOUS
 10
12.0722946802
 20
8.7470584707
 40
0.5625079495
100
AcDbArc
 50
87.4527178406
 51
92.5472821594
  0
ARC
  5
3A4
100
AcDbEntity
  8
0
100
AcDbCircle
 62
7
  6
CONTINUOUS
 10
12.0722946802
 20
8.7470584707
 40
0.5581290147
100
AcDbArc
 50
87.4327191951
 51
88.1939228048
  0
ARC
  5
3A5
100
AcDbEntity
  8
0
100
AcDbCircle
 62
7
  6
CONTINUOUS
 10
12.0722946802
 20
8.7470584707
 40
0.5581290147
100
AcDbArc
 50
91.8060771952
 51
92.5672808049
  0
ARC
  5
3A6
100
AcDbEntity
  8
0
100
AcDbCircle
 62
7
  6
CONTINUOUS
 10
12.0722946802
 20
8.7470584707
 40
0.5536835237
100
AcDbArc
 50
82.7368863491
 51
84.8188868324
  0
ARC
  5
3A7
100
AcDbEntity
  8
0
100
AcDbCircle
 62
7
  6
CONTINUOUS
 10
12.0722946802
 20
8.7470584707
 40
0.552584634
100
AcDbArc
 50
82.7223645575
 51
84.8085552237
  0
ARC
  5
3A8
100
AcDbEntity
  8
0
100
AcDbCircle
 62
7
  6
CONTINUOUS
 10
12.0722946802
 20
8.7470584707
 40
0.5448845698
100
AcDbArc
 50
91.8499923813
 51
94.2110233574
  0
ARC
  5
3A9
100
AcDbEntity
  8
0
100
AcDbCircle
 62
7
  6
CONTINUOUS
 10
12.0722946802
 20
8.7470584707
 40
0.5448845698
100
AcDbArc
 50
86.9334205376
 51
88.1500076187
  0
ARC
  5
3AA
100
AcDbEntity
  8
0
100
AcDbCircle
 62
7
  6
CONTINUOUS
 10
12.0722946802
 20
8.7470584707
 40
0.5437678988
100
AcDbArc
 50
91.853792814
 51
94.2196866845
  0
ARC
  5
3AB
100
AcDbEntity
  8
0
100
AcDbCircle
 62
7
  6
CONTINUOUS
 10
12.0722946802
 20
8.7470584707
 40
0.5437678988
100
AcDbArc
 50
86.9271170318
 51
88.146207186
  0
ARC
  5
3AC
100
AcDbEntity
  8
0
100
AcDbCircle
 62
7
  6
CONTINUOUS
 10
12.0722946802
 20
8.7470584707
 40
0.5300633872
100
AcDbArc
 50
86.8475899997
 51
93.7724866692
  0
ARC
  5
3AD
100
AcDbEntity
  8
0
100
AcDbCircle
 62
7
  6
CONTINUOUS
 10
12.0722946802
 20
8.7470584707
 40
0.5213321345
100
AcDbArc
 50
96.0559147539
 51
97.7164910947
  0
ARC
  5
3AE
100
AcDbEntity
  8
0
100
AcDbCircle
 62
7
  6
CONTINUOUS
 10
12.0722946802
 20
8.7470584707
 40
0.5192113678
100
AcDbArc
 50
82.2517970382
 51
84.4738586528
  0
ARC
  5
3AF
100
AcDbEntity
  8
0
100
AcDbCircle
 62
7
  6
CONTINUOUS
 10
12.0664420297
 20
8.7610127539
 40
0.5956767953
100
AcDbArc
 50
53.1103953534
 51
53.8134461674
  0
ARC
  5
3B0
100
AcDbEntity
  8
0
100
AcDbCircle
 62
7
  6
CONTINUOUS
 10
12.0666472472
 20
8.7612926196
 40
0.5953297522
100
AcDbArc
 50
53.8134840458
 51
54.1621723938
  0
ARC
  5
3B1
100
AcDbEntity
  8
0
100
AcDbCircle
 62
7
  6
CONTINUOUS
 10
12.0739097486
 20
8.7609565632
 40
0.5947918189
100
AcDbArc
 50
53.0443243678
 51
53.7491414233
  0
ARC
  5
3B2
100
AcDbEntity
  8
0
100
AcDbCircle
 62
7
  6
CONTINUOUS
 10
12.066461275
 20
8.7610039113
 40
0.5946801274
100
AcDbArc
 50
53.2257305063
 51
53.7434735124
  0
ARC
  5
3B3
100
AcDbEntity
  8
0
100
AcDbCircle
 62
7
  6
CONTINUOUS
 10
12.0741061027
 20
8.7612236108
 40
0.5944603537
100
AcDbArc
 50
53.7491834378
 51
54.0436211697
  0
ARC
  5
3B4
100
AcDbEntity
  8
0
100
AcDbCircle
 62
7
  6
CONTINUOUS
 10
12.0666296349
 20
8.7612332056
 40
0.5943956615
100
AcDbArc
 50
53.743488605
 51
54.0950203749
  0
ARC
  5
3B5
100
AcDbEntity
  8
0
100
AcDbCircle
 62
7
  6
CONTINUOUS
 10
12.066043611
 20
8.7620537989
 40
0.5943538933
100
AcDbArc
 50
55.2589588307
 51
55.6153054379
  0
ARC
  5
3B6
100
AcDbEntity
  8
0
100
AcDbCircle
 62
7
  6
CONTINUOUS
 10
12.0661400606
 20
8.7621945761
 40
0.5941832452
100
AcDbArc
 50
55.6153144068
 51
55.7927093032
  0
ARC
  5
3B7
100
AcDbEntity
  8
0
100
AcDbCircle
 62
7
  6
CONTINUOUS
 10
12.0634720807
 20
8.762235062
 40
0.5938329353
100
AcDbArc
 50
55.6760500682
 51
55.9534260001
  0
ARC
  5
3B8
100
AcDbEntity
  8
0
100
AcDbCircle
 62
7
  6
CONTINUOUS
 10
12.0739581549
 20
8.7609870495
 40
0.5937446402
100
AcDbArc
 50
53.2874280275
 51
53.6951546403
  0
ARC
  5
3B9
100
AcDbEntity
  8
0
100
AcDbCircle
 62
7
  6
CONTINUOUS
 10
12.0635828099
 20
8.7623989496
 40
0.5936351473
100
AcDbArc
 50
55.9534253391
 51
56.2330525617
  0
ARC
  5
3BA
100
AcDbEntity
  8
0
100
AcDbCircle
 62
7
  6
CONTINUOUS
 10
12.0741011864
 20
8.7611816272
 40
0.593503148
100
AcDbArc
 50
53.6951604438
 51
54.0310308852
  0
ARC
  5
3BB
100
AcDbEntity
  8
0
100
AcDbCircle
 62
7
  6
CONTINUOUS
 10
12.0660280334
 20
8.7619953795
 40
0.593417744
100
AcDbArc
 50
55.1944203448
 51
55.551060075
  0
ARC
  5
3BC
100
AcDbEntity
  8
0
100
AcDbCircle
 62
7
  6
CONTINUOUS
 10
12.0637399416
 20
8.7626343672
 40
0.593352107
100
AcDbArc
 50
56.2330308804
 51
56.8688158066
  0
ARC
  5
3BD
100
AcDbEntity
  8
0
100
AcDbCircle
 62
7
  6
CONTINUOUS
 10
12.066626905
 20
8.7629268825
 40
0.5933038576
100
AcDbArc
 50
56.7252455614
 51
57.5127539197
  0
ARC
  5
3BE
100
AcDbEntity
  8
0
100
AcDbCircle
 62
7
  6
CONTINUOUS
 10
12.0661248434
 20
8.7621363429
 40
0.5932467387
100
AcDbArc
 50
55.5510691013
 51
55.7294233239
  0
ARC
  5
3BF
100
AcDbEntity
  8
0
100
AcDbCircle
 62
7
  6
CONTINUOUS
 10
12.0639010254
 20
8.7628806977
 40
0.593057783
100
AcDbArc
 50
56.8688410391
 51
57.2106853991
  0
ARC
  5
3C0
100
AcDbEntity
  8
0
100
AcDbCircle
 62
7
  6
CONTINUOUS
 10
12.0669049969
 20
8.7633636736
 40
0.5927860531
100
AcDbArc
 50
57.5127508143
 51
58.3954550328
  0
ARC
  5
3C1
100
AcDbEntity
  8
0
100
AcDbCircle
 62
7
  6
CONTINUOUS
 10
12.0641137623
 20
8.7632122227
 40
0.5926638727
100
AcDbArc
 50
57.2106180341
 51
58.1724299092
  0
ARC
  5
3C2
100
AcDbEntity
  8
0
100
AcDbCircle
 62
7
  6
CONTINUOUS
 10
12.0670802848
 20
8.7636471695
 40
0.5924527435
100
AcDbArc
 50
58.3955249689
 51
58.6141965823
  0
ARC
  5
3C3
100
AcDbEntity
  8
0
100
AcDbCircle
 62
7
  6
CONTINUOUS
 10
12.0666134056
 20
8.7628695127
 40
0.5923656805
100
AcDbArc
 50
56.6641119697
 51
57.4533859637
  0
ARC
  5
3C4
100
AcDbEntity
  8
0
100
AcDbCircle
 62
7
  6
CONTINUOUS
 10
12.0671716838
 20
8.7637971431
 40
0.5922771137
100
AcDbArc
 50
58.6141887981
 51
58.9788160587
  0
ARC
  5
3C5
100
AcDbEntity
  8
0
100
AcDbCircle
 62
7
  6
CONTINUOUS
 10
12.0669009683
 20
8.7633202882
 40
0.5918309928
100
AcDbArc
 50
57.4533754557
 51
58.3967563739
  0
ARC
  5
3C6
100
AcDbEntity
  8
0
100
AcDbCircle
 62
7
  6
CONTINUOUS
 10
12.0670854098
 20
8.7636184707
 40
0.5914803779
100
AcDbArc
 50
58.3968368203
 51
58.6152388279
  0
ARC
  5
3C7
100
AcDbEntity
  8
0
100
AcDbCircle
 62
7
  6
CONTINUOUS
 10
12.0634944971
 20
8.7640603614
 40
0.5914576513
100
AcDbArc
 50
59.2162415627
 51
59.4370277936
  0
ARC
  5
3C8
100
AcDbEntity
  8
0
100
AcDbCircle
 62
7
  6
CONTINUOUS
 10
12.0671798727
 20
8.7637734796
 40
0.5912988538
100
AcDbArc
 50
58.6152306947
 51
58.9813775634
  0
ARC
  5
3C9
100
AcDbEntity
  8
0
100
AcDbCircle
 62
7
  6
CONTINUOUS
 10
12.0635926017
 20
8.7642267092
 40
0.5912645293
100
AcDbArc
 50
59.4370171057
 51
59.8758991402
  0
ARC
  5
3CA
100
AcDbEntity
  8
0
100
AcDbCircle
 62
7
  6
CONTINUOUS
 10
12.0722928581
 20
8.7662941222
 40
0.5890771336
100
AcDbArc
 50
89.9998227746
 51
90.2971244022
  0
ARC
  5
3CB
100
AcDbEntity
  8
0
100
AcDbCircle
 62
7
  6
CONTINUOUS
 10
12.0722458317
 20
8.7742673407
 40
0.5811037784
100
AcDbArc
 50
90.2965645166
 51
91.0192321412
  0
ARC
  5
3CC
100
AcDbEntity
  8
0
100
AcDbCircle
 62
7
  6
CONTINUOUS
 10
12.0723393569
 20
8.774715518
 40
0.5806557394
100
AcDbArc
 50
88.9567989952
 51
90.0044084332
  0
ARC
  5
3CD
100
AcDbEntity
  8
0
100
AcDbCircle
 62
7
  6
CONTINUOUS
 10
12.0504736112
 20
8.8026194218
 40
0.5578447661
100
AcDbArc
 50
52.5575993856
 51
52.7586709443
  0
ARC
  5
3CE
100
AcDbEntity
  8
0
100
AcDbCircle
 62
7
  6
CONTINUOUS
 10
12.0506082522
 20
8.8026601672
 40
0.5567616032
100
AcDbArc
 50
52.5668180245
 51
52.8798427959
  0
ARC
  5
3CF
100
AcDbEntity
  8
0
100
AcDbCircle
 62
7
  6
CONTINUOUS
 10
12.0512954309
 20
8.8037065627
 40
0.5564819494
100
AcDbArc
 50
52.9467874101
 51
53.4665141133
  0
ARC
  5
3D0
100
AcDbEntity
  8
0
100
AcDbCircle
 62
7
  6
CONTINUOUS
 10
12.0518686991
 20
8.8044791235
 40
0.5555199274
100
AcDbArc
 50
53.4665890486
 51
53.7290758696
  0
ARC
  5
3D1
100
AcDbEntity
  8
0
100
AcDbCircle
 62
7
  6
CONTINUOUS
 10
12.0514217738
 20
8.8037380055
 40
0.5554112146
100
AcDbArc
 50
52.8796587664
 51
53.6635999743
  0
ARC
  5
3D2
100
AcDbEntity
  8
0
100
AcDbCircle
 62
7
  6
CONTINUOUS
 10
12.0525073672
 20
8.8053514405
 40
0.5544388019
100
AcDbArc
 50
53.7289566338
 51
54.3664253572
  0
ARC
  5
3D3
100
AcDbEntity
  8
0
100
AcDbCircle
 62
7
  6
CONTINUOUS
 10
12.0524980878
 20
8.8052004749
 40
0.5535953763
100
AcDbArc
 50
53.6636493501
 51
54.3755577315
  0
ARC
  5
3D4
100
AcDbEntity
  8
0
100
AcDbCircle
 62
7
  6
CONTINUOUS
 10
12.0548799225
 20
8.8087291052
 40
0.5503109893
100
AcDbArc
 50
55.6695440508
 51
55.8853566414
  0
ARC
  5
3D5
100
AcDbEntity
  8
0
100
AcDbCircle
 62
7
  6
CONTINUOUS
 10
12.0552500802
 20
8.8092760087
 40
0.5496505954
100
AcDbArc
 50
55.8853283613
 51
56.2405520134
  0
ARC
  5
3D6
100
AcDbEntity
  8
0
100
AcDbCircle
 62
7
  6
CONTINUOUS
 10
12.0548710905
 20
8.8085755223
 40
0.5494694514
100
AcDbArc
 50
55.6084784332
 51
55.8939933566
  0
ARC
  5
3D7
100
AcDbEntity
  8
0
100
AcDbCircle
 62
7
  6
CONTINUOUS
 10
12.0505847582
 20
8.8095679977
 40
0.549115117
100
AcDbArc
 50
55.5277027632
 51
56.7243025809
  0
ARC
  5
3D8
100
AcDbEntity
  8
0
100
AcDbCircle
 62
7
  6
CONTINUOUS
 10
12.0552433323
 20
8.8091252082
 40
0.548805585
100
AcDbArc
 50
55.8939927071
 51
56.1807010605
  0
ARC
  5
3D9
100
AcDbEntity
  8
0
100
AcDbCircle
 62
7
  6
CONTINUOUS
 10
12.0558464758
 20
8.8101694188
 40
0.5485764126
100
AcDbArc
 50
56.2404847067
 51
56.8124393842
  0
ARC
  5
3DA
100
AcDbEntity
  8
0
100
AcDbCircle
 62
7
  6
CONTINUOUS
 10
12.055796265
 20
8.8099520038
 40
0.5478109369
100
AcDbArc
 50
56.1806174548
 51
56.7537637856
  0
ARC
  5
3DB
100
AcDbEntity
  8
0
100
AcDbCircle
 62
7
  6
CONTINUOUS
 10
12.0772980801
 20
8.7549562177
 40
0.6010304586
100
AcDbArc
 50
126.1637530329
 51
126.397343441
  0
ARC
  5
3DC
100
AcDbEntity
  8
0
100
AcDbCircle
 62
7
  6
CONTINUOUS
 10
12.0772229488
 20
8.7550591344
 40
0.6009030359
100
AcDbArc
 50
125.6985262634
 51
126.16376014
  0
ARC
  5
3DD
100
AcDbEntity
  8
0
100
AcDbCircle
 62
7
  6
CONTINUOUS
 10
12.0772328061
 20
8.7550256594
 40
0.5999399373
100
AcDbArc
 50
125.7658034289
 51
126.2328607035
  0
ARC
  5
3DE
100
AcDbEntity
  8
0
100
AcDbCircle
 62
7
  6
CONTINUOUS
 10
12.0813351941
 20
8.7549756258
 40
0.5999105662
100
AcDbArc
 50
125.8396483917
 51
126.4726471309
  0
ARC
  5
3DF
100
AcDbEntity
  8
0
100
AcDbCircle
 62
7
  6
CONTINUOUS
 10
12.08038646
 20
8.7966960374
 40
0.5609530856
100
AcDbArc
 50
125.2660220372
 51
125.4850882341
  0
ARC
  5
3E0
100
AcDbEntity
  8
0
100
AcDbCircle
 62
7
  6
CONTINUOUS
 10
12.0798774735
 20
8.7975361754
 40
0.5609500675
100
AcDbArc
 50
124.7058046223
 51
125.1335686007
  0
ARC
  5
3E1
100
AcDbEntity
  8
0
100
AcDbCircle
 62
7
  6
CONTINUOUS
 10
12.0798873613
 20
8.7974040083
 40
0.5600868738
100
AcDbArc
 50
124.6996413615
 51
125.1975661622
  0
ARC
  5
3E2
100
AcDbEntity
  8
0
100
AcDbCircle
 62
7
  6
CONTINUOUS
 10
12.0901777521
 20
8.7994782032
 40
0.5587891959
100
AcDbArc
 50
123.3339760004
 51
124.1720752389
  0
ARC
  5
3E3
100
AcDbEntity
  8
0
100
AcDbCircle
 62
7
  6
CONTINUOUS
 10
12.090241526
 20
8.7992629223
 40
0.5580253326
100
AcDbArc
 50
123.2769976279
 51
124.2332572522
  0
ARC
  5
3E4
100
AcDbEntity
  8
0
100
AcDbCircle
 62
7
  6
CONTINUOUS
 10
12.0894937677
 20
8.800515245
 40
0.5575469046
100
AcDbArc
 50
122.9162299665
 51
123.3338133384
  0
ARC
  5
3E5
100
AcDbEntity
  8
0
100
AcDbCircle
 62
7
  6
CONTINUOUS
 10
12.0894730235
 20
8.8004271637
 40
0.556630327
100
AcDbArc
 50
122.9747790292
 51
123.2766183154
  0
ARC
  5
3E6
100
AcDbEntity
  8
0
100
AcDbCircle
 62
7
  6
CONTINUOUS
 10
12.1012791814
 20
8.7924450906
 40
0.566927959
100
AcDbArc
 50
127.5850853647
 51
128.297998634
  0
ARC
  5
3E7
100
AcDbEntity
  8
0
100
AcDbCircle
 62
7
  6
CONTINUOUS
 10
12.093645653
 20
8.794571615
 40
0.5647982346
100
AcDbArc
 50
126.563757948
 51
126.8413743704
  0
ARC
  5
3E8
100
AcDbEntity
  8
0
100
AcDbCircle
 62
7
  6
CONTINUOUS
 10
12.0986801814
 20
8.7943925724
 40
0.5646122092
100
AcDbArc
 50
126.6317950245
 51
126.9626952547
  0
ARC
  5
3E9
100
AcDbEntity
  8
0
100
AcDbCircle
 62
7
  6
CONTINUOUS
 10
12.0932647729
 20
8.7950853099
 40
0.564158741
100
AcDbArc
 50
126.2303656831
 51
126.5637676966
  0
ARC
  5
3EA
100
AcDbEntity
  8
0
100
AcDbCircle
 62
7
  6
CONTINUOUS
 10
12.0936558341
 20
8.7944424058
 40
0.5639331132
100
AcDbArc
 50
126.5573663629
 51
126.9085505161
  0
ARC
  5
3EB
100
AcDbEntity
  8
0
100
AcDbCircle
 62
7
  6
CONTINUOUS
 10
12.0982646359
 20
8.7949515991
 40
0.5639156542
100
AcDbArc
 50
126.2632264276
 51
126.6318036593
  0
ARC
  5
3EC
100
AcDbEntity
  8
0
100
AcDbCircle
 62
7
  6
CONTINUOUS
 10
12.0932189389
 20
8.7950315875
 40
0.5631996199
100
AcDbArc
 50
126.2058762985
 51
126.5573655375
  0
ARC
  5
3ED
100
AcDbEntity
  8
0
100
AcDbCircle
 62
7
  6
CONTINUOUS
 10
12.0927890146
 20
8.7956188644
 40
0.562471795
100
AcDbArc
 50
125.8540833177
 51
126.2058754646
  0
ARC
  5
3EE
100
AcDbEntity
  8
0
100
AcDbCircle
 62
7
  6
CONTINUOUS
 10
12.0939438716
 20
8.7890749331
 40
0.5610907746
100
AcDbArc
 50
55.3208218053
 51
56.2432380227
  0
ARC
  5
3EF
100
AcDbEntity
  8
0
100
AcDbCircle
 62
7
  6
CONTINUOUS
 10
12.0955809235
 20
8.7883739412
 40
0.560918189
100
AcDbArc
 50
55.2234060686
 51
55.4072931919
  0
ARC
  5
3F0
100
AcDbEntity
  8
0
100
AcDbCircle
 62
7
  6
CONTINUOUS
 10
12.0945744077
 20
8.7900167384
 40
0.5599573835
100
AcDbArc
 50
56.4178387675
 51
56.6044127134
  0
ARC
  5
3F1
100
AcDbEntity
  8
0
100
AcDbCircle
 62
7
  6
CONTINUOUS
 10
12.0948550886
 20
8.7904434083
 40
0.5594466691
100
AcDbArc
 50
56.704965365
 51
56.9215250935
  0
ARC
  5
3F2
100
AcDbEntity
  8
0
100
AcDbCircle
 62
7
  6
CONTINUOUS
 10
12.096884201
 20
8.7903073424
 40
0.558586486
100
AcDbArc
 50
56.6099051109
 51
56.7932252674
  0
ARC
  5
3F3
100
AcDbEntity
  8
0
100
AcDbCircle
 62
7
  6
CONTINUOUS
 10
12.0972587383
 20
8.7908821936
 40
0.5579003866
100
AcDbArc
 50
56.8947773092
 51
57.4471702592
  0
ARC
  5
3F4
100
AcDbEntity
  8
0
100
AcDbCircle
 62
7
  6
CONTINUOUS
 10
12.0957964113
 20
8.7919067035
 40
0.5577067597
100
AcDbArc
 50
57.0394318674
 51
58.4153865257
  0
ARC
  5
3F5
100
AcDbEntity
  8
0
100
AcDbCircle
 62
7
  6
CONTINUOUS
 10
12.0976395204
 20
8.7914780733
 40
0.5571932317
100
AcDbArc
 50
57.5140568015
 51
57.7155319844
  0
ARC
  5
3F6
100
AcDbEntity
  8
0
100
AcDbCircle
 62
7
  6
CONTINUOUS
 10
12.0964092563
 20
8.7928991571
 40
0.5565403387
100
AcDbArc
 50
58.4156189947
 51
58.62014992
  0
ARC
  5
3F7
100
AcDbEntity
  8
0
100
AcDbCircle
 62
7
  6
CONTINUOUS
 10
12.098044167
 20
8.792120546
 40
0.5564339499
100
AcDbArc
 50
57.7154219451
 51
58.4079823387
  0
ARC
  5
3F8
100
AcDbEntity
  8
0
100
AcDbCircle
 62
7
  6
CONTINUOUS
 10
12.0966595826
 20
8.793310181
 40
0.5560590864
100
AcDbArc
 50
58.6201177759
 51
59.0980968137
  0
ARC
  5
3F9
100
AcDbEntity
  8
0
100
AcDbCircle
 62
7
  6
CONTINUOUS
 10
12.0962118029
 20
8.7936675416
 40
0.5559495384
100
AcDbArc
 50
59.0373415641
 51
59.3411355319
  0
ARC
  5
3FA
100
AcDbEntity
  8
0
100
AcDbCircle
 62
7
  6
CONTINUOUS
 10
12.0984299991
 20
8.7927457008
 40
0.5556993183
100
AcDbArc
 50
58.4081012872
 51
58.6050611098
  0
ARC
  5
3FB
100
AcDbEntity
  8
0
100
AcDbCircle
 62
7
  6
CONTINUOUS
 10
12.0969285346
 20
8.7937590339
 40
0.5555358236
100
AcDbArc
 50
59.0981232649
 51
59.4007343371
  0
ARC
  5
3FC
100
AcDbEntity
  8
0
100
AcDbCircle
 62
7
  6
CONTINUOUS
 10
12.096593553
 20
8.7943129105
 40
0.555199716
100
AcDbArc
 50
59.3410631364
 51
59.959394044
  0
ARC
  5
3FD
100
AcDbEntity
  8
0
100
AcDbCircle
 62
7
  6
CONTINUOUS
 10
12.0987523278
 20
8.793275582
 40
0.5550791013
100
AcDbArc
 50
58.604968776
 51
59.2918141566
  0
ARC
  5
3FE
100
AcDbEntity
  8
0
100
AcDbCircle
 62
7
  6
CONTINUOUS
 10
12.0972669581
 20
8.7943325246
 40
0.5548699244
100
AcDbArc
 50
59.400669629
 51
60.0189319133
  0
ARC
  5
3FF
100
AcDbEntity
  8
0
100
AcDbCircle
 62
7
  6
CONTINUOUS
 10
12.0969536665
 20
8.7949339401
 40
0.554481831
100
AcDbArc
 50
59.9594812491
 51
60.1687566238
  0
ARC
  5
400
100
AcDbEntity
  8
0
100
AcDbCircle
 62
7
  6
CONTINUOUS
 10
12.0975889728
 20
8.7948891846
 40
0.5542268356
100
AcDbArc
 50
60.0190100016
 51
60.2281375068
  0
ARC
  5
401
100
AcDbEntity
  8
0
100
AcDbCircle
 62
7
  6
CONTINUOUS
 10
12.0927355814
 20
8.7958088308
 40
0.5632623439
100
AcDbArc
 50
125.7892906918
 51
126.1391097813
  0
ARC
  5
402
100
AcDbEntity
  8
0
100
AcDbCircle
 62
7
  6
CONTINUOUS
 10
12.096970432
 20
8.7967322052
 40
0.5617143924
100
AcDbArc
 50
124.5426132834
 51
126.0125490081
  0
ARC
  5
403
100
AcDbEntity
  8
0
100
AcDbCircle
 62
7
  6
CONTINUOUS
 10
12.0958368947
 20
8.798362565
 40
0.5597287203
100
AcDbArc
 50
124.2825389639
 51
124.5416659097
  0
ARC
  5
404
100
AcDbEntity
  8
0
100
AcDbCircle
 62
7
  6
CONTINUOUS
 10
12.0950870775
 20
8.7994665327
 40
0.5583941922
100
AcDbArc
 50
122.9626157842
 51
124.2827734308
  0
ARC
  5
405
100
AcDbEntity
  8
0
100
AcDbCircle
 62
7
  6
CONTINUOUS
 10
12.0943951
 20
8.8022624307
 40
0.5549322692
100
AcDbArc
 50
121.6625769837
 51
122.3800066297
  0
ARC
  5
406
100
AcDbEntity
  8
0
100
AcDbCircle
 62
7
  6
CONTINUOUS
 10
12.0938857758
 20
8.8030861508
 40
0.5539638039
100
AcDbArc
 50
121.4270255492
 51
121.5996305619
  0
ARC
  5
407
100
AcDbEntity
  8
0
100
AcDbCircle
 62
7
  6
CONTINUOUS
 10
12.0565619121
 20
8.8112631698
 40
0.5472694541
100
AcDbArc
 50
56.812443314
 51
57.3853072307
  0
ARC
  5
408
100
AcDbEntity
  8
0
100
AcDbCircle
 62
7
  6
CONTINUOUS
 10
12.0564100499
 20
8.810887262
 40
0.5466922593
100
AcDbArc
 50
56.7538243195
 51
57.159987021
  0
ARC
  5
409
100
AcDbEntity
  8
0
100
AcDbCircle
 62
7
  6
CONTINUOUS
 10
12.0567676933
 20
8.8114405299
 40
0.5460334619
100
AcDbArc
 50
57.1600345845
 51
57.3279344479
  0
ARC
  5
40A
100
AcDbEntity
  8
0
100
AcDbCircle
 62
7
  6
CONTINUOUS
 10
12.0502611589
 20
8.8121758301
 40
0.5458562539
100
AcDbArc
 50
57.4806640694
 51
57.7084132898
  0
ARC
  5
40B
100
AcDbEntity
  8
0
100
AcDbCircle
 62
7
  6
CONTINUOUS
 10
12.0506660798
 20
8.8128174625
 40
0.545097536
100
AcDbArc
 50
57.7083626183
 51
58.1610093056
  0
ARC
  5
40C
100
AcDbEntity
  8
0
100
AcDbCircle
 62
7
  6
CONTINUOUS
 10
12.0855369724
 20
8.8270012659
 40
0.5275700146
100
AcDbArc
 50
86.2277822418
 51
86.8397325727
  0
ARC
  5
40D
100
AcDbEntity
  8
0
100
AcDbCircle
 62
7
  6
CONTINUOUS
 10
12.0523381128
 20
8.8396400313
 40
0.5155011111
100
AcDbArc
 50
127.9261073718
 51
128.1202804221
  0
ARC
  5
40E
100
AcDbEntity
  8
0
100
AcDbCircle
 62
7
  6
CONTINUOUS
 10
12.0516574789
 20
8.8405151379
 40
0.5143924744
100
AcDbArc
 50
127.596419475
 51
127.8443491455
  0
ARC
  5
40F
100
AcDbEntity
  8
0
100
AcDbCircle
 62
7
  6
CONTINUOUS
 10
12.1046427004
 20
8.8592236804
 40
0.5097521409
100
AcDbArc
 50
131.3122174346
 51
132.1652682433
  0
ARC
  5
410
100
AcDbEntity
  8
0
100
AcDbCircle
 62
7
  6
CONTINUOUS
 10
12.1044640734
 20
8.859145851
 40
0.508769674
100
AcDbArc
 50
131.382716954
 51
132.003234615
  0
ARC
  5
411
100
AcDbEntity
  8
0
100
AcDbCircle
 62
7
  6
CONTINUOUS
 10
12.1030441637
 20
8.8666462637
 40
0.5003683581
100
AcDbArc
 50
129.67277784
 51
130.0038394411
  0
ARC
  5
412
100
AcDbEntity
  8
0
100
AcDbCircle
 62
7
  6
CONTINUOUS
 10
12.103053461
 20
8.8663481862
 40
0.499676013
100
AcDbArc
 50
129.6522019044
 51
130.0718889228
  0
ARC
  5
413
100
AcDbEntity
  8
0
100
AcDbCircle
 62
7
  6
CONTINUOUS
 10
12.1057300781
 20
8.8677154752
 40
0.4992098768
100
AcDbArc
 50
128.9992330622
 51
129.9894448985
  0
ARC
  5
414
100
AcDbEntity
  8
0
100
AcDbCircle
 62
7
  6
CONTINUOUS
 10
12.0993887695
 20
8.8710996256
 40
0.4946069814
100
AcDbArc
 50
128.0200695566
 51
129.6761914835
  0
ARC
  5
415
100
AcDbEntity
  8
0
100
AcDbCircle
 62
7
  6
CONTINUOUS
 10
12.1025391452
 20
8.8716444635
 40
0.4941483604
100
AcDbArc
 50
128.0059985126
 51
128.9983871074
  0
ARC
  5
416
100
AcDbEntity
  8
0
100
AcDbCircle
 62
7
  6
CONTINUOUS
 10
12.0994177484
 20
8.8707752215
 40
0.4939474549
100
AcDbArc
 50
128.0885590449
 51
129.6551891551
  0
ARC
  5
417
100
AcDbEntity
  8
0
100
AcDbCircle
 62
7
  6
CONTINUOUS
 10
12.0968602807
 20
8.8743180674
 40
0.4905141181
100
AcDbArc
 50
127.7668037405
 51
128.0189514518
  0
ARC
  5
418
100
AcDbEntity
  8
0
100
AcDbCircle
 62
7
  6
CONTINUOUS
 10
12.0998926642
 20
8.8750172359
 40
0.4898612421
100
AcDbArc
 50
127.4403355772
 51
128.0050019137
  0
ARC
  5
419
100
AcDbEntity
  8
0
100
AcDbCircle
 62
7
  6
CONTINUOUS
 10
12.0968771887
 20
8.8740034893
 40
0.489839403
100
AcDbArc
 50
127.7480957199
 51
128.0876094178
  0
ARC
  5
41A
100
AcDbEntity
  8
0
100
AcDbCircle
 62
7
  6
CONTINUOUS
 10
12.0951889126
 20
8.8764842767
 40
0.48777808
100
AcDbArc
 50
127.0232006818
 51
127.767445077
  0
ARC
  5
41B
100
AcDbEntity
  8
0
100
AcDbCircle
 62
7
  6
CONTINUOUS
 10
12.0982838258
 20
8.877118678
 40
0.4872146534
100
AcDbArc
 50
127.0095716416
 51
127.3564057653
  0
ARC
  5
41C
100
AcDbEntity
  8
0
100
AcDbCircle
 62
7
  6
CONTINUOUS
 10
12.0952089191
 20
8.8761645998
 40
0.487109292
100
AcDbArc
 50
127.0855024463
 51
127.7485538707
  0
ARC
  5
41D
100
AcDbEntity
  8
0
100
AcDbCircle
 62
7
  6
CONTINUOUS
 10
12.0856833216
 20
8.8828662363
 40
0.4794328049
100
AcDbArc
 50
125.5077295281
 51
125.7848035649
  0
ARC
  5
41E
100
AcDbEntity
  8
0
100
AcDbCircle
 62
7
  6
CONTINUOUS
 10
12.085666868
 20
8.8825901647
 40
0.4787066726
100
AcDbArc
 50
125.5675157193
 51
125.7528216319
  0
ARC
  5
41F
100
AcDbEntity
  8
0
100
AcDbCircle
 62
7
  6
CONTINUOUS
 10
12.1087613911
 20
8.8845490547
 40
0.4782623266
100
AcDbArc
 50
124.9036070805
 51
125.7350960045
  0
ARC
  5
420
100
AcDbEntity
  8
0
100
AcDbCircle
 62
7
  6
CONTINUOUS
 10
12.1087849902
 20
8.8842164868
 40
0.4776067508
100
AcDbArc
 50
124.961951197
 51
125.7217334176
  0
ARC
  5
421
100
AcDbEntity
  8
0
100
AcDbCircle
 62
7
  6
CONTINUOUS
 10
12.0845682101
 20
8.8844317544
 40
0.477510744
100
AcDbArc
 50
124.952790825
 51
125.5079131868
  0
ARC
  5
422
100
AcDbEntity
  8
0
100
AcDbCircle
 62
7
  6
CONTINUOUS
 10
12.0846731776
 20
8.8839829366
 40
0.4769957574
100
AcDbArc
 50
125.0114333978
 51
125.5677348209
  0
ARC
  5
423
100
AcDbEntity
  8
0
100
AcDbCircle
 62
7
  6
CONTINUOUS
 10
12.0940834465
 20
8.957668192
 40
0.3966239129
100
AcDbArc
 50
85.4859062538
 51
86.2178683566
  0
ARC
  5
424
100
AcDbEntity
  8
0
100
AcDbCircle
 62
7
  6
CONTINUOUS
 10
12.1180492175
 20
8.8589145431
 40
0.5110319552
100
AcDbArc
 50
131.3228654114
 51
132.1072308994
  0
ARC
  5
425
100
AcDbEntity
  8
0
100
AcDbCircle
 62
7
  6
CONTINUOUS
 10
12.1422961972
 20
8.8585702081
 40
0.5107976526
100
AcDbArc
 50
131.3933896488
 51
132.1533449505
  0
ARC
  5
426
100
AcDbEntity
  8
0
100
AcDbCircle
 62
7
  6
CONTINUOUS
 10
12.127162137
 20
8.8667108409
 40
0.5006119339
100
AcDbArc
 50
129.687878078
 51
129.9832529594
  0
ARC
  5
427
100
AcDbEntity
  8
0
100
AcDbCircle
 62
7
  6
CONTINUOUS
 10
12.1271654349
 20
8.8664200751
 40
0.4999105945
100
AcDbArc
 50
129.6674238293
 51
130.0511884745
  0
ARC
  5
428
100
AcDbEntity
  8
0
100
AcDbCircle
 62
7
  6
CONTINUOUS
 10
12.130196239
 20
8.8672462449
 40
0.4997115535
100
AcDbArc
 50
129.261147695
 51
129.9961144226
  0
ARC
  5
429
100
AcDbEntity
  8
0
100
AcDbCircle
 62
7
  6
CONTINUOUS
 10
12.125344618
 20
8.8689085492
 40
0.4977600443
100
AcDbArc
 50
128.9905200311
 51
129.68843332
  0
ARC
  5
42A
100
AcDbEntity
  8
0
100
AcDbCircle
 62
7
  6
CONTINUOUS
 10
12.1253841883
 20
8.8685727961
 40
0.4971164868
100
AcDbArc
 50
129.0630454481
 51
129.6677707504
  0
ARC
  5
42B
100
AcDbEntity
  8
0
100
AcDbCircle
 62
7
  6
CONTINUOUS
 10
12.1282261076
 20
8.8696489965
 40
0.4966043657
100
AcDbArc
 50
129.0022415962
 51
129.1746481149
  0
ARC
  5
42C
100
AcDbEntity
  8
0
100
AcDbCircle
 62
7
  6
CONTINUOUS
 10
12.1266424797
 20
8.8716097904
 40
0.4940839334
100
AcDbArc
 50
128.0100306632
 51
129.0026308025
  0
ARC
  5
42D
100
AcDbEntity
  8
0
100
AcDbCircle
 62
7
  6
CONTINUOUS
 10
12.1225762453
 20
8.8723425554
 40
0.4933491255
100
AcDbArc
 50
127.9976452748
 51
128.9915571993
  0
ARC
  5
42E
100
AcDbEntity
  8
0
100
AcDbCircle
 62
7
  6
CONTINUOUS
 10
12.1227309315
 20
8.871856956
 40
0.4928944745
100
AcDbArc
 50
128.0683942314
 51
129.0641458931
  0
ARC
  5
42F
100
AcDbEntity
  8
0
100
AcDbCircle
 62
7
  6
CONTINUOUS
 10
12.1239556835
 20
8.8750342391
 40
0.4897312727
100
AcDbArc
 50
127.4127884662
 51
128.0090758471
  0
ARC
  5
430
100
AcDbEntity
  8
0
100
AcDbCircle
 62
7
  6
CONTINUOUS
 10
12.1577986876
 20
8.8290963702
 40
0.4893755596
100
AcDbArc
 50
56.4916938908
 51
56.8989189182
  0
ARC
  5
431
100
AcDbEntity
  8
0
100
AcDbCircle
 62
7
  6
CONTINUOUS
 10
12.1584076063
 20
8.8300306689
 40
0.4882603484
100
AcDbArc
 50
56.8989023996
 51
57.3469987582
  0
ARC
  5
432
100
AcDbEntity
  8
0
100
AcDbCircle
 62
7
  6
CONTINUOUS
 10
12.1590248436
 20
8.8309936029
 40
0.4871165724
100
AcDbArc
 50
57.3470145485
 51
57.7523008073
  0
ARC
  5
433
100
AcDbEntity
  8
0
100
AcDbCircle
 62
7
  6
CONTINUOUS
 10
12.1604298451
 20
8.83323803
 40
0.4844686684
100
AcDbArc
 50
57.7512005085
 51
59.0243968554
  0
ARC
  5
434
100
AcDbEntity
  8
0
100
AcDbCircle
 62
7
  6
CONTINUOUS
 10
12.1615459649
 20
8.8350929892
 40
0.4823038146
100
AcDbArc
 50
59.0246639775
 51
59.578256003
  0
ARC
  5
435
100
AcDbEntity
  8
0
100
AcDbCircle
 62
7
  6
CONTINUOUS
 10
12.1621456348
 20
8.8361135772
 40
0.4811200895
100
AcDbArc
 50
59.6538764577
 51
59.9070345583
  0
ARC
  5
436
100
AcDbEntity
  8
0
100
AcDbCircle
 62
7
  6
CONTINUOUS
 10
12.1195584059
 20
8.8762169146
 40
0.4884381211
100
AcDbArc
 50
127.004523157
 51
127.9984666374
  0
ARC
  5
437
100
AcDbEntity
  8
0
100
AcDbCircle
 62
7
  6
CONTINUOUS
 10
12.1196919267
 20
8.8757487028
 40
0.487956743
100
AcDbArc
 50
127.0667811626
 51
128.0692307655
  0
ARC
  5
438
100
AcDbEntity
  8
0
100
AcDbCircle
 62
7
  6
CONTINUOUS
 10
12.1223382496
 20
8.8771481143
 40
0.4870695869
100
AcDbArc
 50
127.0158401691
 51
127.3288265564
  0
ARC
  5
439
100
AcDbEntity
  8
0
100
AcDbCircle
 62
7
  6
CONTINUOUS
 10
12.1222235712
 20
8.8835955463
 40
0.4787005964
100
AcDbArc
 50
125.0236158059
 51
125.7756463755
  0
ARC
  5
43A
100
AcDbEntity
  8
0
100
AcDbCircle
 62
7
  6
CONTINUOUS
 10
12.2280069275
 20
8.9334385955
 40
0.3652847804
100
AcDbArc
 50
58.4199008597
 51
59.4375938247
  0
ARC
  5
43B
100
AcDbEntity
  8
0
100
AcDbCircle
 62
7
  6
CONTINUOUS
 10
12.228101344
 20
8.9331365951
 40
0.3644508571
100
AcDbArc
 50
58.3567112332
 51
59.5790858233
  0
ARC
  5
43C
100
AcDbEntity
  8
0
100
AcDbCircle
 62
7
  6
CONTINUOUS
 10
12.2301968198
 20
8.9371350667
 40
0.3609883295
100
AcDbArc
 50
59.438561146
 51
60.450126274
  0
ARC
  5
43D
100
AcDbEntity
  8
0
100
AcDbCircle
 62
7
  6
CONTINUOUS
 10
12.23035214
 20
8.9369461403
 40
0.360026089
100
AcDbArc
 50
59.58099056
 51
60.3774678886
  0
ARC
  5
43E
100
AcDbEntity
  8
0
100
AcDbCircle
 62
7
  6
CONTINUOUS
 10
12.2318970287
 20
8.9401171747
 40
0.3575556034
100
AcDbArc
 50
60.4514624051
 51
60.9220136138
  0
ARC
  5
43F
100
AcDbEntity
  8
0
100
AcDbCircle
 62
7
  6
CONTINUOUS
 10
12.2318711082
 20
8.9396099687
 40
0.35695962
100
AcDbArc
 50
60.3780702642
 51
60.9559126284
  0
ARC
  5
440
100
AcDbEntity
  8
0
100
AcDbCircle
 62
7
  6
CONTINUOUS
 10
12.2326247073
 20
8.9414243271
 40
0.3560595543
100
AcDbArc
 50
60.9221239473
 51
61.2361175737
  0
ARC
  5
441
100
AcDbEntity
  8
0
100
AcDbCircle
 62
7
  6
CONTINUOUS
 10
12.2327383349
 20
8.9411688423
 40
0.355175757
100
AcDbArc
 50
60.9561326751
 51
61.2722126346
  0
ARC
  5
442
100
AcDbEntity
  8
0
100
AcDbCircle
 62
7
  6
CONTINUOUS
 10
12.2331152197
 20
8.9423173268
 40
0.3550407065
100
AcDbArc
 50
61.2361620701
 51
61.4576116872
  0
ARC
  5
443
100
AcDbEntity
  8
0
100
AcDbCircle
 62
7
  6
CONTINUOUS
 10
12.138305712
 20
8.9944901605
 40
0.3523470657
100
AcDbArc
 50
95.5701492481
 51
96.2430106763
  0
ARC
  5
444
100
AcDbEntity
  8
0
100
AcDbCircle
 62
7
  6
CONTINUOUS
 10
12.1382437559
 20
8.9950356949
 40
0.3517980291
100
AcDbArc
 50
96.2426419053
 51
97.9693233585
  0
ARC
  5
445
100
AcDbEntity
  8
0
100
AcDbCircle
 62
7
  6
CONTINUOUS
 10
12.1382003239
 20
8.9953516269
 40
0.3514791266
100
AcDbArc
 50
97.9694520154
 51
98.235560499
  0
ARC
  5
446
100
AcDbEntity
  8
0
100
AcDbCircle
 62
7
  6
CONTINUOUS
 10
12.1382140734
 20
8.9954774632
 40
0.3513555301
100
AcDbArc
 50
93.341326846
 51
95.5709036155
  0
ARC
  5
447
100
AcDbEntity
  8
0
100
AcDbCircle
 62
7
  6
CONTINUOUS
 10
12.138096285
 20
8.9972928687
 40
0.3495363457
100
AcDbArc
 50
92.6486339205
 51
93.33939606
  0
ARC
  5
448
100
AcDbEntity
  8
0
100
AcDbCircle
 62
7
  6
CONTINUOUS
 10
12.1380673953
 20
8.9979333134
 40
0.3488952502
100
AcDbArc
 50
89.3057758475
 51
92.6487549053
  0
ARC
  5
449
100
AcDbEntity
  8
0
100
AcDbCircle
 62
7
  6
CONTINUOUS
 10
12.1519916094
 20
9.0033730302
 40
0.3456933127
100
AcDbArc
 50
112.058180344
 51
115.6602547777
  0
ARC
  5
44A
100
AcDbEntity
  8
0
100
AcDbCircle
 62
7
  6
CONTINUOUS
 10
12.1519903092
 20
9.0029051049
 40
0.3451488446
100
AcDbArc
 50
112.0945762118
 51
115.6278644597
  0
ARC
  5
44B
100
AcDbEntity
  8
0
100
AcDbCircle
 62
7
  6
CONTINUOUS
 10
12.1077342064
 20
9.0821759357
 40
0.3538056929
100
AcDbArc
 50
153.2803719935
 51
153.9104940965
  0
ARC
  5
44C
100
AcDbEntity
  8
0
100
AcDbCircle
 62
7
  6
CONTINUOUS
 10
12.0966675789
 20
9.0986009927
 40
0.3283251605
100
AcDbArc
 50
152.2183204218
 51
152.4820579774
  0
ARC
  5
44D
100
AcDbEntity
  8
0
100
AcDbCircle
 62
7
  6
CONTINUOUS
 10
12.080563688
 20
9.1071321421
 40
0.310101166
100
AcDbArc
 50
150.5335655701
 51
152.2260214248
  0
ARC
  5
44E
100
AcDbEntity
  8
0
100
AcDbCircle
 62
7
  6
CONTINUOUS
 10
12.1034310752
 20
9.0774502501
 40
0.276477741
100
AcDbArc
 50
84.6841478159
 51
85.4633730572
  0
ARC
  5
44F
100
AcDbEntity
  8
0
100
AcDbCircle
 62
7
  6
CONTINUOUS
 10
12.0446589335
 20
9.1273920721
 40
0.2688747721
100
AcDbArc
 50
147.7839218972
 51
150.5286963803
  0
ARC
  5
450
100
AcDbEntity
  8
0
100
AcDbCircle
 62
7
  6
CONTINUOUS
 10
12.0233176731
 20
9.1281844891
 40
0.2576427585
100
AcDbArc
 50
147.9239101144
 51
150.2035750096
  0
ARC
  5
451
100
AcDbEntity
  8
0
100
AcDbCircle
 62
7
  6
CONTINUOUS
 10
12.0227639
 20
9.1293947444
 40
0.257153457
100
AcDbArc
 50
147.8655681205
 51
150.1451837632
  0
ARC
  5
452
100
AcDbEntity
  8
0
100
AcDbCircle
 62
7
  6
CONTINUOUS
 10
12.0139964841
 20
9.1464359356
 40
0.2327805766
100
AcDbArc
 50
146.234221287
 51
147.7261700674
  0
ARC
  5
453
100
AcDbEntity
  8
0
100
AcDbCircle
 62
7
  6
CONTINUOUS
 10
12.0023882809
 20
9.1541180543
 40
0.2188607792
100
AcDbArc
 50
145.9697957947
 51
146.2170589592
  0
ARC
  5
454
100
AcDbEntity
  8
0
100
AcDbCircle
 62
7
  6
CONTINUOUS
 10
12.125320458
 20
9.1332108134
 40
0.2176867207
100
AcDbArc
 50
97.6334505607
 51
100.0936596232
  0
ARC
  5
455
100
AcDbEntity
  8
0
100
AcDbCircle
 62
7
  6
CONTINUOUS
 10
12.1250027206
 20
9.1359545943
 40
0.2159259414
100
AcDbArc
 50
92.0150084547
 51
100.4245376689
  0
ARC
  5
456
100
AcDbEntity
  8
0
100
AcDbCircle
 62
7
  6
CONTINUOUS
 10
12.1248942336
 20
9.1366916127
 40
0.2141801538
100
AcDbArc
 50
92.0024001076
 51
97.6441309612
  0
ARC
  5
457
100
AcDbEntity
  8
0
100
AcDbCircle
 62
7
  6
CONTINUOUS
 10
12.0635774798
 20
9.2436379231
 40
0.1086363311
100
AcDbArc
 50
83.6666667326
 51
85.3975520075
  0
ARC
  5
458
100
AcDbEntity
  8
0
100
AcDbCircle
 62
7
  6
CONTINUOUS
 10
12.0455820534
 20
9.2938672865
 40
0.028651159
100
AcDbArc
 50
112.1618507356
 51
113.2395843371
  0
ARC
  5
459
100
AcDbEntity
  8
0
100
AcDbCircle
 62
7
  6
CONTINUOUS
 10
12.2603218019
 20
9.0588853621
 40
0.2431151305
100
AcDbArc
 50
58.4921307
 51
59.9428517984
  0
ARC
  5
45A
100
AcDbEntity
  8
0
100
AcDbCircle
 62
7
  6
CONTINUOUS
 10
12.2774465292
 20
9.0528925859
 40
0.2397296635
100
AcDbArc
 50
54.0094724595
 51
55.2085379327
  0
ARC
  5
45B
100
AcDbEntity
  8
0
100
AcDbCircle
 62
7
  6
CONTINUOUS
 10
12.2625918982
 20
9.0625423987
 40
0.2388108701
100
AcDbArc
 50
57.8752680272
 51
58.4979338451
  0
ARC
  5
45C
100
AcDbEntity
  8
0
100
AcDbCircle
 62
7
  6
CONTINUOUS
 10
12.3099912849
 20
9.1428170754
 40
0.1446837321
100
AcDbArc
 50
57.8980826768
 51
60.1886010238
  0
ARC
  5
45D
100
AcDbEntity
  8
0
100
AcDbCircle
 62
7
  6
CONTINUOUS
 10
12.3326836427
 20
9.1603903986
 40
0.1090599986
100
AcDbArc
 50
55.5285309906
 51
59.9124705159
  0
ARC
  5
45E
100
AcDbEntity
  8
0
100
AcDbCircle
 62
7
  6
CONTINUOUS
 10
12.3330214056
 20
9.1617985859
 40
0.1087036915
100
AcDbArc
 50
53.2999230044
 51
57.8544191283
  0
ARC
  5
45F
100
AcDbEntity
  8
0
100
AcDbCircle
 62
7
  6
CONTINUOUS
 10
12.3335425028
 20
9.1628362151
 40
0.1075479277
100
AcDbArc
 50
57.7953474477
 51
59.9763127148
  0
ARC
  5
460
100
AcDbEntity
  8
0
100
AcDbCircle
 62
7
  6
CONTINUOUS
 10
12.3338065263
 20
9.1618516937
 40
0.1072197929
100
AcDbArc
 50
53.2321134702
 51
55.581235286
  0
ARC
  5
461
100
AcDbEntity
  8
0
100
AcDbCircle
 62
7
  6
CONTINUOUS
 10
12.4012004882
 20
9.1556989941
 40
0.0817370514
100
AcDbArc
 50
92.4725452828
 51
95.7324572205
  0
ARC
  5
462
100
AcDbEntity
  8
0
100
AcDbCircle
 62
7
  6
CONTINUOUS
 10
12.3956897682
 20
9.1589089411
 40
0.0816449984
100
AcDbArc
 50
87.717110526
 51
90.2854327671
  0
ARC
  5
463
100
AcDbEntity
  8
0
100
AcDbCircle
 62
7
  6
CONTINUOUS
 10
12.4011645154
 20
9.1560646795
 40
0.0813706916
100
AcDbArc
 50
85.9062545432
 51
89.1857478771
  0
ARC
  5
464
100
AcDbEntity
  8
0
100
AcDbCircle
 62
7
  6
CONTINUOUS
 10
12.4011712644
 20
9.1562451691
 40
0.0811901244
100
AcDbArc
 50
89.1887000932
 51
92.4685691766
  0
ARC
  5
465
100
AcDbEntity
  8
0
100
AcDbCircle
 62
7
  6
CONTINUOUS
 10
12.3182362808
 20
9.1865285193
 40
0.0950986258
100
AcDbArc
 50
59.6139255418
 51
60.8982206578
  0
ARC
  5
466
100
AcDbEntity
  8
0
100
AcDbCircle
 62
7
  6
CONTINUOUS
 10
12.3198302009
 20
9.1892007135
 40
0.0919872529
100
AcDbArc
 50
56.5110181931
 51
59.6284468324
  0
ARC
  5
467
100
AcDbEntity
  8
0
100
AcDbCircle
 62
7
  6
CONTINUOUS
 10
12.3413949306
 20
9.1763774347
 40
0.0918946656
100
AcDbArc
 50
59.9908531074
 51
62.3127398239
  0
ARC
  5
468
100
AcDbEntity
  8
0
100
AcDbCircle
 62
7
  6
CONTINUOUS
 10
12.3413422585
 20
9.1753138442
 40
0.0918065721
100
AcDbArc
 50
59.9190239691
 51
61.6280892136
  0
ARC
  5
469
100
AcDbEntity
  8
0
100
AcDbCircle
 62
7
  6
CONTINUOUS
 10
12.320281577
 20
9.1909643724
 40
0.091243235
100
AcDbArc
 50
56.5417661234
 51
60.8612446906
  0
ARC
  5
46A
100
AcDbEntity
  8
0
100
AcDbCircle
 62
7
  6
CONTINUOUS
 10
12.3297679841
 20
9.1911899976
 40
0.0889405947
100
AcDbArc
 50
58.1787605666
 51
60.0254695819
  0
ARC
  5
46B
100
AcDbEntity
  8
0
100
AcDbCircle
 62
7
  6
CONTINUOUS
 10
12.3463762108
 20
9.1882712659
 40
0.0880034718
100
AcDbArc
 50
92.4532435082
 51
95.3154925376
  0
ARC
  5
46C
100
AcDbEntity
  8
0
100
AcDbCircle
 62
7
  6
CONTINUOUS
 10
12.3463732596
 20
9.187375242
 40
0.0877496156
100
AcDbArc
 50
92.4455786678
 51
94.2391104925
  0
ARC
  5
46D
100
AcDbEntity
  8
0
100
AcDbCircle
 62
7
  6
CONTINUOUS
 10
12.3463553836
 20
9.1885660627
 40
0.0877082935
100
AcDbArc
 50
86.6749389309
 51
89.5682893519
  0
ARC
  5
46E
100
AcDbEntity
  8
0
100
AcDbCircle
 62
7
  6
CONTINUOUS
 10
12.3463586075
 20
9.1886533916
 40
0.0876209428
100
AcDbArc
 50
89.5699671005
 51
92.4524387876
  0
ARC
  5
46F
100
AcDbEntity
  8
0
100
AcDbCircle
 62
7
  6
CONTINUOUS
 10
12.3463552278
 20
9.1876075388
 40
0.0875170244
100
AcDbArc
 50
86.6675616109
 51
89.5543847498
  0
ARC
  5
470
100
AcDbEntity
  8
0
100
AcDbCircle
 62
7
  6
CONTINUOUS
 10
12.3463589279
 20
9.1876948334
 40
0.0874297038
100
AcDbArc
 50
89.5563645637
 51
92.445132055
  0
ARC
  5
471
100
AcDbEntity
  8
0
100
AcDbCircle
 62
7
  6
CONTINUOUS
 10
12.3682834083
 20
9.1757650493
 40
0.0849837734
100
AcDbArc
 50
88.4919962139
 51
90.2742213792
  0
ARC
  5
472
100
AcDbEntity
  8
0
100
AcDbCircle
 62
7
  6
CONTINUOUS
 10
12.3546296537
 20
9.1817482088
 40
0.0831823645
100
AcDbArc
 50
53.194752553
 51
55.2492799558
  0
ARC
  5
473
100
AcDbEntity
  8
0
100
AcDbCircle
 62
7
  6
CONTINUOUS
 10
12.345899174
 20
9.1837333129
 40
0.0822330227
100
AcDbArc
 50
61.6341332361
 51
62.2928609806
  0
ARC
  5
474
100
AcDbEntity
  8
0
100
AcDbCircle
 62
7
  6
CONTINUOUS
 10
12.3535180758
 20
9.1957790044
 40
0.0774668158
100
AcDbArc
 50
52.8685021956
 51
53.8842495411
  0
ARC
  5
475
100
AcDbEntity
  8
0
100
AcDbCircle
 62
7
  6
CONTINUOUS
 10
12.3494570004
 20
9.1913088384
 40
0.0728020274
100
AcDbArc
 50
53.4013924973
 51
58.888466382
  0
ARC
  5
476
100
AcDbEntity
  8
0
100
AcDbCircle
 62
7
  6
CONTINUOUS
 10
12.3538011434
 20
9.1986202819
 40
0.0642976225
100
AcDbArc
 50
58.8362748352
 51
61.4257874866
  0
ARC
  5
477
100
AcDbEntity
  8
0
100
AcDbCircle
 62
7
  6
CONTINUOUS
 10
12.3390327595
 20
9.2182544088
 40
0.0581251702
100
AcDbArc
 50
53.1084583829
 51
53.7546748315
  0
ARC
  5
478
100
AcDbEntity
  8
0
100
AcDbCircle
 62
7
  6
CONTINUOUS
 10
12.3320500728
 20
9.2382615189
 40
0.0362806124
100
AcDbArc
 50
60.1730993034
 51
62.4862218606
  0
ARC
  5
479
100
AcDbEntity
  8
0
100
AcDbCircle
 62
7
  6
CONTINUOUS
 10
12.3326474296
 20
9.2392836129
 40
0.0350968005
100
AcDbArc
 50
56.7967944777
 51
60.1891888832
  0
ARC
  5
47A
100
AcDbEntity
  8
0
100
AcDbCircle
 62
7
  6
CONTINUOUS
 10
12.3750533558
 20
9.2228230278
 40
0.0321724443
100
AcDbArc
 50
46.3956280186
 51
47.2072141739
  0
ARC
  5
47B
100
AcDbEntity
  8
0
100
AcDbCircle
 62
7
  6
CONTINUOUS
 10
12.3658419244
 20
9.252436689
 40
0.0238436595
100
AcDbArc
 50
96.9535787319
 51
103.357885883
  0
ARC
  5
47C
100
AcDbEntity
  8
0
100
AcDbCircle
 62
7
  6
CONTINUOUS
 10
12.3658075741
 20
9.2515886857
 40
0.0235395441
100
AcDbArc
 50
96.9340702191
 51
99.6946819419
  0
ARC
  5
47D
100
AcDbEntity
  8
0
100
AcDbCircle
 62
7
  6
CONTINUOUS
 10
12.3657385435
 20
9.2533114473
 40
0.0229628198
100
AcDbArc
 50
83.7613784046
 51
96.9617683185
  0
ARC
  5
47E
100
AcDbEntity
  8
0
100
AcDbCircle
 62
7
  6
CONTINUOUS
 10
12.3657385879
 20
9.252213019
 40
0.0229114499
100
AcDbArc
 50
83.747446924
 51
96.951306445
  0
ARC
  5
47F
100
AcDbEntity
  8
0
100
AcDbCircle
 62
7
  6
CONTINUOUS
 10
12.3614707285
 20
9.2455357623
 40
0.0227837878
100
AcDbArc
 50
46.3487399135
 51
47.3798329304
  0
ARC
  5
480
100
AcDbEntity
  8
0
100
AcDbCircle
 62
7
  6
CONTINUOUS
 10
12.39468323
 20
9.2351220897
 40
0.0220575657
100
AcDbArc
 50
87.0797339367
 51
93.5080450056
  0
ARC
  5
481
100
AcDbEntity
  8
0
100
AcDbCircle
 62
7
  6
CONTINUOUS
 10
12.4089479741
 20
9.2267535135
 40
0.0216822171
100
AcDbArc
 50
48.5718156989
 51
49.6303853753
  0
ARC
  5
482
100
AcDbEntity
  8
0
100
AcDbCircle
 62
7
  6
CONTINUOUS
 10
12.3633609344
 20
9.2463666985
 40
0.0200228042
100
AcDbArc
 50
45.0257221837
 51
46.259141087
  0
ARC
  5
483
100
AcDbEntity
  8
0
100
AcDbCircle
 62
7
  6
CONTINUOUS
 10
12.8690315737
 20
8.8015119802
 40
0.1288798255
100
AcDbArc
 50
90.0090001893
 51
104.0163925977
  0
ARC
  5
484
100
AcDbEntity
  8
0
100
AcDbCircle
 62
7
  6
CONTINUOUS
 10
12.6147946802
 20
8.965391804
 40
0.015
100
AcDbArc
 50
270.0
 51
360.0
  0
ARC
  5
485
100
AcDbEntity
  8
0
100
AcDbCircle
 62
7
  6
CONTINUOUS
 10
12.6122946802
 20
8.925391804
 40
0.01
100
AcDbArc
 50
0.0
 51
90.0
  0
ARC
  5
486
100
AcDbEntity
  8
0
100
AcDbCircle
 62
7
  6
CONTINUOUS
 10
12.4649123195
 20
9.094969998
 40
0.125
100
AcDbArc
 50
2.4859527196
 51
75.0
  0
ARC
  5
487
100
AcDbEntity
  8
0
100
AcDbCircle
 62
7
  6
CONTINUOUS
 10
12.4598799897
 20
9.3252007801
 40
0.0927734078
100
AcDbArc
 50
238.834078538
 51
239.1758277058
  0
ARC
  5
488
100
AcDbEntity
  8
0
100
AcDbCircle
 62
7
  6
CONTINUOUS
 10
12.5797946802
 20
9.0514020092
 40
0.05
100
AcDbArc
 50
0.0
 51
78.4630409672
  0
ARC
  5
489
100
AcDbEntity
  8
0
100
AcDbCircle
 62
7
  6
CONTINUOUS
 10
12.8719692379
 20
9.9065719812
 40
0.8003847442
100
AcDbArc
 50
235.2294215645
 51
235.4080623813
  0
ARC
  5
48A
100
AcDbEntity
  8
0
100
AcDbCircle
 62
7
  6
CONTINUOUS
 10
12.8243010296
 20
9.8371827077
 40
0.7161998097
100
AcDbArc
 50
235.3958237829
 51
235.6432754194
  0
ARC
  5
48B
100
AcDbEntity
  8
0
100
AcDbCircle
 62
7
  6
CONTINUOUS
 10
12.491285006
 20
9.3752335678
 40
0.1518496133
100
AcDbArc
 50
235.2572668699
 51
237.0515744817
  0
ARC
  5
48C
100
AcDbEntity
  8
0
100
AcDbCircle
 62
7
  6
CONTINUOUS
 10
17.9262798956
 20
8.9738700285
 40
2.769275522
100
AcDbArc
 50
38.8776444185
 51
41.294363137
  0
ARC
  5
48D
100
AcDbEntity
  8
0
100
AcDbCircle
 62
7
  6
CONTINUOUS
 10
24.2588315335
 20
8.9397641906
 40
2.8222285399
100
AcDbArc
 50
138.7283123494
 51
141.0996776276
  0
ARC
  5
48E
100
AcDbEntity
  8
0
100
AcDbCircle
 62
7
  6
CONTINUOUS
 10
21.6822946802
 20
9.8762249518
 40
0.15
100
AcDbArc
 50
330.0735651336
 51
360.0
  0
ARC
  5
48F
100
AcDbEntity
  8
0
100
AcDbCircle
 62
7
  6
CONTINUOUS
 10
20.4622946802
 20
9.8762249518
 40
0.15
100
AcDbArc
 50
180.0
 51
209.9264348664
  0
ARC
  5
490
100
AcDbEntity
  8
0
100
AcDbCircle
 62
7
  6
CONTINUOUS
 10
20.1447946802
 20
11.411391804
 40
0.15
100
AcDbArc
 50
90.0
 51
114.6243183522
  0
ARC
  5
491
100
AcDbEntity
  8
0
100
AcDbCircle
 62
7
  6
CONTINUOUS
 10
21.9997946802
 20
11.411391804
 40
0.15
100
AcDbArc
 50
65.3756816478
 51
90.0
  0
ARC
  5
492
100
AcDbEntity
  8
0
100
AcDbCircle
 62
7
  6
CONTINUOUS
 10
21.9322946802
 20
10.4356525729
 40
0.1
100
AcDbArc
 50
135.6687919533
 51
180.0
  0
ARC
  5
493
100
AcDbEntity
  8
0
100
AcDbCircle
 62
7
  6
CONTINUOUS
 10
20.2122946802
 20
10.4356525729
 40
0.1
100
AcDbArc
 50
0.0
 51
44.3312080467
  0
ARC
  5
494
100
AcDbEntity
  8
0
100
AcDbCircle
 62
7
  6
CONTINUOUS
 10
20.1674480324
 20
11.5915451562
 40
0.0301533521
100
AcDbArc
 50
98.1789688981
 51
270.0
  0
ARC
  5
495
100
AcDbEntity
  8
0
100
AcDbCircle
 62
7
  6
CONTINUOUS
 10
21.9771413281
 20
11.5915451562
 40
0.0301533521
100
AcDbArc
 50
270.0
 51
81.8210311019
  0
LINE
  5
496
100
AcDbEntity
  8
0
100
AcDbLine
 62
7
  6
CONTINUOUS
 10
12.1462178631
 20
9.3508836001
 11
12.1472374806
 21
9.3507579226
  0
SPLINE
  5
497
100
AcDbEntity
  8
0
100
AcDbSpline
 62
7
  6
CONTINUOUS
 70
0
 71
3
 72
15
 73
11
 74
0
 42
0.0000001
 43
0.0000001
 44
0.0000000001
 40
0.0
 40
0.0
 40
0.0
 40
0.0
 40
0.159796085
 40
0.3138416503
 40
0.4579230509
 40
0.5896813849
 40
0.7084967505
 40
0.8150855697
 40
0.9113139214
 40
1.0
 40
1.0
 40
1.0
 40
1.0
 10
12.1014440208
 20
9.2763197582
 30
0.0
 10
12.1028200186
 20
9.2762439744
 30
0.0
 10
12.1055164976
 20
9.2759357775
 30
0.0
 10
12.1093688381
 20
9.2750267041
 30
0.0
 10
12.1128551914
 20
9.2737364643
 30
0.0
 10
12.1158722385
 20
9.2721373412
 30
0.0
 10
12.1183599794
 20
9.2702993387
 30
0.0
 10
12.1202874421
 20
9.268282174
 30
0.0
 10
12.1216352369
 20
9.2661379638
 30
0.0
 10
12.1221505809
 20
9.2646078659
 30
0.0
 10
12.1222946802
 20
9.2638567335
 30
0.0
  0
SPLINE
  5
498
100
AcDbEntity
  8
0
100
AcDbSpline
 62
7
  6
CONTINUOUS
 70
0
 71
3
 72
15
 73
11
 74
0
 42
0.0000001
 43
0.0000001
 44
0.0000000001
 40
0.0
 40
0.0
 40
0.0
 40
0.0
 40
0.0731814275
 40
0.1553178596
 40
0.2530247767
 40
0.3694956104
 40
0.5054843109
 40
0.6590279229
 40
0.8262667536
 40
1.0
 40
1.0
 40
1.0
 40
1.0
 10
12.079885106
 20
9.3006923642
 30
0.0
 10
12.079885106
 20
9.3009780463
 30
0.0
 10
12.0800203764
 20
9.3015893449
 30
0.0
 10
12.0805883168
 20
9.3024185331
 30
0.0
 10
12.0814901265
 20
9.303160084
 30
0.0
 10
12.0827039123
 20
9.3038031609
 30
0.0
 10
12.0842055637
 20
9.3043249334
 30
0.0
 10
12.0859517911
 20
9.3047038959
 30
0.0
 10
12.0878741106
 20
9.3049113992
 30
0.0
 10
12.0892072316
 20
9.3049315949
 30
0.0
 10
12.089885106
 20
9.3049102198
 30
0.0
  0
SPLINE
  5
499
100
AcDbEntity
  8
0
100
AcDbSpline
 62
7
  6
CONTINUOUS
 70
0
 71
3
 72
13
 73
9
 74
0
 42
0.0000001
 43
0.0000001
 44
0.0000000001
 40
0.0
 40
0.0
 40
0.0
 40
0.0
 40
0.2946539029
 40
0.5696007183
 40
0.6941638269
 40
0.8081817705
 40
0.9104565632
 40
1.0
 40
1.0
 40
1.0
 40
1.0
 10
12.1006440451
 20
9.3328771354
 30
0.0
 10
12.1028427162
 20
9.3327707358
 30
0.0
 10
12.1070861202
 20
9.3323870452
 30
0.0
 10
12.1122007717
 20
9.3314801314
 30
0.0
 10
12.1159131506
 20
9.3305051134
 30
0.0
 10
12.1183336223
 20
9.3297078569
 30
0.0
 10
12.1204482478
 20
9.3288373046
 30
0.0
 10
12.1217223368
 20
9.3281744495
 30
0.0
 10
12.1222946802
 20
9.3278281707
 30
0.0
  0
LINE
  5
49A
100
AcDbEntity
  8
0
100
AcDbLine
 62
7
  6
CONTINUOUS
 10
12.086793146
 20
9.3427670871
 11
12.0872913755
 21
9.3430926183
  0
LINE
  5
49B
100
AcDbEntity
  8
0
100
AcDbLine
 62
7
  6
CONTINUOUS
 10
12.0872913755
 20
9.3430926183
 11
12.0878533261
 21
9.3432061314
  0
SPLINE
  5
49C
100
AcDbEntity
  8
0
100
AcDbSpline
 62
7
  6
CONTINUOUS
 70
0
 71
3
 72
10
 73
6
 74
0
 42
0.0000001
 43
0.0000001
 44
0.0000000001
 40
0.0
 40
0.0
 40
0.0
 40
0.0
 40
0.5200693931
 40
0.7684768169
 40
1.0
 40
1.0
 40
1.0
 40
1.0
 10
12.0722946802
 20
9.3548778883
 30
0.0
 10
12.0796355668
 20
9.3548778971
 30
0.0
 10
12.090483559
 20
9.3547354026
 30
0.0
 10
12.1045912606
 20
9.3542675291
 30
0.0
 10
12.1113584274
 20
9.3539494545
 30
0.0
 10
12.1146214371
 20
9.3537689701
 30
0.0
  0
LINE
  5
49D
100
AcDbEntity
  8
0
100
AcDbLine
 62
7
  6
CONTINUOUS
 10
12.372779034
 20
9.2759437816
 11
12.3722946802
 21
9.2762212004
  0
LINE
  5
49E
100
AcDbEntity
  8
0
100
AcDbLine
 62
7
  6
CONTINUOUS
 10
12.3722946802
 20
9.2762457669
 11
12.37278906
 21
9.2759632924
  0
LINE
  5
49F
100
AcDbEntity
  8
0
100
AcDbLine
 62
7
  6
CONTINUOUS
 10
12.3992233101
 20
9.2598478825
 11
12.4001939225
 21
9.2592170978
  0
LINE
  5
4A0
100
AcDbEntity
  8
0
100
AcDbLine
 62
7
  6
CONTINUOUS
 10
12.401963552
 20
9.258059669
 11
12.4027841581
 21
9.2575197022
  0
LINE
  5
4A1
100
AcDbEntity
  8
0
100
AcDbLine
 62
7
  6
CONTINUOUS
 10
12.4043048651
 20
9.2565135928
 11
12.4050585457
 21
9.2560123091
  0
LINE
  5
4A2
100
AcDbEntity
  8
0
100
AcDbLine
 62
7
  6
CONTINUOUS
 10
12.4050585457
 20
9.2560123091
 11
12.4057242611
 21
9.2555680693
  0
LINE
  5
4A3
100
AcDbEntity
  8
0
100
AcDbLine
 62
7
  6
CONTINUOUS
 10
12.4131936996
 20
9.2504884187
 11
12.4136587354
 21
9.2501663184
  0
LINE
  5
4A4
100
AcDbEntity
  8
0
100
AcDbLine
 62
7
  6
CONTINUOUS
 10
12.4136587354
 20
9.2501663184
 11
12.414234165
 21
9.2497667951
  0
LINE
  5
4A5
100
AcDbEntity
  8
0
100
AcDbLine
 62
7
  6
CONTINUOUS
 10
12.4183240238
 20
9.2468612511
 11
12.4213880404
 21
9.2445663863
  0
LINE
  5
4A6
100
AcDbEntity
  8
0
100
AcDbLine
 62
7
  6
CONTINUOUS
 10
12.4213880404
 20
9.2445663863
 11
12.4229918919
 21
9.2432728026
  0
SPLINE
  5
4A7
100
AcDbEntity
  8
0
100
AcDbSpline
 62
7
  6
CONTINUOUS
 70
0
 71
3
 72
11
 73
7
 74
0
 42
0.0000001
 43
0.0000001
 44
0.0000000001
 40
0.0
 40
0.0
 40
0.0
 40
0.0
 40
0.1944555111
 40
0.4250901101
 40
0.6941581042
 40
1.0
 40
1.0
 40
1.0
 40
1.0
 10
11.7803823992
 20
9.2441900359
 30
0.0
 10
11.7803810013
 20
9.2443883383
 30
0.0
 10
11.7804538947
 20
9.2448222054
 30
0.0
 10
11.780718336
 20
9.2454817603
 30
0.0
 10
11.7811288468
 20
9.2461956711
 30
0.0
 10
11.7814713148
 20
9.2466725291
 30
0.0
 10
11.7816621813
 20
9.2469192103
 30
0.0
  0
LINE
  5
4A8
100
AcDbEntity
  8
0
100
AcDbLine
 62
7
  6
CONTINUOUS
 10
11.7816621813
 20
9.2469192103
 11
11.782270787
 21
9.2476532739
  0
LINE
  5
4A9
100
AcDbEntity
  8
0
100
AcDbLine
 62
7
  6
CONTINUOUS
 10
11.7828315689
 20
9.2482610491
 11
11.7849146095
 21
9.2501915348
  0
SPLINE
  5
4AA
100
AcDbEntity
  8
0
100
AcDbSpline
 62
7
  6
CONTINUOUS
 70
0
 71
3
 72
10
 73
6
 74
0
 42
0.0000001
 43
0.0000001
 44
0.0000000001
 40
0.0
 40
0.0
 40
0.0
 40
0.0
 40
0.4380510668
 40
0.7036342077
 40
1.0
 40
1.0
 40
1.0
 40
1.0
 10
11.804481231
 20
9.2436918335
 30
0.0
 10
11.8044788517
 20
9.2441721012
 30
0.0
 10
11.8047053252
 20
9.2449394539
 30
0.0
 10
11.8052127016
 20
9.2459081521
 30
0.0
 10
11.8055561798
 20
9.246422209
 30
0.0
 10
11.8057472918
 20
9.2466849955
 30
0.0
  0
LINE
  5
4AB
100
AcDbEntity
  8
0
100
AcDbLine
 62
7
  6
CONTINUOUS
 10
11.8057472918
 20
9.2466849955
 11
11.8066286771
 21
9.2477751784
  0
LINE
  5
4AC
100
AcDbEntity
  8
0
100
AcDbLine
 62
7
  6
CONTINUOUS
 10
11.8072183799
 20
9.2484095537
 11
11.8090138049
 21
9.2500692858
  0
SPLINE
  5
4AD
100
AcDbEntity
  8
0
100
AcDbSpline
 62
7
  6
CONTINUOUS
 70
0
 71
3
 72
12
 73
8
 74
0
 42
0.0000001
 43
0.0000001
 44
0.0000000001
 40
0.0
 40
0.0
 40
0.0
 40
0.0
 40
0.302552419
 40
0.5770363678
 40
0.8137128364
 40
0.9140766285
 40
1.0
 40
1.0
 40
1.0
 40
1.0
 10
12.404463953
 20
9.2483503737
 30
0.0
 10
12.4050866246
 20
9.2478837658
 30
0.0
 10
12.4062608247
 20
9.2469756291
 30
0.0
 10
12.4078664634
 20
9.2456328166
 30
0.0
 10
12.4090218655
 20
9.2445637958
 30
0.0
 10
12.4097725635
 20
9.2437761729
 30
0.0
 10
12.4100834945
 20
9.2434110277
 30
0.0
 10
12.4102187841
 20
9.2432363062
 30
0.0
  0
LINE
  5
4AE
100
AcDbEntity
  8
0
100
AcDbLine
 62
7
  6
CONTINUOUS
 10
12.4102187841
 20
9.2432363062
 11
12.4109573781
 21
9.2427012835
  0
LINE
  5
4AF
100
AcDbEntity
  8
0
100
AcDbLine
 62
7
  6
CONTINUOUS
 10
12.4109573781
 20
9.2427012835
 11
12.4115507789
 21
9.2422701829
  0
SPLINE
  5
4B0
100
AcDbEntity
  8
0
100
AcDbSpline
 62
7
  6
CONTINUOUS
 70
0
 71
3
 72
9
 73
5
 74
0
 42
0.0000001
 43
0.0000001
 44
0.0000000001
 40
0.0
 40
0.0
 40
0.0
 40
0.0
 40
0.2534436976
 40
1.0
 40
1.0
 40
1.0
 40
1.0
 10
12.4190221125
 20
9.236745559
 30
0.0
 10
12.4194349064
 20
9.2368509756
 30
0.0
 10
12.4210746705
 20
9.237222198
 30
0.0
 10
12.4227572652
 20
9.2374066179
 30
0.0
 10
12.4240119931
 20
9.2374312314
 30
0.0
  0
LINE
  5
4B1
100
AcDbEntity
  8
0
100
AcDbLine
 62
7
  6
CONTINUOUS
 10
12.3999550484
 20
9.2542935178
 11
12.4004609868
 21
9.2540637134
  0
LINE
  5
4B2
100
AcDbEntity
  8
0
100
AcDbLine
 62
7
  6
CONTINUOUS
 10
12.4004609868
 20
9.2540637134
 11
12.4009870163
 21
9.2537633398
  0
LINE
  5
4B3
100
AcDbEntity
  8
0
100
AcDbLine
 62
7
  6
CONTINUOUS
 10
12.4009870163
 20
9.2537633398
 11
12.4021156566
 21
9.253115887
  0
LINE
  5
4B4
100
AcDbEntity
  8
0
100
AcDbLine
 62
7
  6
CONTINUOUS
 10
12.4021156566
 20
9.253115887
 11
12.4029303639
 21
9.252645994
  0
LINE
  5
4B5
100
AcDbEntity
  8
0
100
AcDbLine
 62
7
  6
CONTINUOUS
 10
12.4029303639
 20
9.252645994
 11
12.4033814191
 21
9.2523849272
  0
LINE
  5
4B6
100
AcDbEntity
  8
0
100
AcDbLine
 62
7
  6
CONTINUOUS
 10
12.4052183293
 20
9.2513149809
 11
12.4057658335
 21
9.2509939695
  0
LINE
  5
4B7
100
AcDbEntity
  8
0
100
AcDbLine
 62
7
  6
CONTINUOUS
 10
12.4279623152
 20
9.23714055
 11
12.431496814
 21
9.2362552046
  0
LINE
  5
4B8
100
AcDbEntity
  8
0
100
AcDbLine
 62
7
  6
CONTINUOUS
 10
12.3662021421
 20
9.2721845931
 11
12.3677561823
 21
9.2715517075
  0
LINE
  5
4B9
100
AcDbEntity
  8
0
100
AcDbLine
 62
7
  6
CONTINUOUS
 10
12.3677561823
 20
9.2715517075
 11
12.3696549785
 21
9.2706688376
  0
LINE
  5
4BA
100
AcDbEntity
  8
0
100
AcDbLine
 62
7
  6
CONTINUOUS
 10
12.3696549785
 20
9.2706688376
 11
12.3742040374
 21
9.2682345728
  0
LINE
  5
4BB
100
AcDbEntity
  8
0
100
AcDbLine
 62
7
  6
CONTINUOUS
 10
12.3983174376
 20
9.2526595128
 11
12.3991576455
 21
9.2520847909
  0
LINE
  5
4BC
100
AcDbEntity
  8
0
100
AcDbLine
 62
7
  6
CONTINUOUS
 10
12.3991576455
 20
9.2520847909
 11
12.3997154401
 21
9.2517020773
  0
SPLINE
  5
4BD
100
AcDbEntity
  8
0
100
AcDbSpline
 62
7
  6
CONTINUOUS
 70
0
 71
3
 72
13
 73
9
 74
0
 42
0.0000001
 43
0.0000001
 44
0.0000000001
 40
0.0
 40
0.0
 40
0.0
 40
0.0
 40
0.331217373
 40
0.6206527345
 40
0.7436155467
 40
0.8487844969
 40
0.9344395949
 40
1.0
 40
1.0
 40
1.0
 40
1.0
 10
12.380719837
 20
9.2483643689
 30
0.0
 10
12.3812759959
 20
9.247946257
 30
0.0
 10
12.3822930128
 20
9.247128908
 30
0.0
 10
12.3834317653
 20
9.2460547387
 30
0.0
 10
12.3841461241
 20
9.2452341258
 30
0.0
 10
12.3845330629
 20
9.2446981342
 30
0.0
 10
12.3847866899
 20
9.2442221045
 30
0.0
 10
12.3848707937
 20
9.2439075366
 30
0.0
 10
12.384871507
 20
9.2437698145
 30
0.0
  0
SPLINE
  5
4BE
100
AcDbEntity
  8
0
100
AcDbSpline
 62
7
  6
CONTINUOUS
 70
0
 71
3
 72
11
 73
7
 74
0
 42
0.0000001
 43
0.0000001
 44
0.0000000001
 40
0.0
 40
0.0
 40
0.0
 40
0.0
 40
0.3336091983
 40
0.5969052551
 40
0.8072393682
 40
1.0
 40
1.0
 40
1.0
 40
1.0
 10
12.4069734519
 20
9.2372277604
 30
0.0
 10
12.4071654534
 20
9.2372140219
 30
0.0
 10
12.4075114674
 20
9.2372099111
 30
0.0
 10
12.4079737483
 20
9.2372982849
 30
0.0
 10
12.4083154809
 20
9.2374996202
 30
0.0
 10
12.4084376869
 20
9.2377109615
 30
0.0
 10
12.4084696956
 20
9.2378174789
 30
0.0
  0
LINE
  5
4BF
100
AcDbEntity
  8
0
100
AcDbLine
 62
7
  6
CONTINUOUS
 10
12.4084696956
 20
9.2378174789
 11
12.4085065575
 21
9.238087714
  0
SPLINE
  5
4C0
100
AcDbEntity
  8
0
100
AcDbSpline
 62
7
  6
CONTINUOUS
 70
0
 71
3
 72
10
 73
6
 74
0
 42
0.0000001
 43
0.0000001
 44
0.0000000001
 40
0.0
 40
0.0
 40
0.0
 40
0.0
 40
0.2078598116
 40
0.4532707023
 40
1.0
 40
1.0
 40
1.0
 40
1.0
 10
12.3437048574
 20
9.2724473214
 30
0.0
 10
12.3440785414
 20
9.2723727177
 30
0.0
 10
12.3448810056
 20
9.2721494007
 30
0.0
 10
12.3466045123
 20
9.2715226138
 30
0.0
 10
12.3479213026
 20
9.2709016127
 30
0.0
 10
12.3488103336
 20
9.2704387857
 30
0.0
  0
LINE
  5
4C1
100
AcDbEntity
  8
0
100
AcDbLine
 62
7
  6
CONTINUOUS
 10
12.3659036729
 20
9.2591250996
 11
12.3664596209
 21
9.2587346934
  0
LINE
  5
4C2
100
AcDbEntity
  8
0
100
AcDbLine
 62
7
  6
CONTINUOUS
 10
12.3664596209
 20
9.2587346934
 11
12.3676861456
 21
9.2578697653
  0
LINE
  5
4C3
100
AcDbEntity
  8
0
100
AcDbLine
 62
7
  6
CONTINUOUS
 10
12.3676861456
 20
9.2578697653
 11
12.3682407518
 21
9.257477024
  0
LINE
  5
4C4
100
AcDbEntity
  8
0
100
AcDbLine
 62
7
  6
CONTINUOUS
 10
11.7655628828
 20
9.2604711294
 11
11.7655888439
 21
9.2606593934
  0
LINE
  5
4C5
100
AcDbEntity
  8
0
100
AcDbLine
 62
7
  6
CONTINUOUS
 10
11.7655888439
 20
9.2606593934
 11
11.7659048116
 21
9.2612930658
  0
SPLINE
  5
4C6
100
AcDbEntity
  8
0
100
AcDbSpline
 62
7
  6
CONTINUOUS
 70
0
 71
3
 72
15
 73
11
 74
0
 42
0.0000001
 43
0.0000001
 44
0.0000000001
 40
0.0
 40
0.0
 40
0.0
 40
0.0
 40
0.173757568
 40
0.3410574512
 40
0.4946001783
 40
0.6305693769
 40
0.7470148358
 40
0.8447001
 40
0.9268231549
 40
1.0
 40
1.0
 40
1.0
 40
1.0
 10
12.0547042544
 20
9.3049102198
 30
0.0
 10
12.0553822252
 20
9.3049315979
 30
0.0
 10
12.0567156782
 20
9.304911225
 30
0.0
 10
12.0586383397
 20
9.3047038218
 30
0.0
 10
12.0603847219
 20
9.3043247527
 30
0.0
 10
12.0618861391
 20
9.3038028421
 30
0.0
 10
12.0630996426
 20
9.3031597921
 30
0.0
 10
12.0640012355
 20
9.3024183556
 30
0.0
 10
12.0645690624
 20
9.3015892681
 30
0.0
 10
12.0647042544
 20
9.300978029
 30
0.0
 10
12.0647042544
 20
9.3006923642
 30
0.0
  0
SPLINE
  5
4C7
100
AcDbEntity
  8
0
100
AcDbSpline
 62
7
  6
CONTINUOUS
 70
0
 71
3
 72
14
 73
10
 74
0
 42
0.0000001
 43
0.0000001
 44
0.0000000001
 40
0.0
 40
0.0
 40
0.0
 40
0.0
 40
0.0893435448
 40
0.1838680216
 40
0.28714025
 40
0.4018109821
 40
0.5296943371
 40
0.6719375257
 40
1.0
 40
1.0
 40
1.0
 40
1.0
 10
12.0272837665
 20
9.3133213917
 30
0.0
 10
12.0272837665
 20
9.3136283415
 30
0.0
 10
12.0273649506
 20
9.3142623163
 30
0.0
 10
12.0277169973
 20
9.3151917524
 30
0.0
 10
12.0282925947
 20
9.3161050615
 30
0.0
 10
12.0290856891
 20
9.3169954565
 30
0.0
 10
12.0300905685
 20
9.3178594348
 30
0.0
 10
12.0317878537
 20
9.3190233912
 30
0.0
 10
12.033241344
 20
9.3197490017
 30
0.0
 10
12.03427697
 20
9.3201937751
 30
0.0
  0
SPLINE
  5
4C8
100
AcDbEntity
  8
0
100
AcDbSpline
 62
7
  6
CONTINUOUS
 70
0
 71
3
 72
14
 73
10
 74
0
 42
0.0000001
 43
0.0000001
 44
0.0000000001
 40
0.0
 40
0.0
 40
0.0
 40
0.0
 40
0.1918334503
 40
0.302412142
 40
0.4235668595
 40
0.5554687069
 40
0.6971238449
 40
0.8466599581
 40
1.0
 40
1.0
 40
1.0
 40
1.0
 10
12.0172946802
 20
9.2654812658
 30
0.0
 10
12.0179359104
 20
9.2668498942
 30
0.0
 10
12.0194266755
 20
9.2687914505
 30
0.0
 10
12.021992833
 20
9.270929197
 30
0.0
 10
12.0244287733
 20
9.2724559469
 30
0.0
 10
12.0272514181
 20
9.2737762149
 30
0.0
 10
12.0304151116
 20
9.2748478504
 30
0.0
 10
12.0338393058
 20
9.2756113688
 30
0.0
 10
12.0362137908
 20
9.2758938169
 30
0.0
 10
12.037419292
 20
9.2759733048
 30
0.0
  0
LINE
  5
4C9
100
AcDbEntity
  8
0
100
AcDbLine
 62
7
  6
CONTINUOUS
 10
11.7532953276
 20
9.2529084459
 11
11.7535914994
 21
9.25286319
  0
LINE
  5
4CA
100
AcDbEntity
  8
0
100
AcDbLine
 62
7
  6
CONTINUOUS
 10
11.7535914994
 20
9.25286319
 11
11.7542205131
 21
9.2531165173
  0
LINE
  5
4CB
100
AcDbEntity
  8
0
100
AcDbLine
 62
7
  6
CONTINUOUS
 10
11.7331734707
 20
9.2387639275
 11
11.7331860223
 21
9.2386097848
  0
LINE
  5
4CC
100
AcDbEntity
  8
0
100
AcDbLine
 62
7
  6
CONTINUOUS
 10
11.7331860223
 20
9.2386097848
 11
11.7335961878
 21
9.2381041318
  0
LINE
  5
4CD
100
AcDbEntity
  8
0
100
AcDbLine
 62
7
  6
CONTINUOUS
 10
11.7335961878
 20
9.2381041318
 11
11.7345569173
 21
9.237995155
  0
SPLINE
  5
4CE
100
AcDbEntity
  8
0
100
AcDbSpline
 62
7
  6
CONTINUOUS
 70
0
 71
3
 72
13
 73
9
 74
0
 42
0.0000001
 43
0.0000001
 44
0.0000000001
 40
0.0
 40
0.0
 40
0.0
 40
0.0
 40
0.0897248465
 40
0.1921605432
 40
0.3062877814
 40
0.430888493
 40
0.7056101012
 40
1.0
 40
1.0
 40
1.0
 40
1.0
 10
12.0172946802
 20
9.3273760083
 30
0.0
 10
12.017866963
 20
9.3277274509
 30
0.0
 10
12.0191410441
 20
9.3284016749
 30
0.0
 10
12.0212561746
 20
9.3292911196
 30
0.0
 10
12.0236769703
 20
9.3301100116
 30
0.0
 10
12.0273878117
 20
9.3311168924
 30
0.0
 10
12.032500931
 20
9.3320685234
 30
0.0
 10
12.0367454069
 20
9.3324884827
 30
0.0
 10
12.0389453153
 20
9.3326137749
 30
0.0
  0
LINE
  5
4CF
100
AcDbEntity
  8
0
100
AcDbLine
 62
7
  6
CONTINUOUS
 10
11.7332501383
 20
9.2445156439
 11
11.7341118639
 21
9.2451932955
  0
LINE
  5
4D0
100
AcDbEntity
  8
0
100
AcDbLine
 62
7
  6
CONTINUOUS
 10
11.7354880921
 20
9.2462694202
 11
11.7360681897
 21
9.2467207733
  0
LINE
  5
4D1
100
AcDbEntity
  8
0
100
AcDbLine
 62
7
  6
CONTINUOUS
 10
11.7378288674
 20
9.2480825806
 11
11.7384146818
 21
9.2485329889
  0
LINE
  5
4D2
100
AcDbEntity
  8
0
100
AcDbLine
 62
7
  6
CONTINUOUS
 10
11.7502089742
 20
9.2573210577
 11
11.7509216809
 21
9.2578353321
  0
LINE
  5
4D3
100
AcDbEntity
  8
0
100
AcDbLine
 62
7
  6
CONTINUOUS
 10
11.7521747767
 20
9.258734996
 11
11.7527269996
 21
9.2591296336
  0
LINE
  5
4D4
100
AcDbEntity
  8
0
100
AcDbLine
 62
7
  6
CONTINUOUS
 10
11.7527269996
 20
9.2591296336
 11
11.7531912175
 21
9.2594605151
  0
LINE
  5
4D5
100
AcDbEntity
  8
0
100
AcDbLine
 62
7
  6
CONTINUOUS
 10
11.7549249136
 20
9.2606892901
 11
11.7554790803
 21
9.261079756
  0
LINE
  5
4D6
100
AcDbEntity
  8
0
100
AcDbLine
 62
7
  6
CONTINUOUS
 10
11.7614276566
 20
9.2652015659
 11
11.7619886954
 21
9.2655838081
  0
LINE
  5
4D7
100
AcDbEntity
  8
0
100
AcDbLine
 62
7
  6
CONTINUOUS
 10
11.7619886954
 20
9.2655838081
 11
11.7626092178
 21
9.2660052835
  0
LINE
  5
4D8
100
AcDbEntity
  8
0
100
AcDbLine
 62
7
  6
CONTINUOUS
 10
11.7668163536
 20
9.2688272923
 11
11.7673472482
 21
9.269179022
  0
LINE
  5
4D9
100
AcDbEntity
  8
0
100
AcDbLine
 62
7
  6
CONTINUOUS
 10
11.7673472482
 20
9.269179022
 11
11.768063111
 21
9.269651755
  0
LINE
  5
4DA
100
AcDbEntity
  8
0
100
AcDbLine
 62
7
  6
CONTINUOUS
 10
11.768063111
 20
9.269651755
 11
11.7685933322
 21
9.2700007572
  0
LINE
  5
4DB
100
AcDbEntity
  8
0
100
AcDbLine
 62
7
  6
CONTINUOUS
 10
11.7771216797
 20
9.2754827133
 11
11.7775828293
 21
9.275772158
  0
LINE
  5
4DC
100
AcDbEntity
  8
0
100
AcDbLine
 62
7
  6
CONTINUOUS
 10
11.779427763
 20
9.2769230769
 11
11.7799555174
 21
9.2772502301
  0
LINE
  5
4DD
100
AcDbEntity
  8
0
100
AcDbLine
 62
7
  6
CONTINUOUS
 10
11.7126795274
 20
9.2373881501
 11
11.7146076485
 21
9.2382003418
  0
LINE
  5
4DE
100
AcDbEntity
  8
0
100
AcDbLine
 62
7
  6
CONTINUOUS
 10
11.7195139823
 20
9.2413766165
 11
11.7204734385
 21
9.2420708439
  0
LINE
  5
4DF
100
AcDbEntity
  8
0
100
AcDbLine
 62
7
  6
CONTINUOUS
 10
11.7204734385
 20
9.2420708439
 11
11.7210460601
 21
9.2424838009
  0
LINE
  5
4E0
100
AcDbEntity
  8
0
100
AcDbLine
 62
7
  6
CONTINUOUS
 10
11.7210460601
 20
9.2424838009
 11
11.7214901583
 21
9.242803367
  0
LINE
  5
4E1
100
AcDbEntity
  8
0
100
AcDbLine
 62
7
  6
CONTINUOUS
 10
11.7252051131
 20
9.2438898138
 11
11.7257706207
 21
9.2442703681
  0
LINE
  5
4E2
100
AcDbEntity
  8
0
100
AcDbLine
 62
7
  6
CONTINUOUS
 10
11.7274016249
 20
9.24536252
 11
11.7279641651
 21
9.2457373478
  0
LINE
  5
4E3
100
AcDbEntity
  8
0
100
AcDbLine
 62
7
  6
CONTINUOUS
 10
11.7310657025
 20
9.2477869309
 11
11.731878963
 21
9.2483196186
  0
LINE
  5
4E4
100
AcDbEntity
  8
0
100
AcDbLine
 62
7
  6
CONTINUOUS
 10
11.731878963
 20
9.2483196186
 11
11.7325600175
 21
9.2487642055
  0
LINE
  5
4E5
100
AcDbEntity
  8
0
100
AcDbLine
 62
7
  6
CONTINUOUS
 10
11.7540148042
 20
9.2620872264
 11
11.7545408867
 21
9.26239775
  0
LINE
  5
4E6
100
AcDbEntity
  8
0
100
AcDbLine
 62
7
  6
CONTINUOUS
 10
11.7206576851
 20
9.2387384423
 11
11.7233791559
 21
9.2379878195
  0
LINE
  5
4E7
100
AcDbEntity
  8
0
100
AcDbLine
 62
7
  6
CONTINUOUS
 10
11.724626631
 20
9.2374371092
 11
11.7247249812
 21
9.2373881501
  0
LINE
  5
4E8
100
AcDbEntity
  8
0
100
AcDbLine
 62
7
  6
CONTINUOUS
 10
11.730076287
 20
9.2412984278
 11
11.7306511112
 21
9.2417130921
  0
SPLINE
  5
4E9
100
AcDbEntity
  8
0
100
AcDbSpline
 62
7
  6
CONTINUOUS
 70
0
 71
3
 72
10
 73
6
 74
0
 42
0.0000001
 43
0.0000001
 44
0.0000000001
 40
0.0
 40
0.0
 40
0.0
 40
0.0
 40
0.5162337546
 40
0.7705130388
 40
1.0
 40
1.0
 40
1.0
 40
1.0
 10
11.7912694292
 20
9.2679736409
 30
0.0
 10
11.7922285461
 20
9.2685955904
 30
0.0
 10
11.7937142124
 20
9.2694443394
 30
0.0
 10
11.7957232394
 20
9.2703771051
 30
0.0
 10
11.7967262569
 20
9.2707585975
 30
0.0
 10
11.7972110376
 20
9.2709109733
 30
0.0
  0
LINE
  5
4EA
100
AcDbEntity
  8
0
100
AcDbLine
 62
7
  6
CONTINUOUS
 10
11.8031023686
 20
9.2745953303
 11
11.8036195925
 21
9.2749139147
  0
LINE
  5
4EB
100
AcDbEntity
  8
0
100
AcDbLine
 62
7
  6
CONTINUOUS
 10
11.8050423007
 20
9.2757862068
 11
11.8055556923
 21
9.2760995319
  0
LINE
  5
4EC
100
AcDbEntity
  8
0
100
AcDbLine
 62
7
  6
CONTINUOUS
 10
11.7692696131
 20
9.2661883643
 11
11.7743633508
 21
9.2684725667
  0
LINE
  5
4ED
100
AcDbEntity
  8
0
100
AcDbLine
 62
7
  6
CONTINUOUS
 10
11.7743633508
 20
9.2684725667
 11
11.7783001431
 21
9.2698535937
  0
LINE
  5
4EE
100
AcDbEntity
  8
0
100
AcDbLine
 62
7
  6
CONTINUOUS
 10
11.7783001431
 20
9.2698535937
 11
11.7810561484
 21
9.2703804734
  0
LINE
  5
4EF
100
AcDbEntity
  8
0
100
AcDbLine
 62
7
  6
CONTINUOUS
 10
11.7810561484
 20
9.2703804734
 11
11.7865678577
 21
9.2704565269
  0
LINE
  5
4F0
100
AcDbEntity
  8
0
100
AcDbLine
 62
7
  6
CONTINUOUS
 10
11.7542205131
 20
9.2531165173
 11
11.7563039445
 21
9.2539579043
  0
LINE
  5
4F1
100
AcDbEntity
  8
0
100
AcDbLine
 62
7
  6
CONTINUOUS
 10
11.7563039445
 20
9.2539579043
 11
11.7569493682
 21
9.2540790999
  0
SPLINE
  5
4F2
100
AcDbEntity
  8
0
100
AcDbSpline
 62
7
  6
CONTINUOUS
 70
0
 71
3
 72
12
 73
8
 74
0
 42
0.0000001
 43
0.0000001
 44
0.0000000001
 40
0.0
 40
0.0
 40
0.0
 40
0.0
 40
0.0769418047
 40
0.1714346656
 40
0.4049695142
 40
0.6860209417
 40
1.0
 40
1.0
 40
1.0
 40
1.0
 10
11.7554877642
 20
9.2417062691
 30
0.0
 10
11.7555324147
 20
9.2418364741
 30
0.0
 10
11.755670007
 20
9.2421130703
 30
0.0
 10
11.7560768475
 20
9.2427134903
 30
0.0
 10
11.7568088252
 20
9.2435264578
 30
0.0
 10
11.757900188
 20
9.2445305126
 30
0.0
 10
11.7587329147
 20
9.2451953214
 30
0.0
 10
11.759181733
 20
9.2455330719
 30
0.0
  0
LINE
  5
4F3
100
AcDbEntity
  8
0
100
AcDbLine
 62
7
  6
CONTINUOUS
 10
11.7647108971
 20
9.2496413487
 11
11.7652855076
 21
9.2500623154
  0
LINE
  5
4F4
100
AcDbEntity
  8
0
100
AcDbLine
 62
7
  6
CONTINUOUS
 10
11.7652855076
 20
9.2500623154
 11
11.7661291251
 21
9.250678341
  0
LINE
  5
4F5
100
AcDbEntity
  8
0
100
AcDbLine
 62
7
  6
CONTINUOUS
 10
11.7661291251
 20
9.250678341
 11
11.7667034727
 21
9.25109637
  0
LINE
  5
4F6
100
AcDbEntity
  8
0
100
AcDbLine
 62
7
  6
CONTINUOUS
 10
11.7214235593
 20
9.2428170036
 11
11.7215601302
 21
9.2429972468
  0
LINE
  5
4F7
100
AcDbEntity
  8
0
100
AcDbLine
 62
7
  6
CONTINUOUS
 10
11.7215601302
 20
9.2429972468
 11
11.7239299687
 21
9.2448800602
  0
LINE
  5
4F8
100
AcDbEntity
  8
0
100
AcDbLine
 62
7
  6
CONTINUOUS
 10
11.7305844336
 20
9.2418291934
 11
11.7307256391
 21
9.2421578483
  0
LINE
  5
4F9
100
AcDbEntity
  8
0
100
AcDbLine
 62
7
  6
CONTINUOUS
 10
11.7307256391
 20
9.2421578483
 11
11.7316110511
 21
9.2431240587
  0
LINE
  5
4FA
100
AcDbEntity
  8
0
100
AcDbLine
 62
7
  6
CONTINUOUS
 10
11.7316110511
 20
9.2431240587
 11
11.7332501383
 21
9.2445156439
  0
SPLINE
  5
4FB
100
AcDbEntity
  8
0
100
AcDbSpline
 62
7
  6
CONTINUOUS
 70
0
 71
3
 72
9
 73
5
 74
0
 42
0.0000001
 43
0.0000001
 44
0.0000000001
 40
0.0
 40
0.0
 40
0.0
 40
0.0
 40
0.4825744319
 40
1.0
 40
1.0
 40
1.0
 40
1.0
 10
11.8291049244
 20
9.2660581289
 30
0.0
 10
11.8297903743
 20
9.2665749481
 30
0.0
 10
11.8312608962
 20
9.2675801172
 30
0.0
 10
11.8328038813
 20
9.2684691139
 30
0.0
 10
11.8336180171
 20
9.2688985473
 30
0.0
  0
LINE
  5
4FC
100
AcDbEntity
  8
0
100
AcDbLine
 62
7
  6
CONTINUOUS
 10
11.8336180171
 20
9.2688985473
 11
11.8383677272
 21
9.2709728072
  0
LINE
  5
4FD
100
AcDbEntity
  8
0
100
AcDbLine
 62
7
  6
CONTINUOUS
 10
11.8383677272
 20
9.2709728072
 11
11.8423690375
 21
9.2719712677
  0
LINE
  5
4FE
100
AcDbEntity
  8
0
100
AcDbLine
 62
7
  6
CONTINUOUS
 10
11.8474905874
 20
9.2756109141
 11
11.8480321565
 21
9.2759898882
  0
SPLINE
  5
4FF
100
AcDbEntity
  8
0
100
AcDbSpline
 62
7
  6
CONTINUOUS
 70
0
 71
3
 72
9
 73
5
 74
0
 42
0.0000001
 43
0.0000001
 44
0.0000000001
 40
0.0
 40
0.0
 40
0.0
 40
0.0
 40
0.5233084785
 40
1.0
 40
1.0
 40
1.0
 40
1.0
 10
11.829437762
 20
9.2727669873
 30
0.0
 10
11.8295971872
 20
9.2726868326
 30
0.0
 10
11.8298837833
 20
9.272480629
 30
0.0
 10
11.8300406623
 20
9.2721611982
 30
0.0
 10
11.8300779611
 20
9.2720029902
 30
0.0
  0
LINE
  5
500
100
AcDbEntity
  8
0
100
AcDbLine
 62
7
  6
CONTINUOUS
 10
11.8300779611
 20
9.2720029902
 11
11.8301107965
 21
9.2717182556
  0
SPLINE
  5
501
100
AcDbEntity
  8
0
100
AcDbSpline
 62
7
  6
CONTINUOUS
 70
0
 71
3
 72
10
 73
6
 74
0
 42
0.0000001
 43
0.0000001
 44
0.0000000001
 40
0.0
 40
0.0
 40
0.0
 40
0.0
 40
0.538382113
 40
0.7693286169
 40
1.0
 40
1.0
 40
1.0
 40
1.0
 10
11.8053385666
 20
9.2717912069
 30
0.0
 10
11.8055020906
 20
9.2717444835
 30
0.0
 10
11.8057354985
 20
9.2716369413
 30
0.0
 10
11.8059328213
 20
9.2713837179
 30
0.0
 10
11.8059814869
 20
9.2712432995
 30
0.0
 10
11.8059954812
 20
9.2711717898
 30
0.0
  0
LINE
  5
502
100
AcDbEntity
  8
0
100
AcDbLine
 62
7
  6
CONTINUOUS
 10
11.8059954812
 20
9.2711717898
 11
11.8060112457
 21
9.2710114425
  0
LINE
  5
503
100
AcDbEntity
  8
0
100
AcDbLine
 62
7
  6
CONTINUOUS
 10
11.780614088
 20
9.2426998902
 11
11.7810550604
 21
9.2430871437
  0
LINE
  5
504
100
AcDbEntity
  8
0
100
AcDbLine
 62
7
  6
CONTINUOUS
 10
11.8020888954
 20
9.2639606147
 11
11.8026559945
 21
9.2643941663
  0
LINE
  5
505
100
AcDbEntity
  8
0
100
AcDbLine
 62
7
  6
CONTINUOUS
 10
11.8045438565
 20
9.2417641516
 11
11.8051542558
 21
9.2423012843
  0
LINE
  5
506
100
AcDbEntity
  8
0
100
AcDbLine
 62
7
  6
CONTINUOUS
 10
11.8139507914
 20
9.2541576734
 11
11.8145279093
 21
9.2546286537
  0
LINE
  5
507
100
AcDbEntity
  8
0
100
AcDbLine
 62
7
  6
CONTINUOUS
 10
11.8264179117
 20
9.2640175213
 11
11.8269848335
 21
9.2644505053
  0
SPLINE
  5
508
100
AcDbEntity
  8
0
100
AcDbSpline
 62
7
  6
CONTINUOUS
 70
0
 71
3
 72
19
 73
15
 74
0
 42
0.0000001
 43
0.0000001
 44
0.0000000001
 40
0.0
 40
0.0
 40
0.0
 40
0.0
 40
0.1266125538
 40
0.2525288689
 40
0.315213376
 40
0.3777388896
 40
0.5023528849
 40
0.5646097768
 40
0.6268335715
 40
0.689036419
 40
0.7512472027
 40
0.8134594387
 40
0.8756706712
 40
1.0
 40
1.0
 40
1.0
 40
1.0
 10
13.0061645184
 20
8.8069209463
 30
0.0
 10
13.0045840237
 20
8.8152206019
 30
0.0
 10
13.0002350911
 20
8.8315720332
 30
0.0
 10
12.991831744
 20
8.8509486253
 30
0.0
 10
12.9833884388
 20
8.8654432451
 30
0.0
 10
12.9738540946
 20
8.8791350408
 30
0.0
 10
12.9626563453
 20
8.8915769544
 30
0.0
 10
12.9499972082
 20
8.9023757042
 30
0.0
 10
12.9398197069
 20
8.9095900994
 30
0.0
 10
12.9290294857
 20
8.9158447485
 30
0.0
 10
12.917702013
 20
8.9210624696
 30
0.0
 10
12.9059315796
 20
8.9251936729
 30
0.0
 10
12.8897990176
 20
8.9291737975
 30
0.0
 10
12.8773077718
 20
8.930391804
 30
0.0
 10
12.8690113289
 20
8.930391804
 30
0.0
  0
LINE
  5
509
100
AcDbEntity
  8
0
100
AcDbLine
 62
7
  6
CONTINUOUS
 10
11.7586550916
 20
9.2682960505
 11
11.7637154402
 21
9.2712773605
  0
LINE
  5
50A
100
AcDbEntity
  8
0
100
AcDbLine
 62
7
  6
CONTINUOUS
 10
11.764587828
 20
9.2716587418
 11
11.7614039101
 21
9.2698359225
  0
LINE
  5
50B
100
AcDbEntity
  8
0
100
AcDbLine
 62
7
  6
CONTINUOUS
 10
11.7507414578
 20
9.2633444052
 11
11.7500968594
 21
9.2629417746
  0
LINE
  5
50C
100
AcDbEntity
  8
0
100
AcDbLine
 62
7
  6
CONTINUOUS
 10
11.7500968594
 20
9.2629417746
 11
11.7495634849
 21
9.2626077687
  0
LINE
  5
50D
100
AcDbEntity
  8
0
100
AcDbLine
 62
7
  6
CONTINUOUS
 10
11.7464741018
 20
9.2606579688
 11
11.7456266177
 21
9.2601071756
  0
LINE
  5
50E
100
AcDbEntity
  8
0
100
AcDbLine
 62
7
  6
CONTINUOUS
 10
11.7456266177
 20
9.2601071756
 11
11.745518673
 21
9.2600267392
  0
SPLINE
  5
50F
100
AcDbEntity
  8
0
100
AcDbSpline
 62
7
  6
CONTINUOUS
 70
0
 71
3
 72
13
 73
9
 74
0
 42
0.0000001
 43
0.0000001
 44
0.0000000001
 40
0.0
 40
0.0
 40
0.0
 40
0.0
 40
0.1242280933
 40
0.2491724269
 40
0.5000002825
 40
0.7508277623
 40
0.8757718931
 40
1.0
 40
1.0
 40
1.0
 40
1.0
 10
13.0061645181
 20
8.4938626605
 30
0.0
 10
13.00860321
 20
8.5066689691
 30
0.0
 10
13.0128742388
 20
8.5324782483
 30
0.0
 10
13.0189887099
 20
8.5846059602
 30
0.0
 10
13.0220489034
 20
8.6503918533
 30
0.0
 10
13.0189887102
 20
8.716177725
 30
0.0
 10
13.0128742407
 20
8.7683053775
 30
0.0
 10
13.0086032105
 20
8.7941146362
 30
0.0
 10
13.0061645184
 20
8.8069209463
 30
0.0
  0
LINE
  5
510
100
AcDbEntity
  8
0
100
AcDbLine
 62
7
  6
CONTINUOUS
 10
11.7454299067
 20
9.2601094712
 11
11.7459757478
 21
9.2604566905
  0
LINE
  5
511
100
AcDbEntity
  8
0
100
AcDbLine
 62
7
  6
CONTINUOUS
 10
11.7459757478
 20
9.2604566905
 11
11.747167758
 21
9.261212116
  0
LINE
  5
512
100
AcDbEntity
  8
0
100
AcDbLine
 62
7
  6
CONTINUOUS
 10
11.7524920644
 20
9.2645392983
 11
11.7530195755
 21
9.2648647921
  0
SPLINE
  5
513
100
AcDbEntity
  8
0
100
AcDbSpline
 62
7
  6
CONTINUOUS
 70
0
 71
3
 72
19
 73
15
 74
0
 42
0.0000001
 43
0.0000001
 44
0.0000000001
 40
0.0
 40
0.0
 40
0.0
 40
0.0
 40
0.1243147901
 40
0.1865185126
 40
0.2487320208
 40
0.3109465328
 40
0.3731539928
 40
0.4353835487
 40
0.4976457442
 40
0.6222698831
 40
0.6847993042
 40
0.7474847991
 40
0.8733995772
 40
1.0
 40
1.0
 40
1.0
 40
1.0
 10
12.8690113289
 20
8.370391804
 30
0.0
 10
12.8773068019
 20
8.370391804
 30
0.0
 10
12.8897967242
 20
8.371608648
 30
0.0
 10
12.9059277021
 20
8.3755894138
 30
0.0
 10
12.9176982533
 20
8.3797196585
 30
0.0
 10
12.929026565
 20
8.3849371759
 30
0.0
 10
12.9398175769
 20
8.3911923319
 30
0.0
 10
12.949996167
 20
8.3984069974
 30
0.0
 10
12.9626563973
 20
8.4092066785
 30
0.0
 10
12.9738548266
 20
8.4216497146
 30
0.0
 10
12.9833897932
 20
8.4353423039
 30
0.0
 10
12.9918329265
 20
8.4498372901
 30
0.0
 10
13.0002356691
 20
8.4692132154
 30
0.0
 10
13.0045841748
 20
8.4855637997
 30
0.0
 10
13.0061645181
 20
8.4938626604
 30
0.0
  0
SPLINE
  5
514
100
AcDbEntity
  8
0
100
AcDbSpline
 62
7
  6
CONTINUOUS
 70
0
 71
3
 72
19
 73
15
 74
0
 42
0.0000001
 43
0.0000001
 44
0.0000000001
 40
0.0
 40
0.0
 40
0.0
 40
0.0
 40
0.1266125537
 40
0.2525288689
 40
0.3152133759
 40
0.3777388896
 40
0.5023528848
 40
0.5646097768
 40
0.6268335714
 40
0.689036419
 40
0.7512472027
 40
0.8134594387
 40
0.8756706712
 40
1.0
 40
1.0
 40
1.0
 40
1.0
 10
11.1384248423
 20
8.8069209475
 30
0.0
 10
11.140005337
 20
8.8152206031
 30
0.0
 10
11.1443542697
 20
8.8315720342
 30
0.0
 10
11.1527576169
 20
8.8509486262
 30
0.0
 10
11.1612009221
 20
8.8654432458
 30
0.0
 10
11.1707352663
 20
8.8791350414
 30
0.0
 10
11.1819330156
 20
8.8915769548
 30
0.0
 10
11.1945921527
 20
8.9023757046
 30
0.0
 10
11.2047696539
 20
8.9095900996
 30
0.0
 10
11.2155598751
 20
8.9158447487
 30
0.0
 10
11.2268873478
 20
8.9210624697
 30
0.0
 10
11.2386577811
 20
8.925193673
 30
0.0
 10
11.254790343
 20
8.9291737975
 30
0.0
 10
11.2672815887
 20
8.930391804
 30
0.0
 10
11.2755780316
 20
8.930391804
 30
0.0
  0
SPLINE
  5
515
100
AcDbEntity
  8
0
100
AcDbSpline
 62
7
  6
CONTINUOUS
 70
0
 71
3
 72
13
 73
9
 74
0
 42
0.0000001
 43
0.0000001
 44
0.0000000001
 40
0.0
 40
0.0
 40
0.0
 40
0.0
 40
0.1242280934
 40
0.249172427
 40
0.5000002825
 40
0.7508277624
 40
0.8757718932
 40
1.0
 40
1.0
 40
1.0
 40
1.0
 10
11.1384248421
 20
8.4938626618
 30
0.0
 10
11.1359861502
 20
8.5066689705
 30
0.0
 10
11.1317151215
 20
8.5324782496
 30
0.0
 10
11.1256006505
 20
8.5846059615
 30
0.0
 10
11.1225404571
 20
8.6503918545
 30
0.0
 10
11.1256006504
 20
8.7161777262
 30
0.0
 10
11.1317151199
 20
8.7683053787
 30
0.0
 10
11.1359861501
 20
8.7941146374
 30
0.0
 10
11.1384248423
 20
8.8069209474
 30
0.0
  0
SPLINE
  5
516
100
AcDbEntity
  8
0
100
AcDbSpline
 62
7
  6
CONTINUOUS
 70
0
 71
3
 72
19
 73
15
 74
0
 42
0.0000001
 43
0.0000001
 44
0.0000000001
 40
0.0
 40
0.0
 40
0.0
 40
0.0
 40
0.12431479
 40
0.1865185126
 40
0.2487320208
 40
0.3109465328
 40
0.3731539928
 40
0.4353835487
 40
0.4976457441
 40
0.622269883
 40
0.6847993042
 40
0.747484799
 40
0.8733995772
 40
1.0
 40
1.0
 40
1.0
 40
1.0
 10
11.2755780316
 20
8.370391804
 30
0.0
 10
11.2672825585
 20
8.370391804
 30
0.0
 10
11.2547926361
 20
8.371608648
 30
0.0
 10
11.2386616581
 20
8.3755894139
 30
0.0
 10
11.2268911069
 20
8.3797196586
 30
0.0
 10
11.215562795
 20
8.3849371761
 30
0.0
 10
11.2047717831
 20
8.3911923322
 30
0.0
 10
11.1945931929
 20
8.3984069978
 30
0.0
 10
11.1819329627
 20
8.4092066791
 30
0.0
 10
11.1707345333
 20
8.4216497153
 30
0.0
 10
11.1611995667
 20
8.4353423048
 30
0.0
 10
11.1527564334
 20
8.4498372911
 30
0.0
 10
11.1443536909
 20
8.4692132166
 30
0.0
 10
11.1400051854
 20
8.4855638011
 30
0.0
 10
11.1384248421
 20
8.4938626618
 30
0.0
  0
LINE
  5
517
100
AcDbEntity
  8
0
100
AcDbLine
 62
7
  6
CONTINUOUS
 10
12.1427882821
 20
9.3512936076
 11
12.1423988875
 21
9.3513389094
  0
LINE
  5
518
100
AcDbEntity
  8
0
100
AcDbLine
 62
7
  6
CONTINUOUS
 10
12.3657057763
 20
9.2675718644
 11
12.3688854181
 21
9.2652539644
  0
LINE
  5
519
100
AcDbEntity
  8
0
100
AcDbLine
 62
7
  6
CONTINUOUS
 10
12.3688854181
 20
9.2652539644
 11
12.3708332376
 21
9.2633776958
  0
LINE
  5
51A
100
AcDbEntity
  8
0
100
AcDbLine
 62
7
  6
CONTINUOUS
 10
12.3708332376
 20
9.2633776958
 11
12.371342075
 21
9.2623614607
  0
LINE
  5
51B
100
AcDbEntity
  8
0
100
AcDbLine
 62
7
  6
CONTINUOUS
 10
12.3531630963
 20
9.2733798501
 11
12.35516585
 21
9.2729537988
  0
SPLINE
  5
51C
100
AcDbEntity
  8
0
100
AcDbSpline
 62
7
  6
CONTINUOUS
 70
0
 71
3
 72
10
 73
6
 74
0
 42
0.0000001
 43
0.0000001
 44
0.0000000001
 40
0.0
 40
0.0
 40
0.0
 40
0.0
 40
0.2177157728
 40
0.4640860695
 40
1.0
 40
1.0
 40
1.0
 40
1.0
 10
12.35516585
 20
9.2729537988
 30
0.0
 10
12.355667903
 20
9.2727935721
 30
0.0
 10
12.3567225804
 20
9.2724034998
 30
0.0
 10
12.3589444134
 20
9.2714415754
 30
0.0
 10
12.3606322626
 20
9.2705776772
 30
0.0
 10
12.3617679649
 20
9.2699507946
 30
0.0
  0
LINE
  5
51D
100
AcDbEntity
  8
0
100
AcDbLine
 62
7
  6
CONTINUOUS
 10
12.3617679649
 20
9.2699507946
 11
12.3657057763
 21
9.2675718644
  0
LINE
  5
51E
100
AcDbEntity
  8
0
100
AcDbLine
 62
7
  6
CONTINUOUS
 10
12.3505193082
 20
9.2734076366
 11
12.3522818616
 21
9.2734026624
  0
LINE
  5
51F
100
AcDbEntity
  8
0
100
AcDbLine
 62
7
  6
CONTINUOUS
 10
12.3522818616
 20
9.2734026624
 11
12.3531630963
 21
9.2733798501
  0
LINE
  5
520
100
AcDbEntity
  8
0
100
AcDbLine
 62
7
  6
CONTINUOUS
 10
12.3928619596
 20
9.2497566331
 11
12.3969096709
 21
9.2464316632
  0
LINE
  5
521
100
AcDbEntity
  8
0
100
AcDbLine
 62
7
  6
CONTINUOUS
 10
12.3972418798
 20
9.2461197137
 11
12.3994798961
 21
9.2435883413
  0
LINE
  5
522
100
AcDbEntity
  8
0
100
AcDbLine
 62
7
  6
CONTINUOUS
 10
12.3994798961
 20
9.2435883413
 11
12.3999646309
 21
9.2425371834
  0
LINE
  5
523
100
AcDbEntity
  8
0
100
AcDbLine
 62
7
  6
CONTINUOUS
 10
12.3999646309
 20
9.2425371834
 11
12.3999816577
 21
9.242356901
  0
SPLINE
  5
524
100
AcDbEntity
  8
0
100
AcDbSpline
 62
7
  6
CONTINUOUS
 70
0
 71
3
 72
11
 73
7
 74
0
 42
0.0000001
 43
0.0000001
 44
0.0000000001
 40
0.0
 40
0.0
 40
0.0
 40
0.0
 40
0.178468057
 40
0.4101383826
 40
0.6871904149
 40
1.0
 40
1.0
 40
1.0
 40
1.0
 10
12.3770185744
 20
9.2580432498
 30
0.0
 10
12.3773258568
 20
9.2580314219
 30
0.0
 10
12.3780269558
 20
9.2579111113
 30
0.0
 10
12.3791632459
 20
9.2575762519
 30
0.0
 10
12.3804875565
 20
9.2570725617
 30
0.0
 10
12.3814169127
 20
9.2566603115
 30
0.0
 10
12.3819051227
 20
9.2564319291
 30
0.0
  0
LINE
  5
525
100
AcDbEntity
  8
0
100
AcDbLine
 62
7
  6
CONTINUOUS
 10
12.3819051227
 20
9.2564319291
 11
12.3845544808
 21
9.255086347
  0
LINE
  5
526
100
AcDbEntity
  8
0
100
AcDbLine
 62
7
  6
CONTINUOUS
 10
12.3733579446
 20
9.2581048917
 11
12.3745782215
 21
9.2580916824
  0
LINE
  5
527
100
AcDbEntity
  8
0
100
AcDbLine
 62
7
  6
CONTINUOUS
 10
12.3745782215
 20
9.2580916824
 11
12.3757984459
 21
9.2580916824
  0
LINE
  5
528
100
AcDbEntity
  8
0
100
AcDbLine
 62
7
  6
CONTINUOUS
 10
12.3757984459
 20
9.2580916824
 11
12.3770185744
 21
9.2580432498
  0
LINE
  5
529
100
AcDbEntity
  8
0
100
AcDbLine
 62
7
  6
CONTINUOUS
 10
12.386880116
 20
9.2653792637
 11
12.3912757975
 21
9.2624943846
  0
SPLINE
  5
52A
100
AcDbEntity
  8
0
100
AcDbSpline
 62
7
  6
CONTINUOUS
 70
0
 71
3
 72
13
 73
9
 74
0
 42
0.0000001
 43
0.0000001
 44
0.0000000001
 40
0.0
 40
0.0
 40
0.0
 40
0.0
 40
0.3375386221
 40
0.6260993928
 40
0.7478043625
 40
0.8519656248
 40
0.9366092362
 40
1.0
 40
1.0
 40
1.0
 40
1.0
 10
12.3912757975
 20
9.2624943846
 30
0.0
 10
12.3918291831
 20
9.2621118856
 30
0.0
 10
12.3928477659
 20
9.2613909234
 30
0.0
 10
12.3940380262
 20
9.2604931677
 30
0.0
 10
12.3948319894
 20
9.2598443724
 30
0.0
 10
12.3952978141
 20
9.2594365431
 30
0.0
 10
12.395658844
 20
9.2590868537
 30
0.0
 10
12.3958547651
 20
9.2588648479
 30
0.0
 10
12.395928377
 20
9.2587621717
 30
0.0
  0
LINE
  5
52B
100
AcDbEntity
  8
0
100
AcDbLine
 62
7
  6
CONTINUOUS
 10
12.395928377
 20
9.2587621717
 11
12.3960587373
 21
9.258474656
  0
LINE
  5
52C
100
AcDbEntity
  8
0
100
AcDbLine
 62
7
  6
CONTINUOUS
 10
12.3731326345
 20
9.2725616987
 11
12.3747963688
 21
9.2720332162
  0
LINE
  5
52D
100
AcDbEntity
  8
0
100
AcDbLine
 62
7
  6
CONTINUOUS
 10
12.3747963688
 20
9.2720332162
 11
12.3756147138
 21
9.2716732708
  0
LINE
  5
52E
100
AcDbEntity
  8
0
100
AcDbLine
 62
7
  6
CONTINUOUS
 10
12.3756147138
 20
9.2716732708
 11
12.3784875401
 21
9.2702456567
  0
LINE
  5
52F
100
AcDbEntity
  8
0
100
AcDbLine
 62
7
  6
CONTINUOUS
 10
12.3784875401
 20
9.2702456567
 11
12.3819203093
 21
9.268354312
  0
LINE
  5
530
100
AcDbEntity
  8
0
100
AcDbLine
 62
7
  6
CONTINUOUS
 10
12.3706565911
 20
9.2725493375
 11
12.3723072844
 21
9.272585505
  0
LINE
  5
531
100
AcDbEntity
  8
0
100
AcDbLine
 62
7
  6
CONTINUOUS
 10
12.3723072844
 20
9.272585505
 11
12.3731326345
 21
9.2725616987
  0
LINE
  5
532
100
AcDbEntity
  8
0
100
AcDbLine
 62
7
  6
CONTINUOUS
 10
12.3822122188
 20
9.2705211152
 11
12.3827274488
 21
9.2702166723
  0
SPLINE
  5
533
100
AcDbEntity
  8
0
100
AcDbSpline
 62
7
  6
CONTINUOUS
 70
0
 71
3
 72
10
 73
6
 74
0
 42
0.0000001
 43
0.0000001
 44
0.0000000001
 40
0.0
 40
0.0
 40
0.0
 40
0.0
 40
0.5256000269
 40
0.7736898934
 40
1.0
 40
1.0
 40
1.0
 40
1.0
 10
12.0722946802
 20
9.3548778877
 30
0.0
 10
12.0642377397
 20
9.3548778781
 30
0.0
 10
12.0523767598
 20
9.3547074623
 30
0.0
 10
12.0370575911
 20
9.3541485481
 30
0.0
 10
12.0297948546
 20
9.3537708122
 30
0.0
 10
12.0263324053
 20
9.3535558573
 30
0.0
  0
LINE
  5
534
100
AcDbEntity
  8
0
100
AcDbLine
 62
7
  6
CONTINUOUS
 10
12.0263324053
 20
9.3535558573
 11
12.0155372971
 21
9.3527382889
  0
LINE
  5
535
100
AcDbEntity
  8
0
100
AcDbLine
 62
7
  6
CONTINUOUS
 10
11.7725850318
 20
9.2762770815
 11
11.773079219
 21
9.2765571802
  0
LINE
  5
536
100
AcDbEntity
  8
0
100
AcDbLine
 62
7
  6
CONTINUOUS
 10
11.773079219
 20
9.2765571802
 11
11.773579262
 21
9.276839977
  0
SPLINE
  5
537
100
AcDbEntity
  8
0
100
AcDbSpline
 62
7
  6
CONTINUOUS
 70
0
 71
3
 72
19
 73
15
 74
0
 42
0.0000001
 43
0.0000001
 44
0.0000000001
 40
0.0
 40
0.0
 40
0.0
 40
0.0
 40
0.0186390519
 40
0.0409026488
 40
0.0687236659
 40
0.103014927
 40
0.1441500402
 40
0.1922312601
 40
0.247173405
 40
0.3088074382
 40
0.4510188527
 40
0.6161080249
 40
0.8005029964
 40
1.0
 40
1.0
 40
1.0
 40
1.0
 10
12.0173391247
 20
9.3444338194
 30
0.0
 10
12.0173391247
 20
9.3445568824
 30
0.0
 10
12.0174089481
 20
9.3448280652
 30
0.0
 10
12.0176799392
 20
9.3451996206
 30
0.0
 10
12.0181040249
 20
9.3455653613
 30
0.0
 10
12.0186822831
 20
9.345929487
 30
0.0
 10
12.0194135276
 20
9.3462925139
 30
0.0
 10
12.0202953281
 20
9.3466524287
 30
0.0
 10
12.0213233227
 20
9.3470074221
 30
0.0
 10
12.0229615844
 20
9.3474941846
 30
0.0
 10
12.025332368
 20
9.3480606491
 30
0.0
 10
12.0285237518
 20
9.3486603052
 30
0.0
 10
12.0321099972
 20
9.349191523
 30
0.0
 10
12.0346283942
 20
9.3494817295
 30
0.0
 10
12.0359388797
 20
9.3496142149
 30
0.0
  0
SPLINE
  5
538
100
AcDbEntity
  8
0
100
AcDbSpline
 62
7
  6
CONTINUOUS
 70
0
 71
3
 72
18
 73
14
 74
0
 42
0.0000001
 43
0.0000001
 44
0.0000000001
 40
0.0
 40
0.0
 40
0.0
 40
0.0
 40
0.1591694508
 40
0.3218509207
 40
0.4807467943
 40
0.628694495
 40
0.7591578192
 40
0.8160853173
 40
0.8667099459
 40
0.9105982729
 40
0.94745244
 40
0.9771714649
 40
1.0
 40
1.0
 40
1.0
 40
1.0
 10
12.0359388797
 20
9.3496142149
 30
0.0
 10
12.0377976191
 20
9.3498021268
 30
0.0
 10
12.041563896
 20
9.3501079312
 30
0.0
 10
12.0472016668
 20
9.3503666332
 30
0.0
 10
12.052713618
 20
9.3504246556
 30
0.0
 10
12.0578456358
 20
9.3502798079
 30
0.0
 10
12.0617730488
 20
9.3499878273
 30
0.0
 10
12.0645458863
 20
9.3496430659
 30
0.0
 10
12.0663003293
 20
9.3493537872
 30
0.0
 10
12.0678077294
 20
9.3490261943
 30
0.0
 10
12.0690546241
 20
9.3486642486
 30
0.0
 10
12.0700297387
 20
9.3482733814
 30
0.0
 10
12.0705654698
 20
9.347955327
 30
0.0
 10
12.0707713088
 20
9.3477837911
 30
0.0
  0
SPLINE
  5
539
100
AcDbEntity
  8
0
100
AcDbSpline
 62
7
  6
CONTINUOUS
 70
0
 71
3
 72
10
 73
6
 74
0
 42
0.0000001
 43
0.0000001
 44
0.0000000001
 40
0.0
 40
0.0
 40
0.0
 40
0.0
 40
0.5510784668
 40
0.7823119308
 40
1.0
 40
1.0
 40
1.0
 40
1.0
 10
12.0707713088
 20
9.3477837911
 30
0.0
 10
12.0709102658
 20
9.3476679914
 30
0.0
 10
12.071094024
 20
9.3474777087
 30
0.0
 10
12.0712287211
 20
9.3471749982
 30
0.0
 10
12.0712502358
 20
9.3470268557
 30
0.0
 10
12.0712502358
 20
9.346955403
 30
0.0
  0
SPLINE
  5
53A
100
AcDbEntity
  8
0
100
AcDbSpline
 62
7
  6
CONTINUOUS
 70
0
 71
3
 72
15
 73
11
 74
0
 42
0.0000001
 43
0.0000001
 44
0.0000000001
 40
0.0
 40
0.0
 40
0.0
 40
0.0
 40
0.1682255387
 40
0.3311504049
 40
0.4825322231
 40
0.6188169702
 40
0.7378887069
 40
0.8396622044
 40
0.9256938112
 40
1.0
 40
1.0
 40
1.0
 40
1.0
 10
12.1014440208
 20
9.2900445145
 30
0.0
 10
12.1027519071
 20
9.2899743027
 30
0.0
 10
12.1053337787
 20
9.2899484863
 30
0.0
 10
12.1090847989
 20
9.2902351334
 30
0.0
 10
12.1125460402
 20
9.2908441143
 30
0.0
 10
12.1155939968
 20
9.2917308521
 30
0.0
 10
12.118146435
 20
9.2928583478
 30
0.0
 10
12.1201530869
 20
9.2941828932
 30
0.0
 10
12.1215781507
 20
9.2956729233
 30
0.0
 10
12.1221448041
 20
9.2968175767
 30
0.0
 10
12.1222946802
 20
9.2973763586
 30
0.0
  0
LINE
  5
53B
100
AcDbEntity
  8
0
100
AcDbLine
 62
7
  6
CONTINUOUS
 10
11.7655628867
 20
9.2592859884
 11
11.7657684679
 21
9.2589157046
  0
LINE
  5
53C
100
AcDbEntity
  8
0
100
AcDbLine
 62
7
  6
CONTINUOUS
 10
11.7657684679
 20
9.2589157046
 11
11.7664644078
 21
9.2587957751
  0
LINE
  5
53D
100
AcDbEntity
  8
0
100
AcDbLine
 62
7
  6
CONTINUOUS
 10
11.7803820048
 20
9.2429656232
 11
11.7804069311
 21
9.2426987392
  0
LINE
  5
53E
100
AcDbEntity
  8
0
100
AcDbLine
 62
7
  6
CONTINUOUS
 10
11.7659590107
 20
9.2614235638
 11
11.7652236479
 21
9.261308099
  0
LINE
  5
53F
100
AcDbEntity
  8
0
100
AcDbLine
 62
7
  6
CONTINUOUS
 10
11.7652236479
 20
9.261308099
 11
11.7647415076
 21
9.2610800331
  0
SPLINE
  5
540
100
AcDbEntity
  8
0
100
AcDbSpline
 62
9
  6
CONTINUOUS
 70
0
 71
3
 72
17
 73
13
 74
0
 42
0.0000001
 43
0.0000001
 44
0.0000000001
 40
0.0
 40
0.0
 40
0.0
 40
0.0
 40
0.1319995873
 40
0.1953856699
 40
0.2573503078
 40
0.3182304376
 40
0.3783814941
 40
0.4978559738
 40
0.6184268461
 40
0.7418202351
 40
0.8689343633
 40
1.0
 40
1.0
 40
1.0
 40
1.0
 10
12.5372087449
 20
8.8517482932
 30
0.0
 10
12.5349615753
 20
8.854716601
 30
0.0
 10
12.5313322685
 20
8.8588991188
 30
0.0
 10
12.5259491332
 20
8.8637774288
 30
0.0
 10
12.5217726676
 20
8.86697349
 30
0.0
 10
12.5174166906
 20
8.8697539256
 30
0.0
 10
12.5114021253
 20
8.8729060175
 30
0.0
 10
12.5034339699
 20
8.8758827535
 30
0.0
 10
12.4933811171
 20
8.8780292303
 30
0.0
 10
12.4829444967
 20
8.8790136282
 30
0.0
 10
12.4721772397
 20
8.8791668419
 30
0.0
 10
12.4648978421
 20
8.8789514472
 30
0.0
 10
12.4612033817
 20
8.8788244094
 30
0.0
  0
LINE
  5
541
100
AcDbEntity
  8
0
100
AcDbLine
 62
7
  6
CONTINUOUS
 10
12.4232946802
 20
9.2437952667
 11
12.4201182254
 21
9.2459311299
  0
LINE
  5
542
100
AcDbEntity
  8
0
100
AcDbLine
 62
7
  6
CONTINUOUS
 10
11.8044809849
 20
9.2424662834
 11
11.8045352185
 21
9.2420002957
  0
SPLINE
  5
543
100
AcDbEntity
  8
0
100
AcDbSpline
 62
7
  6
CONTINUOUS
 70
0
 71
3
 72
15
 73
11
 74
0
 42
0.0000001
 43
0.0000001
 44
0.0000000001
 40
0.0
 40
0.0
 40
0.0
 40
0.0
 40
0.0752591584
 40
0.1600984931
 40
0.2598877441
 40
0.3771412507
 40
0.5124289061
 40
0.6641054935
 40
0.8288882916
 40
1.0
 40
1.0
 40
1.0
 40
1.0
 10
12.0647042544
 20
9.2967416339
 30
0.0
 10
12.0647042544
 20
9.2964394112
 30
0.0
 10
12.0645661796
 20
9.2957925812
 30
0.0
 10
12.0640027494
 20
9.2948962999
 30
0.0
 10
12.0631085009
 20
9.2940630948
 30
0.0
 10
12.0619034182
 20
9.2933095298
 30
0.0
 10
12.060410438
 20
9.2926603379
 30
0.0
 10
12.0586675993
 20
9.2921426689
 30
0.0
 10
12.056737865
 20
9.2917924303
 30
0.0
 10
12.0553910397
 20
9.291681215
 30
0.0
 10
12.0547042544
 20
9.291659032
 30
0.0
  0
SPLINE
  5
544
100
AcDbEntity
  8
0
100
AcDbSpline
 62
9
  6
CONTINUOUS
 70
0
 71
3
 72
19
 73
15
 74
0
 42
0.0000001
 43
0.0000001
 44
0.0000000001
 40
0.0
 40
0.0
 40
0.0
 40
0.0
 40
0.0276818284
 40
0.057100768
 40
0.0896886878
 40
0.1264883959
 40
0.1682098354
 40
0.2153093799
 40
0.2680449219
 40
0.3265593751
 40
0.461129679
 40
0.6190467358
 40
0.7992064393
 40
1.0
 40
1.0
 40
1.0
 40
1.0
 10
11.1384251455
 20
8.4938627196
 30
0.0
 10
11.1384808714
 20
8.4935714368
 30
0.0
 10
11.1386778073
 20
8.492983693
 30
0.0
 10
11.1392028994
 20
8.4921695409
 30
0.0
 10
11.1399508678
 20
8.4914120364
 30
0.0
 10
11.1409165093
 20
8.4907092175
 30
0.0
 10
11.1420981664
 20
8.4900593214
 30
0.0
 10
11.1434943448
 20
8.4894623516
 30
0.0
 10
11.1451025709
 20
8.4889181056
 30
0.0
 10
11.1476466188
 20
8.4882320767
 30
0.0
 10
11.1513489931
 20
8.4875433461
 30
0.0
 10
11.1563832388
 20
8.4869742916
 30
0.0
 10
11.1621485054
 20
8.48663361
 30
0.0
 10
11.1662303425
 20
8.4865651656
 30
0.0
 10
11.1683815167
 20
8.4865651656
 30
0.0
  0
SPLINE
  5
545
100
AcDbEntity
  8
0
100
AcDbSpline
 62
9
  6
CONTINUOUS
 70
0
 71
3
 72
20
 73
16
 74
0
 42
0.0000001
 43
0.0000001
 44
0.0000000001
 40
0.0
 40
0.0
 40
0.0
 40
0.0
 40
0.0520780918
 40
0.1045386443
 40
0.1577845751
 40
0.2121889155
 40
0.2680683596
 40
0.325647768
 40
0.3850865556
 40
0.4464848314
 40
0.5750582002
 40
0.6422244428
 40
0.7111323418
 40
0.8534525887
 40
1.0
 40
1.0
 40
1.0
 40
1.0
 10
11.3067717886
 20
8.9265520886
 30
0.0
 10
11.3087439676
 20
8.9260608554
 30
0.0
 10
11.3126454969
 20
8.9248252026
 30
0.0
 10
11.3182499697
 20
8.9222378177
 30
0.0
 10
11.3235754611
 20
8.9189404105
 30
0.0
 10
11.328582069
 20
8.9149601026
 30
0.0
 10
11.3332311997
 20
8.9103262489
 30
0.0
 10
11.3374918966
 20
8.9050790661
 30
0.0
 10
11.3413312962
 20
8.8992568684
 30
0.0
 10
11.3459139382
 20
8.8906568537
 30
0.0
 10
11.3494488521
 20
8.8812073032
 30
0.0
 10
11.3519437861
 20
8.8711784933
 30
0.0
 10
11.3537938072
 20
8.8604629398
 30
0.0
 10
11.3547049776
 20
8.8464859188
 30
0.0
 10
11.3539952242
 20
8.8352011674
 30
0.0
 10
11.3532876138
 20
8.8295258462
 30
0.0
  0
SPLINE
  5
546
100
AcDbEntity
  8
0
100
AcDbSpline
 62
9
  6
CONTINUOUS
 70
0
 71
3
 72
21
 73
17
 74
0
 42
0.0000001
 43
0.0000001
 44
0.0000000001
 40
0.0
 40
0.0
 40
0.0
 40
0.0
 40
0.0509396425
 40
0.1033181948
 40
0.1571706344
 40
0.2126034651
 40
0.2697532931
 40
0.3287563611
 40
0.3896960249
 40
0.4525514409
 40
0.517184021
 40
0.5833848272
 40
0.719338113
 40
0.788767738
 40
0.8588212969
 40
1.0
 40
1.0
 40
1.0
 40
1.0
 10
12.4612033817
 20
8.8788244105
 30
0.0
 10
12.4574369601
 20
8.8786939586
 30
0.0
 10
12.449797581
 20
8.878427202
 30
0.0
 10
12.43819084
 20
8.8776690927
 30
0.0
 10
12.4263100067
 20
8.8762118836
 30
0.0
 10
12.4142315014
 20
8.8737358746
 30
0.0
 10
12.4020771756
 20
8.8699957066
 30
0.0
 10
12.3900168021
 20
8.8648067589
 30
0.0
 10
12.3782596559
 20
8.8580618689
 30
0.0
 10
12.3670243307
 20
8.8497587891
 30
0.0
 10
12.356498642
 20
8.8399911518
 30
0.0
 10
12.3435320778
 20
8.8250701028
 30
0.0
 10
12.3327742999
 20
8.807917026
 30
0.0
 10
12.324447722
 20
8.7892953335
 30
0.0
 10
12.3177030115
 20
8.7696341799
 30
0.0
 10
12.3145924742
 20
8.7542160041
 30
0.0
 10
12.3133961813
 20
8.7438398798
 30
0.0
  0
SPLINE
  5
547
100
AcDbEntity
  8
0
100
AcDbSpline
 62
9
  6
CONTINUOUS
 70
0
 71
3
 72
17
 73
13
 74
0
 42
0.0000001
 43
0.0000001
 44
0.0000000001
 40
0.0
 40
0.0
 40
0.0
 40
0.0
 40
0.0621149135
 40
0.1247020033
 40
0.1872558206
 40
0.2497446379
 40
0.3747871983
 40
0.4998297584
 40
0.6248706811
 40
0.7499148791
 40
0.874957767
 40
1.0
 40
1.0
 40
1.0
 40
1.0
 10
12.3133961801
 20
8.74383988
 30
0.0
 10
12.3127476709
 20
8.738214479
 30
0.0
 10
12.3120435022
 20
8.7268525009
 30
0.0
 10
12.3119196048
 20
8.709782093
 30
0.0
 10
12.3119100453
 20
8.6926768225
 30
0.0
 10
12.3119547008
 20
8.6698780723
 30
0.0
 10
12.3119328923
 20
8.6413824722
 30
0.0
 10
12.3119393205
 20
8.6071844058
 30
0.0
 10
12.3119397415
 20
8.5729861752
 30
0.0
 10
12.3119380343
 20
8.5387879187
 30
0.0
 10
12.3119380339
 20
8.5045895417
 30
0.0
 10
12.3119383188
 20
8.4817907234
 30
0.0
 10
12.3119383188
 20
8.4703913441
 30
0.0
  0
SPLINE
  5
548
100
AcDbEntity
  8
0
100
AcDbSpline
 62
7
  6
CONTINUOUS
 70
0
 71
3
 72
9
 73
5
 74
0
 42
0.0000001
 43
0.0000001
 44
0.0000000001
 40
0.0
 40
0.0
 40
0.0
 40
0.0
 40
0.2561317665
 40
1.0
 40
1.0
 40
1.0
 40
1.0
 10
12.4164366003
 20
8.3904102462
 30
0.0
 10
12.4174366302
 20
8.3894538824
 30
0.0
 10
12.4214269362
 20
8.3858115516
 30
0.0
 10
12.4257645594
 20
8.3825448066
 30
0.0
 10
12.4291578263
 20
8.380391804
 30
0.0
  0
SPLINE
  5
549
100
AcDbEntity
  8
0
100
AcDbSpline
 62
7
  6
CONTINUOUS
 70
0
 71
3
 72
9
 73
5
 74
0
 42
0.0000001
 43
0.0000001
 44
0.0000000001
 40
0.0
 40
0.0
 40
0.0
 40
0.0
 40
0.2438489176
 40
1.0
 40
1.0
 40
1.0
 40
1.0
 10
11.7154310967
 20
8.380391804
 30
0.0
 10
11.7165982035
 20
8.3811323238
 30
0.0
 10
11.7213002424
 20
8.3843006762
 30
0.0
 10
11.7256562907
 20
8.3879751118
 30
0.0
 10
11.7287275005
 20
8.3909648127
 30
0.0
  0
SPLINE
  5
54A
100
AcDbEntity
  8
0
100
AcDbSpline
 62
7
  6
CONTINUOUS
 70
0
 71
3
 72
15
 73
11
 74
0
 42
0.0000001
 43
0.0000001
 44
0.0000000001
 40
0.0
 40
0.0
 40
0.0
 40
0.0
 40
0.120499084
 40
0.2409757453
 40
0.3624760451
 40
0.4856003815
 40
0.6107354262
 40
0.7381278181
 40
0.8678930725
 40
1.0
 40
1.0
 40
1.0
 40
1.0
 10
11.7307597393
 20
8.3928978203
 30
0.0
 10
11.734534475
 20
8.3964080691
 30
0.0
 10
11.7425074831
 20
8.4029739503
 30
0.0
 10
11.7551821805
 20
8.4119151831
 30
0.0
 10
11.7682840492
 20
8.4204191224
 30
0.0
 10
11.7816321205
 20
8.4289048297
 30
0.0
 10
11.7950287479
 20
8.4377839113
 30
0.0
 10
11.8082416764
 20
8.4474358523
 30
0.0
 10
11.8209785339
 20
8.4581889511
 30
0.0
 10
11.8288613345
 20
8.4661776937
 30
0.0
 10
11.8326266313
 20
8.470391804
 30
0.0
  0
SPLINE
  5
54B
100
AcDbEntity
  8
0
100
AcDbSpline
 62
9
  6
CONTINUOUS
 70
0
 71
3
 72
23
 73
19
 74
0
 42
0.0000001
 43
0.0000001
 44
0.0000000001
 40
0.0
 40
0.0
 40
0.0
 40
0.0
 40
0.1250324472
 40
0.2500648884
 40
0.3750973179
 40
0.5001297738
 40
0.6251622164
 40
0.6876783664
 40
0.7189364795
 40
0.7501946587
 40
0.7814528764
 40
0.8127108725
 40
0.8439685856
 40
0.8752269813
 40
0.9064855183
 40
0.9377452317
 40
0.9689615688
 40
1.0
 40
1.0
 40
1.0
 40
1.0
 10
11.8326266313
 20
8.470391804
 30
0.0
 10
11.8326266313
 20
8.4817947207
 30
0.0
 10
11.8326274703
 20
8.5046005535
 30
0.0
 10
11.8326306254
 20
8.5388093012
 30
0.0
 10
11.8326350571
 20
8.5730180495
 30
0.0
 10
11.8326399295
 20
8.6072267979
 30
0.0
 10
11.8326436603
 20
8.635734083
 30
0.0
 10
11.8326465123
 20
8.6556891798
 30
0.0
 10
11.8326477562
 20
8.6670920962
 30
0.0
 10
11.8326483822
 20
8.675644299
 30
0.0
 10
11.8326485887
 20
8.6841964942
 30
0.0
 10
11.8326494047
 20
8.6927486352
 30
0.0
 10
11.8326518769
 20
8.7013008358
 30
0.0
 10
11.8326514874
 20
8.7098529232
 30
0.0
 10
11.8326439627
 20
8.7184058004
 30
0.0
 10
11.8326831345
 20
8.7269525757
 30
0.0
 10
11.8325602702
 20
8.7354877066
 30
0.0
 10
11.8319432167
 20
8.7411364912
 30
0.0
 10
11.8316739259
 20
8.7439543473
 30
0.0
  0
SPLINE
  5
54C
100
AcDbEntity
  8
0
100
AcDbSpline
 62
9
  6
CONTINUOUS
 70
0
 71
3
 72
21
 73
17
 74
0
 42
0.0000001
 43
0.0000001
 44
0.0000000001
 40
0.0
 40
0.0
 40
0.0
 40
0.0
 40
0.1411635884
 40
0.2112459762
 40
0.2807237278
 40
0.4168184471
 40
0.4831039924
 40
0.547813666
 40
0.6107248504
 40
0.6716846796
 40
0.7306541613
 40
0.7877211601
 40
0.8430476674
 40
0.8967997807
 40
0.9491063061
 40
1.0
 40
1.0
 40
1.0
 40
1.0
 10
11.8316739259
 20
8.7439543473
 30
0.0
 10
11.8306677849
 20
8.7544721285
 30
0.0
 10
11.8277896552
 20
8.7701277788
 30
0.0
 10
11.8212634094
 20
8.7901236993
 30
0.0
 10
11.8130899171
 20
8.8090914649
 30
0.0
 10
11.8023972419
 20
8.8265929862
 30
0.0
 10
11.7894021928
 20
8.8418260014
 30
0.0
 10
11.7788077808
 20
8.8517920523
 30
0.0
 10
11.7674623038
 20
8.8602426827
 30
0.0
 10
11.755563412
 20
8.8670708305
 30
0.0
 10
11.743328261
 20
8.8722340729
 30
0.0
 10
11.730982539
 20
8.8758105759
 30
0.0
 10
11.7187173006
 20
8.8779837831
 30
0.0
 10
11.7066673612
 20
8.8789975864
 30
0.0
 10
11.6949151195
 20
8.8791712161
 30
0.0
 10
11.6871928743
 20
8.8789553188
 30
0.0
 10
11.6833858391
 20
8.8788244101
 30
0.0
  0
SPLINE
  5
54D
100
AcDbEntity
  8
0
100
AcDbSpline
 62
9
  6
CONTINUOUS
 70
0
 71
3
 72
15
 73
11
 74
0
 42
0.0000001
 43
0.0000001
 44
0.0000000001
 40
0.0
 40
0.0
 40
0.0
 40
0.0
 40
0.1309908111
 40
0.2583003733
 40
0.382197626
 40
0.5034704057
 40
0.6235830138
 40
0.7446873852
 40
0.8693573321
 40
1.0
 40
1.0
 40
1.0
 40
1.0
 10
11.6833858391
 20
8.8788244101
 30
0.0
 10
11.6798014857
 20
8.8787002644
 30
0.0
 10
11.6727334859
 20
8.8784497544
 30
0.0
 10
11.6622895556
 20
8.8777358609
 30
0.0
 10
11.6521712739
 20
8.8763708256
 30
0.0
 10
11.6424219498
 20
8.874042286
 30
0.0
 10
11.6331159927
 20
8.8704987662
 30
0.0
 10
11.6243586063
 20
8.8655488619
 30
0.0
 10
11.6162729307
 20
8.8590912221
 30
0.0
 10
11.6115220099
 20
8.8539244442
 30
0.0
 10
11.6092790748
 20
8.8511380556
 30
0.0
  0
SPLINE
  5
54E
100
AcDbEntity
  8
0
100
AcDbSpline
 62
9
  6
CONTINUOUS
 70
0
 71
3
 72
21
 73
17
 74
0
 42
0.0000001
 43
0.0000001
 44
0.0000000001
 40
0.0
 40
0.0
 40
0.0
 40
0.0
 40
0.0287918509
 40
0.0566438402
 40
0.1106778844
 40
0.1643756716
 40
0.219356983
 40
0.2476528436
 40
0.2765718478
 40
0.3363393233
 40
0.3984741853
 40
0.4625298017
 40
0.59482862
 40
0.7300157989
 40
0.8653044444
 40
1.0
 40
1.0
 40
1.0
 40
1.0
 10
11.6609759758
 20
8.8382256266
 30
0.0
 10
11.6619799478
 20
8.8379759981
 30
0.0
 10
11.663935094
 20
8.8373976628
 30
0.0
 10
11.6676293335
 20
8.8359122752
 30
0.0
 10
11.6718694928
 20
8.8334484045
 30
0.0
 10
11.6763223968
 20
8.8296171151
 30
0.0
 10
11.6795138231
 20
8.8258468979
 30
0.0
 10
11.6818113871
 20
8.8225321844
 30
0.0
 10
11.6840027737
 20
8.8189427555
 30
0.0
 10
11.6864625631
 20
8.8141040721
 30
0.0
 10
11.688979991
 20
8.8079078645
 30
0.0
 10
11.6918617375
 20
8.799071709
 30
0.0
 10
11.6944977717
 20
8.7874267248
 30
0.0
 10
11.69631585
 20
8.773051017
 30
0.0
 10
11.6969452263
 20
8.7584922837
 30
0.0
 10
11.6967012256
 20
8.7487874875
 30
0.0
 10
11.6964465812
 20
8.7439543488
 30
0.0
  0
SPLINE
  5
54F
100
AcDbEntity
  8
0
100
AcDbSpline
 62
9
  6
CONTINUOUS
 70
0
 71
3
 72
19
 73
15
 74
0
 42
0.0000001
 43
0.0000001
 44
0.0000000001
 40
0.0
 40
0.0
 40
0.0
 40
0.0
 40
0.1284709211
 40
0.262698822
 40
0.3309265768
 40
0.3993559115
 40
0.4674109656
 40
0.5345048786
 40
0.6636503275
 40
0.7844218867
 40
0.8416178731
 40
0.8965814027
 40
0.9493043882
 40
1.0
 40
1.0
 40
1.0
 40
1.0
 10
11.6833842189
 20
8.8788243508
 30
0.0
 10
11.6834193066
 20
8.8766508516
 30
0.0
 10
11.6832260771
 20
8.8721986517
 30
0.0
 10
11.6823104418
 20
8.8666578848
 30
0.0
 10
11.6811009546
 20
8.8622330623
 30
0.0
 10
11.6799393713
 20
8.8589663575
 30
0.0
 10
11.6785434571
 20
8.8558132161
 30
0.0
 10
11.6764158391
 20
8.8518761651
 30
0.0
 10
11.6732791203
 20
8.8474838017
 30
0.0
 10
11.6694225958
 20
8.8439368673
 30
0.0
 10
11.6661209482
 20
8.8417723221
 30
0.0
 10
11.663625621
 20
8.8405100974
 30
0.0
 10
11.6611006121
 20
8.8395929446
 30
0.0
 10
11.6593886582
 20
8.8392056633
 30
0.0
 10
11.6585419404
 20
8.8390682776
 30
0.0
  0
SPLINE
  5
550
100
AcDbEntity
  8
0
100
AcDbSpline
 62
9
  6
CONTINUOUS
 70
0
 71
3
 72
15
 73
11
 74
0
 42
0.0000001
 43
0.0000001
 44
0.0000000001
 40
0.0
 40
0.0
 40
0.0
 40
0.0
 40
0.1296779226
 40
0.2679518689
 40
0.4097650182
 40
0.5495205884
 40
0.6818389232
 40
0.8027664724
 40
0.9091945849
 40
1.0
 40
1.0
 40
1.0
 40
1.0
 10
11.8316732974
 20
8.7439597546
 30
0.0
 10
11.8258669252
 20
8.7431251687
 30
0.0
 10
11.8138300507
 20
8.7416681209
 30
0.0
 10
11.7953547625
 20
8.7401228337
 30
0.0
 10
11.7763798745
 20
8.739231506
 30
0.0
 10
11.7576551343
 20
8.7389923896
 30
0.0
 10
11.7398785659
 20
8.7394148782
 30
0.0
 10
11.7236343898
 20
8.7404059333
 30
0.0
 10
11.7093141453
 20
8.7418848989
 30
0.0
 10
11.7004875248
 20
8.7432184475
 30
0.0
 10
11.6964468089
 20
8.7439568414
 30
0.0
  0
SPLINE
  5
551
100
AcDbEntity
  8
0
100
AcDbSpline
 62
9
  6
CONTINUOUS
 70
0
 71
3
 72
30
 73
26
 74
0
 42
0.0000001
 43
0.0000001
 44
0.0000000001
 40
0.0
 40
0.0
 40
0.0
 40
0.0
 40
0.1250154569
 40
0.2500309134
 40
0.3750463695
 40
0.5000618254
 40
0.5625695533
 40
0.6250772813
 40
0.687585009
 40
0.7500927393
 40
0.7813465959
 40
0.8126004841
 40
0.8282273776
 40
0.8438542396
 40
0.8594812302
 40
0.8751084312
 40
0.8907352879
 40
0.9063613828
 40
0.9219889426
 40
0.9376193122
 40
0.9454318916
 40
0.9532417599
 40
0.9688538556
 40
0.9844443599
 40
1.0
 40
1.0
 40
1.0
 40
1.0
 10
11.6955357008
 20
8.470391804
 30
0.0
 10
11.6955355516
 20
8.4817931489
 30
0.0
 10
11.6955349638
 20
8.5045958386
 30
0.0
 10
11.6955318423
 20
8.538799873
 30
0.0
 10
11.6955277049
 20
8.5730039072
 30
0.0
 10
11.6955237937
 20
8.6015072689
 30
0.0
 10
11.6955207517
 20
8.6243099583
 30
0.0
 10
11.6955185549
 20
8.6414119753
 30
0.0
 10
11.6955166602
 20
8.6585139926
 30
0.0
 10
11.6955150044
 20
8.672765673
 30
0.0
 10
11.6955144704
 20
8.6841670195
 30
0.0
 10
11.6955132596
 20
8.6912928579
 30
0.0
 10
11.6955134958
 20
8.6969935228
 30
0.0
 10
11.6955144726
 20
8.7012690221
 30
0.0
 10
11.6955139535
 20
8.7055445511
 30
0.0
 10
11.6955094299
 20
8.7098200735
 30
0.0
 10
11.6955074946
 20
8.7140955293
 30
0.0
 10
11.6955219742
 20
8.7183709717
 30
0.0
 10
11.6955251501
 20
8.7226468359
 30
0.0
 10
11.6954819607
 20
8.726209848
 30
0.0
 10
11.6954844452
 20
8.7290601693
 30
0.0
 10
11.6955373259
 20
8.731908452
 30
0.0
 10
11.6957121307
 20
8.7354627969
 30
0.0
 10
11.6960242175
 20
8.7397159094
 30
0.0
 10
11.6962937168
 20
8.7425439423
 30
0.0
 10
11.6964465953
 20
8.7439543473
 30
0.0
  0
SPLINE
  5
552
100
AcDbEntity
  8
0
100
AcDbSpline
 62
7
  6
CONTINUOUS
 70
0
 71
3
 72
15
 73
11
 74
0
 42
0.0000001
 43
0.0000001
 44
0.0000000001
 40
0.0
 40
0.0
 40
0.0
 40
0.0
 40
0.1723487358
 40
0.3390893248
 40
0.4919389184
 40
0.6266428183
 40
0.7424946547
 40
0.8402306769
 40
0.923898691
 40
1.0
 40
1.0
 40
1.0
 40
1.0
 10
12.0322837665
 20
9.2904720528
 30
0.0
 10
12.0319459864
 20
9.2904471825
 30
0.0
 10
12.0312784323
 20
9.2904330625
 30
0.0
 10
12.0303129735
 20
9.2905079126
 30
0.0
 10
12.0294339544
 20
9.290677079
 30
0.0
 10
12.0286807213
 20
9.2909333242
 30
0.0
 10
12.0280737984
 20
9.29125824
 30
0.0
 10
12.0276264068
 20
9.291643428
 30
0.0
 10
12.0273483177
 20
9.2920766695
 30
0.0
 10
12.0272837665
 20
9.2923933018
 30
0.0
 10
12.0272837665
 20
9.2925428537
 30
0.0
  0
SPLINE
  5
553
100
AcDbEntity
  8
0
100
AcDbSpline
 62
9
  6
CONTINUOUS
 70
0
 71
3
 72
15
 73
11
 74
0
 42
0.0000001
 43
0.0000001
 44
0.0000000001
 40
0.0
 40
0.0
 40
0.0
 40
0.0
 40
0.1804090805
 40
0.3441563536
 40
0.4865870128
 40
0.6106488516
 40
0.7208378694
 40
0.8209036191
 40
0.9134094236
 40
1.0
 40
1.0
 40
1.0
 40
1.0
 10
11.6955357008
 20
8.470391804
 30
0.0
 10
11.6955356424
 20
8.4651047731
 30
0.0
 10
11.6961034841
 20
8.4550074552
 30
0.0
 10
11.6985702723
 20
8.4409305859
 30
0.0
 10
11.7021960489
 20
8.4288234517
 30
0.0
 10
11.7066145932
 20
8.4186787463
 30
0.0
 10
11.7115582978
 20
8.4101966755
 30
0.0
 10
11.7168143807
 20
8.4030303434
 30
0.0
 10
11.7222586199
 20
8.3969098518
 30
0.0
 10
11.7260684765
 20
8.3932906399
 30
0.0
 10
11.727973708
 20
8.3916144734
 30
0.0
  0
SPLINE
  5
554
100
AcDbEntity
  8
0
100
AcDbSpline
 62
7
  6
CONTINUOUS
 70
0
 71
3
 72
13
 73
9
 74
0
 42
0.0000001
 43
0.0000001
 44
0.0000000001
 40
0.0
 40
0.0
 40
0.0
 40
0.0
 40
0.1638572034
 40
0.3134802073
 40
0.5752987047
 40
0.7990143411
 40
0.901441302
 40
1.0
 40
1.0
 40
1.0
 40
1.0
 10
12.4291579831
 20
8.3803918518
 30
0.0
 10
12.4304149784
 20
8.3795942973
 30
0.0
 10
12.4328303341
 20
8.3780845697
 30
0.0
 10
12.4373365238
 20
8.3754360291
 30
0.0
 10
12.4424985967
 20
8.3728304201
 30
0.0
 10
12.4475981548
 20
8.3711392836
 30
0.0
 10
12.4514094468
 20
8.370497597
 30
0.0
 10
12.4532369215
 20
8.370391804
 30
0.0
 10
12.4541323421
 20
8.370391804
 30
0.0
  0
SPLINE
  5
555
100
AcDbEntity
  8
0
100
AcDbSpline
 62
7
  6
CONTINUOUS
 70
0
 71
3
 72
13
 73
9
 74
0
 42
0.0000001
 43
0.0000001
 44
0.0000000001
 40
0.0
 40
0.0
 40
0.0
 40
0.0
 40
0.0985625234
 40
0.2009995546
 40
0.4247575344
 40
0.6865533755
 40
0.8361513595
 40
1.0
 40
1.0
 40
1.0
 40
1.0
 10
11.6904570184
 20
8.370391804
 30
0.0
 10
11.6913524653
 20
8.370391804
 30
0.0
 10
11.6931800466
 20
8.3704975776
 30
0.0
 10
11.6969918348
 20
8.3711392888
 30
0.0
 10
11.7020913318
 20
8.372831246
 30
0.0
 10
11.7072537571
 20
8.3754358378
 30
0.0
 10
11.7117592962
 20
8.3780844276
 30
0.0
 10
11.7141741564
 20
8.3795943112
 30
0.0
 10
11.7154310749
 20
8.3803918153
 30
0.0
  0
SPLINE
  5
556
100
AcDbEntity
  8
0
100
AcDbSpline
 62
7
  6
CONTINUOUS
 70
0
 71
3
 72
15
 73
11
 74
0
 42
0.0000001
 43
0.0000001
 44
0.0000000001
 40
0.0
 40
0.0
 40
0.0
 40
0.0
 40
0.1203956407
 40
0.2405196208
 40
0.3616947897
 40
0.4846760316
 40
0.6098952562
 40
0.7375560391
 40
0.8676500848
 40
1.0
 40
1.0
 40
1.0
 40
1.0
 10
12.4164366003
 20
8.3904102462
 30
0.0
 10
12.4126082689
 20
8.3940716194
 30
0.0
 10
12.4044483632
 20
8.4008547578
 30
0.0
 10
12.3913588
 20
8.4099188476
 30
0.0
 10
12.3778105478
 20
8.4184854399
 30
0.0
 10
12.3640425723
 20
8.427121166
 30
0.0
 10
12.3502921695
 20
8.4363181972
 30
0.0
 10
12.3368152697
 20
8.4464532444
 30
0.0
 10
12.3238663278
 20
8.4577459634
 30
0.0
 10
12.3158147573
 20
8.4660461521
 30
0.0
 10
12.31193786
 20
8.4703913441
 30
0.0
  0
SPLINE
  5
557
100
AcDbEntity
  8
0
100
AcDbSpline
 62
9
  6
CONTINUOUS
 70
0
 71
3
 72
18
 73
14
 74
0
 42
0.0000001
 43
0.0000001
 44
0.0000000001
 40
0.0
 40
0.0
 40
0.0
 40
0.0
 40
0.0920412846
 40
0.1818424062
 40
0.2675316605
 40
0.3479233903
 40
0.4915174826
 40
0.6148094331
 40
0.7230995331
 40
0.7732859983
 40
0.8214766114
 40
0.9132003022
 40
1.0
 40
1.0
 40
1.0
 40
1.0
 10
12.4490770188
 20
8.470391804
 30
0.0
 10
12.4490776633
 20
8.4676302504
 30
0.0
 10
12.4489893777
 20
8.4621732449
 30
0.0
 10
12.4484840209
 20
8.4541594329
 30
0.0
 10
12.4476379939
 20
8.4465252484
 30
0.0
 10
12.4461213004
 20
8.4373552822
 30
0.0
 10
12.4435426359
 20
8.4272291478
 30
0.0
 10
12.439286553
 20
8.4167651563
 30
0.0
 10
12.4349346026
 20
8.4094796322
 30
0.0
 10
12.4312167876
 20
8.4045126423
 30
0.0
 10
12.4275087027
 20
8.4001740051
 30
0.0
 10
12.4226435187
 20
8.3954008664
 30
0.0
 10
12.4184995695
 20
8.3919992538
 30
0.0
 10
12.4164363702
 20
8.3904100636
 30
0.0
  0
SPLINE
  5
558
100
AcDbEntity
  8
0
100
AcDbSpline
 62
9
  6
CONTINUOUS
 70
0
 71
3
 72
16
 73
12
 74
0
 42
0.0000001
 43
0.0000001
 44
0.0000000001
 40
0.0
 40
0.0
 40
0.0
 40
0.0
 40
0.1199874704
 40
0.2504023223
 40
0.3875161793
 40
0.5262538462
 40
0.6613214517
 40
0.7878456129
 40
0.901536788
 40
0.9527940704
 40
1.0
 40
1.0
 40
1.0
 40
1.0
 10
12.3133963699
 20
8.7438407285
 30
0.0
 10
12.3187157428
 20
8.7429197808
 30
0.0
 10
12.3298651419
 20
8.741271448
 30
0.0
 10
12.3472101958
 20
8.73945333
 30
0.0
 10
12.3654587354
 20
8.7383141127
 30
0.0
 10
12.3839477661
 20
8.7379052871
 30
0.0
 10
12.4019612578
 20
8.7382935258
 30
0.0
 10
12.4188150671
 20
8.7394117411
 30
0.0
 10
12.4318455473
 20
8.7409572778
 30
0.0
 10
12.4412639119
 20
8.7425167503
 30
0.0
 10
12.4456093645
 20
8.7433842694
 30
0.0
 10
12.4476836323
 20
8.7438407438
 30
0.0
  0
SPLINE
  5
559
100
AcDbEntity
  8
0
100
AcDbSpline
 62
9
  6
CONTINUOUS
 70
0
 71
3
 72
23
 73
19
 74
0
 42
0.0000001
 43
0.0000001
 44
0.0000000001
 40
0.0
 40
0.0
 40
0.0
 40
0.0
 40
0.0311375539
 40
0.0623558117
 40
0.0936037263
 40
0.1248587155
 40
0.1561137644
 40
0.1873688055
 40
0.2186238492
 40
0.2498788972
 40
0.3123889885
 40
0.3748990807
 40
0.4374091725
 40
0.4999192645
 40
0.6249394484
 40
0.7499596322
 40
0.8749798161
 40
1.0
 40
1.0
 40
1.0
 40
1.0
 10
12.4476837275
 20
8.7438398798
 30
0.0
 10
12.4479950161
 20
8.7410183686
 30
0.0
 10
12.448477833
 20
8.7353520717
 30
0.0
 10
12.4488808087
 20
8.726826978
 30
0.0
 10
12.449050161
 20
8.7182839398
 30
0.0
 10
12.4490834536
 20
8.7097365315
 30
0.0
 10
12.4490747724
 20
8.7011885203
 30
0.0
 10
12.4490772777
 20
8.6926404915
 30
0.0
 10
12.4490770978
 20
8.6840924662
 30
0.0
 10
12.4490770135
 20
8.6726950974
 30
0.0
 10
12.4490769986
 20
8.6584483866
 30
0.0
 10
12.4490770345
 20
8.6413523336
 30
0.0
 10
12.4490770103
 20
8.6242562807
 30
0.0
 10
12.4490770255
 20
8.6014615434
 30
0.0
 10
12.4490770166
 20
8.5729681218
 30
0.0
 10
12.4490770193
 20
8.5387760159
 30
0.0
 10
12.4490770187
 20
8.50458391
 30
0.0
 10
12.4490770188
 20
8.4817891727
 30
0.0
 10
12.4490770188
 20
8.470391804
 30
0.0
  0
SPLINE
  5
55A
100
AcDbEntity
  8
0
100
AcDbSpline
 62
9
  6
CONTINUOUS
 70
0
 71
3
 72
15
 73
11
 74
0
 42
0.0000001
 43
0.0000001
 44
0.0000000001
 40
0.0
 40
0.0
 40
0.0
 40
0.0
 40
0.1230318761
 40
0.2513861449
 40
0.3827298315
 40
0.5149667465
 40
0.6452114707
 40
0.7705597053
 40
0.8889967857
 40
1.0
 40
1.0
 40
1.0
 40
1.0
 10
12.4612016782
 20
8.8788243497
 30
0.0
 10
12.4612296282
 20
8.877093018
 30
0.0
 10
12.4614490302
 20
8.8735561856
 30
0.0
 10
12.4622712291
 20
8.8682251153
 30
0.0
 10
12.4636498394
 20
8.8628731652
 30
0.0
 10
12.4656294764
 20
8.8576829336
 30
0.0
 10
12.4681543977
 20
8.8528295461
 30
0.0
 10
12.4711687034
 20
8.8484916168
 30
0.0
 10
12.47463263
 20
8.8448667403
 30
0.0
 10
12.4772290626
 20
8.842916318
 30
0.0
 10
12.4785576412
 20
8.8420943985
 30
0.0
  0
SPLINE
  5
55B
100
AcDbEntity
  8
0
100
AcDbSpline
 62
9
  6
CONTINUOUS
 70
0
 71
3
 72
9
 73
5
 74
0
 42
0.0000001
 43
0.0000001
 44
0.0000000001
 40
0.0
 40
0.0
 40
0.0
 40
0.0
 40
0.5196753226
 40
1.0
 40
1.0
 40
1.0
 40
1.0
 10
12.4785576412
 20
8.8420943985
 30
0.0
 10
12.4798662114
 20
8.8412848571
 30
0.0
 10
12.4825312304
 20
8.839944375
 30
0.0
 10
12.4854237107
 20
8.8391983191
 30
0.0
 10
12.4868315442
 20
8.8389965274
 30
0.0
  0
SPLINE
  5
55C
100
AcDbEntity
  8
0
100
AcDbSpline
 62
9
  6
CONTINUOUS
 70
0
 71
3
 72
19
 73
15
 74
0
 42
0.0000001
 43
0.0000001
 44
0.0000000001
 40
0.0
 40
0.0
 40
0.0
 40
0.0
 40
0.1321072362
 40
0.2651567585
 40
0.3984858384
 40
0.5294016515
 40
0.5929944894
 40
0.6548737368
 40
0.7147072509
 40
0.7724230159
 40
0.8284955935
 40
0.8839459755
 40
0.9404077122
 40
1.0
 40
1.0
 40
1.0
 40
1.0
 10
12.4476837314
 20
8.7438398806
 30
0.0
 10
12.4472417815
 20
8.7485949302
 30
0.0
 10
12.4466622974
 20
8.7581715539
 30
0.0
 10
12.4468988141
 20
8.7725911525
 30
0.0
 10
12.4484300542
 20
8.7868920968
 30
0.0
 10
12.4509168523
 20
8.7985102995
 30
0.0
 10
12.4537384312
 20
8.8073456344
 30
0.0
 10
12.4562496
 20
8.8135638654
 30
0.0
 10
12.4592131364
 20
8.8193450444
 30
0.0
 10
12.4626736411
 20
8.8245993597
 30
0.0
 10
12.4667090762
 20
8.829226921
 30
0.0
 10
12.4714033468
 20
8.8331261751
 30
0.0
 10
12.4768358412
 20
8.8361846237
 30
0.0
 10
12.480836305
 20
8.8375343117
 30
0.0
 10
12.4829269258
 20
8.8380538191
 30
0.0
  0
LINE
  5
55D
100
AcDbEntity
  8
0
100
AcDbLine
 62
7
  6
CONTINUOUS
 10
12.4140360346
 20
9.2501266424
 11
12.4132946802
 21
9.2506370515
  0
SPLINE
  5
55E
100
AcDbEntity
  8
0
100
AcDbSpline
 62
7
  6
CONTINUOUS
 70
0
 71
3
 72
16
 73
12
 74
0
 42
0.0000001
 43
0.0000001
 44
0.0000000001
 40
0.0
 40
0.0
 40
0.0
 40
0.0
 40
0.1853607881
 40
0.3650395642
 40
0.5307446568
 40
0.675990905
 40
0.7968967393
 40
0.8904136884
 40
0.9267302995
 40
0.95645564
 40
1.0
 40
1.0
 40
1.0
 40
1.0
 10
12.089793146
 20
9.3407511506
 30
0.0
 10
12.089596495
 20
9.3407569467
 30
0.0
 10
12.0892094277
 20
9.3407769482
 30
0.0
 10
12.08864843
 20
9.3408299322
 30
0.0
 10
12.0881326947
 20
9.3409035937
 30
0.0
 10
12.087683201
 20
9.3409952518
 30
0.0
 10
12.0873158168
 20
9.341100401
 30
0.0
 10
12.0870686452
 20
9.3412019423
 30
0.0
 10
12.0869244494
 20
9.3412927324
 30
0.0
 10
12.0868366548
 20
9.3413674038
 30
0.0
 10
12.086793146
 20
9.3414422238
 30
0.0
 10
12.086793146
 20
9.3414884405
 30
0.0
  0
LINE
  5
55F
100
AcDbEntity
  8
0
100
AcDbLine
 62
7
  6
CONTINUOUS
 10
11.781387898
 20
9.2499291103
 11
11.7768786136
 21
9.2465946472
  0
LINE
  5
560
100
AcDbEntity
  8
0
100
AcDbLine
 62
7
  6
CONTINUOUS
 10
11.7768786136
 20
9.2465946472
 11
11.772153477
 21
9.2438354781
  0
LINE
  5
561
100
AcDbEntity
  8
0
100
AcDbLine
 62
7
  6
CONTINUOUS
 10
11.772153477
 20
9.2438354781
 11
11.7681237849
 21
9.2421104321
  0
SPLINE
  5
562
100
AcDbEntity
  8
0
100
AcDbSpline
 62
7
  6
CONTINUOUS
 70
0
 71
3
 72
9
 73
5
 74
0
 42
0.0000001
 43
0.0000001
 44
0.0000000001
 40
0.0
 40
0.0
 40
0.0
 40
0.0
 40
0.2415284152
 40
1.0
 40
1.0
 40
1.0
 40
1.0
 10
11.7997373838
 20
9.2574067499
 30
0.0
 10
11.7988564057
 20
9.2558743942
 30
0.0
 10
11.7952691165
 20
9.2494954306
 30
0.0
 10
11.7919147076
 20
9.2429864799
 30
0.0
 10
11.7894838084
 20
9.237996457
 30
0.0
  0
SPLINE
  5
563
100
AcDbEntity
  8
0
100
AcDbSpline
 62
7
  6
CONTINUOUS
 70
0
 71
3
 72
12
 73
8
 74
0
 42
0.0000001
 43
0.0000001
 44
0.0000000001
 40
0.0
 40
0.0
 40
0.0
 40
0.0
 40
0.057811806
 40
0.1388968668
 40
0.3668804973
 40
0.6618409768
 40
1.0
 40
1.0
 40
1.0
 40
1.0
 10
11.7645855509
 20
9.2539734643
 30
0.0
 10
11.7645861636
 20
9.2539387369
 30
0.0
 10
11.7645600903
 20
9.2538562546
 30
0.0
 10
11.764442765
 20
9.2536697425
 30
0.0
 10
11.7641923975
 20
9.2534030759
 30
0.0
 10
11.7638041663
 20
9.2530617176
 30
0.0
 10
11.763501146
 20
9.2528309263
 30
0.0
 10
11.7633363455
 20
9.2527121155
 30
0.0
  0
SPLINE
  5
564
100
AcDbEntity
  8
0
100
AcDbSpline
 62
7
  6
CONTINUOUS
 70
0
 71
3
 72
15
 73
11
 74
0
 42
0.0000001
 43
0.0000001
 44
0.0000000001
 40
0.0
 40
0.0
 40
0.0
 40
0.0
 40
0.0268350019
 40
0.0491056747
 40
0.0784168462
 40
0.1150579697
 40
0.1591545116
 40
0.2697511536
 40
0.5791739058
 40
1.0
 40
1.0
 40
1.0
 40
1.0
 10
12.1222946802
 20
9.3523794305
 30
0.0
 10
12.1222946802
 20
9.3523348204
 30
0.0
 10
12.1222220327
 20
9.3522675637
 30
0.0
 10
12.1221084441
 20
9.3522139235
 30
0.0
 10
12.1219683758
 20
9.3521643163
 30
0.0
 10
12.1217918485
 20
9.3521182058
 30
0.0
 10
12.1214801041
 20
9.3520532229
 30
0.0
 10
12.1207164869
 20
9.351941172
 30
0.0
 10
12.119322303
 20
9.3518270209
 30
0.0
 10
12.1181096376
 20
9.3517713629
 30
0.0
 10
12.1174104875
 20
9.3517470002
 30
0.0
  0
LINE
  5
565
100
AcDbEntity
  8
0
100
AcDbLine
 62
7
  6
CONTINUOUS
 10
12.3503474007
 20
9.2721483846
 11
12.350706096
 21
9.2716827376
  0
LINE
  5
566
100
AcDbEntity
  8
0
100
AcDbLine
 62
7
  6
CONTINUOUS
 10
12.350706096
 20
9.2716827376
 11
12.3515329258
 21
9.2710773423
  0
SPLINE
  5
567
100
AcDbEntity
  8
0
100
AcDbSpline
 62
7
  6
CONTINUOUS
 70
0
 71
3
 72
10
 73
6
 74
0
 42
0.0000001
 43
0.0000001
 44
0.0000000001
 40
0.0
 40
0.0
 40
0.0
 40
0.0
 40
0.2504400037
 40
0.4813209328
 40
1.0
 40
1.0
 40
1.0
 40
1.0
 10
11.7408944383
 20
9.2440224917
 30
0.0
 10
11.740894471
 20
9.243932486
 30
0.0
 10
11.740916242
 20
9.2437573939
 30
0.0
 10
11.7410917034
 20
9.2434329426
 30
0.0
 10
11.7413572361
 20
9.243304543
 30
0.0
 10
11.7415371394
 20
9.2432557288
 30
0.0
  0
LINE
  5
568
100
AcDbEntity
  8
0
100
AcDbLine
 62
7
  6
CONTINUOUS
 10
11.7415371394
 20
9.2432557288
 11
11.7424963228
 21
9.2431983835
  0
LINE
  5
569
100
AcDbEntity
  8
0
100
AcDbLine
 62
7
  6
CONTINUOUS
 10
12.4152086647
 20
9.2439130213
 11
12.4123424129
 21
9.2455321916
  0
LINE
  5
56A
100
AcDbEntity
  8
0
100
AcDbLine
 62
7
  6
CONTINUOUS
 10
12.4118680662
 20
9.2458171521
 11
12.4086964477
 21
9.2478073731
  0
SPLINE
  5
56B
100
AcDbEntity
  8
0
100
AcDbSpline
 62
7
  6
CONTINUOUS
 70
0
 71
3
 72
11
 73
7
 74
0
 42
0.0000001
 43
0.0000001
 44
0.0000000001
 40
0.0
 40
0.0
 40
0.0
 40
0.0
 40
0.2194673706
 40
0.464827664
 40
0.727982123
 40
1.0
 40
1.0
 40
1.0
 40
1.0
 10
12.0722954409
 20
9.3529279308
 30
0.0
 10
12.0702524444
 20
9.3530929
 30
0.0
 10
12.065916841
 20
9.3533377071
 30
0.0
 10
12.0591187777
 20
9.3534880295
 30
0.0
 10
12.0518284988
 20
9.3534361184
 30
0.0
 10
12.046832565
 20
9.3532693165
 30
0.0
 10
12.0442948464
 20
9.353152081
 30
0.0
  0
SPLINE
  5
56C
100
AcDbEntity
  8
0
100
AcDbSpline
 62
7
  6
CONTINUOUS
 70
0
 71
3
 72
10
 73
6
 74
0
 42
0.0000001
 43
0.0000001
 44
0.0000000001
 40
0.0
 40
0.0
 40
0.0
 40
0.0
 40
0.5244462408
 40
0.77126564
 40
1.0
 40
1.0
 40
1.0
 40
1.0
 10
12.0442948464
 20
9.353152081
 30
0.0
 10
12.0400346363
 20
9.3529552713
 30
0.0
 10
12.0337740154
 20
9.3525345125
 30
0.0
 10
12.0256845104
 20
9.3516996345
 30
0.0
 10
12.0218490599
 20
9.3511999081
 30
0.0
 10
12.0200088856
 20
9.3509287245
 30
0.0
  0
SPLINE
  5
56D
100
AcDbEntity
  8
0
100
AcDbSpline
 62
7
  6
CONTINUOUS
 70
0
 71
3
 72
19
 73
15
 74
0
 42
0.0000001
 43
0.0000001
 44
0.0000000001
 40
0.0
 40
0.0
 40
0.0
 40
0.0
 40
0.2073360651
 40
0.3942642828
 40
0.5583036518
 40
0.6974703848
 40
0.7573430753
 40
0.8105796189
 40
0.8571166942
 40
0.8970149412
 40
0.9305094694
 40
0.9580730987
 40
0.9806424017
 40
1.0
 40
1.0
 40
1.0
 40
1.0
 10
12.0200088856
 20
9.3509287245
 30
0.0
 10
12.0187022643
 20
9.3507361698
 30
0.0
 10
12.0162218658
 20
9.3503401749
 30
0.0
 10
12.0127273523
 20
9.3496760233
 30
0.0
 10
12.0096830977
 20
9.3489794742
 30
0.0
 10
12.0074549524
 20
9.3483533182
 30
0.0
 10
12.0059342162
 20
9.3478325862
 30
0.0
 10
12.0049876181
 20
9.3474597261
 30
0.0
 10
12.0041795672
 20
9.347085825
 30
0.0
 10
12.0035122062
 20
9.3467119653
 30
0.0
 10
12.0029859621
 20
9.3463394586
 30
0.0
 10
12.0026006919
 20
9.3459674031
 30
0.0
 10
12.002356204
 20
9.3455917964
 30
0.0
 10
12.0022946802
 20
9.345323438
 30
0.0
 10
12.0022946802
 20
9.3452001299
 30
0.0
  0
LINE
  5
56E
100
AcDbEntity
  8
0
100
AcDbLine
 62
7
  6
CONTINUOUS
 10
12.4001831172
 20
9.2535894939
 11
12.3994372384
 21
9.2541744345
  0
SPLINE
  5
56F
100
AcDbEntity
  8
0
100
AcDbSpline
 62
7
  6
CONTINUOUS
 70
0
 71
3
 72
11
 73
7
 74
0
 42
0.0000001
 43
0.0000001
 44
0.0000000001
 40
0.0
 40
0.0
 40
0.0
 40
0.0
 40
0.4038467181
 40
0.6752780206
 40
0.833348423
 40
1.0
 40
1.0
 40
1.0
 40
1.0
 10
12.3994372384
 20
9.2541744345
 30
0.0
 10
12.3994267231
 20
9.2541863776
 30
0.0
 10
12.3994101958
 20
9.2542076251
 30
0.0
 10
12.3993925889
 20
9.2542345168
 30
0.0
 10
12.3993907228
 20
9.2542622406
 30
0.0
 10
12.3994063273
 20
9.2542663998
 30
0.0
 10
12.3994128813
 20
9.2542668038
 30
0.0
  0
SPLINE
  5
570
100
AcDbEntity
  8
0
100
AcDbSpline
 62
7
  6
CONTINUOUS
 70
0
 71
3
 72
15
 73
11
 74
0
 42
0.0000001
 43
0.0000001
 44
0.0000000001
 40
0.0
 40
0.0
 40
0.0
 40
0.0
 40
0.0742128809
 40
0.1601831497
 40
0.2619562541
 40
0.3810719563
 40
0.5174466213
 40
0.6688882913
 40
0.8317753781
 40
1.0
 40
1.0
 40
1.0
 40
1.0
 10
12.1222946802
 20
9.2984797656
 30
0.0
 10
12.1221447657
 20
9.2979219589
 30
0.0
 10
12.1215779957
 20
9.2967791632
 30
0.0
 10
12.1201525187
 20
9.2952921855
 30
0.0
 10
12.1181453344
 20
9.2939703471
 30
0.0
 10
12.1155920103
 20
9.2928447678
 30
0.0
 10
12.1125429893
 20
9.2919603686
 30
0.0
 10
12.1090819489
 20
9.2913527806
 30
0.0
 10
12.1053320764
 20
9.2910665117
 30
0.0
 10
12.1027514426
 20
9.2910927475
 30
0.0
 10
12.1014440208
 20
9.2911627901
 30
0.0
  0
SPLINE
  5
571
100
AcDbEntity
  8
0
100
AcDbSpline
 62
9
  6
CONTINUOUS
 70
0
 71
3
 72
15
 73
11
 74
0
 42
0.0000001
 43
0.0000001
 44
0.0000000001
 40
0.0
 40
0.0
 40
0.0
 40
0.0
 40
0.1064426495
 40
0.2157479635
 40
0.3299571612
 40
0.450664417
 40
0.5784813633
 40
0.7132621539
 40
0.8543194687
 40
1.0
 40
1.0
 40
1.0
 40
1.0
 10
11.3462887097
 20
8.470391804
 30
0.0
 10
11.3440889047
 20
8.470391804
 30
0.0
 10
11.3396143663
 20
8.4709191396
 30
0.0
 10
11.3331452271
 20
8.473235178
 30
0.0
 10
11.3270572143
 20
8.4770082723
 30
0.0
 10
11.3215139035
 20
8.4821131995
 30
0.0
 10
11.3166427557
 20
8.4884019779
 30
0.0
 10
11.312566186
 20
8.4957131472
 30
0.0
 10
11.3093883235
 20
8.5038494992
 30
0.0
 10
11.3079334367
 20
8.5096118242
 30
0.0
 10
11.3073702298
 20
8.5125693939
 30
0.0
  0
SPLINE
  5
572
100
AcDbEntity
  8
0
100
AcDbSpline
 62
9
  6
CONTINUOUS
 70
0
 71
3
 72
13
 73
9
 74
0
 42
0.0000001
 43
0.0000001
 44
0.0000000001
 40
0.0
 40
0.0
 40
0.0
 40
0.0
 40
0.1240090695
 40
0.2489265624
 40
0.5
 40
0.7510734376
 40
0.8759909305
 40
1.0
 40
1.0
 40
1.0
 40
1.0
 10
11.3073702298
 20
8.5125693939
 30
0.0
 10
11.3052267925
 20
8.5238252315
 30
0.0
 10
11.3014717423
 20
8.5465277165
 30
0.0
 10
11.2960912076
 20
8.5924255439
 30
0.0
 10
11.2933984403
 20
8.650391804
 30
0.0
 10
11.2960912076
 20
8.7083580641
 30
0.0
 10
11.3014717423
 20
8.7542558916
 30
0.0
 10
11.3052267925
 20
8.7769583766
 30
0.0
 10
11.3073702298
 20
8.7882142142
 30
0.0
  0
SPLINE
  5
573
100
AcDbEntity
  8
0
100
AcDbSpline
 62
9
  6
CONTINUOUS
 70
0
 71
3
 72
18
 73
14
 74
0
 42
0.0000001
 43
0.0000001
 44
0.0000000001
 40
0.0
 40
0.0
 40
0.0
 40
0.0
 40
0.1478753243
 40
0.2902219458
 40
0.4250048587
 40
0.4893955835
 40
0.551737603
 40
0.6704168523
 40
0.7826570887
 40
0.8373293671
 40
0.8915240095
 40
0.9456256114
 40
1.0
 40
1.0
 40
1.0
 40
1.0
 10
11.3073702298
 20
8.7882142142
 30
0.0
 10
11.3080071033
 20
8.7915586294
 30
0.0
 10
11.3096997726
 20
8.7980486851
 30
0.0
 10
11.3135018758
 20
8.8071010547
 30
0.0
 10
11.3176734567
 20
8.813814881
 30
0.0
 10
11.3215185388
 20
8.8184587098
 30
0.0
 10
11.3255242426
 20
8.8224530634
 30
0.0
 10
11.3310023742
 20
8.8264920869
 30
0.0
 10
11.3371163428
 20
8.8290985953
 30
0.0
 10
11.3421064177
 20
8.8301665321
 30
0.0
 10
11.3458575521
 20
8.8304673928
 30
0.0
 10
11.3496079193
 20
8.8302781895
 30
0.0
 10
11.3520729556
 20
8.8298287382
 30
0.0
 10
11.3532876145
 20
8.829525846
 30
0.0
  0
SPLINE
  5
574
100
AcDbEntity
  8
0
100
AcDbSpline
 62
9
  6
CONTINUOUS
 70
0
 71
3
 72
21
 73
17
 74
0
 42
0.0000001
 43
0.0000001
 44
0.0000000001
 40
0.0
 40
0.0
 40
0.0
 40
0.0
 40
0.0725654256
 40
0.1449226749
 40
0.2871025208
 40
0.4239719325
 40
0.4899057728
 40
0.5538919278
 40
0.6158190769
 40
0.6756625518
 40
0.7334618258
 40
0.7893662516
 40
0.843631658
 40
0.8965894345
 40
0.9485919873
 40
1.0
 40
1.0
 40
1.0
 40
1.0
 10
11.3462887097
 20
8.470391804
 30
0.0
 10
11.3462887097
 20
8.4671267916
 30
0.0
 10
11.3460604818
 20
8.4606036007
 30
0.0
 10
11.3447173396
 20
8.4477477215
 30
0.0
 10
11.3414241324
 20
8.4322245484
 30
0.0
 10
11.3359624287
 20
8.4176216976
 30
0.0
 10
11.3303951397
 20
8.4069727222
 30
0.0
 10
11.3257435558
 20
8.3996871782
 30
0.0
 10
11.3206037687
 20
8.3930803927
 30
0.0
 10
11.3150306146
 20
8.3872113319
 30
0.0
 10
11.3090728487
 20
8.3821392938
 30
0.0
 10
11.3027845844
 20
8.3779158992
 30
0.0
 10
11.2962255201
 20
8.374579451
 30
0.0
 10
11.2894546619
 20
8.3721744114
 30
0.0
 10
11.2825500957
 20
8.3707201391
 30
0.0
 10
11.2778910863
 20
8.370391804
 30
0.0
 10
11.2755780316
 20
8.370391804
 30
0.0
  0
SPLINE
  5
575
100
AcDbEntity
  8
0
100
AcDbSpline
 62
9
  6
CONTINUOUS
 70
0
 71
3
 72
17
 73
13
 74
0
 42
0.0000001
 43
0.0000001
 44
0.0000000001
 40
0.0
 40
0.0
 40
0.0
 40
0.0
 40
0.0510823398
 40
0.1064462999
 40
0.2277144134
 40
0.3593009104
 40
0.4964744
 40
0.6341208929
 40
0.7670972916
 40
0.890609105
 40
0.9473673475
 40
1.0
 40
1.0
 40
1.0
 40
1.0
 10
11.1683815167
 20
8.4865651656
 30
0.0
 10
11.1707990481
 20
8.4865651653
 30
0.0
 10
11.1758369652
 20
8.4866598769
 30
0.0
 10
11.1866022218
 20
8.4871840745
 30
0.0
 10
11.201138006
 20
8.4884739267
 30
0.0
 10
11.219444745
 20
8.4908693319
 30
0.0
 10
11.2384144806
 20
8.494070354
 30
0.0
 10
11.2573226265
 20
8.4979578422
 30
0.0
 10
11.2754477282
 20
8.5023812674
 30
0.0
 10
11.2897010059
 20
8.5064785693
 30
0.0
 10
11.3001717767
 20
8.509925275
 30
0.0
 10
11.3050424396
 20
8.5116828365
 30
0.0
 10
11.3073702298
 20
8.5125693939
 30
0.0
  0
SPLINE
  5
576
100
AcDbEntity
  8
0
100
AcDbSpline
 62
9
  6
CONTINUOUS
 70
0
 71
3
 72
17
 73
13
 74
0
 42
0.0000001
 43
0.0000001
 44
0.0000000001
 40
0.0
 40
0.0
 40
0.0
 40
0.0
 40
0.052628364
 40
0.1093730337
 40
0.2328327578
 40
0.3657718533
 40
0.503403547
 40
0.640592637
 40
0.7722165783
 40
0.8935361064
 40
0.9489134219
 40
1.0
 40
1.0
 40
1.0
 40
1.0
 10
11.3073702298
 20
8.7882142142
 30
0.0
 10
11.3050426292
 20
8.7891006992
 30
0.0
 10
11.3001727858
 20
8.7908580382
 30
0.0
 10
11.2897052014
 20
8.7943038378
 30
0.0
 10
11.2754566449
 20
8.7983999132
 30
0.0
 10
11.2573364264
 20
8.8028225281
 30
0.0
 10
11.2384301109
 20
8.8067103268
 30
0.0
 10
11.2194587006
 20
8.8099123176
 30
0.0
 10
11.2011471036
 20
8.8123087378
 30
0.0
 10
11.1866065089
 20
8.8135991464
 30
0.0
 10
11.1758379978
 20
8.814123643
 30
0.0
 10
11.1707992486
 20
8.8142184424
 30
0.0
 10
11.1683815167
 20
8.8142184424
 30
0.0
  0
SPLINE
  5
577
100
AcDbEntity
  8
0
100
AcDbSpline
 62
9
  6
CONTINUOUS
 70
0
 71
3
 72
19
 73
15
 74
0
 42
0.0000001
 43
0.0000001
 44
0.0000000001
 40
0.0
 40
0.0
 40
0.0
 40
0.0
 40
0.0276818284
 40
0.057100768
 40
0.0896886877
 40
0.1264883959
 40
0.1682098354
 40
0.21530938
 40
0.268044922
 40
0.3265593752
 40
0.461129679
 40
0.6190467358
 40
0.7992064393
 40
1.0
 40
1.0
 40
1.0
 40
1.0
 10
13.0061642149
 20
8.8069208885
 30
0.0
 10
13.0061084891
 20
8.8072121713
 30
0.0
 10
13.0059115531
 20
8.8077999151
 30
0.0
 10
13.005386461
 20
8.8086140672
 30
0.0
 10
13.0046384926
 20
8.8093715717
 30
0.0
 10
13.0036728511
 20
8.8100743906
 30
0.0
 10
13.0024911941
 20
8.8107242867
 30
0.0
 10
13.0010950157
 20
8.8113212565
 30
0.0
 10
12.9994867895
 20
8.8118655025
 30
0.0
 10
12.9969427416
 20
8.8125515314
 30
0.0
 10
12.9932403674
 20
8.813240262
 30
0.0
 10
12.9882061216
 20
8.8138093165
 30
0.0
 10
12.9824408551
 20
8.814149998
 30
0.0
 10
12.9783590179
 20
8.8142184424
 30
0.0
 10
12.9762078437
 20
8.8142184424
 30
0.0
  0
SPLINE
  5
578
100
AcDbEntity
  8
0
100
AcDbSpline
 62
9
  6
CONTINUOUS
 70
0
 71
3
 72
19
 73
15
 74
0
 42
0.0000001
 43
0.0000001
 44
0.0000000001
 40
0.0
 40
0.0
 40
0.0
 40
0.0
 40
0.2008289502
 40
0.3809931312
 40
0.5388724336
 40
0.6734180565
 40
0.73192813
 40
0.7846599244
 40
0.8317537509
 40
0.873477338
 40
0.9102889376
 40
0.9428890347
 40
0.9723148326
 40
1.0
 40
1.0
 40
1.0
 40
1.0
 10
11.1683815167
 20
8.8142184425
 30
0.0
 10
11.166229948
 20
8.8142184428
 30
0.0
 10
11.1621476567
 20
8.8141500133
 30
0.0
 10
11.1563823127
 20
8.8138094609
 30
0.0
 10
11.151348678
 20
8.8132401969
 30
0.0
 10
11.147646986
 20
8.8125516148
 30
0.0
 10
11.1451032291
 20
8.8118657915
 30
0.0
 10
11.1434951063
 20
8.8113216519
 30
0.0
 10
11.1420990587
 20
8.8107245338
 30
0.0
 10
11.1409173692
 20
8.810074519
 30
0.0
 10
11.1399512977
 20
8.8093718283
 30
0.0
 10
11.139202727
 20
8.8086144468
 30
0.0
 10
11.1386771696
 20
8.8078002727
 30
0.0
 10
11.1384803356
 20
8.8072123133
 30
0.0
 10
11.1384248419
 20
8.8069209476
 30
0.0
  0
LINE
  5
579
100
AcDbEntity
  8
0
100
AcDbLine
 62
7
  6
CONTINUOUS
 10
12.4231548837
 20
9.2424180212
 11
12.4226934856
 21
9.2427523727
  0
LINE
  5
57A
100
AcDbEntity
  8
0
100
AcDbLine
 62
7
  6
CONTINUOUS
 10
11.7533754472
 20
9.2642955032
 11
11.7528457315
 21
9.2639754137
  0
LINE
  5
57B
100
AcDbEntity
  8
0
100
AcDbLine
 62
7
  6
CONTINUOUS
 10
11.7463325716
 20
9.2599762262
 11
11.7458033915
 21
9.2596460949
  0
LINE
  5
57C
100
AcDbEntity
  8
0
100
AcDbLine
 62
7
  6
CONTINUOUS
 10
11.7207731698
 20
9.2431200019
 11
11.7193179592
 21
9.2421500374
  0
LINE
  5
57D
100
AcDbEntity
  8
0
100
AcDbLine
 62
7
  6
CONTINUOUS
 10
11.7193179592
 20
9.2421500374
 11
11.7187043545
 21
9.2417668806
  0
LINE
  5
57E
100
AcDbEntity
  8
0
100
AcDbLine
 62
7
  6
CONTINUOUS
 10
11.7187043545
 20
9.2417668806
 11
11.7186056574
 21
9.2417130921
  0
LINE
  5
57F
100
AcDbEntity
  8
0
100
AcDbLine
 62
7
  6
CONTINUOUS
 10
12.4226934856
 20
9.2427523727
 11
12.4193029285
 21
9.2446279442
  0
SPLINE
  5
580
100
AcDbEntity
  8
0
100
AcDbSpline
 62
7
  6
CONTINUOUS
 70
0
 71
3
 72
15
 73
11
 74
0
 42
0.0000001
 43
0.0000001
 44
0.0000000001
 40
0.0
 40
0.0
 40
0.0
 40
0.0
 40
0.1711285602
 40
0.3359587551
 40
0.4876356283
 40
0.622908134
 40
0.7401434343
 40
0.839916244
 40
0.9247446062
 40
1.0
 40
1.0
 40
1.0
 40
1.0
 10
12.089885106
 20
9.291659032
 30
0.0
 10
12.089198252
 20
9.2916812172
 30
0.0
 10
12.0878511791
 20
9.2917925836
 30
0.0
 10
12.0859211722
 20
9.2921427656
 30
0.0
 10
12.084178208
 20
9.2926605155
 30
0.0
 10
12.082685422
 20
9.2933098279
 30
0.0
 10
12.0814805565
 20
9.2940633554
 30
0.0
 10
12.0805864559
 20
9.2948964478
 30
0.0
 10
12.0800231183
 20
9.2957926474
 30
0.0
 10
12.079885106
 20
9.2964394259
 30
0.0
 10
12.079885106
 20
9.2967416339
 30
0.0
  0
LINE
  5
581
100
AcDbEntity
  8
0
100
AcDbLine
 62
7
  6
CONTINUOUS
 10
12.3820893082
 20
9.269307892
 11
12.3754148432
 21
9.2729967895
  0
LINE
  5
582
100
AcDbEntity
  8
0
100
AcDbLine
 62
7
  6
CONTINUOUS
 10
12.3754148432
 20
9.2729967895
 11
12.370640979
 21
9.2753175421
  0
LINE
  5
583
100
AcDbEntity
  8
0
100
AcDbLine
 62
7
  6
CONTINUOUS
 10
12.370640979
 20
9.2753175421
 11
12.3684511311
 21
9.2761023882
  0
LINE
  5
584
100
AcDbEntity
  8
0
100
AcDbLine
 62
7
  6
CONTINUOUS
 10
12.3684511311
 20
9.2761023882
 11
12.3682339007
 21
9.2761382799
  0
LINE
  5
585
100
AcDbEntity
  8
0
100
AcDbLine
 62
7
  6
CONTINUOUS
 10
11.7465560635
 20
9.2595227832
 11
11.7460018456
 21
9.259145935
  0
LINE
  5
586
100
AcDbEntity
  8
0
100
AcDbLine
 62
7
  6
CONTINUOUS
 10
11.7312420651
 20
9.2486978297
 11
11.7305077546
 21
9.2481568205
  0
LINE
  5
587
100
AcDbEntity
  8
0
100
AcDbLine
 62
7
  6
CONTINUOUS
 10
11.7274917367
 20
9.2459130941
 11
11.7268526612
 21
9.2454331619
  0
LINE
  5
588
100
AcDbEntity
  8
0
100
AcDbLine
 62
7
  6
CONTINUOUS
 10
11.7221865714
 20
9.2418807297
 11
11.7217451159
 21
9.2415401981
  0
SPLINE
  5
589
100
AcDbEntity
  8
0
100
AcDbSpline
 62
7
  6
CONTINUOUS
 70
0
 71
3
 72
21
 73
17
 74
0
 42
0.0000001
 43
0.0000001
 44
0.0000000001
 40
0.0
 40
0.0
 40
0.0
 40
0.0
 40
0.0635415447
 40
0.1267815987
 40
0.2522406973
 40
0.3145196977
 40
0.3765226892
 40
0.4383176246
 40
0.5000000509
 40
0.5616824766
 40
0.6234774046
 40
0.6854803953
 40
0.7477593929
 40
0.8732184812
 40
0.9364585249
 40
1.0
 40
1.0
 40
1.0
 40
1.0
 10
12.0722932329
 20
7.0203365627
 30
0.0
 10
12.0595374422
 20
7.0276799075
 30
0.0
 10
12.0338019002
 20
7.041849812
 30
0.0
 10
11.9814303106
 20
7.0677741442
 30
0.0
 10
11.9273744912
 20
7.0896005995
 30
0.0
 10
11.8718032523
 20
7.105826595
 30
0.0
 10
11.8296037773
 20
7.1148173015
 30
0.0
 10
11.7869476225
 20
7.1203521445
 30
0.0
 10
11.7440446917
 20
7.1222221757
 30
0.0
 10
11.7011417625
 20
7.1203521455
 30
0.0
 10
11.6584856096
 20
7.1148173055
 30
0.0
 10
11.6162861357
 20
7.105826603
 30
0.0
 10
11.5607149043
 20
7.0896006032
 30
0.0
 10
11.5066590572
 20
7.0677742002
 30
0.0
 10
11.454287576
 20
7.0418497263
 30
0.0
 10
11.4285517602
 20
7.0276803566
 30
0.0
 10
11.4157959819
 20
7.0203370228
 30
0.0
  0
LINE
  5
58A
100
AcDbEntity
  8
0
100
AcDbLine
 62
7
  6
CONTINUOUS
 10
11.7478259803
 20
9.2577073924
 11
11.7472590655
 21
9.257303899
  0
LINE
  5
58B
100
AcDbEntity
  8
0
100
AcDbLine
 62
7
  6
CONTINUOUS
 10
11.7373190315
 20
9.2500347384
 11
11.7367342672
 21
9.2495954539
  0
LINE
  5
58C
100
AcDbEntity
  8
0
100
AcDbLine
 62
7
  6
CONTINUOUS
 10
11.7349194922
 20
9.2482237742
 11
11.7329171107
 21
9.246764902
  0
LINE
  5
58D
100
AcDbEntity
  8
0
100
AcDbLine
 62
7
  6
CONTINUOUS
 10
12.371342075
 20
9.2623614607
 11
12.371326828
 21
9.2622429494
  0
SPLINE
  5
58E
100
AcDbEntity
  8
0
100
AcDbSpline
 62
7
  6
CONTINUOUS
 70
0
 71
3
 72
11
 73
7
 74
0
 42
0.0000001
 43
0.0000001
 44
0.0000000001
 40
0.0
 40
0.0
 40
0.0
 40
0.0
 40
0.1887823615
 40
0.3997412398
 40
0.6646758877
 40
1.0
 40
1.0
 40
1.0
 40
1.0
 10
12.371326828
 20
9.2622429494
 30
0.0
 10
12.3713110371
 20
9.2621861317
 30
0.0
 10
12.3712453258
 20
9.2620724511
 30
0.0
 10
12.3710625723
 20
9.2619621065
 30
0.0
 10
12.3708134997
 20
9.2619045941
 30
0.0
 10
12.3706251714
 20
9.2618986037
 30
0.0
 10
12.37052046
 20
9.261901354
 30
0.0
  0
LINE
  5
58F
100
AcDbEntity
  8
0
100
AcDbLine
 62
7
  6
CONTINUOUS
 10
12.4038407467
 20
9.2541971404
 11
12.4030188667
 21
9.2552806853
  0
LINE
  5
590
100
AcDbEntity
  8
0
100
AcDbLine
 62
7
  6
CONTINUOUS
 10
12.4030188667
 20
9.2552806853
 11
12.4002806372
 21
9.2575395938
  0
LINE
  5
591
100
AcDbEntity
  8
0
100
AcDbLine
 62
7
  6
CONTINUOUS
 10
12.3991784463
 20
9.2583588584
 11
12.3958162227
 21
9.2607230258
  0
LINE
  5
592
100
AcDbEntity
  8
0
100
AcDbLine
 62
7
  6
CONTINUOUS
 10
12.3958162227
 20
9.2607230258
 11
12.389582968
 21
9.2647895244
  0
SPLINE
  5
593
100
AcDbEntity
  8
0
100
AcDbSpline
 62
7
  6
CONTINUOUS
 70
0
 71
3
 72
12
 73
8
 74
0
 42
0.0000001
 43
0.0000001
 44
0.0000000001
 40
0.0
 40
0.0
 40
0.0
 40
0.0
 40
0.1757567095
 40
0.2820595542
 40
0.4013395802
 40
0.6776206853
 40
1.0
 40
1.0
 40
1.0
 40
1.0
 10
11.8301107965
 20
9.2717182556
 30
0.0
 10
11.8301126153
 20
9.2714485047
 30
0.0
 10
11.8299970754
 20
9.2710167031
 30
0.0
 10
11.8297273646
 20
9.2704640838
 30
0.0
 10
11.8293180922
 20
9.2698093451
 30
0.0
 10
11.8286204037
 20
9.2689523331
 30
0.0
 10
11.8279697712
 20
9.2683018698
 30
0.0
 10
11.8276074253
 20
9.2679649268
 30
0.0
  0
LINE
  5
594
100
AcDbEntity
  8
0
100
AcDbLine
 62
7
  6
CONTINUOUS
 10
11.8276074253
 20
9.2679649268
 11
11.8255782129
 21
9.2662777358
  0
LINE
  5
595
100
AcDbEntity
  8
0
100
AcDbLine
 62
7
  6
CONTINUOUS
 10
11.7333890776
 20
9.2383372852
 11
11.734191719
 21
9.2396287933
  0
LINE
  5
596
100
AcDbEntity
  8
0
100
AcDbLine
 62
7
  6
CONTINUOUS
 10
11.734191719
 20
9.2396287933
 11
11.7357222661
 21
9.241408851
  0
LINE
  5
597
100
AcDbEntity
  8
0
100
AcDbLine
 62
7
  6
CONTINUOUS
 10
12.3731862239
 20
9.2567992206
 11
12.3735491315
 21
9.2562764017
  0
LINE
  5
598
100
AcDbEntity
  8
0
100
AcDbLine
 62
7
  6
CONTINUOUS
 10
12.3735491315
 20
9.2562764017
 11
12.3743715622
 21
9.2556061851
  0
LINE
  5
599
100
AcDbEntity
  8
0
100
AcDbLine
 62
7
  6
CONTINUOUS
 10
11.7807639063
 20
9.2735104183
 11
11.7796830063
 21
9.2729351142
  0
SPLINE
  5
59A
100
AcDbEntity
  8
0
100
AcDbSpline
 62
7
  6
CONTINUOUS
 70
0
 71
3
 72
12
 73
8
 74
0
 42
0.0000001
 43
0.0000001
 44
0.0000000001
 40
0.0
 40
0.0
 40
0.0
 40
0.0
 40
0.1645096033
 40
0.2683684049
 40
0.387173188
 40
0.6676868952
 40
1.0
 40
1.0
 40
1.0
 40
1.0
 10
11.8060112457
 20
9.2710114425
 30
0.0
 10
11.8060132879
 20
9.2707943145
 30
0.0
 10
11.8059051273
 20
9.2704426769
 30
0.0
 10
11.8056678058
 20
9.2699919641
 30
0.0
 10
11.8052997462
 20
9.2694370258
 30
0.0
 10
11.80467537
 20
9.2686976087
 30
0.0
 10
11.8040996313
 20
9.2681283169
 30
0.0
 10
11.8037784119
 20
9.2678296396
 30
0.0
  0
LINE
  5
59B
100
AcDbEntity
  8
0
100
AcDbLine
 62
7
  6
CONTINUOUS
 10
11.8032032103
 20
9.2673129516
 11
11.8014790175
 21
9.2659222729
  0
SPLINE
  5
59C
100
AcDbEntity
  8
0
100
AcDbSpline
 62
7
  6
CONTINUOUS
 70
0
 71
3
 72
11
 73
7
 74
0
 42
0.0000001
 43
0.0000001
 44
0.0000000001
 40
0.0
 40
0.0
 40
0.0
 40
0.0
 40
0.2140918183
 40
0.420468859
 40
0.6718353499
 40
1.0
 40
1.0
 40
1.0
 40
1.0
 10
12.3999816577
 20
9.242356901
 30
0.0
 10
12.3999815949
 20
9.2422586707
 30
0.0
 10
12.3999449102
 20
9.242058219
 30
0.0
 10
12.3997140588
 20
9.2418304415
 30
0.0
 10
12.3993615327
 20
9.2417223418
 30
0.0
 10
12.399094116
 20
9.2417134274
 30
0.0
 10
12.3989436654
 20
9.2417194096
 30
0.0
  0
LINE
  5
59D
100
AcDbEntity
  8
0
100
AcDbLine
 62
7
  6
CONTINUOUS
 10
12.3840933427
 20
9.2577498819
 11
12.3787869082
 21
9.2602235518
  0
SPLINE
  5
59E
100
AcDbEntity
  8
0
100
AcDbSpline
 62
7
  6
CONTINUOUS
 70
0
 71
3
 72
21
 73
17
 74
0
 42
0.0000001
 43
0.0000001
 44
0.0000000001
 40
0.0
 40
0.0
 40
0.0
 40
0.0
 40
0.0635414316
 40
0.1267814791
 40
0.252240583
 40
0.314519586
 40
0.3765225804
 40
0.4383175188
 40
0.499999948
 40
0.5616823768
 40
0.623477308
 40
0.6854803019
 40
0.7477593028
 40
0.8732183981
 40
0.9364584509
 40
1.0
 40
1.0
 40
1.0
 40
1.0
 10
12.7287935029
 20
7.0203373008
 30
0.0
 10
12.7160377354
 20
7.0276806322
 30
0.0
 10
12.690301739
 20
7.0418496532
 30
0.0
 10
12.6379303248
 20
7.0677742253
 30
0.0
 10
12.5838744534
 20
7.0896005983
 30
0.0
 10
12.5283032221
 20
7.1058266051
 30
0.0
 10
12.4861037444
 20
7.1148173067
 30
0.0
 10
12.4434475892
 20
7.1203521475
 30
0.0
 10
12.4005446575
 20
7.1222221758
 30
0.0
 10
12.357641728
 20
7.1203521424
 30
0.0
 10
12.3149855745
 20
7.1148172997
 30
0.0
 10
12.2727861015
 20
7.1058265929
 30
0.0
 10
12.2172148646
 20
7.0896005979
 30
0.0
 10
12.1631590482
 20
7.0677741433
 30
0.0
 10
12.1107874601
 20
7.0418498127
 30
0.0
 10
12.0850519187
 20
7.0276799077
 30
0.0
 10
12.0722961276
 20
7.0203365627
 30
0.0
  0
SPLINE
  5
59F
100
AcDbEntity
  8
0
100
AcDbSpline
 62
7
  6
CONTINUOUS
 70
0
 71
3
 72
13
 73
9
 74
0
 42
0.0000001
 43
0.0000001
 44
0.0000000001
 40
0.0
 40
0.0
 40
0.0
 40
0.0
 40
0.2884430452
 40
0.5792006898
 40
0.7134547709
 40
0.8325047831
 40
0.9301518945
 40
1.0
 40
1.0
 40
1.0
 40
1.0
 10
11.7763169195
 20
9.2617949163
 30
0.0
 10
11.7759707239
 20
9.2615598904
 30
0.0
 10
11.7752582948
 20
9.2611132398
 30
0.0
 10
11.7743469631
 20
9.2606202459
 30
0.0
 10
11.7736295644
 20
9.2602909588
 30
0.0
 10
11.773154319
 20
9.2601058601
 30
0.0
 10
11.7727557775
 20
9.2599896711
 30
0.0
 10
11.772512768
 20
9.2599500681
 30
0.0
 10
11.7724115481
 20
9.2599547173
 30
0.0
  0
SPLINE
  5
5A0
100
AcDbEntity
  8
0
100
AcDbSpline
 62
7
  6
CONTINUOUS
 70
0
 71
3
 72
13
 73
9
 74
0
 42
0.0000001
 43
0.0000001
 44
0.0000000001
 40
0.0
 40
0.0
 40
0.0
 40
0.0
 40
0.0735436414
 40
0.1739412889
 40
0.2944133467
 40
0.4287352793
 40
0.7168300494
 40
1.0
 40
1.0
 40
1.0
 40
1.0
 10
12.3678766719
 20
9.2619297599
 30
0.0
 10
12.3678045542
 20
9.2619294155
 30
0.0
 10
12.3676348572
 20
9.2619595292
 30
0.0
 10
12.3673584144
 20
9.2620420393
 30
0.0
 10
12.3670335073
 20
9.2621689612
 30
0.0
 10
12.366549538
 20
9.262391003
 30
0.0
 10
12.3659401459
 20
9.2627202764
 30
0.0
 10
12.3654654177
 20
9.263018564
 30
0.0
 10
12.3652361077
 20
9.2631751673
 30
0.0
  0
LINE
  5
5A1
100
AcDbEntity
  8
0
100
AcDbLine
 62
7
  6
CONTINUOUS
 10
12.37052046
 20
9.261901354
 11
12.369639225
 21
9.2619246748
  0
LINE
  5
5A2
100
AcDbEntity
  8
0
100
AcDbLine
 62
7
  6
CONTINUOUS
 10
12.369639225
 20
9.2619246748
 11
12.3687579569
 21
9.2619246748
  0
LINE
  5
5A3
100
AcDbEntity
  8
0
100
AcDbLine
 62
7
  6
CONTINUOUS
 10
12.3687579569
 20
9.2619246748
 11
12.3678766719
 21
9.2619297599
  0
LINE
  5
5A4
100
AcDbEntity
  8
0
100
AcDbLine
 62
7
  6
CONTINUOUS
 10
11.7724115481
 20
9.2599547173
 11
11.7664644078
 21
9.2599821837
  0
LINE
  5
5A5
100
AcDbEntity
  8
0
100
AcDbLine
 62
7
  6
CONTINUOUS
 10
12.3515329258
 20
9.2722360068
 11
12.3507027632
 21
9.2728429893
  0
LINE
  5
5A6
100
AcDbEntity
  8
0
100
AcDbLine
 62
7
  6
CONTINUOUS
 10
12.3507027632
 20
9.2728429893
 11
12.3503472619
 21
9.2733047642
  0
SPLINE
  5
5A7
100
AcDbEntity
  8
0
100
AcDbSpline
 62
7
  6
CONTINUOUS
 70
0
 71
3
 72
11
 73
7
 74
0
 42
0.0000001
 43
0.0000001
 44
0.0000000001
 40
0.0
 40
0.0
 40
0.0
 40
0.0
 40
0.3421651573
 40
0.5998886818
 40
0.8006562664
 40
1.0
 40
1.0
 40
1.0
 40
1.0
 10
11.7664644078
 20
9.2599821837
 30
0.0
 10
11.7663331382
 20
9.2599773669
 30
0.0
 10
11.7661019726
 20
9.2599836089
 30
0.0
 10
11.765799045
 20
9.260061015
 30
0.0
 10
11.7655966615
 20
9.2602341931
 30
0.0
 10
11.7655628808
 20
9.2603946009
 30
0.0
 10
11.7655628828
 20
9.2604711294
 30
0.0
  0
SPLINE
  5
5A8
100
AcDbEntity
  8
0
100
AcDbSpline
 62
7
  6
CONTINUOUS
 70
0
 71
3
 72
13
 73
9
 74
0
 42
0.0000001
 43
0.0000001
 44
0.0000000001
 40
0.0
 40
0.0
 40
0.0
 40
0.0
 40
0.0737130061
 40
0.1750717882
 40
0.2963767346
 40
0.4309961754
 40
0.7180579428
 40
1.0
 40
1.0
 40
1.0
 40
1.0
 10
12.3952830356
 20
9.2417830855
 30
0.0
 10
12.3952087407
 20
9.2417827163
 30
0.0
 10
12.3950336028
 20
9.2418191976
 30
0.0
 10
12.3947514765
 20
9.2419161917
 30
0.0
 10
12.394422265
 20
9.2420637799
 30
0.0
 10
12.3939377809
 20
9.2423185385
 30
0.0
 10
12.3933336032
 20
9.2426915505
 30
0.0
 10
12.3928669087
 20
9.2430257257
 30
0.0
 10
12.3926424714
 20
9.2432000276
 30
0.0
  0
LINE
  5
5A9
100
AcDbEntity
  8
0
100
AcDbLine
 62
7
  6
CONTINUOUS
 10
12.3989436654
 20
9.2417194096
 11
12.396503312
 21
9.2417694402
  0
LINE
  5
5AA
100
AcDbEntity
  8
0
100
AcDbLine
 62
7
  6
CONTINUOUS
 10
12.396503312
 20
9.2417694402
 11
12.3952830356
 21
9.2417830855
  0
SPLINE
  5
5AB
100
AcDbEntity
  8
0
100
AcDbSpline
 62
9
  6
CONTINUOUS
 70
0
 71
3
 72
19
 73
15
 74
0
 42
0.0000001
 43
0.0000001
 44
0.0000000001
 40
0.0
 40
0.0
 40
0.0
 40
0.0
 40
0.2008289497
 40
0.3809931302
 40
0.5388724324
 40
0.6734180554
 40
0.731928129
 40
0.7846599237
 40
0.8317537503
 40
0.8734773376
 40
0.9102889372
 40
0.9428890344
 40
0.9723148324
 40
1.0
 40
1.0
 40
1.0
 40
1.0
 10
12.9762078437
 20
8.4865651656
 30
0.0
 10
12.9783594125
 20
8.4865651653
 30
0.0
 10
12.9824417038
 20
8.4866335947
 30
0.0
 10
12.9882070477
 20
8.486974147
 30
0.0
 10
12.9932406824
 20
8.4875434109
 30
0.0
 10
12.9969423745
 20
8.4882319931
 30
0.0
 10
12.9994861313
 20
8.4889178164
 30
0.0
 10
13.0010942541
 20
8.489461956
 30
0.0
 10
13.0024903017
 20
8.4900590741
 30
0.0
 10
13.0036719912
 20
8.4907090889
 30
0.0
 10
13.0046380627
 20
8.4914117796
 30
0.0
 10
13.0053866334
 20
8.4921691611
 30
0.0
 10
13.0059121908
 20
8.4929833352
 30
0.0
 10
13.0061090248
 20
8.4935712946
 30
0.0
 10
13.0061645185
 20
8.4938626603
 30
0.0
  0
LINE
  5
5AC
100
AcDbEntity
  8
0
100
AcDbLine
 62
7
  6
CONTINUOUS
 10
12.3787869082
 20
9.2602235518
 11
12.3771976289
 21
9.2620210767
  0
LINE
  5
5AD
100
AcDbEntity
  8
0
100
AcDbLine
 62
7
  6
CONTINUOUS
 10
12.3768984291
 20
9.2623014129
 11
12.3739254249
 21
9.2647413673
  0
LINE
  5
5AE
100
AcDbEntity
  8
0
100
AcDbLine
 62
7
  6
CONTINUOUS
 10
12.3733989088
 20
9.2651319428
 11
12.370586616
 21
9.2670875029
  0
SPLINE
  5
5AF
100
AcDbEntity
  8
0
100
AcDbSpline
 62
7
  6
CONTINUOUS
 70
0
 71
3
 72
12
 73
8
 74
0
 42
0.0000001
 43
0.0000001
 44
0.0000000001
 40
0.0
 40
0.0
 40
0.0
 40
0.0
 40
0.3398176333
 40
0.6344920289
 40
0.8612706755
 40
0.9420415383
 40
1.0
 40
1.0
 40
1.0
 40
1.0
 10
12.3743715622
 20
9.2568000174
 30
0.0
 10
12.3742141726
 20
9.2569122281
 30
0.0
 10
12.3739254917
 20
9.2571296839
 30
0.0
 10
12.3735564676
 20
9.2574513819
 30
0.0
 10
12.3733198955
 20
9.2577030012
 30
0.0
 10
12.3732096967
 20
9.2578792527
 30
0.0
 10
12.3731853826
 20
9.2579573729
 30
0.0
 10
12.373186106
 20
9.2579903328
 30
0.0
  0
LINE
  5
5B0
100
AcDbEntity
  8
0
100
AcDbLine
 62
7
  6
CONTINUOUS
 10
12.3743715622
 20
9.2568000174
 11
12.3755230459
 21
9.2559768463
  0
LINE
  5
5B1
100
AcDbEntity
  8
0
100
AcDbLine
 62
7
  6
CONTINUOUS
 10
12.3866072378
 20
9.247821584
 11
12.3874733768
 21
9.2471663154
  0
LINE
  5
5B2
100
AcDbEntity
  8
0
100
AcDbLine
 62
7
  6
CONTINUOUS
 10
12.3874733768
 20
9.2471663154
 11
12.3880664902
 21
9.246716068
  0
LINE
  5
5B3
100
AcDbEntity
  8
0
100
AcDbLine
 62
7
  6
CONTINUOUS
 10
12.3749506673
 20
9.2551917801
 11
12.3743715622
 21
9.2556061851
  0
SPLINE
  5
5B4
100
AcDbEntity
  8
0
100
AcDbSpline
 62
9
  6
CONTINUOUS
 70
0
 71
3
 72
21
 73
17
 74
0
 42
0.0000001
 43
0.0000001
 44
0.0000000001
 40
0.0
 40
0.0
 40
0.0
 40
0.0
 40
0.0514048593
 40
0.1033961082
 40
0.1563331782
 40
0.21057488
 40
0.2664590935
 40
0.3242458771
 40
0.3840768774
 40
0.4459978048
 40
0.5099853472
 40
0.5759223528
 40
0.7128226306
 40
0.855058025
 40
0.9274303146
 40
1.0
 40
1.0
 40
1.0
 40
1.0
 10
12.8690113298
 20
8.370391804
 30
0.0
 10
12.8666984161
 20
8.370391804
 30
0.0
 10
12.8620400657
 20
8.3707198655
 30
0.0
 10
12.8551368865
 20
8.3721731979
 30
0.0
 10
12.8483685113
 20
8.374577699
 30
0.0
 10
12.8418116016
 20
8.3779118357
 30
0.0
 10
12.835524775
 20
8.3821328949
 30
0.0
 10
12.8295683201
 20
8.3872032577
 30
0.0
 10
12.8239940357
 20
8.3930692952
 30
0.0
 10
12.8188542892
 20
8.3996752231
 30
0.0
 10
12.814202212
 20
8.4069602945
 30
0.0
 10
12.8086312919
 20
8.4176091859
 30
0.0
 10
12.8031677506
 20
8.4322158563
 30
0.0
 10
12.7998729936
 20
8.4477433406
 30
0.0
 10
12.7985290973
 20
8.4606025403
 30
0.0
 10
12.7983006517
 20
8.4671265988
 30
0.0
 10
12.7983006517
 20
8.470391804
 30
0.0
  0
SPLINE
  5
5B5
100
AcDbEntity
  8
0
100
AcDbSpline
 62
9
  6
CONTINUOUS
 70
0
 71
3
 72
17
 73
13
 74
0
 42
0.0000001
 43
0.0000001
 44
0.0000000001
 40
0.0
 40
0.0
 40
0.0
 40
0.0
 40
0.052628364
 40
0.1093730337
 40
0.2328327578
 40
0.3657718533
 40
0.5034035471
 40
0.640592637
 40
0.7722165783
 40
0.8935361064
 40
0.9489134219
 40
1.0
 40
1.0
 40
1.0
 40
1.0
 10
12.8372191307
 20
8.5125693939
 30
0.0
 10
12.8395467312
 20
8.5116829089
 30
0.0
 10
12.8444165747
 20
8.5099255699
 30
0.0
 10
12.8548841591
 20
8.5064797702
 30
0.0
 10
12.8691327156
 20
8.5023836949
 30
0.0
 10
12.8872529341
 20
8.49796108
 30
0.0
 10
12.9061592496
 20
8.4940732813
 30
0.0
 10
12.9251306599
 20
8.4908712905
 30
0.0
 10
12.9434422569
 20
8.4884748703
 30
0.0
 10
12.9579828515
 20
8.4871844617
 30
0.0
 10
12.9687513626
 20
8.4866599651
 30
0.0
 10
12.9737901118
 20
8.4865651656
 30
0.0
 10
12.9762078437
 20
8.4865651656
 30
0.0
  0
SPLINE
  5
5B6
100
AcDbEntity
  8
0
100
AcDbSpline
 62
9
  6
CONTINUOUS
 70
0
 71
3
 72
18
 73
14
 74
0
 42
0.0000001
 43
0.0000001
 44
0.0000000001
 40
0.0
 40
0.0
 40
0.0
 40
0.0
 40
0.0543744016
 40
0.1084760416
 40
0.1626707408
 40
0.2173430752
 40
0.3295833738
 40
0.4482626362
 40
0.510604669
 40
0.5749953976
 40
0.7097782637
 40
0.8521247405
 40
1.0
 40
1.0
 40
1.0
 40
1.0
 10
12.7913017459
 20
8.829525846
 30
0.0
 10
12.7925164051
 20
8.8298287383
 30
0.0
 10
12.7949814428
 20
8.8302781891
 30
0.0
 10
12.7987318125
 20
8.830467391
 30
0.0
 10
12.8024829503
 20
8.8301665298
 30
0.0
 10
12.8074730293
 20
8.8290985927
 30
0.0
 10
12.813586999
 20
8.8264920788
 30
0.0
 10
12.8190651313
 20
8.822453053
 30
0.0
 10
12.8230708326
 20
8.8184586959
 30
0.0
 10
12.8269159143
 20
8.8138148677
 30
0.0
 10
12.8310874892
 20
8.8071010429
 30
0.0
 10
12.8348895918
 20
8.7980486796
 30
0.0
 10
12.8365822575
 20
8.7915586279
 30
0.0
 10
12.8372191307
 20
8.7882142142
 30
0.0
  0
SPLINE
  5
5B7
100
AcDbEntity
  8
0
100
AcDbSpline
 62
9
  6
CONTINUOUS
 70
0
 71
3
 72
13
 73
9
 74
0
 42
0.0000001
 43
0.0000001
 44
0.0000000001
 40
0.0
 40
0.0
 40
0.0
 40
0.0
 40
0.1240090695
 40
0.2489265624
 40
0.5
 40
0.7510734376
 40
0.8759909305
 40
1.0
 40
1.0
 40
1.0
 40
1.0
 10
12.8372191307
 20
8.7882142142
 30
0.0
 10
12.839362568
 20
8.7769583766
 30
0.0
 10
12.8431176182
 20
8.7542558916
 30
0.0
 10
12.8484981529
 20
8.7083580641
 30
0.0
 10
12.8511909201
 20
8.650391804
 30
0.0
 10
12.8484981529
 20
8.5924255439
 30
0.0
 10
12.8431176181
 20
8.5465277165
 30
0.0
 10
12.8393625679
 20
8.5238252315
 30
0.0
 10
12.8372191307
 20
8.5125693939
 30
0.0
  0
SPLINE
  5
5B8
100
AcDbEntity
  8
0
100
AcDbSpline
 62
9
  6
CONTINUOUS
 70
0
 71
3
 72
15
 73
11
 74
0
 42
0.0000001
 43
0.0000001
 44
0.0000000001
 40
0.0
 40
0.0
 40
0.0
 40
0.0
 40
0.1456805706
 40
0.2867379731
 40
0.4215187935
 40
0.54933573
 40
0.6700429787
 40
0.7842521379
 40
0.8935573823
 40
1.0
 40
1.0
 40
1.0
 40
1.0
 10
12.8372191307
 20
8.5125693939
 30
0.0
 10
12.8366559236
 20
8.5096118234
 30
0.0
 10
12.8352010351
 20
8.5038494962
 30
0.0
 10
12.832023172
 20
8.4957131409
 30
0.0
 10
12.8279465997
 20
8.4884019703
 30
0.0
 10
12.8230754506
 20
8.4821131926
 30
0.0
 10
12.8175321396
 20
8.4770082671
 30
0.0
 10
12.8114441279
 20
8.473235176
 30
0.0
 10
12.8049749916
 20
8.4709191379
 30
0.0
 10
12.8005004551
 20
8.4703918041
 30
0.0
 10
12.7983006507
 20
8.470391804
 30
0.0
  0
SPLINE
  5
5B9
100
AcDbEntity
  8
0
100
AcDbSpline
 62
9
  6
CONTINUOUS
 70
0
 71
3
 72
17
 73
13
 74
0
 42
0.0000001
 43
0.0000001
 44
0.0000000001
 40
0.0
 40
0.0
 40
0.0
 40
0.0
 40
0.0510823397
 40
0.1064462997
 40
0.2277144134
 40
0.3593009104
 40
0.4964744002
 40
0.6341208932
 40
0.767097292
 40
0.8906091054
 40
0.9473673478
 40
1.0
 40
1.0
 40
1.0
 40
1.0
 10
12.9762078437
 20
8.8142184425
 30
0.0
 10
12.9737903124
 20
8.8142184428
 30
0.0
 10
12.9687523953
 20
8.8141237311
 30
0.0
 10
12.9579871387
 20
8.8135995333
 30
0.0
 10
12.9434513545
 20
8.8123096811
 30
0.0
 10
12.9251446155
 20
8.8099142759
 30
0.0
 10
12.9061748799
 20
8.8067132538
 30
0.0
 10
12.887266734
 20
8.8028257657
 30
0.0
 10
12.8691416323
 20
8.7984023405
 30
0.0
 10
12.8548883546
 20
8.7943050387
 30
0.0
 10
12.8444175837
 20
8.7908583333
 30
0.0
 10
12.8395469208
 20
8.789100772
 30
0.0
 10
12.8372191306
 20
8.7882142147
 30
0.0
  0
SPLINE
  5
5BA
100
AcDbEntity
  8
0
100
AcDbSpline
 62
9
  6
CONTINUOUS
 70
0
 71
3
 72
18
 73
14
 74
0
 42
0.0000001
 43
0.0000001
 44
0.0000000001
 40
0.0
 40
0.0
 40
0.0
 40
0.0
 40
0.1465728732
 40
0.2888798438
 40
0.4248618089
 40
0.4901820097
 40
0.5535713634
 40
0.6743160208
 40
0.7876726973
 40
0.8421085021
 40
0.8953911013
 40
0.9478893284
 40
1.0
 40
1.0
 40
1.0
 40
1.0
 10
12.7913017459
 20
8.829525846
 30
0.0
 10
12.7905942058
 20
8.8352006029
 30
0.0
 10
12.7898838949
 20
8.8464844018
 30
0.0
 10
12.7909659712
 20
8.8630704029
 30
0.0
 10
12.7936937598
 20
8.8762509523
 30
0.0
 10
12.7969567958
 20
8.8860599033
 30
0.0
 10
12.8007731107
 20
8.8950228896
 30
0.0
 10
12.8066839671
 20
8.9050906055
 30
0.0
 10
12.8142427113
 20
8.9135572348
 30
0.0
 10
12.8210077572
 20
8.9189356688
 30
0.0
 10
12.8263348932
 20
8.9222356796
 30
0.0
 10
12.8319415876
 20
8.9248241153
 30
0.0
 10
12.8358447074
 20
8.9260601643
 30
0.0
 10
12.8378175683
 20
8.9265516221
 30
0.0
  0
LINE
  5
5BB
100
AcDbEntity
  8
0
100
AcDbLine
 62
7
  6
CONTINUOUS
 10
11.7626932202
 20
9.2600280985
 11
11.7616694446
 21
9.2594978892
  0
SPLINE
  5
5BC
100
AcDbEntity
  8
0
100
AcDbSpline
 62
7
  6
CONTINUOUS
 70
0
 71
3
 72
11
 73
7
 74
0
 42
0.0000001
 43
0.0000001
 44
0.0000000001
 40
0.0
 40
0.0
 40
0.0
 40
0.0
 40
0.3385819451
 40
0.595844523
 40
0.799138745
 40
1.0
 40
1.0
 40
1.0
 40
1.0
 10
12.37052046
 20
9.2607193781
 30
0.0
 10
12.3706394468
 20
9.2607162457
 30
0.0
 10
12.3708498848
 20
9.2607246801
 30
0.0
 10
12.3711248216
 20
9.2608017951
 30
0.0
 10
12.3713095882
 20
9.2609619364
 30
0.0
 10
12.371342046
 20
9.2611098787
 30
0.0
 10
12.371342166
 20
9.2611804911
 30
0.0
  0
SPLINE
  5
5BD
100
AcDbEntity
  8
0
100
AcDbSpline
 62
7
  6
CONTINUOUS
 70
0
 71
3
 72
13
 73
9
 74
0
 42
0.0000001
 43
0.0000001
 44
0.0000000001
 40
0.0
 40
0.0
 40
0.0
 40
0.0
 40
0.283155507
 40
0.5713096607
 40
0.7056746914
 40
0.8261294349
 40
0.9264825087
 40
1.0
 40
1.0
 40
1.0
 40
1.0
 10
12.3652361077
 20
9.2619961153
 30
0.0
 10
12.3654653405
 20
9.2618392063
 30
0.0
 10
12.3659399904
 20
9.2615402435
 30
0.0
 10
12.3665494353
 20
9.2612102337
 30
0.0
 10
12.3670335017
 20
9.2609876417
 30
0.0
 10
12.3673584122
 20
9.2608603519
 30
0.0
 10
12.3676348452
 20
9.2607776545
 30
0.0
 10
12.3678045479
 20
9.2607475042
 30
0.0
 10
12.3678766719
 20
9.2607478494
 30
0.0
  0
SPLINE
  5
5BE
100
AcDbEntity
  8
0
100
AcDbSpline
 62
7
  6
CONTINUOUS
 70
0
 71
3
 72
12
 73
8
 74
0
 42
0.0000001
 43
0.0000001
 44
0.0000000001
 40
0.0
 40
0.0
 40
0.0
 40
0.0
 40
0.3287071827
 40
0.5794234157
 40
0.6852717039
 40
0.7861659606
 40
1.0
 40
1.0
 40
1.0
 40
1.0
 10
12.3989436654
 20
9.2404890918
 30
0.0
 10
12.3990950739
 20
9.2404830564
 30
0.0
 10
12.399363314
 20
9.2404906166
 30
0.0
 10
12.3996735006
 20
9.2405862733
 30
0.0
 10
12.3998402245
 20
9.2407195336
 30
0.0
 10
12.3999537356
 20
9.2408797491
 30
0.0
 10
12.3999811361
 20
9.2410300385
 30
0.0
 10
12.3999811165
 20
9.2411286126
 30
0.0
  0
LINE
  5
5BF
100
AcDbEntity
  8
0
100
AcDbLine
 62
7
  6
CONTINUOUS
 10
12.3926424714
 20
9.2419733904
 11
12.3946498677
 21
9.2407339675
  0
LINE
  5
5C0
100
AcDbEntity
  8
0
100
AcDbLine
 62
7
  6
CONTINUOUS
 10
12.3946498677
 20
9.2407339675
 11
12.3952830356
 21
9.2405529264
  0
LINE
  5
5C1
100
AcDbEntity
  8
0
100
AcDbLine
 62
7
  6
CONTINUOUS
 10
12.3787869082
 20
9.2590377025
 11
12.3812425476
 21
9.2579736539
  0
LINE
  5
5C2
100
AcDbEntity
  8
0
100
AcDbLine
 62
7
  6
CONTINUOUS
 10
12.3812425476
 20
9.2579736539
 11
12.3841336121
 21
9.2565371435
  0
LINE
  5
5C3
100
AcDbEntity
  8
0
100
AcDbLine
 62
7
  6
CONTINUOUS
 10
12.370586616
 20
9.2659173416
 11
12.3744089105
 21
9.2631978969
  0
LINE
  5
5C4
100
AcDbEntity
  8
0
100
AcDbLine
 62
7
  6
CONTINUOUS
 10
12.3744089105
 20
9.2631978969
 11
12.3772046572
 21
9.2608326595
  0
LINE
  5
5C5
100
AcDbEntity
  8
0
100
AcDbLine
 62
7
  6
CONTINUOUS
 10
12.3775128375
 20
9.2605313138
 11
12.378589422
 21
9.2593176379
  0
LINE
  5
5C6
100
AcDbEntity
  8
0
100
AcDbLine
 62
7
  6
CONTINUOUS
 10
12.378589422
 20
9.2593176379
 11
12.3787869082
 21
9.2590377025
  0
LINE
  5
5C7
100
AcDbEntity
  8
0
100
AcDbLine
 62
7
  6
CONTINUOUS
 10
12.3514425256
 20
9.2749765778
 11
12.3545173628
 21
9.2742519971
  0
LINE
  5
5C8
100
AcDbEntity
  8
0
100
AcDbLine
 62
7
  6
CONTINUOUS
 10
12.3545173628
 20
9.2742519971
 11
12.358939058
 21
9.2724545564
  0
LINE
  5
5C9
100
AcDbEntity
  8
0
100
AcDbLine
 62
7
  6
CONTINUOUS
 10
12.358939058
 20
9.2724545564
 11
12.3644886876
 21
9.2696216207
  0
LINE
  5
5CA
100
AcDbEntity
  8
0
100
AcDbLine
 62
7
  6
CONTINUOUS
 10
12.3933317914
 20
9.2583284976
 11
12.3921457321
 21
9.2589580919
  0
LINE
  5
5CB
100
AcDbEntity
  8
0
100
AcDbLine
 62
7
  6
CONTINUOUS
 10
12.3958078348
 20
9.2583412026
 11
12.3949824853
 21
9.258365671
  0
LINE
  5
5CC
100
AcDbEntity
  8
0
100
AcDbLine
 62
7
  6
CONTINUOUS
 10
12.3949824853
 20
9.258365671
 11
12.3941571203
 21
9.258365671
  0
LINE
  5
5CD
100
AcDbEntity
  8
0
100
AcDbLine
 62
7
  6
CONTINUOUS
 10
12.3941571203
 20
9.258365671
 11
12.3933317914
 21
9.2583284976
  0
LINE
  5
5CE
100
AcDbEntity
  8
0
100
AcDbLine
 62
7
  6
CONTINUOUS
 10
11.7616694446
 20
9.2594978892
 11
11.7610554572
 21
9.2590743634
  0
LINE
  5
5CF
100
AcDbEntity
  8
0
100
AcDbLine
 62
7
  6
CONTINUOUS
 10
11.7610554572
 20
9.2590743634
 11
11.7604933658
 21
9.2586855763
  0
LINE
  5
5D0
100
AcDbEntity
  8
0
100
AcDbLine
 62
7
  6
CONTINUOUS
 10
11.7570594083
 20
9.2562882598
 11
11.7559435776
 21
9.2555010348
  0
LINE
  5
5D1
100
AcDbEntity
  8
0
100
AcDbLine
 62
7
  6
CONTINUOUS
 10
11.7559435776
 20
9.2555010348
 11
11.7547582116
 21
9.2546602894
  0
LINE
  5
5D2
100
AcDbEntity
  8
0
100
AcDbLine
 62
7
  6
CONTINUOUS
 10
12.371426827
 20
9.271951634
 11
12.3706565911
 21
9.2725493375
  0
LINE
  5
5D3
100
AcDbEntity
  8
0
100
AcDbLine
 62
7
  6
CONTINUOUS
 10
12.3724046319
 20
9.271364899
 11
12.371426827
 21
9.271951634
  0
LINE
  5
5D4
100
AcDbEntity
  8
0
100
AcDbLine
 62
7
  6
CONTINUOUS
 10
12.3718860152
 20
9.2705165124
 11
12.371426827
 21
9.2707923403
  0
LINE
  5
5D5
100
AcDbEntity
  8
0
100
AcDbLine
 62
7
  6
CONTINUOUS
 10
11.7537552643
 20
9.2535242057
 11
11.7534541982
 21
9.2531801365
  0
LINE
  5
5D6
100
AcDbEntity
  8
0
100
AcDbLine
 62
7
  6
CONTINUOUS
 10
12.3647103074
 20
9.270660143
 11
12.3589396235
 21
9.2736097855
  0
SPLINE
  5
5D7
100
AcDbEntity
  8
0
100
AcDbSpline
 62
7
  6
CONTINUOUS
 70
0
 71
3
 72
9
 73
5
 74
0
 42
0.0000001
 43
0.0000001
 44
0.0000000001
 40
0.0
 40
0.0
 40
0.0
 40
0.0
 40
0.5457839399
 40
1.0
 40
1.0
 40
1.0
 40
1.0
 10
12.3589396235
 20
9.2736097855
 30
0.0
 10
12.357946052
 20
9.2740664465
 30
0.0
 10
12.3561055111
 20
9.274859447
 30
0.0
 10
12.3542118884
 20
9.2755262601
 30
0.0
 10
12.3533343931
 20
9.2757674282
 30
0.0
  0
LINE
  5
5D8
100
AcDbEntity
  8
0
100
AcDbLine
 62
7
  6
CONTINUOUS
 10
12.3533343931
 20
9.2757674282
 11
12.3514425256
 21
9.276126703
  0
LINE
  5
5D9
100
AcDbEntity
  8
0
100
AcDbLine
 62
7
  6
CONTINUOUS
 10
12.4034531506
 20
9.2526271382
 11
12.4027567909
 21
9.2530078082
  0
SPLINE
  5
5DA
100
AcDbEntity
  8
0
100
AcDbSpline
 62
7
  6
CONTINUOUS
 70
0
 71
3
 72
11
 73
7
 74
0
 42
0.0000001
 43
0.0000001
 44
0.0000000001
 40
0.0
 40
0.0
 40
0.0
 40
0.0
 40
0.1777497938
 40
0.3285186948
 40
0.5937226393
 40
1.0
 40
1.0
 40
1.0
 40
1.0
 10
12.3706565911
 20
9.2713913654
 30
0.0
 10
12.3706501474
 20
9.2713909811
 30
0.0
 10
12.3706351758
 20
9.2713882594
 30
0.0
 10
12.3706357259
 20
9.2713625868
 30
0.0
 10
12.3706539057
 20
9.2713389982
 30
0.0
 10
12.3706698672
 20
9.2713204521
 30
0.0
 10
12.3706802595
 20
9.2713099786
 30
0.0
  0
LINE
  5
5DB
100
AcDbEntity
  8
0
100
AcDbLine
 62
7
  6
CONTINUOUS
 10
12.3706802595
 20
9.2713099786
 11
12.3709552836
 21
9.2710945437
  0
LINE
  5
5DC
100
AcDbEntity
  8
0
100
AcDbLine
 62
7
  6
CONTINUOUS
 10
12.3709552836
 20
9.2710945437
 11
12.371426827
 21
9.2707923403
  0
LINE
  5
5DD
100
AcDbEntity
  8
0
100
AcDbLine
 62
7
  6
CONTINUOUS
 10
12.3921457321
 20
9.2577693043
 11
12.3933317914
 21
9.2571382427
  0
LINE
  5
5DE
100
AcDbEntity
  8
0
100
AcDbLine
 62
7
  6
CONTINUOUS
 10
12.404747043
 20
9.2492469074
 11
12.4123822587
 21
9.2442873699
  0
LINE
  5
5DF
100
AcDbEntity
  8
0
100
AcDbLine
 62
7
  6
CONTINUOUS
 10
12.4123822587
 20
9.2442873699
 11
12.4152086647
 21
9.2426881488
  0
LINE
  5
5E0
100
AcDbEntity
  8
0
100
AcDbLine
 62
7
  6
CONTINUOUS
 10
12.3994128813
 20
9.2530669948
 11
12.3997144841
 21
9.2527287437
  0
LINE
  5
5E1
100
AcDbEntity
  8
0
100
AcDbLine
 62
7
  6
CONTINUOUS
 10
12.3997144841
 20
9.2527287437
 11
12.4001831172
 21
9.2523880768
  0
LINE
  5
5E2
100
AcDbEntity
  8
0
100
AcDbLine
 62
7
  6
CONTINUOUS
 10
12.4193029285
 20
9.243404836
 11
12.4226934856
 21
9.241524625
  0
LINE
  5
5E3
100
AcDbEntity
  8
0
100
AcDbLine
 62
7
  6
CONTINUOUS
 10
12.3956989662
 20
9.2596182704
 11
12.4002736173
 21
9.2563528375
  0
LINE
  5
5E4
100
AcDbEntity
  8
0
100
AcDbLine
 62
7
  6
CONTINUOUS
 10
12.4002736173
 20
9.2563528375
 11
12.4030777565
 21
9.2540262345
  0
LINE
  5
5E5
100
AcDbEntity
  8
0
100
AcDbLine
 62
7
  6
CONTINUOUS
 10
12.3682339007
 20
9.2749881798
 11
12.3701261191
 21
9.274382728
  0
LINE
  5
5E6
100
AcDbEntity
  8
0
100
AcDbLine
 62
7
  6
CONTINUOUS
 10
12.3701261191
 20
9.274382728
 11
12.3734285663
 21
9.2728559933
  0
LINE
  5
5E7
100
AcDbEntity
  8
0
100
AcDbLine
 62
7
  6
CONTINUOUS
 10
12.4028008824
 20
9.2576764112
 11
12.4019718338
 21
9.2582180158
  0
LINE
  5
5E8
100
AcDbEntity
  8
0
100
AcDbLine
 62
7
  6
CONTINUOUS
 10
12.3974521221
 20
9.261134013
 11
12.3969039247
 21
9.2614835135
  0
SPLINE
  5
5E9
100
AcDbEntity
  8
0
100
AcDbSpline
 62
7
  6
CONTINUOUS
 70
0
 71
3
 72
18
 73
14
 74
0
 42
0.0000001
 43
0.0000001
 44
0.0000000001
 40
0.0
 40
0.0
 40
0.0
 40
0.0
 40
0.2102532982
 40
0.3981909868
 40
0.5615877254
 40
0.6991185461
 40
0.810092892
 40
0.8556566525
 40
0.8947968056
 40
0.9278576277
 40
0.9554831543
 40
0.9788699429
 40
1.0
 40
1.0
 40
1.0
 40
1.0
 10
12.0722954409
 20
9.3529279308
 30
0.0
 10
12.073342686
 20
9.3528433672
 30
0.0
 10
12.0753241705
 20
9.3526580485
 30
0.0
 10
12.0781089835
 20
9.3523071633
 30
0.0
 10
12.080519133
 20
9.3519020136
 30
0.0
 10
12.0825278116
 20
9.3514482576
 30
0.0
 10
12.0839345182
 20
9.3510124046
 30
0.0
 10
12.0848346697
 20
9.350628139
 30
0.0
 10
12.0853542843
 20
9.3503497502
 30
0.0
 10
12.085763862
 20
9.3500621307
 30
0.0
 10
12.0860633387
 20
9.3497632879
 30
0.0
 10
12.0862502874
 20
9.3494491138
 30
0.0
 10
12.0862936732
 20
9.3492250103
 30
0.0
 10
12.0862936857
 20
9.3491194216
 30
0.0
  0
SPLINE
  5
5EA
100
AcDbEntity
  8
0
100
AcDbSpline
 62
7
  6
CONTINUOUS
 70
0
 71
3
 72
13
 73
9
 74
0
 42
0.0000001
 43
0.0000001
 44
0.0000000001
 40
0.0
 40
0.0
 40
0.0
 40
0.0
 40
0.0776969655
 40
0.1626424937
 40
0.2595620425
 40
0.3716160804
 40
0.647961716
 40
1.0
 40
1.0
 40
1.0
 40
1.0
 10
12.0022946802
 20
9.3441830622
 30
0.0
 10
12.0022946802
 20
9.344271072
 30
0.0
 10
12.0023237069
 20
9.3444561237
 30
0.0
 10
12.0024470314
 20
9.3447259732
 30
0.0
 10
12.002646675
 20
9.3449947214
 30
0.0
 10
12.0030412429
 20
9.3453798785
 30
0.0
 10
12.0037423506
 20
9.3458500976
 30
0.0
 10
12.0043807672
 20
9.3461667404
 30
0.0
 10
12.0047446504
 20
9.3463298427
 30
0.0
  0
SPLINE
  5
5EB
100
AcDbEntity
  8
0
100
AcDbSpline
 62
7
  6
CONTINUOUS
 70
0
 71
3
 72
11
 73
7
 74
0
 42
0.0000001
 43
0.0000001
 44
0.0000000001
 40
0.0
 40
0.0
 40
0.0
 40
0.0
 40
0.1840434196
 40
0.4138661112
 40
0.6870223243
 40
1.0
 40
1.0
 40
1.0
 40
1.0
 10
12.0047446504
 20
9.3463298427
 30
0.0
 10
12.0054186395
 20
9.346631943
 30
0.0
 10
12.0069814489
 20
9.3472045979
 30
0.0
 10
12.0096344619
 20
9.3479589548
 30
0.0
 10
12.0128277263
 20
9.3486898189
 30
0.0
 10
12.015139729
 20
9.34912565
 30
0.0
 10
12.0163772661
 20
9.3493404027
 30
0.0
  0
LINE
  5
5EC
100
AcDbEntity
  8
0
100
AcDbLine
 62
7
  6
CONTINUOUS
 10
12.0163772661
 20
9.3493404027
 11
12.0259621507
 21
9.3506996381
  0
SPLINE
  5
5ED
100
AcDbEntity
  8
0
100
AcDbSpline
 62
7
  6
CONTINUOUS
 70
0
 71
3
 72
9
 73
5
 74
0
 42
0.0000001
 43
0.0000001
 44
0.0000000001
 40
0.0
 40
0.0
 40
0.0
 40
0.0
 40
0.4871007009
 40
1.0
 40
1.0
 40
1.0
 40
1.0
 10
12.0259621507
 20
9.3506996381
 30
0.0
 10
12.0289287315
 20
9.3510422892
 30
0.0
 10
12.0350334427
 20
9.3516231721
 30
0.0
 10
12.041153572
 20
9.3520030124
 30
0.0
 10
12.0442946802
 20
9.3521483607
 30
0.0
  0
SPLINE
  5
5EE
100
AcDbEntity
  8
0
100
AcDbSpline
 62
7
  6
CONTINUOUS
 70
0
 71
3
 72
11
 73
7
 74
0
 42
0.0000001
 43
0.0000001
 44
0.0000000001
 40
0.0
 40
0.0
 40
0.0
 40
0.0
 40
0.2721016468
 40
0.5351677521
 40
0.7804728157
 40
1.0
 40
1.0
 40
1.0
 40
1.0
 10
12.0442946802
 20
9.3521483607
 30
0.0
 10
12.0468331172
 20
9.3522658215
 30
0.0
 10
12.0518288931
 20
9.3524330851
 30
0.0
 10
12.0591184587
 20
9.3524845064
 30
0.0
 10
12.0659156058
 20
9.3523346296
 30
0.0
 10
12.0702511355
 20
9.3520892325
 30
0.0
 10
12.0722946232
 20
9.351923951
 30
0.0
  0
SPLINE
  5
5EF
100
AcDbEntity
  8
0
100
AcDbSpline
 62
7
  6
CONTINUOUS
 70
0
 71
3
 72
14
 73
10
 74
0
 42
0.0000001
 43
0.0000001
 44
0.0000000001
 40
0.0
 40
0.0
 40
0.0
 40
0.0
 40
0.372544348
 40
0.5289574433
 40
0.664464375
 40
0.7787067074
 40
0.8717915395
 40
0.9446488409
 40
1.0
 40
1.0
 40
1.0
 40
1.0
 10
12.0755614309
 20
9.3516112408
 30
0.0
 10
12.0769446855
 20
9.3514559143
 30
0.0
 10
12.0789053129
 20
9.3511927739
 30
0.0
 10
12.0813427215
 20
9.3507174832
 30
0.0
 10
12.0828168597
 20
9.3503533999
 30
0.0
 10
12.0840383885
 20
9.3499642292
 30
0.0
 10
12.0850034077
 20
9.349551056
 30
0.0
 10
12.0857111552
 20
9.3491184823
 30
0.0
 10
12.0860534083
 20
9.3487665837
 30
0.0
 10
12.0861574697
 20
9.3485878615
 30
0.0
  0
SPLINE
  5
5F0
100
AcDbEntity
  8
0
100
AcDbSpline
 62
7
  6
CONTINUOUS
 70
0
 71
3
 72
15
 73
11
 74
0
 42
0.0000001
 43
0.0000001
 44
0.0000000001
 40
0.0
 40
0.0
 40
0.0
 40
0.0
 40
0.420804179
 40
0.7302138904
 40
0.8408063619
 40
0.8849027886
 40
0.9215453571
 40
0.9508600002
 40
0.9731371288
 40
1.0
 40
1.0
 40
1.0
 40
1.0
 10
12.1174104875
 20
9.3507409624
 30
0.0
 10
12.1181096428
 20
9.3507653713
 30
0.0
 10
12.1193223209
 20
9.350821129
 30
0.0
 10
12.1207165139
 20
9.3509354507
 30
0.0
 10
12.1214801273
 20
9.3510476775
 30
0.0
 10
12.1217918641
 20
9.3511127662
 30
0.0
 10
12.1219683933
 20
9.3511589576
 30
0.0
 10
12.1221084549
 20
9.3512086499
 30
0.0
 10
12.1222220858
 20
9.3512624075
 30
0.0
 10
12.1222946802
 20
9.3513297815
 30
0.0
 10
12.1222946802
 20
9.3513744407
 30
0.0
  0
SPLINE
  5
5F1
100
AcDbEntity
  8
0
100
AcDbSpline
 62
7
  6
CONTINUOUS
 70
0
 71
3
 72
13
 73
9
 74
0
 42
0.0000001
 43
0.0000001
 44
0.0000000001
 40
0.0
 40
0.0
 40
0.0
 40
0.0
 40
0.1181308679
 40
0.2080565375
 40
0.3217204367
 40
0.4593412928
 40
0.6195956149
 40
1.0
 40
1.0
 40
1.0
 40
1.0
 10
12.086793146
 20
9.3404650112
 30
0.0
 10
12.086793146
 20
9.3403988428
 30
0.0
 10
12.0868807087
 20
9.3402949473
 30
0.0
 10
12.0870298727
 20
9.3402016157
 30
0.0
 10
12.0872049999
 20
9.3401203629
 30
0.0
 10
12.0874226194
 20
9.3400451506
 30
0.0
 10
12.0877895279
 20
9.3399450101
 30
0.0
 10
12.0880877003
 20
9.3398894127
 30
0.0
 10
12.088298312
 20
9.3398571079
 30
0.0
  0
LINE
  5
5F2
100
AcDbEntity
  8
0
100
AcDbLine
 62
7
  6
CONTINUOUS
 10
12.088298312
 20
9.3398571079
 11
12.089793146
 21
9.3397264481
  0
SPLINE
  5
5F3
100
AcDbEntity
  8
0
100
AcDbSpline
 62
7
  6
CONTINUOUS
 70
0
 71
3
 72
13
 73
9
 74
0
 42
0.0000001
 43
0.0000001
 44
0.0000000001
 40
0.0
 40
0.0
 40
0.0
 40
0.0
 40
0.2980769122
 40
0.5760877133
 40
0.7014094805
 40
0.8149830265
 40
0.9150472155
 40
1.0
 40
1.0
 40
1.0
 40
1.0
 10
12.1006440451
 20
9.3393065955
 30
0.0
 10
12.1028022999
 20
9.3392032855
 30
0.0
 10
12.1069786616
 20
9.3390999221
 30
0.0
 10
12.1120644993
 20
9.3392200104
 30
0.0
 10
12.1158027176
 20
9.3394855173
 30
0.0
 10
12.1182462764
 20
9.3397499083
 30
0.0
 10
12.1203862028
 20
9.3400794446
 30
0.0
 10
12.1216991284
 20
9.3403601261
 30
0.0
 10
12.1222946802
 20
9.3405167909
 30
0.0
  0
SPLINE
  5
5F4
100
AcDbEntity
  8
0
100
AcDbSpline
 62
7
  6
CONTINUOUS
 70
0
 71
3
 72
16
 73
12
 74
0
 42
0.0000001
 43
0.0000001
 44
0.0000000001
 40
0.0
 40
0.0
 40
0.0
 40
0.0
 40
0.185799224
 40
0.3658725851
 40
0.5318386857
 40
0.6771635318
 40
0.7979227139
 40
0.8910617824
 40
0.9271478087
 40
0.9566533948
 40
1.0
 40
1.0
 40
1.0
 40
1.0
 10
12.0682502358
 20
9.3399709181
 30
0.0
 10
12.0684466321
 20
9.3399722578
 30
0.0
 10
12.0688333601
 20
9.3399834801
 30
0.0
 10
12.0693942812
 20
9.3400237514
 30
0.0
 10
12.0699101948
 20
9.3400858002
 30
0.0
 10
12.0703599473
 20
9.340167417
 30
0.0
 10
12.0707274727
 20
9.3402644021
 30
0.0
 10
12.0709748377
 20
9.3403605643
 30
0.0
 10
12.0711190641
 20
9.3404483261
 30
0.0
 10
12.0712069633
 20
9.3405211655
 30
0.0
 10
12.0712502358
 20
9.3405953635
 30
0.0
 10
12.0712502358
 20
9.3406411835
 30
0.0
  0
SPLINE
  5
5F5
100
AcDbEntity
  8
0
100
AcDbSpline
 62
7
  6
CONTINUOUS
 70
0
 71
3
 72
14
 73
10
 74
0
 42
0.0000001
 43
0.0000001
 44
0.0000000001
 40
0.0
 40
0.0
 40
0.0
 40
0.0
 40
0.0521433748
 40
0.1179143112
 40
0.2052641809
 40
0.317102564
 40
0.4541446534
 40
0.6150976085
 40
1.0
 40
1.0
 40
1.0
 40
1.0
 10
12.0173391247
 20
9.3380926615
 30
0.0
 10
12.0173391247
 20
9.3380641402
 30
0.0
 10
12.0173624235
 20
9.3379994915
 30
0.0
 10
12.017447797
 20
9.3379231521
 30
0.0
 10
12.017576482
 20
9.3378550967
 30
0.0
 10
12.0177509965
 20
9.3377953223
 30
0.0
 10
12.0179696632
 20
9.3377448821
 30
0.0
 10
12.0183389841
 20
9.3376874832
 30
0.0
 10
12.0186374292
 20
9.3376668123
 30
0.0
 10
12.0188478259
 20
9.337659223
 30
0.0
  0
LINE
  5
5F6
100
AcDbEntity
  8
0
100
AcDbLine
 62
7
  6
CONTINUOUS
 10
12.0188478259
 20
9.337659223
 11
12.0203391247
 21
9.3377040057
  0
LINE
  5
5F7
100
AcDbEntity
  8
0
100
AcDbLine
 62
7
  6
CONTINUOUS
 10
11.7605528817
 20
9.2506924666
 11
11.759828194
 21
9.2501623725
  0
LINE
  5
5F8
100
AcDbEntity
  8
0
100
AcDbLine
 62
7
  6
CONTINUOUS
 10
11.7549916908
 20
9.2465788491
 11
11.7519797044
 21
9.2447799805
  0
LINE
  5
5F9
100
AcDbEntity
  8
0
100
AcDbLine
 62
7
  6
CONTINUOUS
 10
11.7519797044
 20
9.2447799805
 11
11.7510863195
 21
9.2445437065
  0
SPLINE
  5
5FA
100
AcDbEntity
  8
0
100
AcDbSpline
 62
7
  6
CONTINUOUS
 70
0
 71
3
 72
13
 73
9
 74
0
 42
0.0000001
 43
0.0000001
 44
0.0000000001
 40
0.0
 40
0.0
 40
0.0
 40
0.0
 40
0.3422645919
 40
0.4800313663
 40
0.5986092918
 40
0.7027420388
 40
0.7992549641
 40
1.0
 40
1.0
 40
1.0
 40
1.0
 10
11.7424963228
 20
9.2444219994
 30
0.0
 10
11.7422636377
 20
9.2444043834
 30
0.0
 10
11.7419332742
 20
9.244398845
 30
0.0
 10
11.7415305626
 20
9.2444730674
 30
0.0
 10
11.7412986857
 20
9.2445593962
 30
0.0
 10
11.7411156391
 20
9.2446817047
 30
0.0
 10
11.7409382309
 20
9.2448955308
 30
0.0
 10
11.7408944875
 20
9.2451072185
 30
0.0
 10
11.7408944379
 20
9.2452440835
 30
0.0
  0
LINE
  5
5FB
100
AcDbEntity
  8
0
100
AcDbLine
 62
7
  6
CONTINUOUS
 10
12.0871691667
 20
9.3475283053
 11
12.0865667104
 21
9.3474202366
  0
LINE
  5
5FC
100
AcDbEntity
  8
0
100
AcDbLine
 62
7
  6
CONTINUOUS
 10
12.0865667104
 20
9.3474202366
 11
12.0859330039
 21
9.3473046901
  0
SPLINE
  5
5FD
100
AcDbEntity
  8
0
100
AcDbSpline
 62
7
  6
CONTINUOUS
 70
0
 71
3
 72
13
 73
9
 74
0
 42
0.0000001
 43
0.0000001
 44
0.0000000001
 40
0.0
 40
0.0
 40
0.0
 40
0.0
 40
0.3392093606
 40
0.6221880899
 40
0.7404828695
 40
0.842614447
 40
0.9287154364
 40
1.0
 40
1.0
 40
1.0
 40
1.0
 10
11.7357222661
 20
9.2426368855
 30
0.0
 10
11.7353549521
 20
9.2422517307
 30
0.0
 10
11.7346991935
 20
9.2415278838
 30
0.0
 10
11.7339858279
 20
9.2406077333
 30
0.0
 10
11.7335672275
 20
9.2399371118
 30
0.0
 10
11.7333496517
 20
9.239507092
 30
0.0
 10
11.7332123303
 20
9.2391225351
 30
0.0
 10
11.7331735276
 20
9.2388757742
 30
0.0
 10
11.7331734707
 20
9.2387639275
 30
0.0
  0
SPLINE
  5
5FE
100
AcDbEntity
  8
0
100
AcDbSpline
 62
7
  6
CONTINUOUS
 70
0
 71
3
 72
11
 73
7
 74
0
 42
0.0000001
 43
0.0000001
 44
0.0000000001
 40
0.0
 40
0.0
 40
0.0
 40
0.0
 40
0.1640874137
 40
0.3865162145
 40
0.6668782906
 40
1.0
 40
1.0
 40
1.0
 40
1.0
 10
12.4085065575
 20
9.238087714
 30
0.0
 10
12.4085064781
 20
9.2383258924
 30
0.0
 10
12.4083497562
 20
9.2388805896
 30
0.0
 10
12.4078835481
 20
9.2397292918
 30
0.0
 10
12.4071693012
 20
9.2407141966
 30
0.0
 10
12.406588285
 20
9.2413895998
 30
0.0
 10
12.4062632614
 20
9.2417476056
 30
0.0
  0
SPLINE
  5
5FF
100
AcDbEntity
  8
0
100
AcDbSpline
 62
7
  6
CONTINUOUS
 70
0
 71
3
 72
9
 73
5
 74
0
 42
0.0000001
 43
0.0000001
 44
0.0000000001
 40
0.0
 40
0.0
 40
0.0
 40
0.0
 40
0.4625880152
 40
1.0
 40
1.0
 40
1.0
 40
1.0
 10
12.4062632614
 20
9.2417476056
 30
0.0
 10
12.4055673086
 20
9.2425141811
 30
0.0
 10
12.40397012
 20
9.2440867629
 30
0.0
 10
12.4022774232
 20
9.2455524863
 30
0.0
 10
12.4013498902
 20
9.2463183242
 30
0.0
  0
LINE
  5
600
100
AcDbEntity
  8
0
100
AcDbLine
 62
7
  6
CONTINUOUS
 10
12.4013498902
 20
9.2463183242
 11
12.3979855823
 21
9.2489544708
  0
SPLINE
  5
601
100
AcDbEntity
  8
0
100
AcDbSpline
 62
7
  6
CONTINUOUS
 70
0
 71
3
 72
10
 73
6
 74
0
 42
0.0000001
 43
0.0000001
 44
0.0000000001
 40
0.0
 40
0.0
 40
0.0
 40
0.0
 40
0.1953724008
 40
0.4287472602
 40
1.0
 40
1.0
 40
1.0
 40
1.0
 10
12.408324843
 20
9.2376183771
 30
0.0
 10
12.4082359888
 20
9.2378344261
 30
0.0
 10
12.4079976552
 20
9.2382905729
 30
0.0
 10
12.4073344563
 20
9.2392866746
 30
0.0
 10
12.406710973
 20
9.2400236242
 30
0.0
 10
12.406252148
 20
9.2405296216
 30
0.0
  0
SPLINE
  5
602
100
AcDbEntity
  8
0
100
AcDbSpline
 62
7
  6
CONTINUOUS
 70
0
 71
3
 72
9
 73
5
 74
0
 42
0.0000001
 43
0.0000001
 44
0.0000000001
 40
0.0
 40
0.0
 40
0.0
 40
0.0
 40
0.462734006
 40
1.0
 40
1.0
 40
1.0
 40
1.0
 10
12.406252148
 20
9.2405296216
 30
0.0
 10
12.4055542381
 20
9.2412992846
 30
0.0
 10
12.40395318
 20
9.2428780198
 30
0.0
 10
12.402256313
 20
9.2443497439
 30
0.0
 10
12.4013267166
 20
9.2451185409
 30
0.0
  0
LINE
  5
603
100
AcDbEntity
  8
0
100
AcDbLine
 62
7
  6
CONTINUOUS
 10
12.4013267166
 20
9.2451185409
 11
12.3979855823
 21
9.2477419304
  0
SPLINE
  5
604
100
AcDbEntity
  8
0
100
AcDbSpline
 62
7
  6
CONTINUOUS
 70
0
 71
3
 72
15
 73
11
 74
0
 42
0.0000001
 43
0.0000001
 44
0.0000000001
 40
0.0
 40
0.0
 40
0.0
 40
0.0
 40
0.188115761
 40
0.3704491149
 40
0.5383065279
 40
0.6847918844
 40
0.8056854117
 40
0.8554644141
 40
0.8978646528
 40
1.0
 40
1.0
 40
1.0
 40
1.0
 10
12.0203391247
 20
9.3387322108
 30
0.0
 10
12.0201443276
 20
9.3387151054
 30
0.0
 10
12.0197599464
 20
9.3386898183
 30
0.0
 10
12.0192003045
 20
9.3386769227
 30
0.0
 10
12.0186840715
 20
9.3386898383
 30
0.0
 10
12.0182325214
 20
9.3387294957
 30
0.0
 10
12.017908084
 20
9.3387832416
 30
0.0
 10
12.0176919367
 20
9.3388429113
 30
0.0
 10
12.0175102238
 20
9.3389092505
 30
0.0
 10
12.0173391247
 20
9.3390140217
 30
0.0
 10
12.0173391247
 20
9.3391201916
 30
0.0
  0
SPLINE
  5
605
100
AcDbEntity
  8
0
100
AcDbSpline
 62
7
  6
CONTINUOUS
 70
0
 71
3
 72
16
 73
12
 74
0
 42
0.0000001
 43
0.0000001
 44
0.0000000001
 40
0.0
 40
0.0
 40
0.0
 40
0.0
 40
0.0432858145
 40
0.0727658203
 40
0.1088334464
 40
0.2019685196
 40
0.3227515576
 40
0.4681052678
 40
0.634092967
 40
0.8141829757
 40
1.0
 40
1.0
 40
1.0
 40
1.0
 10
12.0712502358
 20
9.3416643096
 30
0.0
 10
12.0712502358
 20
9.3416185606
 30
0.0
 10
12.0712069726
 20
9.3415444728
 30
0.0
 10
12.0711191188
 20
9.341471782
 30
0.0
 10
12.0709748927
 20
9.3413841635
 30
0.0
 10
12.0707274956
 20
9.3412881957
 30
0.0
 10
12.0703599359
 20
9.3411913708
 30
0.0
 10
12.0699101505
 20
9.3411098787
 30
0.0
 10
12.0693942316
 20
9.3410479291
 30
0.0
 10
12.0688333292
 20
9.3410077346
 30
0.0
 10
12.0684466219
 20
9.3409965361
 30
0.0
 10
12.0682502358
 20
9.3409951988
 30
0.0
  0
LINE
  5
606
100
AcDbEntity
  8
0
100
AcDbLine
 62
7
  6
CONTINUOUS
 10
11.7265838151
 20
9.2418246051
 11
11.7286599898
 21
9.2427794845
  0
LINE
  5
607
100
AcDbEntity
  8
0
100
AcDbLine
 62
7
  6
CONTINUOUS
 10
11.7286599898
 20
9.2427794845
 11
11.7301108807
 21
9.2436658988
  0
LINE
  5
608
100
AcDbEntity
  8
0
100
AcDbLine
 62
7
  6
CONTINUOUS
 10
11.7226272766
 20
9.2389500821
 11
11.7219528297
 21
9.2384551445
  0
SPLINE
  5
609
100
AcDbEntity
  8
0
100
AcDbSpline
 62
7
  6
CONTINUOUS
 70
0
 71
3
 72
15
 73
11
 74
0
 42
0.0000001
 43
0.0000001
 44
0.0000000001
 40
0.0
 40
0.0
 40
0.0
 40
0.0
 40
0.0180959639
 40
0.043772911
 40
0.1177315189
 40
0.2197447063
 40
0.3458608893
 40
0.4911829562
 40
0.6509317272
 40
1.0
 40
1.0
 40
1.0
 40
1.0
 10
11.7265838151
 20
9.2430516102
 30
0.0
 10
11.7266111272
 20
9.2430472102
 30
0.0
 10
11.7266790233
 20
9.2430517135
 30
0.0
 10
11.7268543354
 20
9.243091905
 30
0.0
 10
11.7271433465
 20
9.2432030879
 30
0.0
 10
11.7275613322
 20
9.2433989397
 30
0.0
 10
11.7280665617
 20
9.2436654561
 30
0.0
 10
11.7286404773
 20
9.243989714
 30
0.0
 10
11.7295001551
 20
9.2445007386
 30
0.0
 10
11.7301582756
 20
9.2449156605
 30
0.0
 10
11.7306063272
 20
9.2452055233
 30
0.0
  0
LINE
  5
60A
100
AcDbEntity
  8
0
100
AcDbLine
 62
7
  6
CONTINUOUS
 10
11.7505133482
 20
9.2584168167
 11
11.7497956067
 21
9.2579116471
  0
LINE
  5
60B
100
AcDbEntity
  8
0
100
AcDbLine
 62
7
  6
CONTINUOUS
 10
11.7378934682
 20
9.2492560958
 11
11.7373077929
 21
9.2488163596
  0
SPLINE
  5
60C
100
AcDbEntity
  8
0
100
AcDbSpline
 62
7
  6
CONTINUOUS
 70
0
 71
3
 72
9
 73
5
 74
0
 42
0.0000001
 43
0.0000001
 44
0.0000000001
 40
0.0
 40
0.0
 40
0.0
 40
0.0
 40
0.2433177437
 40
1.0
 40
1.0
 40
1.0
 40
1.0
 10
11.7997361991
 20
9.2562122811
 30
0.0
 10
11.7990511782
 20
9.2550179562
 30
0.0
 10
11.7962720543
 20
9.2500887306
 30
0.0
 10
11.7936340591
 20
9.2450803145
 30
0.0
 10
11.7917088013
 20
9.2412558265
 30
0.0
  0
SPLINE
  5
60D
100
AcDbEntity
  8
0
100
AcDbSpline
 62
7
  6
CONTINUOUS
 70
0
 71
3
 72
13
 73
9
 74
0
 42
0.0000001
 43
0.0000001
 44
0.0000000001
 40
0.0
 40
0.0
 40
0.0
 40
0.0
 40
0.3216017911
 40
0.6013507721
 40
0.7223302812
 40
0.8292557978
 40
0.921617966
 40
1.0
 40
1.0
 40
1.0
 40
1.0
 10
11.8255782129
 20
9.2651057452
 30
0.0
 10
11.8261790773
 20
9.265559621
 30
0.0
 10
11.8272730752
 20
9.2664482913
 30
0.0
 10
11.8284854839
 20
9.2676338257
 30
0.0
 10
11.8292406934
 20
9.2685532673
 30
0.0
 10
11.8296617002
 20
9.2691757242
 30
0.0
 10
11.8299563808
 20
9.2697573617
 30
0.0
 10
11.8300701507
 20
9.2701451349
 30
0.0
 10
11.8300952892
 20
9.2703269344
 30
0.0
  0
LINE
  5
60E
100
AcDbEntity
  8
0
100
AcDbLine
 62
7
  6
CONTINUOUS
 10
11.8300952892
 20
9.2703269344
 11
11.8301110972
 21
9.2705585846
  0
SPLINE
  5
60F
100
AcDbEntity
  8
0
100
AcDbSpline
 62
7
  6
CONTINUOUS
 70
0
 71
3
 72
13
 73
9
 74
0
 42
0.0000001
 43
0.0000001
 44
0.0000000001
 40
0.0
 40
0.0
 40
0.0
 40
0.0
 40
0.3293964389
 40
0.6137120205
 40
0.7349235334
 40
0.840173286
 40
0.9284687014
 40
1.0
 40
1.0
 40
1.0
 40
1.0
 10
11.8014790175
 20
9.2647494776
 30
0.0
 10
11.8020716183
 20
9.2651974193
 30
0.0
 10
11.8031520498
 20
9.2660637827
 30
0.0
 10
11.8043647136
 20
9.2671982803
 30
0.0
 10
11.8051276501
 20
9.2680624281
 30
0.0
 10
11.8055519504
 20
9.2686332008
 30
0.0
 10
11.8058500127
 20
9.2691528756
 30
0.0
 10
11.8059701055
 20
9.269497731
 30
0.0
 10
11.8059961108
 20
9.2696569376
 30
0.0
  0
LINE
  5
610
100
AcDbEntity
  8
0
100
AcDbLine
 62
7
  6
CONTINUOUS
 10
11.8059961108
 20
9.2696569376
 11
11.8060117687
 21
9.2698503369
  0
LINE
  5
611
100
AcDbEntity
  8
0
100
AcDbLine
 62
7
  6
CONTINUOUS
 10
11.7539019595
 20
9.2634371381
 11
11.7533712393
 21
9.2631164777
  0
LINE
  5
612
100
AcDbEntity
  8
0
100
AcDbLine
 62
7
  6
CONTINUOUS
 10
11.7681237849
 20
9.2408810884
 11
11.7722021595
 21
9.2426353013
  0
LINE
  5
613
100
AcDbEntity
  8
0
100
AcDbLine
 62
7
  6
CONTINUOUS
 10
11.7722021595
 20
9.2426353013
 11
11.7767887844
 21
9.2453172978
  0
LINE
  5
614
100
AcDbEntity
  8
0
100
AcDbLine
 62
7
  6
CONTINUOUS
 10
11.7786798127
 20
9.2466175427
 11
11.781387898
 21
9.2487189271
  0
LINE
  5
615
100
AcDbEntity
  8
0
100
AcDbLine
 62
7
  6
CONTINUOUS
 10
11.7628233727
 20
9.2667095424
 11
11.7622123518
 21
9.2663603881
  0
LINE
  5
616
100
AcDbEntity
  8
0
100
AcDbLine
 62
7
  6
CONTINUOUS
 10
11.7883899942
 20
9.2702543143
 11
11.7877939562
 21
9.2694957449
  0
LINE
  5
617
100
AcDbEntity
  8
0
100
AcDbLine
 62
7
  6
CONTINUOUS
 10
11.7877939562
 20
9.2694957449
 11
11.7865159419
 21
9.2685568968
  0
SPLINE
  5
618
100
AcDbEntity
  8
0
100
AcDbSpline
 62
7
  6
CONTINUOUS
 70
0
 71
3
 72
13
 73
9
 74
0
 42
0.0000001
 43
0.0000001
 44
0.0000000001
 40
0.0
 40
0.0
 40
0.0
 40
0.0
 40
0.0890797923
 40
0.1823623165
 40
0.3966096024
 40
0.5246467158
 40
0.6680439248
 40
1.0
 40
1.0
 40
1.0
 40
1.0
 10
12.0272837665
 20
9.2914274131
 30
0.0
 10
12.0272837665
 20
9.2913239909
 30
0.0
 10
12.0273128291
 20
9.2911112341
 30
0.0
 10
12.0274936429
 20
9.2906828803
 30
0.0
 10
12.0278544296
 20
9.2903056765
 30
0.0
 10
12.0283279111
 20
9.28999896
 30
0.0
 10
12.028962697
 20
9.2896979014
 30
0.0
 10
12.0294993362
 20
9.2895498598
 30
0.0
 10
12.0298777648
 20
9.2894768712
 30
0.0
  0
LINE
  5
619
100
AcDbEntity
  8
0
100
AcDbLine
 62
7
  6
CONTINUOUS
 10
12.0298777648
 20
9.2894768712
 11
12.0322837665
 21
9.2893523528
  0
SPLINE
  5
61A
100
AcDbEntity
  8
0
100
AcDbSpline
 62
7
  6
CONTINUOUS
 70
0
 71
3
 72
15
 73
11
 74
0
 42
0.0000001
 43
0.0000001
 44
0.0000000001
 40
0.0
 40
0.0
 40
0.0
 40
0.0
 40
0.1710790252
 40
0.3358660642
 40
0.4874958722
 40
0.622732802
 40
0.7399580885
 40
0.8397566032
 40
0.9246504675
 40
1.0
 40
1.0
 40
1.0
 40
1.0
 10
12.0547042544
 20
9.2905417774
 30
0.0
 10
12.0553912695
 20
9.2905640134
 30
0.0
 10
12.0567386682
 20
9.2906756801
 30
0.0
 10
12.0586690153
 20
9.2910266883
 30
0.0
 10
12.0604121089
 20
9.2915456431
 30
0.0
 10
12.0619048026
 20
9.2921964147
 30
0.0
 10
12.0631094723
 20
9.2929515369
 30
0.0
 10
12.064003329
 20
9.293786326
 30
0.0
 10
12.0645663816
 20
9.2946842222
 30
0.0
 10
12.0647042544
 20
9.2953319856
 30
0.0
 10
12.0647042544
 20
9.2956347309
 30
0.0
  0
SPLINE
  5
61B
100
AcDbEntity
  8
0
100
AcDbSpline
 62
7
  6
CONTINUOUS
 70
0
 71
3
 72
13
 73
9
 74
0
 42
0.0000001
 43
0.0000001
 44
0.0000000001
 40
0.0
 40
0.0
 40
0.0
 40
0.0
 40
0.0850634453
 40
0.1851853364
 40
0.2988287675
 40
0.4241926764
 40
0.701968373
 40
1.0
 40
1.0
 40
1.0
 40
1.0
 10
12.1222946802
 20
9.341540131
 30
0.0
 10
12.121698294
 20
9.3413835168
 30
0.0
 10
12.1203841671
 20
9.3411027403
 30
0.0
 10
12.1182424566
 20
9.340773511
 30
0.0
 10
12.1157975538
 20
9.3405104283
 30
0.0
 10
12.112060249
 20
9.3402456131
 30
0.0
 10
12.1069762162
 20
9.3401250924
 30
0.0
 10
12.1028019524
 20
9.3402289083
 30
0.0
 10
12.1006440451
 20
9.3403320231
 30
0.0
  0
SPLINE
  5
61C
100
AcDbEntity
  8
0
100
AcDbSpline
 62
7
  6
CONTINUOUS
 70
0
 71
3
 72
9
 73
5
 74
0
 42
0.0000001
 43
0.0000001
 44
0.0000000001
 40
0.0
 40
0.0
 40
0.0
 40
0.0
 40
0.4665065342
 40
1.0
 40
1.0
 40
1.0
 40
1.0
 10
12.079885106
 20
9.2956347309
 30
0.0
 10
12.079885106
 20
9.2953069565
 30
0.0
 10
12.0800484525
 20
9.2946003467
 30
0.0
 10
12.0804524947
 20
9.2940099362
 30
0.0
 10
12.080699633
 20
9.2937281066
 30
0.0
  0
SPLINE
  5
61D
100
AcDbEntity
  8
0
100
AcDbSpline
 62
7
  6
CONTINUOUS
 70
0
 71
3
 72
11
 73
7
 74
0
 42
0.0000001
 43
0.0000001
 44
0.0000000001
 40
0.0
 40
0.0
 40
0.0
 40
0.0
 40
0.1882719852
 40
0.4228573108
 40
0.6990580837
 40
1.0
 40
1.0
 40
1.0
 40
1.0
 10
12.080699633
 20
9.2937281066
 30
0.0
 10
12.0811107273
 20
9.293259306
 30
0.0
 10
12.0822420009
 20
9.2923922079
 30
0.0
 10
12.0843640753
 20
9.2914389455
 30
0.0
 10
12.0869802049
 20
9.2907713674
 30
0.0
 10
12.0888889729
 20
9.2905740184
 30
0.0
 10
12.089885106
 20
9.2905417774
 30
0.0
  0
SPLINE
  5
61E
100
AcDbEntity
  8
0
100
AcDbSpline
 62
7
  6
CONTINUOUS
 70
0
 71
3
 72
12
 73
8
 74
0
 42
0.0000001
 43
0.0000001
 44
0.0000000001
 40
0.0
 40
0.0
 40
0.0
 40
0.0
 40
0.0702468142
 40
0.1628669524
 40
0.4016771874
 40
0.6886577777
 40
1.0
 40
1.0
 40
1.0
 40
1.0
 10
11.7510863195
 20
9.2433203906
 30
0.0
 10
11.7511521932
 20
9.2433172634
 30
0.0
 10
11.7513055144
 20
9.2433355456
 30
0.0
 10
11.7516709002
 20
9.2434290989
 30
0.0
 10
11.7522118023
 20
9.2436462703
 30
0.0
 10
11.7529124263
 20
9.244002711
 30
0.0
 10
11.7533971332
 20
9.2442873971
 30
0.0
 10
11.753645574
 20
9.2444413781
 30
0.0
  0
SPLINE
  5
61F
100
AcDbEntity
  8
0
100
AcDbSpline
 62
7
  6
CONTINUOUS
 70
0
 71
3
 72
12
 73
8
 74
0
 42
0.0000001
 43
0.0000001
 44
0.0000000001
 40
0.0
 40
0.0
 40
0.0
 40
0.0
 40
0.3379736822
 40
0.6328647795
 40
0.8609424408
 40
0.9421132005
 40
1.0
 40
1.0
 40
1.0
 40
1.0
 10
11.7633363455
 20
9.2515086088
 30
0.0
 10
11.7635011228
 20
9.2516276863
 30
0.0
 10
11.7638041319
 20
9.2518590073
 30
0.0
 10
11.7641923707
 20
9.2522011735
 30
0.0
 10
11.7644427468
 20
9.2524685351
 30
0.0
 10
11.7645601205
 20
9.2526555061
 30
0.0
 10
11.764586244
 20
9.2527381828
 30
0.0
 10
11.7645856282
 20
9.2527729978
 30
0.0
  0
LINE
  5
620
100
AcDbEntity
  8
0
100
AcDbLine
 62
7
  6
CONTINUOUS
 10
11.7860761495
 20
9.2751463211
 11
11.7853960256
 21
9.2747927578
  0
LINE
  5
621
100
AcDbEntity
  8
0
100
AcDbLine
 62
7
  6
CONTINUOUS
 10
11.7807126383
 20
9.2723272837
 11
11.7801645334
 21
9.2720352073
  0
LINE
  5
622
100
AcDbEntity
  8
0
100
AcDbLine
 62
7
  6
CONTINUOUS
 10
11.7664644078
 20
9.2587957751
 11
11.7684468055
 21
9.2588367319
  0
LINE
  5
623
100
AcDbEntity
  8
0
100
AcDbLine
 62
7
  6
CONTINUOUS
 10
11.7684468055
 20
9.2588367319
 11
11.7704292587
 21
9.2588367319
  0
LINE
  5
624
100
AcDbEntity
  8
0
100
AcDbLine
 62
7
  6
CONTINUOUS
 10
11.7704292587
 20
9.2588367319
 11
11.7724115481
 21
9.258768245
  0
SPLINE
  5
625
100
AcDbEntity
  8
0
100
AcDbSpline
 62
7
  6
CONTINUOUS
 70
0
 71
3
 72
14
 73
10
 74
0
 42
0.0000001
 43
0.0000001
 44
0.0000000001
 40
0.0
 40
0.0
 40
0.0
 40
0.0
 40
0.0699133963
 40
0.1677091833
 40
0.2868352533
 40
0.4210080487
 40
0.5644732686
 40
0.7116230882
 40
1.0
 40
1.0
 40
1.0
 40
1.0
 10
11.7724115481
 20
9.258768245
 30
0.0
 10
11.7725129118
 20
9.2587635783
 30
0.0
 10
11.7727563308
 20
9.2588035783
 30
0.0
 10
11.7731553424
 20
9.258920284
 30
0.0
 10
11.7736309284
 20
9.2591057938
 30
0.0
 10
11.7741541651
 20
9.2593464577
 30
0.0
 10
11.7747026116
 20
9.2596285733
 30
0.0
 10
11.7754352146
 20
9.2600404083
 30
0.0
 10
11.7759708851
 20
9.2603772382
 30
0.0
 10
11.7763169195
 20
9.2606126955
 30
0.0
  0
SPLINE
  5
626
100
AcDbEntity
  8
0
100
AcDbSpline
 62
7
  6
CONTINUOUS
 70
0
 71
3
 72
12
 73
8
 74
0
 42
0.0000001
 43
0.0000001
 44
0.0000000001
 40
0.0
 40
0.0
 40
0.0
 40
0.0
 40
0.3454548376
 40
0.6431473183
 40
0.8680265411
 40
0.9459229909
 40
1.0
 40
1.0
 40
1.0
 40
1.0
 10
11.7865159419
 20
9.2673900398
 30
0.0
 10
11.7867642805
 20
9.2675511573
 30
0.0
 10
11.787219541
 20
9.2678631516
 30
0.0
 10
11.7878023673
 20
9.2683241163
 30
0.0
 10
11.7881766612
 20
9.2686836695
 30
0.0
 10
11.7883516172
 20
9.2689339215
 30
0.0
 10
11.7883911909
 20
9.2690451128
 30
0.0
 10
11.7883903581
 20
9.2690914447
 30
0.0
  0
LINE
  5
627
100
AcDbEntity
  8
0
100
AcDbLine
 62
7
  6
CONTINUOUS
 10
11.7626924076
 20
9.2588413757
 11
11.7621946419
 21
9.2585833565
  0
LINE
  5
628
100
AcDbEntity
  8
0
100
AcDbLine
 62
7
  6
CONTINUOUS
 10
11.7621946419
 20
9.2585833565
 11
11.7616694446
 21
9.2583103567
  0
LINE
  5
629
100
AcDbEntity
  8
0
100
AcDbLine
 62
7
  6
CONTINUOUS
 10
11.7616694446
 20
9.2583103567
 11
11.761044255
 21
9.2578780899
  0
LINE
  5
62A
100
AcDbEntity
  8
0
100
AcDbLine
 62
7
  6
CONTINUOUS
 10
11.7570546289
 20
9.2550898537
 11
11.7565069963
 21
9.2547030867
  0
SPLINE
  5
62B
100
AcDbEntity
  8
0
100
AcDbSpline
 62
7
  6
CONTINUOUS
 70
0
 71
3
 72
11
 73
7
 74
0
 42
0.0000001
 43
0.0000001
 44
0.0000000001
 40
0.0
 40
0.0
 40
0.0
 40
0.0
 40
0.2620916599
 40
0.5197404825
 40
0.7673438617
 40
1.0
 40
1.0
 40
1.0
 40
1.0
 10
20.4329256367
 20
11.411391804
 30
0.0
 10
20.4329256367
 20
11.4172042265
 30
0.0
 10
20.4330036465
 20
11.4287305832
 30
0.0
 10
20.4332791674
 20
11.445745954
 30
0.0
 10
20.4336273931
 20
11.4621067195
 30
0.0
 10
20.4337663775
 20
11.4727572103
 30
0.0
 10
20.4337662748
 20
11.4779168395
 30
0.0
  0
SPLINE
  5
62C
100
AcDbEntity
  8
0
100
AcDbSpline
 62
7
  6
CONTINUOUS
 70
0
 71
3
 72
40
 73
36
 74
0
 42
0.0000001
 43
0.0000001
 44
0.0000000001
 40
0.0
 40
0.0
 40
0.0
 40
0.0
 40
0.0984329476
 40
0.1963851323
 40
0.2929021135
 40
0.3871044479
 40
0.4780322076
 40
0.5645079637
 40
0.6452191219
 40
0.7190626117
 40
0.7849697985
 40
0.8423880819
 40
0.8677663542
 40
0.8908886415
 40
0.9117686418
 40
0.9304114712
 40
0.9468143293
 40
0.9609830827
 40
0.9729376432
 40
0.9780903378
 40
0.9826959427
 40
0.9867562395
 40
0.9902728513
 40
0.9932471848
 40
0.9956798761
 40
0.9966931966
 40
0.9975712146
 40
0.9983139656
 40
0.9989214851
 40
0.9993938088
 40
0.9997309725
 40
0.9998488811
 40
0.9999330143
 40
0.9999833792
 40
1.0
 40
1.0
 40
1.0
 40
1.0
 10
20.0069170761
 20
11.411391804
 30
0.0
 10
20.0069170761
 20
11.4167428553
 30
0.0
 10
20.0074379935
 20
11.4274253958
 30
0.0
 10
20.0097171221
 20
11.4432077508
 30
0.0
 10
20.0134499552
 20
11.4584748287
 30
0.0
 10
20.018461833
 20
11.4729659063
 30
0.0
 10
20.0245768228
 20
11.4864277572
 30
0.0
 10
20.0314944974
 20
11.4986566965
 30
0.0
 10
20.038927884
 20
11.5094663354
 30
0.0
 10
20.0465075158
 20
11.5187661918
 30
0.0
 10
20.0539050944
 20
11.5265361986
 30
0.0
 10
20.0598836598
 20
11.5319868851
 30
0.0
 10
20.0643213147
 20
11.5356570123
 30
0.0
 10
20.0672972889
 20
11.5379750514
 30
0.0
 10
20.0700408843
 20
11.5399932359
 30
0.0
 10
20.0725347658
 20
11.5417326045
 30
0.0
 10
20.0747616066
 20
11.543215822
 30
0.0
 10
20.0767090259
 20
11.5444618793
 30
0.0
 10
20.0781573196
 20
11.5453526998
 30
0.0
 10
20.079170358
 20
11.5459585317
 30
0.0
 10
20.079817836
 20
11.5463394527
 30
0.0
 10
20.0803907013
 20
11.5466717658
 30
0.0
 10
20.0808882232
 20
11.5469572134
 30
0.0
 10
20.0813094953
 20
11.547197755
 30
0.0
 10
20.081612829
 20
11.547370412
 30
0.0
 10
20.081817276
 20
11.5474864014
 30
0.0
 10
20.0819418967
 20
11.5475569655
 30
0.0
 10
20.0820473477
 20
11.5476164827
 30
0.0
 10
20.0821337517
 20
11.5476652405
 30
0.0
 10
20.0822007489
 20
11.5477025735
 30
0.0
 10
20.0822451481
 20
11.5477278939
 30
0.0
 10
20.0822702814
 20
11.5477410959
 30
0.0
 10
20.082283145
 20
11.5477493389
 30
0.0
 10
20.0822889001
 20
11.5477503611
 30
0.0
 10
20.0822936478
 20
11.5477550083
 30
0.0
 10
20.082293871
 20
11.5477541328
 30
0.0
  0
LINE
  5
62D
100
AcDbEntity
  8
0
100
AcDbLine
 62
7
  6
CONTINUOUS
 10
20.0821278802
 20
10.7120318116
 11
20.0822945103
 21
10.7118251083
  0
LINE
  5
62E
100
AcDbEntity
  8
0
100
AcDbLine
 62
7
  6
CONTINUOUS
 10
22.0624614803
 20
10.7120318117
 11
22.0622948502
 21
10.7118251083
  0
SPLINE
  5
62F
100
AcDbEntity
  8
0
100
AcDbSpline
 62
7
  6
CONTINUOUS
 70
0
 71
3
 72
11
 73
7
 74
0
 42
0.0000001
 43
0.0000001
 44
0.0000000001
 40
0.0
 40
0.0
 40
0.0
 40
0.0
 40
0.2326568098
 40
0.4802471073
 40
0.7378934086
 40
1.0
 40
1.0
 40
1.0
 40
1.0
 10
21.7108229734
 20
11.4779166748
 30
0.0
 10
21.7108231219
 20
11.4727570436
 30
0.0
 10
21.7109624053
 20
11.4621068621
 30
0.0
 10
21.7113100024
 20
11.4457464559
 30
0.0
 10
21.7115859179
 20
11.4287311488
 30
0.0
 10
21.7116637237
 20
11.4172045432
 30
0.0
 10
21.7116637237
 20
11.411391804
 30
0.0
  0
LINE
  5
630
100
AcDbEntity
  8
0
100
AcDbLine
 62
7
  6
CONTINUOUS
 10
20.082293871
 20
11.5477541328
 11
20.0802830936
 21
11.5466125047
  0
SPLINE
  5
631
100
AcDbEntity
  8
0
100
AcDbSpline
 62
7
  6
CONTINUOUS
 70
0
 71
3
 72
41
 73
37
 74
0
 42
0.0000001
 43
0.0000001
 44
0.0000000001
 40
0.0
 40
0.0
 40
0.0
 40
0.0
 40
0.0000172105
 40
0.0000681468
 40
0.0001528234
 40
0.0002712388
 40
0.0006092717
 40
0.0010822145
 40
0.0016900343
 40
0.0024326976
 40
0.0033101711
 40
0.0043224415
 40
0.006751947
 40
0.0097226885
 40
0.0132362776
 40
0.0172944309
 40
0.0218989826
 40
0.0270518894
 40
0.0390111316
 40
0.0531900428
 40
0.0695978717
 40
0.0882361466
 40
0.1091129639
 40
0.1322442382
 40
0.1576473065
 40
0.1852835283
 40
0.2150893406
 40
0.2810099213
 40
0.3548769867
 40
0.4355949794
 40
0.5220669816
 40
0.6129861293
 40
0.7071666271
 40
0.8036560797
 40
0.9015849919
 40
1.0
 40
1.0
 40
1.0
 40
1.0
 10
22.0622954895
 20
11.5477541328
 30
0.0
 10
22.0622952584
 20
11.5477532262
 30
0.0
 10
22.062300795
 20
11.5477521301
 30
0.0
 10
22.0623056817
 20
11.5477471193
 30
0.0
 10
22.0623189145
 20
11.5477406479
 30
0.0
 10
22.0623436417
 20
11.5477257184
 30
0.0
 10
22.062388115
 20
11.5477009012
 30
0.0
 10
22.062454923
 20
11.5476627466
 30
0.0
 10
22.0625413294
 20
11.5476140115
 30
0.0
 10
22.0626468056
 20
11.5475545327
 30
0.0
 10
22.0627715613
 20
11.5474844056
 30
0.0
 10
22.0629763493
 20
11.5473695396
 30
0.0
 10
22.0632803249
 20
11.54719888
 30
0.0
 10
22.0637019954
 20
11.5469601038
 30
0.0
 10
22.0641992422
 20
11.5466751198
 30
0.0
 10
22.0647715017
 20
11.5463424226
 30
0.0
 10
22.0654182165
 20
11.5459605127
 30
0.0
 10
22.0664304104
 20
11.5453528441
 30
0.0
 10
22.0678783096
 20
11.5444598263
 30
0.0
 10
22.0698280384
 20
11.543215389
 30
0.0
 10
22.0720572149
 20
11.541734564
 30
0.0
 10
22.0745505743
 20
11.5399946233
 30
0.0
 10
22.0772932492
 20
11.5379750139
 30
0.0
 10
22.0802695081
 20
11.535654645
 30
0.0
 10
22.0834613116
 20
11.5330157092
 30
0.0
 10
22.0868425025
 20
11.5300394356
 30
0.0
 10
22.091726889
 20
11.5254424269
 30
0.0
 10
22.0980891376
 20
11.5187571171
 30
0.0
 10
22.1056688256
 20
11.5094545871
 30
0.0
 10
22.1131036437
 20
11.4986438961
 30
0.0
 10
22.1200191517
 20
11.48641392
 30
0.0
 10
22.1261325298
 20
11.4729532951
 30
0.0
 10
22.1311426882
 20
11.4584647978
 30
0.0
 10
22.1348733176
 20
11.4432011288
 30
0.0
 10
22.137151712
 20
11.4274223296
 30
0.0
 10
22.1376722844
 20
11.4167419265
 30
0.0
 10
22.1376722844
 20
11.411391804
 30
0.0
  0
SPLINE
  5
632
100
AcDbEntity
  8
0
100
AcDbSpline
 62
7
  6
CONTINUOUS
 70
0
 71
3
 72
30
 73
26
 74
0
 42
0.0000001
 43
0.0000001
 44
0.0000000001
 40
0.0
 40
0.0
 40
0.0
 40
0.0
 40
0.0503501025
 40
0.0983957452
 40
0.1444140005
 40
0.1668860943
 40
0.189162174
 40
0.2114333303
 40
0.233941355
 40
0.2569715609
 40
0.2808299509
 40
0.305817603
 40
0.3321959488
 40
0.3601537682
 40
0.3897908863
 40
0.4211158899
 40
0.4540554776
 40
0.4884762702
 40
0.5242102424
 40
0.5988626883
 40
0.6766468441
 40
0.7564110553
 40
0.8372850853
 40
0.918641879
 40
1.0
 40
1.0
 40
1.0
 40
1.0
 10
21.7108227653
 20
10.7854649767
 30
0.0
 10
21.7108228806
 20
10.7804000891
 30
0.0
 10
21.7113551058
 20
10.7704879676
 30
0.0
 10
21.7140660363
 20
10.7561672442
 30
0.0
 10
21.7181399413
 20
10.7450943658
 30
0.0
 10
21.7225868595
 20
10.7371013449
 30
0.0
 10
21.7265179127
 20
10.7316046787
 30
0.0
 10
21.7310991438
 20
10.7266289468
 30
0.0
 10
21.7363524334
 20
10.7222457982
 30
0.0
 10
21.7422895111
 20
10.7185322816
 30
0.0
 10
21.7489058025
 20
10.7155620334
 30
0.0
 10
21.7561793815
 20
10.7133995249
 30
0.0
 10
21.7640708928
 20
10.71209491
 30
0.0
 10
21.7725242665
 20
10.7116767704
 30
0.0
 10
21.7814702708
 20
10.7121511493
 30
0.0
 10
21.7908303843
 20
10.7135024415
 30
0.0
 10
21.8005215913
 20
10.7156945954
 30
0.0
 10
21.810462463
 20
10.7186741736
 30
0.0
 10
21.8241467884
 20
10.7236873955
 30
0.0
 10
21.8413792433
 20
10.731591941
 30
0.0
 10
21.8617849011
 20
10.7429944823
 30
0.0
 10
21.8819536043
 20
10.7559973335
 30
0.0
 10
21.9017162679
 20
10.7702258539
 30
0.0
 10
21.9209716566
 20
10.7853901428
 30
0.0
 10
21.9334484797
 20
10.7959905204
 30
0.0
 10
21.9395970936
 20
10.801391804
 30
0.0
  0
SPLINE
  5
633
100
AcDbEntity
  8
0
100
AcDbSpline
 62
7
  6
CONTINUOUS
 70
0
 71
3
 72
24
 73
20
 74
0
 42
0.0000001
 43
0.0000001
 44
0.0000000001
 40
0.0
 40
0.0
 40
0.0
 40
0.0
 40
0.1318112325
 40
0.1968396875
 40
0.2607441454
 40
0.3233024489
 40
0.3844440049
 40
0.444217975
 40
0.4737066354
 40
0.5030133794
 40
0.561363835
 40
0.5906293223
 40
0.6200774111
 40
0.6798025545
 40
0.7410219644
 40
0.8039084206
 40
0.8683442976
 40
0.9339376758
 40
1.0
 40
1.0
 40
1.0
 40
1.0
 10
21.0722946802
 20
11.5477507055
 30
0.0
 10
21.0616262328
 20
11.5477507055
 30
0.0
 10
21.045678803
 20
11.5471044509
 30
0.0
 10
21.0247062095
 20
11.5446836039
 30
0.0
 10
21.0094291484
 20
11.5420048052
 30
0.0
 10
20.9946901649
 20
11.5382854053
 30
0.0
 10
20.980652878
 20
11.5333710375
 30
0.0
 10
20.9696380948
 20
11.5281130354
 30
0.0
 10
20.9614161707
 20
11.5231500188
 30
0.0
 10
20.9536499823
 20
11.5177008585
 30
0.0
 10
20.9464915781
 20
11.5114514367
 30
0.0
 10
20.9400809904
 20
11.5044647664
 30
0.0
 10
20.9341411077
 20
11.4969304327
 30
0.0
 10
20.9276613008
 20
11.4865764186
 30
0.0
 10
20.9214607408
 20
11.4730109099
 30
0.0
 10
20.91676388
 20
11.4584598676
 30
0.0
 10
20.9134828631
 20
11.443170738
 30
0.0
 10
20.9115454716
 20
11.4273997665
 30
0.0
 10
20.9111214488
 20
11.4167387113
 30
0.0
 10
20.9111214488
 20
11.411391804
 30
0.0
  0
SPLINE
  5
634
100
AcDbEntity
  8
0
100
AcDbSpline
 62
7
  6
CONTINUOUS
 70
0
 71
3
 72
37
 73
33
 74
0
 42
0.0000001
 43
0.0000001
 44
0.0000000001
 40
0.0
 40
0.0
 40
0.0
 40
0.0
 40
0.078792284
 40
0.1182746177
 40
0.1577305419
 40
0.1971820403
 40
0.2366453365
 40
0.2760793468
 40
0.315421021
 40
0.3545782281
 40
0.3933851409
 40
0.4316859071
 40
0.469287505
 40
0.5415734232
 40
0.6088692446
 40
0.6402716472
 40
0.669983053
 40
0.6979024843
 40
0.7239455629
 40
0.7480693296
 40
0.7703141695
 40
0.7908230177
 40
0.8099403997
 40
0.8282639158
 40
0.8466298155
 40
0.8660180929
 40
0.8873407326
 40
0.8989497034
 40
0.9112473345
 40
0.938000263
 40
0.9676645126
 40
1.0
 40
1.0
 40
1.0
 40
1.0
 10
21.9395970936
 20
11.411391804
 30
0.0
 10
21.9395970936
 20
11.4206396011
 30
0.0
 10
21.9380870007
 20
11.4345836895
 30
0.0
 10
21.9331123367
 20
11.4524421734
 30
0.0
 10
21.927917051
 20
11.46536313
 30
0.0
 10
21.9213128137
 20
11.4776190632
 30
0.0
 10
21.9133722406
 20
11.4890512348
 30
0.0
 10
21.9042363595
 20
11.4995347855
 30
0.0
 10
21.8940348871
 20
11.5089288281
 30
0.0
 10
21.8829936008
 20
11.5171912727
 30
0.0
 10
21.8713160941
 20
11.5242892157
 30
0.0
 10
21.8592271266
 20
11.5302507849
 30
0.0
 10
21.8430623254
 20
11.5367095722
 30
0.0
 10
21.8229985524
 20
11.5423975704
 30
0.0
 10
21.8031815847
 20
11.5457658343
 30
0.0
 10
21.7881763284
 20
11.547220996
 30
0.0
 10
21.7777367281
 20
11.5477637044
 30
0.0
 10
21.7679116019
 20
11.5477858784
 30
0.0
 10
21.7587541036
 20
11.547304039
 30
0.0
 10
21.7503069283
 20
11.546297351
 30
0.0
 10
21.7426107332
 20
11.5446922458
 30
0.0
 10
21.7356928045
 20
11.5424208791
 30
0.0
 10
21.7295821154
 20
11.5393649061
 30
0.0
 10
21.7243251264
 20
11.5353840556
 30
0.0
 10
21.7199966476
 20
11.530360764
 30
0.0
 10
21.7166054212
 20
11.5242652347
 30
0.0
 10
21.7145879661
 20
11.518438475
 30
0.0
 10
21.7133460381
 20
11.5132754488
 30
0.0
 10
21.712277895
 20
11.5074233824
 30
0.0
 10
21.7113936236
 20
11.4993978335
 30
0.0
 10
21.7108948882
 20
11.4889895634
 30
0.0
 10
21.7108228641
 20
11.4817118691
 30
0.0
 10
21.7108229734
 20
11.4779166748
 30
0.0
  0
SPLINE
  5
635
100
AcDbEntity
  8
0
100
AcDbSpline
 62
7
  6
CONTINUOUS
 70
0
 71
3
 72
30
 73
26
 74
0
 42
0.0000001
 43
0.0000001
 44
0.0000000001
 40
0.0
 40
0.0
 40
0.0
 40
0.0
 40
0.0813579588
 40
0.1627145607
 40
0.2435885391
 40
0.3233527097
 40
0.4011369137
 40
0.475789417
 40
0.5115235553
 40
0.5459443861
 40
0.5788839029
 40
0.6102089668
 40
0.6398461299
 40
0.6678039266
 40
0.6941822515
 40
0.7191699642
 40
0.7430283561
 40
0.7660584661
 40
0.7885664869
 40
0.8108376388
 40
0.8331137252
 40
0.8555858014
 40
0.901604089
 40
0.9496497686
 40
1.0
 40
1.0
 40
1.0
 40
1.0
 10
20.2049922669
 20
10.801391804
 30
0.0
 10
20.2111408685
 20
10.7959905312
 30
0.0
 10
20.2236176661
 20
10.7853901787
 30
0.0
 10
20.2428730198
 20
10.7702259118
 30
0.0
 10
20.2626356562
 20
10.755997403
 30
0.0
 10
20.2828043508
 20
10.7429945465
 30
0.0
 10
20.3032100111
 20
10.731591997
 30
0.0
 10
20.3204424855
 20
10.7236874277
 30
0.0
 10
20.3341268362
 20
10.7186741991
 30
0.0
 10
20.3440677167
 20
10.7156946034
 30
0.0
 10
20.3537589277
 20
10.7135024548
 30
0.0
 10
20.3631190429
 20
10.7121511518
 30
0.0
 10
20.3720650557
 20
10.7116767702
 30
0.0
 10
20.380518429
 20
10.712094909
 30
0.0
 10
20.3884099446
 20
10.7133995111
 30
0.0
 10
20.3956835247
 20
10.7155620293
 30
0.0
 10
20.4022998205
 20
10.7185322588
 30
0.0
 10
20.4082368892
 20
10.7222457723
 30
0.0
 10
20.4134901736
 20
10.7266289097
 30
0.0
 10
20.418071413
 20
10.7316046338
 30
0.0
 10
20.4220024705
 20
10.7371012953
 30
0.0
 10
20.426449395
 20
10.745094315
 30
0.0
 10
20.4305233116
 20
10.7561671945
 30
0.0
 10
20.4332342565
 20
10.770487936
 30
0.0
 10
20.4337664806
 20
10.7804000744
 30
0.0
 10
20.4337665972
 20
10.7854649749
 30
0.0
  0
SPLINE
  5
636
100
AcDbEntity
  8
0
100
AcDbSpline
 62
7
  6
CONTINUOUS
 70
0
 71
3
 72
39
 73
35
 74
0
 42
0.0000001
 43
0.0000001
 44
0.0000000001
 40
0.0
 40
0.0
 40
0.0
 40
0.0
 40
0.0323318055
 40
0.0619929526
 40
0.0887417
 40
0.1126300768
 40
0.1339438033
 40
0.1533266525
 40
0.1625842222
 40
0.1717094918
 40
0.190020378
 40
0.2091256015
 40
0.2296285737
 40
0.2518600996
 40
0.2759746554
 40
0.3020097963
 40
0.3299197942
 40
0.3596295401
 40
0.3910253471
 40
0.4239751093
 40
0.45835519
 40
0.4939852335
 40
0.5306865281
 40
0.5683072644
 40
0.6066166206
 40
0.6454333027
 40
0.6846006667
 40
0.7239481882
 40
0.7633825694
 40
0.8028441638
 40
0.8422914905
 40
0.8817400722
 40
0.9212152484
 40
1.0
 40
1.0
 40
1.0
 40
1.0
 10
20.4337662748
 20
11.4779168395
 30
0.0
 10
20.4337661993
 20
11.4817118738
 30
0.0
 10
20.4336938075
 20
11.4889890952
 30
0.0
 10
20.4331962673
 20
11.4993976138
 30
0.0
 10
20.4321620072
 20
11.508774398
 30
0.0
 10
20.4304746807
 20
11.5170669956
 30
0.0
 10
20.4279873541
 20
11.5242583792
 30
0.0
 10
20.4251190439
 20
11.5294170726
 30
0.0
 10
20.4223920834
 20
11.5329212044
 30
0.0
 10
20.4194029741
 20
11.5360319888
 30
0.0
 10
20.4150185213
 20
11.5393562239
 30
0.0
 10
20.4089129942
 20
11.5424134663
 30
0.0
 10
20.4019996234
 20
11.544690003
 30
0.0
 10
20.394305119
 20
11.5462899446
 30
0.0
 10
20.3858617453
 20
11.5473007058
 30
0.0
 10
20.3767068522
 20
11.5477899824
 30
0.0
 10
20.3668832461
 20
11.5477592481
 30
0.0
 10
20.3564448603
 20
11.5472255505
 30
0.0
 10
20.3454521846
 20
11.5461623511
 30
0.0
 10
20.3339796761
 20
11.5444975991
 30
0.0
 10
20.3221137602
 20
11.5421782887
 30
0.0
 10
20.3099637379
 20
11.5391050246
 30
0.0
 10
20.2976644069
 20
11.5351639049
 30
0.0
 10
20.2853759632
 20
11.53025585
 30
0.0
 10
20.2732810445
 20
11.5242946019
 30
0.0
 10
20.261600413
 20
11.5171931713
 30
0.0
 10
20.2505562512
 20
11.5089280637
 30
0.0
 10
20.2403512167
 20
11.499533586
 30
0.0
 10
20.2312143126
 20
11.4890487376
 30
0.0
 10
20.2232751112
 20
11.4776152474
 30
0.0
 10
20.2166703915
 20
11.4653602372
 30
0.0
 10
20.2114763022
 20
11.4524400442
 30
0.0
 10
20.2065022239
 20
11.4345827475
 30
0.0
 10
20.2049922669
 20
11.4206393802
 30
0.0
 10
20.2049922669
 20
11.411391804
 30
0.0
  0
SPLINE
  5
637
100
AcDbEntity
  8
0
100
AcDbSpline
 62
7
  6
CONTINUOUS
 70
0
 71
3
 72
13
 73
9
 74
0
 42
0.0000001
 43
0.0000001
 44
0.0000000001
 40
0.0
 40
0.0
 40
0.0
 40
0.0
 40
0.1361919432
 40
0.2704629463
 40
0.4014873325
 40
0.5286684161
 40
0.7711438777
 40
1.0
 40
1.0
 40
1.0
 40
1.0
 10
21.0722946802
 20
10.7118248749
 30
0.0
 10
21.0636183704
 20
10.7118248749
 30
0.0
 10
21.0463591184
 20
10.7131595144
 30
0.0
 10
21.0213582149
 20
10.7189541393
 30
0.0
 10
20.9979573834
 20
10.7279796927
 30
0.0
 10
20.9698359101
 20
10.7431793184
 30
0.0
 10
20.939584146
 20
10.7668722985
 30
0.0
 10
20.9197383917
 20
10.7896311246
 30
0.0
 10
20.9111214488
 20
10.801391804
 30
0.0
  0
SPLINE
  5
638
100
AcDbEntity
  8
0
100
AcDbSpline
 62
7
  6
CONTINUOUS
 70
0
 71
3
 72
13
 73
9
 74
0
 42
0.0000001
 43
0.0000001
 44
0.0000000001
 40
0.0
 40
0.0
 40
0.0
 40
0.0
 40
0.1361907984
 40
0.2704613738
 40
0.4014855002
 40
0.5286666722
 40
0.7711427288
 40
1.0
 40
1.0
 40
1.0
 40
1.0
 10
21.0722946802
 20
10.7118248749
 30
0.0
 10
21.0809709172
 20
10.7118248749
 30
0.0
 10
21.0982300696
 20
10.7131594847
 30
0.0
 10
21.1232308644
 20
10.7189540615
 30
0.0
 10
21.1466316765
 20
10.7279795568
 30
0.0
 10
21.1747532008
 20
10.7431791456
 30
0.0
 10
21.2050050986
 20
10.7668721511
 30
0.0
 10
21.2248509255
 20
10.7896310655
 30
0.0
 10
21.2334679117
 20
10.801391804
 30
0.0
  0
SPLINE
  5
639
100
AcDbEntity
  8
0
100
AcDbSpline
 62
7
  6
CONTINUOUS
 70
0
 71
3
 72
23
 73
19
 74
0
 42
0.0000001
 43
0.0000001
 44
0.0000000001
 40
0.0
 40
0.0
 40
0.0
 40
0.0
 40
0.066101326
 40
0.1317115476
 40
0.1961461435
 40
0.2590331759
 40
0.320258805
 40
0.3799715875
 40
0.4386368427
 40
0.4678175399
 40
0.4970081604
 40
0.5557622304
 40
0.6155350602
 40
0.6766580578
 40
0.7392285705
 40
0.8031296894
 40
0.8681476699
 40
1.0
 40
1.0
 40
1.0
 40
1.0
 10
21.2334679117
 20
11.411391804
 30
0.0
 10
21.2334679117
 20
11.4167417016
 30
0.0
 10
21.2330431853
 20
11.4274069567
 30
0.0
 10
21.2311047423
 20
11.443181675
 30
0.0
 10
21.2278229039
 20
11.4584717285
 30
0.0
 10
21.2231216424
 20
11.473020794
 30
0.0
 10
21.2169249672
 20
11.4865882695
 30
0.0
 10
21.2091899869
 20
11.4989498082
 30
0.0
 10
21.2014233034
 20
11.5080838816
 30
0.0
 10
21.1945252241
 20
11.5145861461
 30
0.0
 10
21.1871605903
 20
11.5205671026
 30
0.0
 10
21.1770879108
 20
11.5270822514
 30
0.0
 10
21.163944029
 20
11.5333760758
 30
0.0
 10
21.1499034567
 20
11.5382843955
 30
0.0
 10
21.1351652506
 20
11.5419980565
 30
0.0
 10
21.1198901644
 20
11.5446855987
 30
0.0
 10
21.0989150742
 20
11.547099101
 30
0.0
 10
21.0829661222
 20
11.5477507055
 30
0.0
 10
21.0722946802
 20
11.5477507055
 30
0.0
  0
ENDSEC
  0
SECTION
  2
OBJECTS
  0
DICTIONARY
  5
C
100
AcDbDictionary
280
0
281
1
  3
ACAD_GROUP
350
D
  3
ACAD_MLINESTYLE
350
17
  3
ACAD_LAYOUT
350
1A
  3
ACAD_PLOTSETTINGS
350
19
  3
ACAD_PLOTSTYLENAME
350
E
  0
DICTIONARY
  5
D
102
{ACAD_REACTORS
330
C
102
}
100
AcDbDictionary
280
0
281
1
  0
ACDBDICTIONARYWDFLT
  5
E
102
{ACAD_REACTORS
330
C
102
}
100
AcDbDictionary
281
1
  3
Normal
350
F
100
AcDbDictionaryWithDefault
340
F
  0
DICTIONARY
  5
17
102
{ACAD_REACTORS
330
C
102
}
100
AcDbDictionary
280
0
281
1
  3
Standard
350
18
  0
DICTIONARY
  5
19
102
{ACAD_REACTORS
330
C
102
}
100
AcDbDictionary
281
1
  0
DICTIONARY
  5
1A
102
{ACAD_REACTORS
330
C
102
}
100
AcDbDictionary
281
1
  3
Model
350
63A
  3
Layout1
350
63B
  0
ACDBPLACEHOLDER
  5
F
102
{ACAD_REACTORS
330
E
102
}
  0
MLINESTYLE
  5
18
102
{ACAD_REACTORS
330
17
102
}
100
AcDbMlineStyle
  2
STANDARD
 70
0
  3

 62
256
 51
90.0
 52
90.0
 71
2
 49
0.5
 62
256
  6
BYLAYER
 49
-0.5
 62
256
  6
BYLAYER
  0
LAYOUT
  5
63A
102
{ACAD_REACTORS
330
1A
102
}
100
AcDbPlotSettings
  1

  2
none_device
  4
ANSI_C_(22.00_x_17.00_Inches)
  6

 40
0.0
 41
0.0
 42
0.0
 43
0.0
 44
558.8
 45
431.8
 46
0.0
 47
0.0
 48
0.0
 49
0.0
140
0.0
141
0.0
142
1.0
143
1.0
 70
1024
 72
0
 73
0
 74
0
  7

 75
0
147
1.0
148
0.0
149
0.0
100
AcDbLayout
  1
Model
 70
0
 71
0
 10
0.0
 20
0.0
 11
22.0
 21
17.0
 12
0.0
 22
0.0
 32
0.0
 14
0.0
 24
0.0
 34
0.0
 15
0.0
 25
0.0
 35
0.0
146
0.0
 13
0.0
 23
0.0
 33
0.0
 16
1.0
 26
0.0
 36
0.0
 17
0.0
 27
1.0
 37
0.0
 76
0
330
202
345
0
346
0
  0
LAYOUT
  5
63B
102
{ACAD_REACTORS
330
1A
102
}
100
AcDbPlotSettings
  1

  2
none_device
  4
ANSI_C_(22.00_x_17.00_Inches)
  6

 40
0.0
 41
0.0
 42
0.0
 43
0.0
 44
558.8
 45
431.8
 46
0.0
 47
0.0
 48
0.0
 49
0.0
140
0.0
141
0.0
142
1.0
143
1.0
 70
0
 72
0
 73
0
 74
0
  7

 75
0
147
1.0
148
0.0
149
0.0
100
AcDbLayout
  1
Layout1
 70
0
 71
1
 10
0.0
 20
0.0
 11
22.0
 21
17.0
 12
0.0
 22
0.0
 32
0.0
 14
0.0
 24
0.0
 34
0.0
 15
0.0
 25
0.0
 35
0.0
146
0.0
 13
0.0
 23
0.0
 33
0.0
 16
1.0
 26
0.0
 36
0.0
 17
0.0
 27
1.0
 37
0.0
 76
0
330
203
345
0
346
0
  0
ENDSEC
  0
EOF
