999
DXF file: 1020-3912_front.dxf
999
Pro/ENGINEER 2013150 by Parametric Technology Corporation
  0
SECTION
  2
HEADER
  9
$ACADVER
  1
AC1021
  9
$DWGCODEPAGE
  3
ANSI_1252
  9
$EXTMAX
 10
11.0
 20
8.5
 30
0.0
  9
$EXTMIN
 10
0.0
 20
0.0
 30
0.0
  9
$LIMMIN
 10
0.0
 20
0.0
  9
$LIMMAX
 10
11.0
 20
8.5
  9
$VIEWCTR
 10
5.5
 20
4.25
  9
$VIEWSIZE
 40
8.5
  9
$CLAYER
  8
0
  9
$LTSCALE
 40
0.605
  9
$CELTYPE
  6
BYLAYER
  9
$DIMSCALE
 40
1.0
  9
$DIMASZ
 40
0.1
  9
$DIMEXO
 40
0.0625
  9
$DIMDLI
 40
0.418
  9
$DIMEXE
 40
0.125
  9
$DIMCEN
 40
0.099
  9
$DIMLFAC
 40
1.0
  9
$DIMBLK
  1
_FILLED
  9
$DIMTXT
 40
0.08
  9
$DIMTOL
 70
1
  9
$DIMLIM
 70
0
  9
$DIMTFAC
 40
1.0
  9
$DIMTP
 40
0.001
  9
$DIMTM
 40
0.001
  9
$DIMGAP
 40
0.09
  9
$DIMDSEP
 70
46
  9
$PDMODE
 70
3
  9
$PDSIZE
 40
0.3125
  9
$HANDSEED
  5
306
  9
$TILEMODE
 70
1
  9
$MEASUREMENT
 70
0
  9
$INSUNITS
 70
1
  0
ENDSEC
  0
SECTION
  2
CLASSES
  0
CLASS
  1
ACDBDICTIONARYWDFLT
  2
AcDbDictionaryWithDefault
  3
AutoCAD 2000
 90
0
 91
1
280
0
281
0
  0
CLASS
  1
ACDBPLACEHOLDER
  2
AcDbPlaceHolder
  3
AutoCAD 2000
 90
0
 91
1
280
0
281
0
  0
CLASS
  1
LAYOUT
  2
AcDbLayout
  3
AutoCAD 2000
 90
0
 91
0
280
0
281
0
  0
ENDSEC
  0
SECTION
  2
TABLES
  0
TABLE
  2
VPORT
  5
8
100
AcDbSymbolTable
 70
2
  0
VPORT
  5
1F4
100
AcDbSymbolTableRecord
100
AcDbViewportTableRecord
  2
*ACTIVE
 70
0
 10
0.0
 20
0.0
 11
1.0
 21
1.0
 12
5.5
 22
4.25
 13
0.0
 23
0.0
 14
1.0
 24
1.0
 15
0.0
 25
0.0
 16
0.0
 26
0.0
 36
1.0
 17
0.0
 27
0.0
 37
0.0
 40
8.5
 41
1.2941176471
 42
50.0
 43
0.0
 44
0.0
 50
0.0
 51
0.0
 71
0
 72
100
 73
1
 74
1
 75
0
 76
0
 77
0
 78
0
  0
ENDTAB
  0
TABLE
  2
LTYPE
  5
5
100
AcDbSymbolTable
 70
6
  0
LTYPE
  5
14
100
AcDbSymbolTableRecord
100
AcDbLinetypeTableRecord
  2
BYBLOCK
 70
0
  3

 72
65
 73
0
 40
0.0
  0
LTYPE
  5
15
100
AcDbSymbolTableRecord
100
AcDbLinetypeTableRecord
  2
BYLAYER
 70
0
  3

 72
65
 73
0
 40
0.0
  0
LTYPE
  5
16
100
AcDbSymbolTableRecord
100
AcDbLinetypeTableRecord
  2
CONTINUOUS
 70
64
  3
Solid line
 72
65
 73
0
 40
0.0
  0
LTYPE
  5
1F5
100
AcDbSymbolTableRecord
100
AcDbLinetypeTableRecord
  2
CENTER
 70
64
  3
____ _ ____ _ ____ _ ____ _ ____ _ ____ _ ____
 72
65
 73
4
 40
0.6
 49
0.375
 74
0
 49
-0.075
 74
0
 49
0.075
 74
0
 49
-0.075
 74
0
  0
LTYPE
  5
1F6
100
AcDbSymbolTableRecord
100
AcDbLinetypeTableRecord
  2
HIDDEN
 70
64
  3
- - - - - - - - - - - - - - - - - - - -
 72
65
 73
2
 40
0.2
 49
0.1
 74
0
 49
-0.1
 74
0
  0
LTYPE
  5
1F7
100
AcDbSymbolTableRecord
100
AcDbLinetypeTableRecord
  2
PHANTOM
 70
64
  3
_____ _ _ _____ _ _ _____ _ _ _____
 72
65
 73
6
 40
0.8
 49
0.45
 74
0
 49
-0.05
 74
0
 49
0.1
 74
0
 49
-0.05
 74
0
 49
0.1
 74
0
 49
-0.05
 74
0
  0
LTYPE
  5
1F8
100
AcDbSymbolTableRecord
100
AcDbLinetypeTableRecord
  2
DOT
 70
64
  3
. . . . . . . . . . . . . . . . . . . .
 72
65
 73
2
 40
0.2
 49
0.1
 74
0
 49
-0.1
 74
0
  0
LTYPE
  5
1F9
100
AcDbSymbolTableRecord
100
AcDbLinetypeTableRecord
  2
DASHED
 70
64
  3
- - - - - - - - - - - - - - - - - - - -
 72
65
 73
2
 40
0.2
 49
0.1
 74
0
 49
-0.1
 74
0
  0
ENDTAB
  0
TABLE
  2
LAYER
  5
2
100
AcDbSymbolTable
 70
36
  0
LAYER
  5
10
100
AcDbSymbolTableRecord
100
AcDbLayerTableRecord
  2
0
 70
0
 62
7
  6
CONTINUOUS
370
-3
390
F
  0
LAYER
  5
1FA
100
AcDbSymbolTableRecord
100
AcDbLayerTableRecord
  2
DEFAULT_1
 70
0
 62
7
  6
CENTER
370
-3
390
F
  0
LAYER
  5
1FB
100
AcDbSymbolTableRecord
100
AcDbLayerTableRecord
  2
DEFAULT_2
 70
0
 62
8
  6
HIDDEN
370
-3
390
F
  0
LAYER
  5
1FC
100
AcDbSymbolTableRecord
100
AcDbLayerTableRecord
  2
DEFAULT_3
 70
0
 62
7
  6
PHANTOM
370
-3
390
F
  0
LAYER
  5
1FD
100
AcDbSymbolTableRecord
100
AcDbLayerTableRecord
  2
_  SHELL
 70
0
 62
7
  6
CONTINUOUS
370
-3
390
F
  0
LAYER
  5
1FE
100
AcDbSymbolTableRecord
100
AcDbLayerTableRecord
  2
01___PRT_ALL_DTM_PLN
 70
0
 62
7
  6
CONTINUOUS
370
-3
390
F
  0
LAYER
  5
1FF
100
AcDbSymbolTableRecord
100
AcDbLayerTableRecord
  2
01___PRT_DEF_DTM_PLN
 70
0
 62
7
  6
CONTINUOUS
370
-3
390
F
  0
LAYER
  5
200
100
AcDbSymbolTableRecord
100
AcDbLayerTableRecord
  2
02___PRT_ALL_AXES
 70
0
 62
7
  6
CONTINUOUS
370
-3
390
F
  0
LAYER
  5
201
100
AcDbSymbolTableRecord
100
AcDbLayerTableRecord
  2
03___PRT_ALL_CURVES
 70
0
 62
7
  6
CONTINUOUS
370
-3
390
F
  0
LAYER
  5
202
100
AcDbSymbolTableRecord
100
AcDbLayerTableRecord
  2
04___PRT_ALL_DTM_PNT
 70
0
 62
7
  6
CONTINUOUS
370
-3
390
F
  0
LAYER
  5
203
100
AcDbSymbolTableRecord
100
AcDbLayerTableRecord
  2
05___PRT_ALL_DTM_CSYS
 70
0
 62
7
  6
CONTINUOUS
370
-3
390
F
  0
LAYER
  5
204
100
AcDbSymbolTableRecord
100
AcDbLayerTableRecord
  2
05___PRT_DEF_DTM_CSYS
 70
0
 62
7
  6
CONTINUOUS
370
-3
390
F
  0
LAYER
  5
205
100
AcDbSymbolTableRecord
100
AcDbLayerTableRecord
  2
06___PRT_ALL_SURFS
 70
0
 62
7
  6
CONTINUOUS
370
-3
390
F
  0
LAYER
  5
206
100
AcDbSymbolTableRecord
100
AcDbLayerTableRecord
  2
ALL_FEATURES
 70
0
 62
7
  6
CONTINUOUS
370
-3
390
F
  0
LAYER
  5
207
100
AcDbSymbolTableRecord
100
AcDbLayerTableRecord
  2
AXES_FEATURES
 70
0
 62
7
  6
CONTINUOUS
370
-3
390
F
  0
LAYER
  5
208
100
AcDbSymbolTableRecord
100
AcDbLayerTableRecord
  2
DEFAULT_COORDINATE_SYSTEM
 70
0
 62
7
  6
CONTINUOUS
370
-3
390
F
  0
LAYER
  5
209
100
AcDbSymbolTableRecord
100
AcDbLayerTableRecord
  2
DEFAULT_DATUM_AXES
 70
0
 62
7
  6
CONTINUOUS
370
-3
390
F
  0
LAYER
  5
20A
100
AcDbSymbolTableRecord
100
AcDbLayerTableRecord
  2
DEFAULT_DATUM_CURVES
 70
0
 62
7
  6
CONTINUOUS
370
-3
390
F
  0
LAYER
  5
20B
100
AcDbSymbolTableRecord
100
AcDbLayerTableRecord
  2
DEFAULT_DATUM_PLANES
 70
0
 62
7
  6
CONTINUOUS
370
-3
390
F
  0
LAYER
  5
20C
100
AcDbSymbolTableRecord
100
AcDbLayerTableRecord
  2
DEFAULT_SURFACES
 70
0
 62
7
  6
CONTINUOUS
370
-3
390
F
  0
LAYER
  5
20D
100
AcDbSymbolTableRecord
100
AcDbLayerTableRecord
  2
DIMENSIONS
 70
0
 62
7
  6
CONTINUOUS
370
-3
390
F
  0
LAYER
  5
20E
100
AcDbSymbolTableRecord
100
AcDbLayerTableRecord
  2
INTF_BLANK
 70
0
 62
7
  6
CONTINUOUS
370
-3
390
F
  0
LAYER
  5
20F
100
AcDbSymbolTableRecord
100
AcDbLayerTableRecord
  2
PLATED_SURFACE_ARE
 70
0
 62
7
  6
CONTINUOUS
370
-3
390
F
  0
LAYER
  5
210
100
AcDbSymbolTableRecord
100
AcDbLayerTableRecord
  2
PLATED_SURFACE_AREA
 70
0
 62
7
  6
CONTINUOUS
370
-3
390
F
  0
LAYER
  5
211
100
AcDbSymbolTableRecord
100
AcDbLayerTableRecord
  2
SHELL
 70
0
 62
7
  6
CONTINUOUS
370
-3
390
F
  0
LAYER
  5
212
100
AcDbSymbolTableRecord
100
AcDbLayerTableRecord
  2
XSEC_DATUMS
 70
0
 62
7
  6
CONTINUOUS
370
-3
390
F
  0
LAYER
  5
213
100
AcDbSymbolTableRecord
100
AcDbLayerTableRecord
  2
___SHELL
 70
0
 62
7
  6
CONTINUOUS
370
-3
390
F
  0
ENDTAB
  0
TABLE
  2
STYLE
  5
3
100
AcDbSymbolTable
 70
1
  0
STYLE
  5
11
100
AcDbSymbolTableRecord
100
AcDbTextStyleTableRecord
  2
STANDARD
 70
0
 40
0.0
 41
0.8
 50
0.0
 71
0
 42
0.2
  3
txt
  4

  0
STYLE
  5
214
100
AcDbSymbolTableRecord
100
AcDbTextStyleTableRecord
  2
TEXTSTYLE_1
 70
0
 40
0.0
 41
0.8
 50
0.0
 71
0
 42
0.2
  3
gdt
  4

  0
ENDTAB
  0
TABLE
  2
VIEW
  5
6
100
AcDbSymbolTable
 70
0
  0
ENDTAB
  0
TABLE
  2
UCS
  5
7
100
AcDbSymbolTable
 70
0
  0
ENDTAB
  0
TABLE
  2
APPID
  5
9
100
AcDbSymbolTable
 70
1
  0
APPID
  5
215
100
AcDbSymbolTableRecord
100
AcDbRegAppTableRecord
  2
ACAD
 70
0
  0
ENDTAB
  0
TABLE
  2
BLOCK_RECORD
  5
1
100
AcDbSymbolTable
 70
0
  0
BLOCK_RECORD
  5
216
100
AcDbSymbolTableRecord
100
AcDbBlockTableRecord
  2
*Model_Space
  0
BLOCK_RECORD
  5
217
100
AcDbSymbolTableRecord
100
AcDbBlockTableRecord
  2
*Paper_Space
  0
ENDTAB
  0
TABLE
  2
DIMSTYLE
  5
A
100
AcDbSymbolTable
 70
1
100
AcDbDimStyleTable
 71
0
  0
DIMSTYLE
105
218
100
AcDbSymbolTableRecord
100
AcDbDimStyleTableRecord
  2
STANDARD
 70
0
  3

  4

 40
1.0
 41
0.1
 42
0.0625
 43
0.38
 44
0.125
 45
0.0
 46
0.0
 47
0.001
 48
0.001
140
0.08
141
0.09
142
0.0
143
25.4
144
1.0
145
0.0
146
1.0
147
0.09
 71
1.0
 72
0.0
 73
1
 74
1
 75
0
 76
0
 77
0
 78
4
170
0
171
2
172
0
173
0
174
0
175
0
176
0
177
0
178
0
270
2
271
3
272
3
273
2
274
2
275
0
280
0
281
0
282
0
283
1
284
4
285
0
286
0
287
3
288
0
340
11
278
46
  0
ENDTAB
  0
ENDSEC
  0
SECTION
  2
BLOCKS
  0
BLOCK
  5
20
100
AcDbEntity
  8
0
100
AcDbBlockBegin
  2
*Model_Space
 70
0
 10
0.0
 20
0.0
 30
0.0
  3
*Model_Space
  1

  0
ENDBLK
  5
21
100
AcDbEntity
  8
0
100
AcDbBlockEnd
  0
BLOCK
  5
1C
100
AcDbEntity
  8
0
100
AcDbBlockBegin
  2
*Paper_Space
 70
0
 10
0.0
 20
0.0
 30
0.0
  3
*Paper_Space
  1

  0
ENDBLK
  5
1D
100
AcDbEntity
  8
0
100
AcDbBlockEnd
  0
ENDSEC
  0
SECTION
  2
ENTITIES
  0
LINE
  5
219
100
AcDbEntity
  8
0
100
AcDbLine
 62
7
  6
CONTINUOUS
 10
0.0
 20
0.0
 11
0.0
 21
8.5
  0
LINE
  5
21A
100
AcDbEntity
  8
0
100
AcDbLine
 62
7
  6
CONTINUOUS
 10
0.0
 20
0.0
 11
11.0
 21
0.0
  0
LINE
  5
21B
100
AcDbEntity
  8
0
100
AcDbLine
 62
7
  6
CONTINUOUS
 10
0.0
 20
8.5
 11
11.0
 21
8.5
  0
LINE
  5
21C
100
AcDbEntity
  8
0
100
AcDbLine
 62
7
  6
CONTINUOUS
 10
11.0
 20
0.0
 11
11.0
 21
8.5
  0
LINE
  5
21D
100
AcDbEntity
  8
0
100
AcDbLine
 62
7
  6
CONTINUOUS
 10
2.8691648573
 20
4.6315911911
 11
2.8691648573
 21
4.0065911911
  0
LINE
  5
21E
100
AcDbEntity
  8
0
100
AcDbLine
 62
7
  6
CONTINUOUS
 10
2.0566648573
 20
4.0065911911
 11
8.0566648573
 21
4.0065911911
  0
LINE
  5
21F
100
AcDbEntity
  8
0
100
AcDbLine
 62
7
  6
CONTINUOUS
 10
2.0566648573
 20
4.6315911911
 11
8.0566648573
 21
4.6315911911
  0
LINE
  5
220
100
AcDbEntity
  8
0
100
AcDbLine
 62
7
  6
CONTINUOUS
 10
7.2441648573
 20
4.6315911911
 11
7.2441648573
 21
4.0065911911
  0
ARC
  5
221
100
AcDbEntity
  8
0
100
AcDbCircle
 62
7
  6
CONTINUOUS
 10
2.1587495414
 20
3.5832976352
 40
0.1164318372
100
AcDbArc
 50
115.4857279389
 51
126.821485892
  0
ARC
  5
222
100
AcDbEntity
  8
0
100
AcDbCircle
 62
7
  6
CONTINUOUS
 10
2.7282194093
 20
4.0021017222
 40
0.1161727
100
AcDbArc
 50
177.7844700294
 51
183.6541324485
  0
ARC
  5
223
100
AcDbEntity
  8
0
100
AcDbCircle
 62
7
  6
CONTINUOUS
 10
2.0566648573
 20
4.3190911911
 40
0.75
100
AcDbArc
 50
24.6260867799
 51
335.3738526464
  0
ARC
  5
224
100
AcDbEntity
  8
0
100
AcDbCircle
 62
7
  6
CONTINUOUS
 10
2.0566648573
 20
4.3190911911
 40
0.7400000006
100
AcDbArc
 50
24.979911465
 51
335.0199471056
  0
ARC
  5
225
100
AcDbEntity
  8
0
100
AcDbCircle
 62
7
  6
CONTINUOUS
 10
2.0566648573
 20
4.3190911911
 40
0.4425
100
AcDbArc
 50
44.9297582361
 51
315.0702417639
  0
ARC
  5
226
100
AcDbEntity
  8
0
100
AcDbCircle
 62
7
  6
CONTINUOUS
 10
2.0566648573
 20
4.3190911911
 40
0.4375
100
AcDbArc
 50
45.5865880924
 51
314.4131874768
  0
ARC
  5
227
100
AcDbEntity
  8
0
100
AcDbCircle
 62
7
  6
CONTINUOUS
 10
2.0566648573
 20
4.3190911911
 40
0.4074999995
100
AcDbArc
 50
50.0804485035
 51
309.9194554667
  0
ARC
  5
228
100
AcDbEntity
  8
0
100
AcDbCircle
 62
7
  6
CONTINUOUS
 10
2.0566648573
 20
4.3190911911
 40
0.315
100
AcDbArc
 50
82.9145677466
 51
277.0854322534
  0
ARC
  5
229
100
AcDbEntity
  8
0
100
AcDbCircle
 62
7
  6
CONTINUOUS
 10
2.0566637765
 20
4.3187885314
 40
0.3128524097
100
AcDbArc
 50
89.1811246251
 51
90.6061769344
  0
ARC
  5
22A
100
AcDbEntity
  8
0
100
AcDbCircle
 62
7
  6
CONTINUOUS
 10
2.0566647997
 20
4.3188625869
 40
0.3127783472
100
AcDbArc
 50
88.5353016742
 51
89.1811181574
  0
ARC
  5
22B
100
AcDbEntity
  8
0
100
AcDbCircle
 62
7
  6
CONTINUOUS
 10
2.0566782068
 20
4.3190584995
 40
0.3125851295
100
AcDbArc
 50
107.0314630402
 51
115.1175006829
  0
ARC
  5
22C
100
AcDbEntity
  8
0
100
AcDbCircle
 62
7
  6
CONTINUOUS
 10
2.0566648104
 20
4.3190911884
 40
0.3125497124
100
AcDbArc
 50
115.1178207702
 51
175.5479913617
  0
ARC
  5
22D
100
AcDbEntity
  8
0
100
AcDbCircle
 62
7
  6
CONTINUOUS
 10
2.0566625286
 20
4.3191049315
 40
0.3125360448
100
AcDbArc
 50
90.6065618265
 51
107.0312080677
  0
ARC
  5
22E
100
AcDbEntity
  8
0
100
AcDbCircle
 62
7
  6
CONTINUOUS
 10
2.0566648573
 20
4.3190911911
 40
0.3125
100
AcDbArc
 50
90.0
 51
270.0
  0
ARC
  5
22F
100
AcDbEntity
  8
0
100
AcDbCircle
 62
7
  6
CONTINUOUS
 10
2.0559111038
 20
4.3191358407
 40
0.3117949437
100
AcDbArc
 50
175.5454208811
 51
175.7932787757
  0
ARC
  5
230
100
AcDbEntity
  8
0
100
AcDbCircle
 62
7
  6
CONTINUOUS
 10
2.0558400232
 20
4.3191403412
 40
0.3117237206
100
AcDbArc
 50
175.5606917739
 51
175.803400239
  0
ARC
  5
231
100
AcDbEntity
  8
0
100
AcDbCircle
 62
7
  6
CONTINUOUS
 10
2.0556171757
 20
4.3191571641
 40
0.3115002433
100
AcDbArc
 50
175.7932244679
 51
176.376173526
  0
ARC
  5
232
100
AcDbEntity
  8
0
100
AcDbCircle
 62
7
  6
CONTINUOUS
 10
2.0555406633
 20
4.3191620104
 40
0.3114235776
100
AcDbArc
 50
175.8033458207
 51
176.3761736424
  0
ARC
  5
233
100
AcDbEntity
  8
0
100
AcDbCircle
 62
7
  6
CONTINUOUS
 10
8.1587495414
 20
3.5832976352
 40
0.1164318372
100
AcDbArc
 50
115.4857279389
 51
126.821485892
  0
ARC
  5
234
100
AcDbEntity
  8
0
100
AcDbCircle
 62
7
  6
CONTINUOUS
 10
8.0566648573
 20
4.3190911911
 40
0.75
100
AcDbArc
 50
204.6260867799
 51
155.3738526464
  0
ARC
  5
235
100
AcDbEntity
  8
0
100
AcDbCircle
 62
7
  6
CONTINUOUS
 10
8.0566648573
 20
4.3190911911
 40
0.7400000006
100
AcDbArc
 50
204.979911465
 51
155.0199471056
  0
ARC
  5
236
100
AcDbEntity
  8
0
100
AcDbCircle
 62
7
  6
CONTINUOUS
 10
8.0566648573
 20
4.3190911911
 40
0.4425
100
AcDbArc
 50
224.9297582361
 51
135.0702417639
  0
ARC
  5
237
100
AcDbEntity
  8
0
100
AcDbCircle
 62
7
  6
CONTINUOUS
 10
8.0566648573
 20
4.3190911911
 40
0.4375
100
AcDbArc
 50
225.5865880924
 51
134.4131874768
  0
ARC
  5
238
100
AcDbEntity
  8
0
100
AcDbCircle
 62
7
  6
CONTINUOUS
 10
8.0566648573
 20
4.3190911911
 40
0.4074999995
100
AcDbArc
 50
230.0804485035
 51
129.9194554667
  0
ARC
  5
239
100
AcDbEntity
  8
0
100
AcDbCircle
 62
7
  6
CONTINUOUS
 10
8.0566648573
 20
4.3190911911
 40
0.315
100
AcDbArc
 50
262.9145677466
 51
97.0854322534
  0
ARC
  5
23A
100
AcDbEntity
  8
0
100
AcDbCircle
 62
7
  6
CONTINUOUS
 10
8.0566636852
 20
4.3187951849
 40
0.3128457557
100
AcDbArc
 50
88.5354131599
 51
90.6061731008
  0
ARC
  5
23B
100
AcDbEntity
  8
0
100
AcDbCircle
 62
7
  6
CONTINUOUS
 10
8.0566631898
 20
4.3188593202
 40
0.3127816187
100
AcDbArc
 50
90.6062066484
 51
90.9325260036
  0
ARC
  5
23C
100
AcDbEntity
  8
0
100
AcDbCircle
 62
7
  6
CONTINUOUS
 10
8.0566245294
 20
4.3188873198
 40
0.3127562952
100
AcDbArc
 50
83.0746634646
 51
85.1057972824
  0
ARC
  5
23D
100
AcDbEntity
  8
0
100
AcDbCircle
 62
7
  6
CONTINUOUS
 10
8.0566648573
 20
4.3190911911
 40
0.3125
100
AcDbArc
 50
270.0
 51
90.0
  0
ARC
  5
23E
100
AcDbEntity
  8
0
100
AcDbCircle
 62
7
  6
CONTINUOUS
 10
8.0566736287
 20
4.3191747096
 40
0.3124661008
100
AcDbArc
 50
86.4849522997
 51
88.5354571603
  0
ARC
  5
23F
100
AcDbEntity
  8
0
100
AcDbCircle
 62
7
  6
CONTINUOUS
 10
8.056693277
 20
4.3196505316
 40
0.3119900009
100
AcDbArc
 50
85.1064185079
 51
85.8281854532
  0
ARC
  5
240
100
AcDbEntity
  8
0
100
AcDbCircle
 62
7
  6
CONTINUOUS
 10
8.0567276819
 20
4.3201215571
 40
0.3115177206
100
AcDbArc
 50
85.8281942366
 51
86.484198142
  0
ARC
  5
241
100
AcDbEntity
  8
0
100
AcDbCircle
 62
7
  6
CONTINUOUS
 10
7.3851186328
 20
4.6360993918
 40
0.1161732252
100
AcDbArc
 50
357.7752314976
 51
3.6525264514
  0
SPLINE
  5
242
100
AcDbEntity
  8
0
100
AcDbSpline
 62
7
  6
CONTINUOUS
 70
0
 71
3
 72
25
 73
21
 74
0
 42
0.0000001
 43
0.0000001
 44
0.0000000001
 40
0.0
 40
0.0
 40
0.0
 40
0.0
 40
0.1249940012
 40
0.2499744668
 40
0.3749380726
 40
0.4998884153
 40
0.5623886928
 40
0.6248865704
 40
0.6873823159
 40
0.7498758214
 40
0.812367013
 40
0.8436176429
 40
0.8748713799
 40
0.9061279008
 40
0.9217530884
 40
0.9373774549
 40
0.9530116329
 40
0.9686910647
 40
0.9843761905
 40
1.0
 40
1.0
 40
1.0
 40
1.0
 10
7.6874750156
 20
3.7921742726
 30
0.0
 10
7.6921447677
 20
3.7920860732
 30
0.0
 10
7.7014826988
 20
3.7913434014
 30
0.0
 10
7.7152462087
 20
3.7885586585
 30
0.0
 10
7.7285763409
 20
3.7841447574
 30
0.0
 10
7.739163647
 20
3.7791527001
 30
0.0
 10
7.7472140983
 20
3.7744080002
 30
0.0
 10
7.7530207609
 20
3.7704794067
 30
0.0
 10
7.7585651859
 20
3.7661888947
 30
0.0
 10
7.7638130813
 20
3.7615403095
 30
0.0
 10
7.7679009797
 20
3.7573637896
 30
0.0
 10
7.7709588968
 20
3.7538315771
 30
0.0
 10
7.7731265517
 20
3.7510774057
 30
0.0
 10
7.7748055469
 20
3.7486862078
 30
0.0
 10
7.7760443455
 20
3.7467055954
 30
0.0
 10
7.7769127517
 20
3.7451833488
 30
0.0
 10
7.7776988169
 20
3.7436143416
 30
0.0
 10
7.7783832045
 20
3.7419953182
 30
0.0
 10
7.7789304428
 20
3.740324348
 30
0.0
 10
7.7791638515
 20
3.7391736822
 30
0.0
 10
7.7792371049
 20
3.7385944896
 30
0.0
  0
SPLINE
  5
243
100
AcDbEntity
  8
0
100
AcDbSpline
 62
7
  6
CONTINUOUS
 70
0
 71
3
 72
25
 73
21
 74
0
 42
0.0000001
 43
0.0000001
 44
0.0000000001
 40
0.0
 40
0.0
 40
0.0
 40
0.0
 40
0.1249940001
 40
0.2499744644
 40
0.3749380691
 40
0.4998884105
 40
0.5623886873
 40
0.6248865643
 40
0.6873823092
 40
0.7498758139
 40
0.8123670049
 40
0.8436176341
 40
0.8748713717
 40
0.9061278923
 40
0.9217530779
 40
0.9373774414
 40
0.9530116216
 40
0.9686910638
 40
0.9843761916
 40
1.0
 40
1.0
 40
1.0
 40
1.0
 10
7.6057832841
 20
3.8601267206
 30
0.0
 10
7.6103748309
 20
3.8592711149
 30
0.0
 10
7.6194631683
 20
3.8570016127
 30
0.0
 10
7.6325806155
 20
3.8519894702
 30
0.0
 10
7.6450024474
 20
3.8454417196
 30
0.0
 10
7.6546237005
 20
3.8387751484
 30
0.0
 10
7.661783411
 20
3.8327701099
 30
0.0
 10
7.6668642602
 20
3.8279393595
 30
0.0
 10
7.6716268789
 20
3.8227947893
 30
0.0
 10
7.6760380759
 20
3.8173458361
 30
0.0
 10
7.6793827951
 20
3.8125534375
 30
0.0
 10
7.681817629
 20
3.8085660868
 30
0.0
 10
7.6835024029
 20
3.805492697
 30
0.0
 10
7.6847649242
 20
3.8028577603
 30
0.0
 10
7.6856608326
 20
3.8007002629
 30
0.0
 10
7.6862668434
 20
3.7990558437
 30
0.0
 10
7.6867839398
 20
3.797378854
 30
0.0
 10
7.6871925144
 20
3.7956692658
 30
0.0
 10
7.687457259
 20
3.7939310129
 30
0.0
 10
7.6874980923
 20
3.7927576229
 30
0.0
 10
7.6874750156
 20
3.7921742726
 30
0.0
  0
SPLINE
  5
244
100
AcDbEntity
  8
0
100
AcDbSpline
 62
7
  6
CONTINUOUS
 70
0
 71
3
 72
25
 73
21
 74
0
 42
0.0000001
 43
0.0000001
 44
0.0000000001
 40
0.0
 40
0.0
 40
0.0
 40
0.0
 40
0.1249940012
 40
0.2499744667
 40
0.3749380725
 40
0.4998884152
 40
0.5623886927
 40
0.6248865703
 40
0.6873823159
 40
0.7498758213
 40
0.8123670129
 40
0.8436176428
 40
0.8748713798
 40
0.9061279007
 40
0.9217530883
 40
0.9373774548
 40
0.9530116328
 40
0.9686910647
 40
0.9843761905
 40
1.0
 40
1.0
 40
1.0
 40
1.0
 10
7.5363902084
 20
3.9405983009
 30
0.0
 10
7.5407783068
 20
3.9389986272
 30
0.0
 10
7.5493691489
 20
3.9352641995
 30
0.0
 10
7.5614827302
 20
3.9281613729
 30
0.0
 10
7.5726574328
 20
3.9196583751
 30
0.0
 10
7.5810501951
 20
3.9114991332
 30
0.0
 10
7.58712387
 20
3.9043975548
 30
0.0
 10
7.5913403159
 20
3.8987964155
 30
0.0
 10
7.5951912189
 20
3.8929381148
 30
0.0
 10
7.5986453936
 20
3.886837424
 30
0.0
 10
7.6011557001
 20
3.8815598684
 30
0.0
 10
7.602901036
 20
3.877226142
 30
0.0
 10
7.6040569732
 20
3.8739173662
 30
0.0
 10
7.6048685833
 20
3.8711105636
 30
0.0
 10
7.6053971633
 20
3.8688350305
 30
0.0
 10
7.6057242492
 20
3.8671132934
 30
0.0
 10
7.6059582726
 20
3.865374065
 30
0.0
 10
7.6060798872
 20
3.8636205448
 30
0.0
 10
7.6060549168
 20
3.8618624244
 30
0.0
 10
7.6059020615
 20
3.8606983167
 30
0.0
 10
7.6057832841
 20
3.8601267206
 30
0.0
  0
SPLINE
  5
245
100
AcDbEntity
  8
0
100
AcDbSpline
 62
7
  6
CONTINUOUS
 70
0
 71
3
 72
20
 73
16
 74
0
 42
0.0000001
 43
0.0000001
 44
0.0000000001
 40
0.0
 40
0.0
 40
0.0
 40
0.0
 40
0.1249889459
 40
0.2499699891
 40
0.374944358
 40
0.4999119665
 40
0.6248717396
 40
0.6873670295
 40
0.7498597155
 40
0.812357566
 40
0.8748494538
 40
0.9060939193
 40
0.9373739678
 40
0.9687504454
 40
1.0
 40
1.0
 40
1.0
 40
1.0
 10
7.5115840797
 20
4.0065991388
 30
0.0
 10
7.5135755217
 20
4.0043164049
 30
0.0
 10
7.51738124
 20
3.9995930257
 30
0.0
 10
7.5225130472
 20
3.9920824305
 30
0.0
 10
7.5270303559
 20
3.984186366
 30
0.0
 10
7.5308887322
 20
3.9759488955
 30
0.0
 10
7.5335103789
 20
3.9688334051
 30
0.0
 10
7.5352024926
 20
3.9630145299
 30
0.0
 10
7.5362480263
 20
3.9585900308
 30
0.0
 10
7.5370335734
 20
3.9541116825
 30
0.0
 10
7.5374155052
 20
3.950339173
 30
0.0
 10
7.5374918618
 20
3.9473084577
 30
0.0
 10
7.5373861803
 20
3.9450325926
 30
0.0
 10
7.5370765807
 20
3.9427739731
 30
0.0
 10
7.5366642519
 20
3.9413043675
 30
0.0
 10
7.5363902084
 20
3.9405983009
 30
0.0
  0
SPLINE
  5
246
100
AcDbEntity
  8
0
100
AcDbSpline
 62
7
  6
CONTINUOUS
 70
0
 71
3
 72
25
 73
21
 74
0
 42
0.0000001
 43
0.0000001
 44
0.0000000001
 40
0.0
 40
0.0
 40
0.0
 40
0.0
 40
0.1249940011
 40
0.2499744666
 40
0.3749380725
 40
0.4998884151
 40
0.5623886926
 40
0.6248865702
 40
0.6873823157
 40
0.7498758211
 40
0.8123670128
 40
0.8436176426
 40
0.8748713796
 40
0.9061279005
 40
0.9217530881
 40
0.9373774545
 40
0.9530116326
 40
0.9686910647
 40
0.9843761905
 40
1.0
 40
1.0
 40
1.0
 40
1.0
 10
7.5620290356
 20
4.7305252467
 30
0.0
 10
7.5615555807
 20
4.7258787207
 30
0.0
 10
7.5600444612
 20
4.7166339904
 30
0.0
 10
7.5561328462
 20
4.7031473947
 30
0.0
 10
7.550633417
 20
4.6902272078
 30
0.0
 10
7.5447842664
 20
4.6800882176
 30
0.0
 10
7.5393910832
 20
4.6724569977
 30
0.0
 10
7.5349964777
 20
4.6669945238
 30
0.0
 10
7.530262841
 20
4.661823274
 30
0.0
 10
7.5251968365
 20
4.6569771054
 30
0.0
 10
7.5206970604
 20
4.6532479975
 30
0.0
 10
7.5169244319
 20
4.6504921571
 30
0.0
 10
7.5140006923
 20
4.6485593005
 30
0.0
 10
7.5114790329
 20
4.6470834664
 30
0.0
 10
7.5094029018
 20
4.6460124261
 30
0.0
 10
7.507814153
 20
4.6452726688
 30
0.0
 10
7.5061856016
 20
4.644618832
 30
0.0
 10
7.5045155997
 20
4.6440704553
 30
0.0
 10
7.5028051522
 20
4.6436630485
 30
0.0
 10
7.5016391438
 20
4.6435254412
 30
0.0
 10
7.5010558805
 20
4.6435002586
 30
0.0
  0
SPLINE
  5
247
100
AcDbEntity
  8
0
100
AcDbSpline
 62
7
  6
CONTINUOUS
 70
0
 71
3
 72
25
 73
21
 74
0
 42
0.0000001
 43
0.0000001
 44
0.0000000001
 40
0.0
 40
0.0
 40
0.0
 40
0.0
 40
0.1249939984
 40
0.249974461
 40
0.3749380638
 40
0.4998884034
 40
0.5623886792
 40
0.6248865552
 40
0.6873822991
 40
0.7498758028
 40
0.8123669928
 40
0.8436176208
 40
0.8748713594
 40
0.9061278796
 40
0.9217530621
 40
0.9373774211
 40
0.9530116048
 40
0.9686910625
 40
0.9843761933
 40
1.0
 40
1.0
 40
1.0
 40
1.0
 10
7.6364943272
 20
4.8063275853
 30
0.0
 10
7.6352625432
 20
4.8018223582
 30
0.0
 10
7.6322504139
 20
4.7929524319
 30
0.0
 10
7.6261723463
 20
4.7802935978
 30
0.0
 10
7.618621347
 20
4.7684547909
 30
0.0
 10
7.6111831618
 20
4.759416811
 30
0.0
 10
7.604607487
 20
4.7527773502
 30
0.0
 10
7.5993737316
 20
4.748112698
 30
0.0
 10
7.5938535024
 20
4.7437911001
 30
0.0
 10
7.5880589445
 20
4.7398448555
 30
0.0
 10
7.5830067531
 20
4.7369072389
 30
0.0
 10
7.578831985
 20
4.7348099328
 30
0.0
 10
7.575629986
 20
4.7333846644
 30
0.0
 10
7.5728998059
 20
4.7323440069
 30
0.0
 10
7.570675705
 20
4.7316292898
 30
0.0
 10
7.5689868653
 20
4.7311611195
 30
0.0
 10
7.5672729067
 20
4.7307842495
 30
0.0
 10
7.5655354211
 20
4.7305182196
 30
0.0
 10
7.5637812439
 20
4.7303978975
 30
0.0
 10
7.5626084889
 20
4.7304540846
 30
0.0
 10
7.5620290356
 20
4.7305252467
 30
0.0
  0
SPLINE
  5
248
100
AcDbEntity
  8
0
100
AcDbSpline
 62
7
  6
CONTINUOUS
 70
0
 71
3
 72
25
 73
21
 74
0
 42
0.0000001
 43
0.0000001
 44
0.0000000001
 40
0.0
 40
0.0
 40
0.0
 40
0.0
 40
0.1249940011
 40
0.2499744666
 40
0.3749380724
 40
0.4998884151
 40
0.5623886926
 40
0.6248865702
 40
0.6873823157
 40
0.7498758211
 40
0.8123670127
 40
0.8436176426
 40
0.8748713796
 40
0.9061279005
 40
0.9217530881
 40
0.9373774545
 40
0.9530116325
 40
0.9686910647
 40
0.9843761905
 40
1.0
 40
1.0
 40
1.0
 40
1.0
 10
7.7224205723
 20
4.8688396209
 30
0.0
 10
7.7204640584
 20
4.8645985813
 30
0.0
 10
7.7160330807
 20
4.8563454028
 30
0.0
 10
7.7079543511
 20
4.8448596235
 30
0.0
 10
7.6985577491
 20
4.8344251222
 30
0.0
 10
7.6897334194
 20
4.8267346806
 30
0.0
 10
7.6821546167
 20
4.8212680826
 30
0.0
 10
7.6762244717
 20
4.8175284893
 30
0.0
 10
7.6700682243
 20
4.8141744233
 30
0.0
 10
7.6637031702
 20
4.8112357437
 30
0.0
 10
7.6582363711
 20
4.809169748
 30
0.0
 10
7.6537733382
 20
4.807788184
 30
0.0
 10
7.6503804199
 20
4.8069093816
 30
0.0
 10
7.6475161901
 20
4.8063322853
 30
0.0
 10
7.6452047843
 20
4.8059933888
 30
0.0
 10
7.64346192
 20
4.8058095743
 30
0.0
 10
7.6417093078
 20
4.8057199489
 30
0.0
 10
7.6399517336
 20
4.8057435283
 30
0.0
 10
7.6382016775
 20
4.8059135722
 30
0.0
 10
7.6370541649
 20
4.8061620197
 30
0.0
 10
7.6364943272
 20
4.8063275853
 30
0.0
  0
SPLINE
  5
249
100
AcDbEntity
  8
0
100
AcDbSpline
 62
7
  6
CONTINUOUS
 70
0
 71
3
 72
25
 73
21
 74
0
 42
0.0000001
 43
0.0000001
 44
0.0000000001
 40
0.0
 40
0.0
 40
0.0
 40
0.0
 40
0.1249940014
 40
0.2499744671
 40
0.3749380732
 40
0.4998884161
 40
0.5623886936
 40
0.6248865713
 40
0.6873823169
 40
0.7498758224
 40
0.8123670141
 40
0.8436176441
 40
0.874871381
 40
0.906127902
 40
0.9217530899
 40
0.9373774567
 40
0.9530116344
 40
0.9686910648
 40
0.9843761903
 40
1.0
 40
1.0
 40
1.0
 40
1.0
 10
7.8174639684
 20
4.9163562185
 30
0.0
 10
7.8148360923
 20
4.9124950489
 30
0.0
 10
7.8091071297
 20
4.9050837394
 30
0.0
 10
7.799248101
 20
4.8950843119
 30
0.0
 10
7.7882622067
 20
4.8863387372
 30
0.0
 10
7.7782924333
 20
4.8802056055
 30
0.0
 10
7.7699172293
 20
4.8760609825
 30
0.0
 10
7.7634524509
 20
4.8733484526
 30
0.0
 10
7.7568281089
 20
4.8710534069
 30
0.0
 10
7.7500661778
 20
4.8692024507
 30
0.0
 10
7.7443338886
 20
4.8680644296
 30
0.0
 10
7.7397043286
 20
4.8674362926
 30
0.0
 10
7.7362130396
 20
4.8671279269
 30
0.0
 10
7.7332928875
 20
4.8670301338
 30
0.0
 10
7.7309572256
 20
4.8670763009
 30
0.0
 10
7.7292078766
 20
4.8671818569
 30
0.0
 10
7.7274644157
 20
4.8673819216
 30
0.0
 10
7.7257346931
 20
4.8676944643
 30
0.0
 10
7.7240364933
 20
4.8681502362
 30
0.0
 10
7.7229455237
 20
4.868584168
 30
0.0
 10
7.7224205723
 20
4.8688396209
 30
0.0
  0
SPLINE
  5
24A
100
AcDbEntity
  8
0
100
AcDbSpline
 62
7
  6
CONTINUOUS
 70
0
 71
3
 72
25
 73
21
 74
0
 42
0.0000001
 43
0.0000001
 44
0.0000000001
 40
0.0
 40
0.0
 40
0.0
 40
0.0
 40
0.1249940011
 40
0.2499744666
 40
0.3749380724
 40
0.4998884151
 40
0.5623886926
 40
0.6248865702
 40
0.6873823157
 40
0.7498758211
 40
0.8123670127
 40
0.8436176426
 40
0.8748713796
 40
0.9061279005
 40
0.9217530881
 40
0.9373774545
 40
0.9530116325
 40
0.9686910647
 40
0.9843761905
 40
1.0
 40
1.0
 40
1.0
 40
1.0
 10
7.9190320255
 20
4.947581272
 30
0.0
 10
7.9158044675
 20
4.9442052932
 30
0.0
 10
7.9089337885
 20
4.9378380105
 30
0.0
 10
7.8975633846
 20
4.9295976882
 30
0.0
 10
7.8852878593
 20
4.9227795925
 30
0.0
 10
7.8744445868
 20
4.9183710636
 30
0.0
 10
7.8655014311
 20
4.9156614679
 30
0.0
 10
7.8586783585
 20
4.9140499909
 30
0.0
 10
7.8517666135
 20
4.9128765674
 30
0.0
 10
7.84479225
 20
4.9121638228
 30
0.0
 10
7.8389508299
 20
4.911984818
 30
0.0
 10
7.8342810229
 20
4.9121272416
 30
0.0
 10
7.8307865948
 20
4.9123977237
 30
0.0
 10
7.827890173
 20
4.9127819014
 30
0.0
 10
7.8255939648
 20
4.9132118728
 30
0.0
 10
7.823885848
 20
4.91360392
 30
0.0
 10
7.8221990944
 20
4.9140882179
 30
0.0
 10
7.8205444049
 20
4.9146811983
 30
0.0
 10
7.8189443827
 20
4.9154102664
 30
0.0
 10
7.8179397145
 20
4.9160178461
 30
0.0
 10
7.8174639684
 20
4.9163562185
 30
0.0
  0
SPLINE
  5
24B
100
AcDbEntity
  8
0
100
AcDbSpline
 62
7
  6
CONTINUOUS
 70
0
 71
3
 72
25
 73
21
 74
0
 42
0.0000001
 43
0.0000001
 44
0.0000000001
 40
0.0
 40
0.0
 40
0.0
 40
0.0
 40
0.1249940011
 40
0.2499744666
 40
0.3749380724
 40
0.4998884151
 40
0.5623886926
 40
0.6248865702
 40
0.6873823157
 40
0.7498758211
 40
0.8123670127
 40
0.8436176426
 40
0.8748713796
 40
0.9061279005
 40
0.9217530881
 40
0.9373774545
 40
0.9530116325
 40
0.9686910647
 40
0.9843761905
 40
1.0
 40
1.0
 40
1.0
 40
1.0
 10
8.0243542809
 20
4.9616630585
 30
0.0
 10
8.0206150788
 20
4.9588643567
 30
0.0
 10
8.0127900942
 20
4.9537147806
 30
0.0
 10
8.0002184645
 20
4.9474583341
 30
0.0
 10
7.9869881467
 20
4.9427536939
 30
0.0
 10
7.975567146
 20
4.9401900188
 30
0.0
 10
7.9662999803
 20
4.9389893599
 30
0.0
 10
7.9593047257
 20
4.9385228919
 30
0.0
 10
7.9522941089
 20
4.9385030979
 30
0.0
 10
7.945297552
 20
4.9389480065
 30
0.0
 10
7.9395063369
 20
4.9397329007
 30
0.0
 10
7.9349236608
 20
4.940642
 30
0.0
 10
7.9315214108
 20
4.9414839521
 30
0.0
 10
7.9287277247
 20
4.9423396214
 30
0.0
 10
7.9265336035
 20
4.9431416687
 30
0.0
 10
7.9249133111
 20
4.9438095133
 30
0.0
 10
7.9233292744
 20
4.9445648342
 30
0.0
 10
7.9217947527
 20
4.9454220778
 30
0.0
 10
7.920336552
 20
4.9464045552
 30
0.0
 10
7.9194455894
 20
4.94716921
 30
0.0
 10
7.9190320255
 20
4.947581272
 30
0.0
  0
SPLINE
  5
24C
100
AcDbEntity
  8
0
100
AcDbSpline
 62
7
  6
CONTINUOUS
 70
0
 71
3
 72
25
 73
21
 74
0
 42
0.0000001
 43
0.0000001
 44
0.0000000001
 40
0.0
 40
0.0
 40
0.0
 40
0.0
 40
0.124994009
 40
0.2499744833
 40
0.3749380961
 40
0.4998884458
 40
0.5623887265
 40
0.6248866073
 40
0.6873823561
 40
0.7498758648
 40
0.8123670595
 40
0.8436176931
 40
0.874871426
 40
0.9061279486
 40
0.9217531472
 40
0.9373775295
 40
0.9530116946
 40
0.9686910696
 40
0.9843761843
 40
1.0
 40
1.0
 40
1.0
 40
1.0
 10
8.130557869
 20
4.9582174705
 30
0.0
 10
8.1264090165
 20
4.9560723855
 30
0.0
 10
8.117843167
 20
4.9522809802
 30
0.0
 10
8.1044132259
 20
4.9481790659
 30
0.0
 10
8.0905889967
 20
4.9457162095
 30
0.0
 10
8.0789017969
 20
4.9450673175
 30
0.0
 10
8.0695634003
 20
4.945408346
 30
0.0
 10
8.0625867725
 20
4.9460996111
 30
0.0
 10
8.0556685113
 20
4.9472339868
 30
0.0
 10
8.0488406053
 20
4.948824413
 30
0.0
 10
8.0432575614
 20
4.9505517975
 30
0.0
 10
8.0388870173
 20
4.9522027751
 30
0.0
 10
8.0356697488
 20
4.9535932323
 30
0.0
 10
8.0330550005
 20
4.9548970519
 30
0.0
 10
8.0310228158
 20
4.956049301
 30
0.0
 10
8.0295345432
 20
4.9569747253
 30
0.0
 10
8.0280964308
 20
4.957980463
 30
0.0
 10
8.0267239404
 20
4.9590785899
 30
0.0
 10
8.0254473375
 20
4.9602876751
 30
0.0
 10
8.024694382
 20
4.9611885464
 30
0.0
 10
8.0243542809
 20
4.9616630585
 30
0.0
  0
SPLINE
  5
24D
100
AcDbEntity
  8
0
100
AcDbSpline
 62
7
  6
CONTINUOUS
 70
0
 71
3
 72
25
 73
21
 74
0
 42
0.0000001
 43
0.0000001
 44
0.0000000001
 40
0.0
 40
0.0
 40
0.0
 40
0.0
 40
0.1249940853
 40
0.2499746445
 40
0.3749383261
 40
0.4998887438
 40
0.5623890572
 40
0.6248869697
 40
0.6873827507
 40
0.7498762918
 40
0.8123675171
 40
0.8436181884
 40
0.8748718807
 40
0.9061284189
 40
0.9217537263
 40
0.9373782684
 40
0.9530123085
 40
0.9686911194
 40
0.9843761234
 40
1.0
 40
1.0
 40
1.0
 40
1.0
 10
8.234745884
 20
4.9373384928
 30
0.0
 10
8.2303005465
 20
4.9359055353
 30
0.0
 10
8.2212274769
 20
4.9335757181
 30
0.0
 10
8.2073055438
 20
4.9317402238
 30
0.0
 10
8.1932644784
 20
4.9315863329
 30
0.0
 10
8.1816298649
 20
4.9328699272
 30
0.0
 10
8.1724749563
 20
4.9347433445
 30
0.0
 10
8.1657072537
 20
4.9365734901
 30
0.0
 10
8.159070055
 20
4.9388310969
 30
0.0
 10
8.1525970416
 20
4.9415236616
 30
0.0
 10
8.1473744572
 20
4.944146425
 30
0.0
 10
8.143335258
 20
4.9464942463
 30
0.0
 10
8.1403907343
 20
4.9483952901
 30
0.0
 10
8.138026235
 20
4.9501116872
 30
0.0
 10
8.1362114288
 20
4.9515827348
 30
0.0
 10
8.1348957598
 20
4.9527404896
 30
0.0
 10
8.1336427921
 20
4.9539691809
 30
0.0
 10
8.1324698306
 20
4.9552782532
 30
0.0
 10
8.1314096538
 20
4.9566809426
 30
0.0
 10
8.1308152311
 20
4.9576934496
 30
0.0
 10
8.130557869
 20
4.9582174705
 30
0.0
  0
SPLINE
  5
24E
100
AcDbEntity
  8
0
100
AcDbSpline
 62
7
  6
CONTINUOUS
 70
0
 71
3
 72
25
 73
21
 74
0
 42
0.0000001
 43
0.0000001
 44
0.0000000001
 40
0.0
 40
0.0
 40
0.0
 40
0.0
 40
0.1249940011
 40
0.2499744666
 40
0.3749380724
 40
0.4998884151
 40
0.5623886926
 40
0.6248865702
 40
0.6873823157
 40
0.7498758211
 40
0.8123670127
 40
0.8436176426
 40
0.8748713796
 40
0.9061279005
 40
0.9217530881
 40
0.9373774545
 40
0.9530116325
 40
0.9686910647
 40
0.9843761905
 40
1.0
 40
1.0
 40
1.0
 40
1.0
 10
8.3340763991
 20
4.8995956396
 30
0.0
 10
8.3294558372
 20
4.8989138979
 30
0.0
 10
8.3201230448
 20
4.8981092207
 30
0.0
 10
8.3060888849
 20
4.8985902128
 30
0.0
 10
8.2922139969
 20
4.9007494794
 30
0.0
 10
8.2809493381
 20
4.9039305402
 30
0.0
 10
8.2722276438
 20
4.9072852371
 30
0.0
 10
8.265853474
 20
4.9102043358
 30
0.0
 10
8.2596783849
 20
4.9135235851
 30
0.0
 10
8.2537368335
 20
4.9172448373
 30
0.0
 10
8.249017165
 20
4.9206914241
 30
0.0
 10
8.245419492
 20
4.92367205
 30
0.0
 10
8.2428280169
 20
4.9260318053
 30
0.0
 10
8.2407782877
 20
4.9281139825
 30
0.0
 10
8.2392303403
 20
4.9298636415
 30
0.0
 10
8.2381231886
 20
4.9312221624
 30
0.0
 10
8.2370895566
 20
4.9326403609
 30
0.0
 10
8.2361479814
 20
4.9341246316
 30
0.0
 10
8.2353331328
 20
4.9356827179
 30
0.0
 10
8.2349134852
 20
4.9367792612
 30
0.0
 10
8.234745884
 20
4.9373384928
 30
0.0
  0
SPLINE
  5
24F
100
AcDbEntity
  8
0
100
AcDbSpline
 62
7
  6
CONTINUOUS
 70
0
 71
3
 72
25
 73
21
 74
0
 42
0.0000001
 43
0.0000001
 44
0.0000000001
 40
0.0
 40
0.0
 40
0.0
 40
0.0
 40
0.1249940012
 40
0.2499744668
 40
0.3749380726
 40
0.4998884153
 40
0.5623886928
 40
0.6248865704
 40
0.6873823159
 40
0.7498758214
 40
0.812367013
 40
0.8436176429
 40
0.8748713799
 40
0.9061279008
 40
0.9217530884
 40
0.9373774549
 40
0.9530116329
 40
0.9686910647
 40
0.9843761905
 40
1.0
 40
1.0
 40
1.0
 40
1.0
 10
8.4258399846
 20
4.8460184191
 30
0.0
 10
8.4211702301
 20
4.8461064881
 30
0.0
 10
8.4118322782
 20
4.8468488991
 30
0.0
 10
8.3980686905
 20
4.8496332576
 30
0.0
 10
8.384738435
 20
4.8540467865
 30
0.0
 10
8.3741509896
 20
4.8590385481
 30
0.0
 10
8.3661004058
 20
4.8637830233
 30
0.0
 10
8.3602936334
 20
4.8677114546
 30
0.0
 10
8.3547490887
 20
4.8720018117
 30
0.0
 10
8.3495010634
 20
4.8766502504
 30
0.0
 10
8.3454130484
 20
4.8808266562
 30
0.0
 10
8.3423550327
 20
4.8843587832
 30
0.0
 10
8.3401873009
 20
4.8871128941
 30
0.0
 10
8.3385082389
 20
4.8895040451
 30
0.0
 10
8.337269385
 20
4.891484623
 30
0.0
 10
8.3364009363
 20
4.8930068453
 30
0.0
 10
8.3356148273
 20
4.8945758305
 30
0.0
 10
8.3349303945
 20
4.8961948348
 30
0.0
 10
8.3343831095
 20
4.8978657897
 30
0.0
 10
8.3341496687
 20
4.899016449
 30
0.0
 10
8.3340763991
 20
4.8995956396
 30
0.0
  0
SPLINE
  5
250
100
AcDbEntity
  8
0
100
AcDbSpline
 62
7
  6
CONTINUOUS
 70
0
 71
3
 72
25
 73
21
 74
0
 42
0.0000001
 43
0.0000001
 44
0.0000000001
 40
0.0
 40
0.0
 40
0.0
 40
0.0
 40
0.1249940001
 40
0.2499744644
 40
0.3749380691
 40
0.4998884105
 40
0.5623886874
 40
0.6248865643
 40
0.6873823092
 40
0.7498758139
 40
0.8123670049
 40
0.8436176341
 40
0.8748713717
 40
0.9061278923
 40
0.9217530779
 40
0.9373774414
 40
0.9530116216
 40
0.9686910638
 40
0.9843761916
 40
1.0
 40
1.0
 40
1.0
 40
1.0
 10
8.5075336137
 20
4.7780682523
 30
0.0
 10
8.502942043
 20
4.7789237298
 30
0.0
 10
8.4938536421
 20
4.7811929782
 30
0.0
 10
8.480736055
 20
4.7862047544
 30
0.0
 10
8.4683140403
 20
4.7927521582
 30
0.0
 10
8.458692601
 20
4.7994184607
 30
0.0
 10
8.4515327229
 20
4.8054232993
 30
0.0
 10
8.4464517388
 20
4.8102539077
 30
0.0
 10
8.4416889764
 20
4.8153983449
 30
0.0
 10
8.4372776272
 20
4.820847175
 30
0.0
 10
8.4339327742
 20
4.8256394801
 30
0.0
 10
8.431497829
 20
4.8296267628
 30
0.0
 10
8.4298129692
 20
4.8327001056
 30
0.0
 10
8.4285503744
 20
4.8353350071
 30
0.0
 10
8.4276544057
 20
4.8374924794
 30
0.0
 10
8.4270483489
 20
4.8391368817
 30
0.0
 10
8.4265312058
 20
4.840813857
 30
0.0
 10
8.4261225834
 20
4.8425234338
 30
0.0
 10
8.4258577903
 20
4.8442616792
 30
0.0
 10
8.4258169242
 20
4.8454350681
 30
0.0
 10
8.4258399846
 20
4.8460184191
 30
0.0
  0
SPLINE
  5
251
100
AcDbEntity
  8
0
100
AcDbSpline
 62
7
  6
CONTINUOUS
 70
0
 71
3
 72
25
 73
21
 74
0
 42
0.0000001
 43
0.0000001
 44
0.0000000001
 40
0.0
 40
0.0
 40
0.0
 40
0.0
 40
0.1249940012
 40
0.2499744667
 40
0.3749380725
 40
0.4998884152
 40
0.5623886927
 40
0.6248865703
 40
0.6873823159
 40
0.7498758213
 40
0.8123670129
 40
0.8436176428
 40
0.8748713798
 40
0.9061279007
 40
0.9217530883
 40
0.9373774548
 40
0.9530116328
 40
0.9686910647
 40
0.9843761905
 40
1.0
 40
1.0
 40
1.0
 40
1.0
 10
8.5769289365
 20
4.6975986099
 30
0.0
 10
8.5725407934
 20
4.699198161
 30
0.0
 10
8.563949847
 20
4.7029323489
 30
0.0
 10
8.5518360674
 20
4.7100348372
 30
0.0
 10
8.5406611274
 20
4.7185375229
 30
0.0
 10
8.5322681373
 20
4.7266965304
 30
0.0
 10
8.526194264
 20
4.7337979392
 30
0.0
 10
8.5219776617
 20
4.7393989608
 30
0.0
 10
8.5181265952
 20
4.745257154
 30
0.0
 10
8.51467225
 20
4.7513577483
 30
0.0
 10
8.5121617962
 20
4.7566352338
 30
0.0
 10
8.5104163392
 20
4.7609689114
 30
0.0
 10
8.5092603097
 20
4.764277655
 30
0.0
 10
8.5084486211
 20
4.7670844349
 30
0.0
 10
8.5079199777
 20
4.7693599532
 30
0.0
 10
8.5075928437
 20
4.7710816812
 30
0.0
 10
8.5073587717
 20
4.772820903
 30
0.0
 10
8.5072371081
 20
4.7745744198
 30
0.0
 10
8.5072620295
 20
4.776332541
 30
0.0
 10
8.5074148522
 20
4.7774966529
 30
0.0
 10
8.5075336137
 20
4.7780682523
 30
0.0
  0
SPLINE
  5
252
100
AcDbEntity
  8
0
100
AcDbSpline
 62
7
  6
CONTINUOUS
 70
0
 71
3
 72
25
 73
21
 74
0
 42
0.0000001
 43
0.0000001
 44
0.0000000001
 40
0.0
 40
0.0
 40
0.0
 40
0.0
 40
0.1249940007
 40
0.2499744658
 40
0.3749380712
 40
0.4998884136
 40
0.5623886909
 40
0.6248865683
 40
0.6873823136
 40
0.7498758189
 40
0.8123670104
 40
0.8436176401
 40
0.8748713773
 40
0.9061278981
 40
0.9217530851
 40
0.9373774507
 40
0.9530116294
 40
0.9686910644
 40
0.9843761908
 40
1.0
 40
1.0
 40
1.0
 40
1.0
 10
8.6321330633
 20
4.6068044549
 30
0.0
 10
8.6280680428
 20
4.6091044488
 30
0.0
 10
8.6202088854
 20
4.614201719
 30
0.0
 10
8.6094293398
 20
4.6232011853
 30
0.0
 10
8.5998062926
 20
4.633427226
 30
0.0
 10
8.5928706865
 20
4.6428563858
 30
0.0
 10
8.5880484947
 20
4.6508606602
 30
0.0
 10
8.5848112901
 20
4.6570793163
 30
0.0
 10
8.5819769645
 20
4.6634914719
 30
0.0
 10
8.5795738473
 20
4.670077425
 30
0.0
 10
8.57796627
 20
4.6756961372
 30
0.0
 10
8.576957912
 20
4.6802580004
 30
0.0
 10
8.5763622454
 20
4.6837118923
 30
0.0
 10
8.5760236038
 20
4.6866139905
 30
0.0
 10
8.5758767048
 20
4.6889454853
 30
0.0
 10
8.575837417
 20
4.6906975756
 30
0.0
 10
8.5758928016
 20
4.6924516038
 30
0.0
 10
8.5760614138
 20
4.6942012305
 30
0.0
 10
8.57637537
 20
4.6959312719
 30
0.0
 10
8.5767177134
 20
4.6970543535
 30
0.0
 10
8.5769289365
 20
4.6975986099
 30
0.0
  0
SPLINE
  5
253
100
AcDbEntity
  8
0
100
AcDbSpline
 62
7
  6
CONTINUOUS
 70
0
 71
3
 72
25
 73
21
 74
0
 42
0.0000001
 43
0.0000001
 44
0.0000000001
 40
0.0
 40
0.0
 40
0.0
 40
0.0
 40
0.1249940011
 40
0.2499744666
 40
0.3749380724
 40
0.4998884151
 40
0.5623886926
 40
0.6248865702
 40
0.6873823157
 40
0.7498758211
 40
0.8123670127
 40
0.8436176426
 40
0.8748713796
 40
0.9061279005
 40
0.9217530881
 40
0.9373774545
 40
0.9530116325
 40
0.9686910647
 40
0.9843761905
 40
1.0
 40
1.0
 40
1.0
 40
1.0
 10
8.6716401959
 20
4.5081623712
 30
0.0
 10
8.6680091792
 20
4.5111000713
 30
0.0
 10
8.6610961843
 20
4.517421386
 30
0.0
 10
8.6519449055
 20
4.5280723528
 30
0.0
 10
8.6441362378
 20
4.5397428138
 30
0.0
 10
8.6388471978
 20
4.5501849276
 30
0.0
 10
8.6354082218
 20
4.5588737358
 30
0.0
 10
8.6332387158
 20
4.5655404007
 30
0.0
 10
8.6314984429
 20
4.572331615
 30
0.0
 10
8.6302121032
 20
4.5792232825
 30
0.0
 10
8.6295512523
 20
4.5850299604
 30
0.0
 10
8.6293074982
 20
4.5896955756
 30
0.0
 10
8.6292884425
 20
4.5932004044
 30
0.0
 10
8.6294320848
 20
4.5961186606
 30
0.0
 10
8.6296709375
 20
4.598442536
 30
0.0
 10
8.6299205676
 20
4.600177197
 30
0.0
 10
8.6302638976
 20
4.601898187
 30
0.0
 10
8.630718187
 20
4.6035961989
 30
0.0
 10
8.6313126142
 20
4.60525097
 30
0.0
 10
8.63183514
 20
4.6063023872
 30
0.0
 10
8.6321330633
 20
4.6068044549
 30
0.0
  0
SPLINE
  5
254
100
AcDbEntity
  8
0
100
AcDbSpline
 62
7
  6
CONTINUOUS
 70
0
 71
3
 72
25
 73
21
 74
0
 42
0.0000001
 43
0.0000001
 44
0.0000000001
 40
0.0
 40
0.0
 40
0.0
 40
0.0
 40
0.1249940011
 40
0.2499744666
 40
0.3749380724
 40
0.4998884151
 40
0.5623886926
 40
0.6248865702
 40
0.6873823157
 40
0.7498758211
 40
0.8123670127
 40
0.8436176426
 40
0.8748713796
 40
0.9061279005
 40
0.9217530881
 40
0.9373774545
 40
0.9530116325
 40
0.9686910647
 40
0.9843761905
 40
1.0
 40
1.0
 40
1.0
 40
1.0
 10
8.6943727019
 20
4.4043630102
 30
0.0
 10
8.691274732
 20
4.407858285
 30
0.0
 10
8.6854964646
 20
4.4152312183
 30
0.0
 10
8.6782230712
 20
4.4272431601
 30
0.0
 10
8.6724417796
 20
4.4400397071
 30
0.0
 10
8.6689435741
 20
4.4512099463
 30
0.0
 10
8.6669816188
 20
4.4603462844
 30
0.0
 10
8.6659389888
 20
4.4672791122
 30
0.0
 10
8.6653402378
 20
4.4742641418
 30
0.0
 10
8.665205763
 20
4.4812735403
 30
0.0
 10
8.6655096644
 20
4.4871097956
 30
0.0
 10
8.666037163
 20
4.4917518993
 30
0.0
 10
8.666595238
 20
4.4952120641
 30
0.0
 10
8.6672172462
 20
4.4980668772
 30
0.0
 10
8.6678353352
 20
4.500319745
 30
0.0
 10
8.668367074
 20
4.5019896605
 30
0.0
 10
8.6689889847
 20
4.5036306691
 30
0.0
 10
8.6697165594
 20
4.5052307498
 30
0.0
 10
8.6705752436
 20
4.5067651138
 30
0.0
 10
8.671263699
 20
4.5077161871
 30
0.0
 10
8.6716401959
 20
4.5081623712
 30
0.0
  0
SPLINE
  5
255
100
AcDbEntity
  8
0
100
AcDbSpline
 62
7
  6
CONTINUOUS
 70
0
 71
3
 72
25
 73
21
 74
0
 42
0.0000001
 43
0.0000001
 44
0.0000000001
 40
0.0
 40
0.0
 40
0.0
 40
0.0
 40
0.1249940011
 40
0.2499744666
 40
0.3749380724
 40
0.4998884151
 40
0.5623886926
 40
0.6248865702
 40
0.6873823157
 40
0.7498758211
 40
0.8123670127
 40
0.8436176426
 40
0.8748713796
 40
0.9061279005
 40
0.9217530881
 40
0.9373774545
 40
0.9530116325
 40
0.9686910647
 40
0.9843761905
 40
1.0
 40
1.0
 40
1.0
 40
1.0
 10
8.6997105089
 20
4.2982376974
 30
0.0
 10
8.6972300888
 20
4.3021952067
 30
0.0
 10
8.6927441623
 20
4.3104186477
 30
0.0
 10
8.6875470499
 20
4.3234639159
 30
0.0
 10
8.68395083
 20
4.3370374987
 30
0.0
 10
8.6823388795
 20
4.3486311738
 30
0.0
 10
8.6819074607
 20
4.3579658307
 30
0.0
 10
8.6820201465
 20
4.3649757152
 30
0.0
 10
8.6825792495
 20
4.37196403
 30
0.0
 10
8.6836003076
 20
4.3788999649
 30
0.0
 10
8.6848606719
 20
4.3846066025
 30
0.0
 10
8.6861450346
 20
4.3890985725
 30
0.0
 10
8.6872650177
 20
4.3924196907
 30
0.0
 10
8.6883484254
 20
4.3951331902
 30
0.0
 10
8.6893288912
 20
4.3972535992
 30
0.0
 10
8.6901282345
 20
4.3988132191
 30
0.0
 10
8.6910117621
 20
4.4003294846
 30
0.0
 10
8.6919927762
 20
4.4017879889
 30
0.0
 10
8.6930922949
 20
4.403160093
 30
0.0
 10
8.693927901
 20
4.4039848801
 30
0.0
 10
8.6943727019
 20
4.4043630102
 30
0.0
  0
SPLINE
  5
256
100
AcDbEntity
  8
0
100
AcDbSpline
 62
7
  6
CONTINUOUS
 70
0
 71
3
 72
25
 73
21
 74
0
 42
0.0000001
 43
0.0000001
 44
0.0000000001
 40
0.0
 40
0.0
 40
0.0
 40
0.0
 40
0.1249940487
 40
0.2499745672
 40
0.3749382155
 40
0.4998886003
 40
0.5623888979
 40
0.624886795
 40
0.6873825604
 40
0.7498760857
 40
0.8123672961
 40
0.8436179491
 40
0.8748716609
 40
0.9061281919
 40
0.9217534465
 40
0.9373779107
 40
0.9530120105
 40
0.9686910949
 40
0.9843761529
 40
1.0
 40
1.0
 40
1.0
 40
1.0
 10
8.6875080179
 20
4.1926812035
 30
0.0
 10
8.6857128051
 20
4.1969930002
 30
0.0
 10
8.6826415808
 20
4.2058426426
 30
0.0
 10
8.6796625103
 20
4.2195654077
 30
0.0
 10
8.6783494572
 20
4.2335457862
 30
0.0
 10
8.6786677324
 20
4.2452466613
 30
0.0
 10
8.6797786202
 20
4.2545250192
 30
0.0
 10
8.6810435498
 20
4.2614207543
 30
0.0
 10
8.6827452585
 20
4.2682217364
 30
0.0
 10
8.6848939999
 20
4.2748950184
 30
0.0
 10
8.6870764525
 20
4.2803163796
 30
0.0
 10
8.6890826452
 20
4.2845356899
 30
0.0
 10
8.6907339932
 20
4.2876271682
 30
0.0
 10
8.6922492414
 20
4.2901253452
 30
0.0
 10
8.6935653589
 20
4.2920554522
 30
0.0
 10
8.6946104978
 20
4.2934622421
 30
0.0
 10
8.6957315216
 20
4.2948124079
 30
0.0
 10
8.6969392313
 20
4.2960895125
 30
0.0
 10
8.6982495778
 20
4.2972619238
 30
0.0
 10
8.6992095356
 20
4.2979379349
 30
0.0
 10
8.6997105089
 20
4.2982376974
 30
0.0
  0
SPLINE
  5
257
100
AcDbEntity
  8
0
100
AcDbSpline
 62
7
  6
CONTINUOUS
 70
0
 71
3
 72
25
 73
21
 74
0
 42
0.0000001
 43
0.0000001
 44
0.0000000001
 40
0.0
 40
0.0
 40
0.0
 40
0.0
 40
0.1249940011
 40
0.2499744666
 40
0.3749380724
 40
0.4998884151
 40
0.5623886926
 40
0.6248865702
 40
0.6873823157
 40
0.7498758211
 40
0.8123670127
 40
0.8436176426
 40
0.8748713796
 40
0.9061279005
 40
0.9217530881
 40
0.9373774545
 40
0.9530116325
 40
0.9686910647
 40
0.9843761905
 40
1.0
 40
1.0
 40
1.0
 40
1.0
 10
8.6580980752
 20
4.0905727834
 30
0.0
 10
8.6570370389
 20
4.0951212519
 30
0.0
 10
8.6554642921
 20
4.1043556975
 30
0.0
 10
8.654784524
 20
4.1183816347
 30
0.0
 10
8.6557904512
 20
4.132387457
 30
0.0
 10
8.6580302669
 20
4.1438763608
 30
0.0
 10
8.6606531554
 20
4.1528453295
 30
0.0
 10
8.6630358219
 20
4.1594388171
 30
0.0
 10
8.6658337144
 20
4.1658669535
 30
0.0
 10
8.6690515248
 20
4.1720955527
 30
0.0
 10
8.6720965267
 20
4.1770837583
 30
0.0
 10
8.6747698281
 20
4.1809153169
 30
0.0
 10
8.6769074845
 20
4.1836928362
 30
0.0
 10
8.6788132555
 20
4.1859075345
 30
0.0
 10
8.6804290878
 20
4.1875947019
 30
0.0
 10
8.6816915246
 20
4.1888102747
 30
0.0
 10
8.6830195075
 20
4.1899575077
 30
0.0
 10
8.6844209399
 20
4.1910184556
 30
0.0
 10
8.6859064024
 20
4.1919592065
 30
0.0
 10
8.6869645395
 20
4.1924679866
 30
0.0
 10
8.6875080179
 20
4.1926812035
 30
0.0
  0
SPLINE
  5
258
100
AcDbEntity
  8
0
100
AcDbSpline
 62
7
  6
CONTINUOUS
 70
0
 71
3
 72
25
 73
21
 74
0
 42
0.0000001
 43
0.0000001
 44
0.0000000001
 40
0.0
 40
0.0
 40
0.0
 40
0.0
 40
0.1249940012
 40
0.2499744669
 40
0.3749380727
 40
0.4998884154
 40
0.5623886929
 40
0.6248865705
 40
0.687382316
 40
0.7498758214
 40
0.8123670131
 40
0.843617643
 40
0.87487138
 40
0.9061279009
 40
0.9217530885
 40
0.937377455
 40
0.953011633
 40
0.9686910647
 40
0.9843761904
 40
1.0
 40
1.0
 40
1.0
 40
1.0
 10
8.6122828931
 20
3.9946976391
 30
0.0
 10
8.6119849744
 20
3.9993587129
 30
0.0
 10
8.6119536038
 20
4.0087260783
 30
0.0
 10
8.6135916798
 20
4.0226726085
 30
0.0
 10
8.61688915
 20
4.0363218444
 30
0.0
 10
8.6209894128
 20
4.047285399
 30
0.0
 10
8.6250527599
 20
4.0557003353
 30
0.0
 10
8.6284881734
 20
4.0618117274
 30
0.0
 10
8.6323059341
 20
4.0676916801
 30
0.0
 10
8.6365050433
 20
4.0733057012
 30
0.0
 10
8.6403295404
 20
4.077724689
 30
0.0
 10
8.6435970304
 20
4.081063984
 30
0.0
 10
8.6461626931
 20
4.0834517786
 30
0.0
 10
8.6484069965
 20
4.0853225951
 30
0.0
 10
8.6502784875
 20
4.0867207972
 30
0.0
 10
8.6517237816
 20
4.0877120029
 30
0.0
 10
8.6532224795
 20
4.0886250127
 30
0.0
 10
8.6547794233
 20
4.0894408246
 30
0.0
 10
8.6563994675
 20
4.0901242482
 30
0.0
 10
8.657526915
 20
4.0904519272
 30
0.0
 10
8.6580980752
 20
4.0905727834
 30
0.0
  0
SPLINE
  5
259
100
AcDbEntity
  8
0
100
AcDbSpline
 62
7
  6
CONTINUOUS
 70
0
 71
3
 72
25
 73
21
 74
0
 42
0.0000001
 43
0.0000001
 44
0.0000000001
 40
0.0
 40
0.0
 40
0.0
 40
0.0
 40
0.1249940011
 40
0.2499744666
 40
0.3749380725
 40
0.4998884151
 40
0.5623886926
 40
0.6248865702
 40
0.6873823157
 40
0.7498758211
 40
0.8123670128
 40
0.8436176426
 40
0.8748713796
 40
0.9061279005
 40
0.9217530881
 40
0.9373774545
 40
0.9530116326
 40
0.9686910647
 40
0.9843761905
 40
1.0
 40
1.0
 40
1.0
 40
1.0
 10
8.5513121682
 20
3.9076709484
 30
0.0
 10
8.5517854934
 20
3.9123174877
 30
0.0
 10
8.5532963548
 20
3.9215622601
 30
0.0
 10
8.5572075931
 20
3.9350489651
 30
0.0
 10
8.5627066615
 20
3.9479693055
 30
0.0
 10
8.568555529
 20
3.9581084591
 30
0.0
 10
8.5739484991
 20
3.9657398296
 30
0.0
 10
8.5783429521
 20
3.9712024262
 30
0.0
 10
8.5830764443
 20
3.9763738082
 30
0.0
 10
8.5881423135
 20
3.9812201182
 30
0.0
 10
8.5926419855
 20
3.9849493519
 30
0.0
 10
8.596414537
 20
3.9877052976
 30
0.0
 10
8.5993382226
 20
3.9896382358
 30
0.0
 10
8.6018598408
 20
3.9911141403
 30
0.0
 10
8.6039359419
 20
3.9921852386
 30
0.0
 10
8.6055246702
 20
3.9929250403
 30
0.0
 10
8.6071532033
 20
3.9935789226
 30
0.0
 10
8.6088231898
 20
3.9941273459
 30
0.0
 10
8.610533626
 20
3.9945348005
 30
0.0
 10
8.6116996305
 20
3.9946724404
 30
0.0
 10
8.6122828931
 20
3.9946976391
 30
0.0
  0
SPLINE
  5
25A
100
AcDbEntity
  8
0
100
AcDbSpline
 62
7
  6
CONTINUOUS
 70
0
 71
3
 72
25
 73
21
 74
0
 42
0.0000001
 43
0.0000001
 44
0.0000000001
 40
0.0
 40
0.0
 40
0.0
 40
0.0
 40
0.1249939984
 40
0.249974461
 40
0.3749380638
 40
0.4998884034
 40
0.5623886792
 40
0.6248865552
 40
0.6873822991
 40
0.7498758028
 40
0.8123669928
 40
0.8436176208
 40
0.8748713594
 40
0.9061278796
 40
0.9217530621
 40
0.9373774211
 40
0.9530116048
 40
0.9686910625
 40
0.9843761933
 40
1.0
 40
1.0
 40
1.0
 40
1.0
 10
8.4768489934
 20
3.8318665304
 30
0.0
 10
8.4780806517
 20
3.8363717919
 30
0.0
 10
8.4810925333
 20
3.8452418023
 30
0.0
 10
8.4871702473
 20
3.8579008062
 30
0.0
 10
8.494720916
 20
3.8697398239
 30
0.0
 10
8.5021588489
 20
3.8787780115
 30
0.0
 10
8.5087343382
 20
3.885417656
 30
0.0
 10
8.5139679634
 20
3.8900824543
 30
0.0
 10
8.5194880719
 20
3.8944042063
 30
0.0
 10
8.5252825196
 20
3.8983506128
 30
0.0
 10
8.530334629
 20
3.9012883704
 30
0.0
 10
8.5345093385
 20
3.9033857931
 30
0.0
 10
8.5377112978
 20
3.9048111509
 30
0.0
 10
8.5404414487
 20
3.9058518846
 30
0.0
 10
8.5426655296
 20
3.9065666638
 30
0.0
 10
8.5443543563
 20
3.9070348813
 30
0.0
 10
8.5460683044
 20
3.9074117992
 30
0.0
 10
8.5478057825
 20
3.9076778776
 30
0.0
 10
8.5495599564
 20
3.9077982487
 30
0.0
 10
8.550732713
 20
3.9077420943
 30
0.0
 10
8.5513121682
 20
3.9076709484
 30
0.0
  0
SPLINE
  5
25B
100
AcDbEntity
  8
0
100
AcDbSpline
 62
7
  6
CONTINUOUS
 70
0
 71
3
 72
25
 73
21
 74
0
 42
0.0000001
 43
0.0000001
 44
0.0000000001
 40
0.0
 40
0.0
 40
0.0
 40
0.0
 40
0.1249940011
 40
0.2499744666
 40
0.3749380724
 40
0.4998884151
 40
0.5623886926
 40
0.6248865702
 40
0.6873823157
 40
0.7498758211
 40
0.8123670127
 40
0.8436176426
 40
0.8748713796
 40
0.9061279005
 40
0.9217530881
 40
0.9373774545
 40
0.9530116325
 40
0.9686910647
 40
0.9843761905
 40
1.0
 40
1.0
 40
1.0
 40
1.0
 10
8.3909244941
 20
3.7693520953
 30
0.0
 10
8.3928808896
 20
3.7735931895
 30
0.0
 10
8.3973116368
 20
3.7818464918
 30
0.0
 10
8.4053900456
 20
3.7933324967
 30
0.0
 10
8.4147863563
 20
3.8037672604
 30
0.0
 10
8.4236104712
 20
3.8114579484
 30
0.0
 10
8.4311891212
 20
3.816924758
 30
0.0
 10
8.4371191618
 20
3.8206645169
 30
0.0
 10
8.4432753155
 20
3.8240187549
 30
0.0
 10
8.4496402875
 20
3.8269576121
 30
0.0
 10
8.455107029
 20
3.8290237606
 30
0.0
 10
8.4595700233
 20
3.8304054492
 30
0.0
 10
8.4629629171
 20
3.8312843463
 30
0.0
 10
8.4658271307
 20
3.8318615226
 30
0.0
 10
8.468138527
 20
3.8322004837
 30
0.0
 10
8.4698813862
 20
3.8323843468
 30
0.0
 10
8.4716339959
 20
3.8324740212
 30
0.0
 10
8.4733915708
 20
3.8324504909
 30
0.0
 10
8.4751416316
 20
3.8322804958
 30
0.0
 10
8.4762891511
 20
3.8320320803
 30
0.0
 10
8.4768489934
 20
3.8318665304
 30
0.0
  0
SPLINE
  5
25C
100
AcDbEntity
  8
0
100
AcDbSpline
 62
7
  6
CONTINUOUS
 70
0
 71
3
 72
25
 73
21
 74
0
 42
0.0000001
 43
0.0000001
 44
0.0000000001
 40
0.0
 40
0.0
 40
0.0
 40
0.0
 40
0.1249940014
 40
0.2499744671
 40
0.3749380732
 40
0.4998884161
 40
0.5623886936
 40
0.6248865713
 40
0.6873823169
 40
0.7498758224
 40
0.8123670141
 40
0.8436176441
 40
0.874871381
 40
0.906127902
 40
0.9217530899
 40
0.9373774567
 40
0.9530116344
 40
0.9686910648
 40
0.9843761903
 40
1.0
 40
1.0
 40
1.0
 40
1.0
 10
8.2958824249
 20
3.7218328436
 30
0.0
 10
8.2985101932
 20
3.7256940866
 30
0.0
 10
8.3042389488
 20
3.7331055561
 30
0.0
 10
8.3140976983
 20
3.7431052589
 30
0.0
 10
8.3250833483
 20
3.7518511403
 30
0.0
 10
8.3350529505
 20
3.7579845504
 30
0.0
 10
8.3434280388
 20
3.7621294074
 30
0.0
 10
8.3498927414
 20
3.7648421178
 30
0.0
 10
8.3565170193
 20
3.7671373484
 30
0.0
 10
8.3632788987
 20
3.7689884935
 30
0.0
 10
8.3690111562
 20
3.7701266747
 30
0.0
 10
8.3736406986
 20
3.770754941
 30
0.0
 10
8.377131979
 20
3.7710634042
 30
0.0
 10
8.3800521284
 20
3.7711612788
 30
0.0
 10
8.3823877916
 20
3.7711151769
 30
0.0
 10
8.3841371435
 20
3.7710096698
 30
0.0
 10
8.38588061
 20
3.7708096538
 30
0.0
 10
8.3876103413
 20
3.7704971594
 30
0.0
 10
8.3893085539
 20
3.7700414349
 30
0.0
 10
8.3903995355
 20
3.7696075336
 30
0.0
 10
8.3909244941
 20
3.7693520953
 30
0.0
  0
SPLINE
  5
25D
100
AcDbEntity
  8
0
100
AcDbSpline
 62
7
  6
CONTINUOUS
 70
0
 71
3
 72
25
 73
21
 74
0
 42
0.0000001
 43
0.0000001
 44
0.0000000001
 40
0.0
 40
0.0
 40
0.0
 40
0.0
 40
0.1249940011
 40
0.2499744666
 40
0.3749380724
 40
0.4998884151
 40
0.5623886926
 40
0.6248865702
 40
0.6873823157
 40
0.7498758211
 40
0.8123670127
 40
0.8436176426
 40
0.8748713796
 40
0.9061279005
 40
0.9217530881
 40
0.9373774545
 40
0.9530116325
 40
0.9686910647
 40
0.9843761905
 40
1.0
 40
1.0
 40
1.0
 40
1.0
 10
8.1943152398
 20
3.6906049538
 30
0.0
 10
8.1975427035
 20
3.6939810228
 30
0.0
 10
8.2044132048
 20
3.7003484973
 30
0.0
 10
8.2157833786
 20
3.7085891371
 30
0.0
 10
8.2280587134
 20
3.7154075756
 30
0.0
 10
8.2389018628
 20
3.7198164074
 30
0.0
 10
8.2478449429
 20
3.7225262528
 30
0.0
 10
8.2546679705
 20
3.7241379203
 30
0.0
 10
8.2615796826
 20
3.7253115368
 30
0.0
 10
8.2685540263
 20
3.7260244761
 30
0.0
 10
8.2743954414
 20
3.7262036441
 30
0.0
 10
8.2790652523
 20
3.7260613509
 30
0.0
 10
8.282559688
 20
3.7257909664
 30
0.0
 10
8.2854561205
 20
3.7254068695
 30
0.0
 10
8.2877523408
 20
3.7249769623
 30
0.0
 10
8.2894604685
 20
3.7245849628
 30
0.0
 10
8.2911472356
 20
3.7241007119
 30
0.0
 10
8.2928019417
 20
3.7235077778
 30
0.0
 10
8.2944019842
 20
3.7227787544
 30
0.0
 10
8.2954066694
 20
3.7221712027
 30
0.0
 10
8.2958824249
 20
3.7218328436
 30
0.0
  0
SPLINE
  5
25E
100
AcDbEntity
  8
0
100
AcDbSpline
 62
7
  6
CONTINUOUS
 70
0
 71
3
 72
23
 73
19
 74
0
 42
0.0000001
 43
0.0000001
 44
0.0000000001
 40
0.0
 40
0.0
 40
0.0
 40
0.0
 40
0.03126311
 40
0.046925103
 40
0.0625607045
 40
0.0781924381
 40
0.0938229203
 40
0.1250825994
 40
0.1563382199
 40
0.1875931658
 40
0.2500934959
 40
0.312596111
 40
0.375100669
 40
0.5000723656
 40
0.6250503558
 40
0.7500319374
 40
0.8750157022
 40
1.0
 40
1.0
 40
1.0
 40
1.0
 10
8.1943152398
 20
3.6906049538
 30
0.0
 10
8.1936574129
 20
3.6912603553
 30
0.0
 10
8.192550661
 20
3.6921264727
 30
0.0
 10
8.1909676298
 20
3.6930994747
 30
0.0
 10
8.1897370321
 20
3.6937563282
 30
0.0
 10
8.1884758807
 20
3.6943487964
 30
0.0
 10
8.1867645145
 20
3.695070895
 30
0.0
 10
8.1845799311
 20
3.6958601004
 30
0.0
 10
8.1819128026
 20
3.6966659446
 30
0.0
 10
8.1783134524
 20
3.6975820238
 30
0.0
 10
8.1737537728
 20
3.6984699006
 30
0.0
 10
8.1682277425
 20
3.6991891058
 30
0.0
 10
8.1608190113
 20
3.6997271605
 30
0.0
 10
8.1515205118
 20
3.6996574938
 30
0.0
 10
8.1404312788
 20
3.6984591638
 30
0.0
 10
8.1295107703
 20
3.6961861867
 30
0.0
 10
8.1188605859
 20
3.6928745472
 30
0.0
 10
8.1120015003
 20
3.6899974394
 30
0.0
 10
8.1086505222
 20
3.6883997808
 30
0.0
  0
SPLINE
  5
25F
100
AcDbEntity
  8
0
100
AcDbSpline
 62
7
  6
CONTINUOUS
 70
0
 71
3
 72
37
 73
33
 74
0
 42
0.0000001
 43
0.0000001
 44
0.0000000001
 40
0.0
 40
0.0
 40
0.0
 40
0.0
 40
0.0156280852
 40
0.0234516712
 40
0.0312838541
 40
0.039110858
 40
0.0469394163
 40
0.0547834448
 40
0.06262588
 40
0.0704551492
 40
0.0782861238
 40
0.0861317517
 40
0.0939740864
 40
0.1096130038
 40
0.1174373625
 40
0.1252575897
 40
0.1408871852
 40
0.1565164309
 40
0.1877622826
 40
0.2190079134
 40
0.2502535857
 40
0.2814994802
 40
0.3127457772
 40
0.37522763
 40
0.4377118996
 40
0.5001982019
 40
0.5626870235
 40
0.6251788471
 40
0.6876733728
 40
0.7501693265
 40
0.8750846954
 40
1.0
 40
1.0
 40
1.0
 40
1.0
 10
7.9384344272
 20
3.6361487314
 30
0.0
 10
7.9382133351
 20
3.6355016931
 30
0.0
 10
7.9379206118
 20
3.6345159004
 30
0.0
 10
7.9376467632
 20
3.6331740472
 30
0.0
 10
7.9375094417
 20
3.6321548731
 30
0.0
 10
7.9374555016
 20
3.6311272843
 30
0.0
 10
7.9375017074
 20
3.6300982584
 30
0.0
 10
7.9376600825
 20
3.6290795771
 30
0.0
 10
7.9379294963
 20
3.6280843127
 30
0.0
 10
7.9383136112
 20
3.627127816
 30
0.0
 10
7.9388050939
 20
3.626222161
 30
0.0
 10
7.939382959
 20
3.6253690046
 30
0.0
 10
7.940245769
 20
3.6243023498
 30
0.0
 10
7.9412220498
 20
3.6233353627
 30
0.0
 10
7.9422684216
 20
3.6224527281
 30
0.0
 10
7.9433511304
 20
3.6216153781
 30
0.0
 10
7.9447613462
 20
3.6206460864
 30
0.0
 10
7.9471021898
 20
3.6192301273
 30
0.0
 10
7.9501436966
 20
3.6176621543
 30
0.0
 10
7.9539067449
 20
3.6160260491
 30
0.0
 10
7.9577521341
 20
3.6145951162
 30
0.0
 10
7.9616604642
 20
3.6133473337
 30
0.0
 10
7.966937824
 20
3.6119110892
 30
0.0
 10
7.9736375164
 20
3.6105207637
 30
0.0
 10
7.9817785791
 20
3.6094679983
 30
0.0
 10
7.9899752041
 20
3.6090154823
 30
0.0
 10
7.9981831971
 20
3.6091538999
 30
0.0
 10
8.0063607317
 20
3.6098757771
 30
0.0
 10
8.0144673858
 20
3.611173748
 30
0.0
 10
8.025123006
 20
3.6136594892
 30
0.0
 10
8.0380745743
 20
3.6181621291
 30
0.0
 10
8.0478295464
 20
3.6231869584
 30
0.0
 10
8.0524976516
 20
3.6260293235
 30
0.0
  0
SPLINE
  5
260
100
AcDbEntity
  8
0
100
AcDbSpline
 62
7
  6
CONTINUOUS
 70
0
 71
3
 72
36
 73
32
 74
0
 42
0.0000001
 43
0.0000001
 44
0.0000000001
 40
0.0
 40
0.0
 40
0.0
 40
0.0
 40
0.1249189306
 40
0.2498383267
 40
0.3123362597
 40
0.3748328216
 40
0.4373268836
 40
0.4998181919
 40
0.5623071495
 40
0.6247942125
 40
0.6872788762
 40
0.7185266197
 40
0.7497739801
 40
0.7810211232
 40
0.8122681479
 40
0.8278940286
 40
0.8435214261
 40
0.8591495424
 40
0.8747807434
 40
0.8904185538
 40
0.9060610383
 40
0.9217215536
 40
0.9295596925
 40
0.9373869484
 40
0.945221789
 40
0.9530640394
 40
0.9608955453
 40
0.9687198212
 40
0.9765485753
 40
0.9843716466
 40
1.0
 40
1.0
 40
1.0
 40
1.0
 10
8.1666277405
 20
3.634768897
 30
0.0
 10
8.1624904396
 20
3.6311991276
 30
0.0
 10
8.1536945832
 20
3.624641532
 30
0.0
 10
8.1416604649
 20
3.6180737402
 30
0.0
 10
8.1315595523
 20
3.6138720252
 30
0.0
 10
8.1237775095
 20
3.6112603275
 30
0.0
 10
8.1158309314
 20
3.6092050816
 30
0.0
 10
8.1077584554
 20
3.6077202082
 30
0.0
 10
8.0996000956
 20
3.6068199718
 30
0.0
 10
8.0913979161
 20
3.6065208356
 30
0.0
 10
8.0845618307
 20
3.6067914553
 30
0.0
 10
8.0791210349
 20
3.6073411312
 30
0.0
 10
8.0750613591
 20
3.607929842
 30
0.0
 10
8.0710339722
 20
3.6087098044
 30
0.0
 10
8.0677165445
 20
3.6095394539
 30
0.0
 10
8.0651002025
 20
3.6103347236
 30
0.0
 10
8.0631617194
 20
3.611005965
 30
0.0
 10
8.0612563084
 20
3.6117673088
 30
0.0
 10
8.0593962801
 20
3.6126361372
 30
0.0
 10
8.057606549
 20
3.6136452774
 30
0.0
 10
8.0559249181
 20
3.6148320553
 30
0.0
 10
8.0546836966
 20
3.6160256247
 30
0.0
 10
8.0538433919
 20
3.6171109295
 30
0.0
 10
8.0533072705
 20
3.6179909694
 30
0.0
 10
8.0528817498
 20
3.6189295545
 30
0.0
 10
8.0525628574
 20
3.6199093328
 30
0.0
 10
8.0523502662
 20
3.6209168841
 30
0.0
 10
8.0522364693
 20
3.621939245
 30
0.0
 10
8.0522062099
 20
3.6229666882
 30
0.0
 10
8.0522578895
 20
3.6243347903
 30
0.0
 10
8.0523853951
 20
3.6253549532
 30
0.0
 10
8.0524976516
 20
3.6260293235
 30
0.0
  0
SPLINE
  5
261
100
AcDbEntity
  8
0
100
AcDbSpline
 62
7
  6
CONTINUOUS
 70
0
 71
3
 72
32
 73
28
 74
0
 42
0.0000001
 43
0.0000001
 44
0.0000000001
 40
0.0
 40
0.0
 40
0.0
 40
0.0
 40
0.1248981417
 40
0.2498077562
 40
0.3123009396
 40
0.3747897658
 40
0.437274712
 40
0.4997566574
 40
0.5622357123
 40
0.6247119923
 40
0.6871853249
 40
0.7184278043
 40
0.7496697039
 40
0.7809118784
 40
0.8121555429
 40
0.8433979927
 40
0.8590252116
 40
0.8746546536
 40
0.8903012093
 40
0.9059427783
 40
0.9216526261
 40
0.9373088569
 40
0.9451313825
 40
0.9529791446
 40
0.9687005434
 40
0.9843573278
 40
1.0
 40
1.0
 40
1.0
 40
1.0
 10
8.2777627723
 20
3.6622011319
 30
0.0
 10
8.274270961
 20
3.6580008862
 30
0.0
 10
8.2666776134
 20
3.6500878305
 30
0.0
 10
8.2558934134
 20
3.6416312184
 30
0.0
 10
8.2466258379
 20
3.6358251673
 30
0.0
 10
8.2393831193
 20
3.6319686139
 30
0.0
 10
8.2318868163
 20
3.6286334872
 30
0.0
 10
8.2241726278
 20
3.6258397521
 30
0.0
 10
8.2162776069
 20
3.6236080305
 30
0.0
 10
8.2082404926
 20
3.6219613837
 30
0.0
 10
8.2014563718
 20
3.6211014199
 30
0.0
 10
8.1960018449
 20
3.6207459673
 30
0.0
 10
8.1919024859
 20
3.6206569622
 30
0.0
 10
8.1878031334
 20
3.6207612576
 30
0.0
 10
8.1837148074
 20
3.6210850728
 30
0.0
 10
8.180330981
 20
3.6215805465
 30
0.0
 10
8.1776582184
 20
3.6221579747
 30
0.0
 10
8.1756812006
 20
3.6227096353
 30
0.0
 10
8.1737459538
 20
3.6233984664
 30
0.0
 10
8.1718891473
 20
3.6242932548
 30
0.0
 10
8.1701836374
 20
3.6254569219
 30
0.0
 10
8.16896498
 20
3.6266841417
 30
0.0
 10
8.1681955843
 20
3.6278217008
 30
0.0
 10
8.1675615701
 20
3.6290421238
 30
0.0
 10
8.167008115
 20
3.6306776778
 30
0.0
 10
8.1666816485
 20
3.6327146227
 30
0.0
 10
8.1666287574
 20
3.6340848025
 30
0.0
 10
8.1666277405
 20
3.634768897
 30
0.0
  0
SPLINE
  5
262
100
AcDbEntity
  8
0
100
AcDbSpline
 62
7
  6
CONTINUOUS
 70
0
 71
3
 72
32
 73
28
 74
0
 42
0.0000001
 43
0.0000001
 44
0.0000000001
 40
0.0
 40
0.0
 40
0.0
 40
0.0
 40
0.1248981417
 40
0.249807756
 40
0.3123009394
 40
0.3747897656
 40
0.4372747118
 40
0.4997566572
 40
0.5622357122
 40
0.6247119922
 40
0.6871853248
 40
0.7184278042
 40
0.7496697039
 40
0.7809118783
 40
0.8121555428
 40
0.8433979927
 40
0.8590252116
 40
0.8746546536
 40
0.8903012094
 40
0.9059427784
 40
0.9216526261
 40
0.9373088569
 40
0.9451313825
 40
0.9529791446
 40
0.9687005433
 40
0.9843573278
 40
1.0
 40
1.0
 40
1.0
 40
1.0
 10
8.3828669362
 20
3.7075512974
 30
0.0
 10
8.3801140796
 20
3.7028336084
 30
0.0
 10
8.3739267281
 20
3.6937786616
 30
0.0
 10
8.3646815083
 20
3.6836623792
 30
0.0
 10
8.3564959644
 20
3.6764101344
 30
0.0
 10
8.3499867875
 20
3.6714140767
 30
0.0
 10
8.3431416615
 20
3.6668905958
 30
0.0
 10
8.3359925122
 20
3.6628652605
 30
0.0
 10
8.3285724933
 20
3.6593645098
 30
0.0
 10
8.3209160196
 20
3.6564174668
 30
0.0
 10
8.3143659678
 20
3.6544526118
 30
0.0
 10
8.3090443373
 20
3.6532042293
 30
0.0
 10
8.3050155369
 20
3.6524417118
 30
0.0
 10
8.3009549269
 20
3.6518698595
 30
0.0
 10
8.2968690616
 20
3.6515163479
 30
0.0
 10
8.2934498338
 20
3.6514481095
 30
0.0
 10
8.2907184828
 20
3.6515777441
 30
0.0
 10
8.2886776289
 20
3.6517964773
 30
0.0
 10
8.286655399
 20
3.6521573855
 30
0.0
 10
8.2846766404
 20
3.6527343527
 30
0.0
 10
8.2828028594
 20
3.653601434
 30
0.0
 10
8.2813988307
 20
3.6546113337
 30
0.0
 10
8.2804526939
 20
3.655606741
 30
0.0
 10
8.2796264535
 20
3.656706165
 30
0.0
 10
8.2788113457
 20
3.6582283176
 30
0.0
 10
8.2781540645
 20
3.6601837476
 30
0.0
 10
8.2778763726
 20
3.6615265347
 30
0.0
 10
8.2777627723
 20
3.6622011319
 30
0.0
  0
SPLINE
  5
263
100
AcDbEntity
  8
0
100
AcDbSpline
 62
7
  6
CONTINUOUS
 70
0
 71
3
 72
32
 73
28
 74
0
 42
0.0000001
 43
0.0000001
 44
0.0000000001
 40
0.0
 40
0.0
 40
0.0
 40
0.0
 40
0.1248981417
 40
0.2498077562
 40
0.3123009396
 40
0.3747897658
 40
0.437274712
 40
0.4997566574
 40
0.5622357123
 40
0.6247119923
 40
0.6871853249
 40
0.7184278043
 40
0.7496697039
 40
0.7809118784
 40
0.8121555429
 40
0.8433979927
 40
0.8590252116
 40
0.8746546536
 40
0.8903012093
 40
0.9059427783
 40
0.9216526261
 40
0.9373088569
 40
0.9451313825
 40
0.9529791446
 40
0.9687005434
 40
0.9843573278
 40
1.0
 40
1.0
 40
1.0
 40
1.0
 10
8.4790733156
 20
3.7695823812
 30
0.0
 10
8.4771345029
 20
3.7644759328
 30
0.0
 10
8.4725219195
 20
3.7545260858
 30
0.0
 10
8.4650678609
 20
3.7430260742
 30
0.0
 10
8.4581876249
 20
3.7345254544
 30
0.0
 10
8.45258954
 20
3.7285261693
 30
0.0
 10
8.4465823048
 20
3.722937721
 30
0.0
 10
8.4401932015
 20
3.717790584
 30
0.0
 10
8.4334505797
 20
3.713116294
 30
0.0
 10
8.4263835915
 20
3.7089492411
 30
0.0
 10
8.420246274
 20
3.7059330901
 30
0.0
 10
8.4152026975
 20
3.7038258297
 30
0.0
 10
8.4113543489
 20
3.7024105988
 30
0.0
 10
8.4074432423
 20
3.7011781971
 30
0.0
 10
8.4034712874
 20
3.7001570015
 30
0.0
 10
8.4001099242
 20
3.6995269123
 30
0.0
 10
8.3973944877
 20
3.6992052173
 30
0.0
 10
8.3953454659
 20
3.6990850568
 30
0.0
 10
8.3932914131
 20
3.6991081975
 30
0.0
 10
8.3912446768
 20
3.6993516057
 30
0.0
 10
8.3892537356
 20
3.6998984499
 30
0.0
 10
8.3877026331
 20
3.7006634826
 30
0.0
 10
8.386605563
 20
3.7014895865
 30
0.0
 10
8.3856096336
 20
3.7024380225
 30
0.0
 10
8.3845551067
 20
3.7038052542
 30
0.0
 10
8.3835849394
 20
3.7056258311
 30
0.0
 10
8.3830900212
 20
3.7069045985
 30
0.0
 10
8.3828669362
 20
3.7075512974
 30
0.0
  0
SPLINE
  5
264
100
AcDbEntity
  8
0
100
AcDbSpline
 62
7
  6
CONTINUOUS
 70
0
 71
3
 72
32
 73
28
 74
0
 42
0.0000001
 43
0.0000001
 44
0.0000000001
 40
0.0
 40
0.0
 40
0.0
 40
0.0
 40
0.1248981437
 40
0.2498077453
 40
0.3123009211
 40
0.3747897439
 40
0.4372746895
 40
0.4997566331
 40
0.562235686
 40
0.6247119638
 40
0.6871852942
 40
0.7184277723
 40
0.7496696706
 40
0.7809118441
 40
0.8121555063
 40
0.8433979561
 40
0.859025176
 40
0.8746546172
 40
0.8903011568
 40
0.9059427287
 40
0.9216526078
 40
0.9373088064
 40
0.9451313394
 40
0.9529791205
 40
0.968700537
 40
0.9843573226
 40
1.0
 40
1.0
 40
1.0
 40
1.0
 10
8.5637576978
 20
3.8466023669
 30
0.0
 10
8.5626858139
 20
3.8412464473
 30
0.0
 10
8.5597738156
 20
3.8306731018
 30
0.0
 10
8.5543142424
 20
3.8181030464
 30
0.0
 10
8.5489269866
 20
3.8085859231
 30
0.0
 10
8.5443926925
 20
3.801747053
 30
0.0
 10
8.5393872074
 20
3.7952460728
 30
0.0
 10
8.5339324253
 20
3.7891175323
 30
0.0
 10
8.5280511189
 20
3.7833972031
 30
0.0
 10
8.5217663823
 20
3.7781238046
 30
0.0
 10
8.5162092065
 20
3.7741386288
 30
0.0
 10
8.5115812576
 20
3.77122997
 30
0.0
 10
8.508018332
 20
3.7692006287
 30
0.0
 10
8.5043634119
 20
3.7673412938
 30
0.0
 10
8.5006137106
 20
3.7656802688
 30
0.0
 10
8.4974018998
 20
3.764505515
 30
0.0
 10
8.4947764462
 20
3.763741266
 30
0.0
 10
8.4927751485
 20
3.7632854884
 30
0.0
 10
8.4907453018
 20
3.7629702279
 30
0.0
 10
8.4886864157
 20
3.7628734444
 30
0.0
 10
8.4866326206
 20
3.763085126
 30
0.0
 10
8.4849767517
 20
3.7635844228
 30
0.0
 10
8.4837586769
 20
3.7642186967
 30
0.0
 10
8.4826202218
 20
3.7649902735
 30
0.0
 10
8.481355034
 20
3.7661652865
 30
0.0
 10
8.4800984439
 20
3.7678013526
 30
0.0
 10
8.4793998004
 20
3.7689812203
 30
0.0
 10
8.4790733156
 20
3.7695823812
 30
0.0
  0
SPLINE
  5
265
100
AcDbEntity
  8
0
100
AcDbSpline
 62
7
  6
CONTINUOUS
 70
0
 71
3
 72
32
 73
28
 74
0
 42
0.0000001
 43
0.0000001
 44
0.0000000001
 40
0.0
 40
0.0
 40
0.0
 40
0.0
 40
0.1248981417
 40
0.2498077562
 40
0.3123009396
 40
0.3747897658
 40
0.437274712
 40
0.4997566574
 40
0.5622357124
 40
0.6247119924
 40
0.6871853249
 40
0.7184278043
 40
0.749669704
 40
0.7809118784
 40
0.8121555429
 40
0.8433979927
 40
0.8590252116
 40
0.8746546536
 40
0.8903012094
 40
0.9059427784
 40
0.9216526262
 40
0.937308857
 40
0.9451313826
 40
0.9529791446
 40
0.9687005434
 40
0.9843573278
 40
1.0
 40
1.0
 40
1.0
 40
1.0
 10
8.6346101545
 20
3.9365103875
 30
0.0
 10
8.6344344371
 20
3.9310510897
 30
0.0
 10
8.6333024541
 20
3.9201426528
 30
0.0
 10
8.6299862855
 20
3.9068454244
 30
0.0
 10
8.6262389563
 20
3.8965713936
 30
0.0
 10
8.6228921337
 20
3.889079481
 30
0.0
 10
8.619024932
 20
3.8818432955
 30
0.0
 10
8.6146532602
 20
3.8749005191
 30
0.0
 10
8.6097936923
 20
3.8682901835
 30
0.0
 10
8.6044626345
 20
3.8620542814
 30
0.0
 10
8.5996371822
 20
3.8572087842
 30
0.0
 10
8.5955510963
 20
3.8535780664
 30
0.0
 10
8.5923707789
 20
3.8509899692
 30
0.0
 10
8.5890717398
 20
3.8485544179
 30
0.0
 10
8.5856465715
 20
3.8462988719
 30
0.0
 10
8.5826719209
 20
3.8446114986
 30
0.0
 10
8.5802080649
 20
3.8434255403
 30
0.0
 10
8.5783090785
 20
3.8426465797
 30
0.0
 10
8.5763588043
 20
3.8420015225
 30
0.0
 10
8.57434393
 20
3.8415671739
 30
0.0
 10
8.5722833032
 20
3.8414379371
 30
0.0
 10
8.5705678386
 20
3.8416578812
 30
0.0
 10
8.5692619765
 20
3.8420830102
 30
0.0
 10
8.5680120543
 20
3.8426566832
 30
0.0
 10
8.566570728
 20
3.8436074344
 30
0.0
 10
8.5650619908
 20
3.8450143592
 30
0.0
 10
8.5641786767
 20
3.8460631423
 30
0.0
 10
8.5637576978
 20
3.8466023669
 30
0.0
  0
SPLINE
  5
266
100
AcDbEntity
  8
0
100
AcDbSpline
 62
7
  6
CONTINUOUS
 70
0
 71
3
 72
32
 73
28
 74
0
 42
0.0000001
 43
0.0000001
 44
0.0000000001
 40
0.0
 40
0.0
 40
0.0
 40
0.0
 40
0.1248981418
 40
0.2498077565
 40
0.31230094
 40
0.3747897663
 40
0.4372747126
 40
0.4997566581
 40
0.5622357132
 40
0.6247119932
 40
0.6871853259
 40
0.7184278053
 40
0.749669705
 40
0.7809118795
 40
0.8121555441
 40
0.8433979939
 40
0.8590252128
 40
0.8746546548
 40
0.8903012111
 40
0.9059427801
 40
0.9216526269
 40
0.9373088591
 40
0.9451313843
 40
0.9529791456
 40
0.9687005437
 40
0.9843573281
 40
1.0
 40
1.0
 40
1.0
 40
1.0
 10
8.6896980498
 20
4.03685403
 30
0.0
 10
8.6904232918
 20
4.0314402667
 30
0.0
 10
8.6911022012
 20
4.0204942874
 30
0.0
 10
8.6900198926
 20
4.006832594
 30
0.0
 10
8.6880147062
 20
3.9960819004
 30
0.0
 10
8.6859466464
 20
3.9881413018
 30
0.0
 10
8.6833232139
 20
3.9803672919
 30
0.0
 10
8.6801538983
 20
3.972799657
 30
0.0
 10
8.6764486233
 20
3.9654796246
 30
0.0
 10
8.6722166596
 20
3.958451315
 30
0.0
 10
8.6682545546
 20
3.9528776666
 30
0.0
 10
8.6648217878
 20
3.9486239245
 30
0.0
 10
8.662110828
 20
3.9455476664
 30
0.0
 10
8.6592576578
 20
3.9426023331
 30
0.0
 10
8.6562504509
 20
3.9398137901
 30
0.0
 10
8.6535940999
 20
3.9376598228
 30
0.0
 10
8.6513590478
 20
3.9360845054
 30
0.0
 10
8.6496141721
 20
3.9350036085
 30
0.0
 10
8.6477966686
 20
3.9340463472
 30
0.0
 10
8.645880765
 20
3.9332862877
 30
0.0
 10
8.6438695133
 20
3.9328196488
 30
0.0
 10
8.6421412438
 20
3.9327542395
 30
0.0
 10
8.6407832182
 20
3.9329586342
 30
0.0
 10
8.6394559205
 20
3.9333187546
 30
0.0
 10
8.6378777647
 20
3.9340193069
 30
0.0
 10
8.6361580342
 20
3.9351587155
 30
0.0
 10
8.6351141446
 20
3.9360478074
 30
0.0
 10
8.6346101545
 20
3.9365103875
 30
0.0
  0
SPLINE
  5
267
100
AcDbEntity
  8
0
100
AcDbSpline
 62
7
  6
CONTINUOUS
 70
0
 71
3
 72
32
 73
28
 74
0
 42
0.0000001
 43
0.0000001
 44
0.0000000001
 40
0.0
 40
0.0
 40
0.0
 40
0.0
 40
0.1248981417
 40
0.2498077562
 40
0.3123009396
 40
0.3747897658
 40
0.437274712
 40
0.4997566574
 40
0.5622357123
 40
0.6247119923
 40
0.6871853249
 40
0.7184278043
 40
0.7496697039
 40
0.7809118784
 40
0.8121555429
 40
0.8433979927
 40
0.8590252116
 40
0.8746546536
 40
0.8903012093
 40
0.9059427783
 40
0.9216526261
 40
0.9373088569
 40
0.9451313825
 40
0.9529791446
 40
0.9687005434
 40
0.9843573278
 40
1.0
 40
1.0
 40
1.0
 40
1.0
 10
8.727518756
 20
4.14489623
 30
0.0
 10
8.7291251752
 20
4.1396756719
 30
0.0
 10
8.7315964584
 20
4.1289907227
 30
0.0
 10
8.7327775319
 20
4.1153372132
 30
0.0
 10
8.7325691834
 20
4.1044031025
 30
0.0
 10
8.7318362969
 20
4.096230413
 30
0.0
 10
8.7305281927
 20
4.0881306295
 30
0.0
 10
8.7286476824
 20
4.0801445578
 30
0.0
 10
8.7261977688
 20
4.0723144966
 30
0.0
 10
8.7231803341
 20
4.0646854901
 30
0.0
 10
8.7201896504
 20
4.0585357223
 30
0.0
 10
8.717503838
 20
4.0537749848
 30
0.0
 10
8.7153361825
 20
4.0502944768
 30
0.0
 10
8.7130067068
 20
4.046919701
 30
0.0
 10
8.7104994886
 20
4.0436742238
 30
0.0
 10
8.7082338945
 20
4.0411124161
 30
0.0
 10
8.7062886114
 20
4.0391907094
 30
0.0
 10
8.7047454414
 20
4.0378373597
 30
0.0
 10
8.7031102845
 20
4.0365940052
 30
0.0
 10
8.7013456113
 20
4.0355289674
 30
0.0
 10
8.6994385957
 20
4.0347376541
 30
0.0
 10
8.697744663
 20
4.0343886756
 30
0.0
 10
8.6963715169
 20
4.0343667613
 30
0.0
 10
8.695003048
 20
4.034503506
 30
0.0
 10
8.6933311096
 20
4.0349347499
 30
0.0
 10
8.6914472947
 20
4.035775563
 30
0.0
 10
8.6902713037
 20
4.036480712
 30
0.0
 10
8.6896980498
 20
4.03685403
 30
0.0
  0
SPLINE
  5
268
100
AcDbEntity
  8
0
100
AcDbSpline
 62
7
  6
CONTINUOUS
 70
0
 71
3
 72
32
 73
28
 74
0
 42
0.0000001
 43
0.0000001
 44
0.0000000001
 40
0.0
 40
0.0
 40
0.0
 40
0.0
 40
0.1248981265
 40
0.2498077289
 40
0.3123009102
 40
0.3747897386
 40
0.4372746877
 40
0.4997566363
 40
0.5622356949
 40
0.6247119791
 40
0.6871853163
 40
0.7184277989
 40
0.7496697008
 40
0.7809118776
 40
0.8121555481
 40
0.8433980002
 40
0.8590252169
 40
0.8746546658
 40
0.8903012466
 40
0.9059428173
 40
0.9216526329
 40
0.9373088676
 40
0.9451313934
 40
0.9529791519
 40
0.9687005384
 40
0.9843573226
 40
1.0
 40
1.0
 40
1.0
 40
1.0
 10
8.7470406412
 20
4.2576899301
 30
0.0
 10
8.7494844191
 20
4.2528049785
 30
0.0
 10
8.7536806668
 20
4.2426725129
 30
0.0
 10
8.7570929065
 20
4.229399614
 30
0.0
 10
8.7586870792
 20
4.2185803355
 30
0.0
 10
8.7593093571
 20
4.2103984805
 30
0.0
 10
8.7593522624
 20
4.2021938602
 30
0.0
 10
8.7588118522
 20
4.1940071866
 30
0.0
 10
8.7576841259
 20
4.1858806758
 30
0.0
 10
8.7559635267
 20
4.1778590675
 30
0.0
 10
8.7540258405
 20
4.1713009265
 30
0.0
 10
8.7521602435
 20
4.1661630512
 30
0.0
 10
8.7505950187
 20
4.1623732305
 30
0.0
 10
8.7488527781
 20
4.1586610654
 30
0.0
 10
8.7469139382
 20
4.1550471797
 30
0.0
 10
8.7451008984
 20
4.1521474101
 30
0.0
 10
8.7434984461
 20
4.1499317315
 30
0.0
 10
8.7421990731
 20
4.1483428438
 30
0.0
 10
8.7407908638
 20
4.1468473102
 30
0.0
 10
8.7392255571
 20
4.1455063437
 30
0.0
 10
8.7374747945
 20
4.1444119437
 30
0.0
 10
8.7358614047
 20
4.1437889168
 30
0.0
 10
8.7345105934
 20
4.1435412896
 30
0.0
 10
8.7331382817
 20
4.1434509287
 30
0.0
 10
8.7314181669
 20
4.1436011024
 30
0.0
 10
8.7294216527
 20
4.1441203855
 30
0.0
 10
8.7281456374
 20
4.144622357
 30
0.0
 10
8.727518756
 20
4.14489623
 30
0.0
  0
SPLINE
  5
269
100
AcDbEntity
  8
0
100
AcDbSpline
 62
7
  6
CONTINUOUS
 70
0
 71
3
 72
32
 73
28
 74
0
 42
0.0000001
 43
0.0000001
 44
0.0000000001
 40
0.0
 40
0.0
 40
0.0
 40
0.0
 40
0.1248981417
 40
0.2498077562
 40
0.3123009396
 40
0.3747897658
 40
0.437274712
 40
0.4997566574
 40
0.5622357123
 40
0.6247119923
 40
0.6871853249
 40
0.7184278043
 40
0.7496697039
 40
0.7809118784
 40
0.8121555429
 40
0.8433979927
 40
0.8590252116
 40
0.8746546536
 40
0.8903012093
 40
0.9059427783
 40
0.9216526261
 40
0.9373088569
 40
0.9451313825
 40
0.9529791446
 40
0.9687005434
 40
0.9843573278
 40
1.0
 40
1.0
 40
1.0
 40
1.0
 10
8.7477312087
 20
4.3721584669
 30
0.0
 10
8.7509456872
 20
4.367742367
 30
0.0
 10
8.7567524394
 20
4.3584387651
 30
0.0
 10
8.7623027695
 20
4.345908518
 30
0.0
 10
8.7656559793
 20
4.3354991871
 30
0.0
 10
8.7676164472
 20
4.3275313429
 30
0.0
 10
8.7690091913
 20
4.3194456832
 30
0.0
 10
8.7698236215
 20
4.3112817158
 30
0.0
 10
8.7700488435
 20
4.3030804226
 30
0.0
 10
8.7696720121
 20
4.2948850183
 30
0.0
 10
8.7688401782
 20
4.288097391
 30
0.0
 10
8.7678456837
 20
4.2827225244
 30
0.0
 10
8.7669255851
 20
4.2787267661
 30
0.0
 10
8.7658181031
 20
4.2747784687
 30
0.0
 10
8.7645005262
 20
4.2708947518
 30
0.0
 10
8.7631894965
 20
4.2677361166
 30
0.0
 10
8.7619735842
 20
4.2652869044
 30
0.0
 10
8.7609534542
 20
4.2635058194
 30
0.0
 10
8.7598106061
 20
4.2617989022
 30
0.0
 10
8.7584873603
 20
4.2602185865
 30
0.0
 10
8.756940607
 20
4.2588509463
 30
0.0
 10
8.7554517669
 20
4.2579708617
 30
0.0
 10
8.7541601358
 20
4.2575042788
 30
0.0
 10
8.7528214124
 20
4.2571892771
 30
0.0
 10
8.7511000392
 20
4.2570542826
 30
0.0
 10
8.7490452835
 20
4.2572378704
 30
0.0
 10
8.7477040503
 20
4.2575229728
 30
0.0
 10
8.7470406412
 20
4.2576899301
 30
0.0
  0
SPLINE
  5
26A
100
AcDbEntity
  8
0
100
AcDbSpline
 62
7
  6
CONTINUOUS
 70
0
 71
3
 72
32
 73
28
 74
0
 42
0.0000001
 43
0.0000001
 44
0.0000000001
 40
0.0
 40
0.0
 40
0.0
 40
0.0
 40
0.1248981417
 40
0.2498077562
 40
0.3123009396
 40
0.3747897658
 40
0.437274712
 40
0.4997566574
 40
0.5622357123
 40
0.6247119923
 40
0.6871853249
 40
0.7184278043
 40
0.7496697039
 40
0.7809118784
 40
0.8121555429
 40
0.8433979927
 40
0.8590252116
 40
0.8746546536
 40
0.8903012093
 40
0.9059427783
 40
0.9216526261
 40
0.9373088569
 40
0.9451313825
 40
0.9529791446
 40
0.9687005434
 40
0.9843573278
 40
1.0
 40
1.0
 40
1.0
 40
1.0
 10
8.729571622
 20
4.4851794924
 30
0.0
 10
8.7334691197
 20
4.4813527024
 30
0.0
 10
8.7407279859
 20
4.4731317388
 30
0.0
 10
8.7482650108
 20
4.4616859312
 30
0.0
 10
8.7532857924
 20
4.4519704829
 30
0.0
 10
8.756530975
 20
4.4444339872
 30
0.0
 10
8.7592355684
 20
4.4366878396
 30
0.0
 10
8.7613826241
 20
4.4287692657
 30
0.0
 10
8.762954651
 20
4.4207168954
 30
0.0
 10
8.7639318663
 20
4.41257124
 30
0.0
 10
8.7642285743
 20
4.4057392712
 30
0.0
 10
8.7641323093
 20
4.4002740225
 30
0.0
 10
8.7638824339
 20
4.3961813182
 30
0.0
 10
8.7634399189
 20
4.3921045856
 30
0.0
 10
8.7627795448
 20
4.3880569725
 30
0.0
 10
8.7620062852
 20
4.3847256297
 30
0.0
 10
8.7612100796
 20
4.3821096901
 30
0.0
 10
8.7604970169
 20
4.38018499
 30
0.0
 10
8.7596507024
 20
4.3783132475
 30
0.0
 10
8.7586056128
 20
4.3765366877
 30
0.0
 10
8.757305059
 20
4.3749331151
 30
0.0
 10
8.7559813802
 20
4.3738199806
 30
0.0
 10
8.7547841613
 20
4.3731471675
 30
0.0
 10
8.7535155432
 20
4.3726161173
 30
0.0
 10
8.751839866
 20
4.3721996376
 30
0.0
 10
8.7497829168
 20
4.372042523
 30
0.0
 10
8.74841305
 20
4.3721029792
 30
0.0
 10
8.7477312087
 20
4.3721584669
 30
0.0
  0
SPLINE
  5
26B
100
AcDbEntity
  8
0
100
AcDbSpline
 62
7
  6
CONTINUOUS
 70
0
 71
3
 72
32
 73
28
 74
0
 42
0.0000001
 43
0.0000001
 44
0.0000000001
 40
0.0
 40
0.0
 40
0.0
 40
0.0
 40
0.1248981417
 40
0.2498077562
 40
0.3123009396
 40
0.3747897658
 40
0.437274712
 40
0.4997566574
 40
0.5622357123
 40
0.6247119923
 40
0.6871853249
 40
0.7184278043
 40
0.7496697039
 40
0.7809118784
 40
0.8121555429
 40
0.8433979927
 40
0.8590252116
 40
0.8746546536
 40
0.8903012093
 40
0.9059427783
 40
0.9216526261
 40
0.9373088569
 40
0.9451313825
 40
0.9529791446
 40
0.9687005434
 40
0.9843573278
 40
1.0
 40
1.0
 40
1.0
 40
1.0
 10
8.6930572185
 20
4.5936701423
 30
0.0
 10
8.6975314237
 20
4.5905370452
 30
0.0
 10
8.7060444044
 20
4.5836229625
 30
0.0
 10
8.7153625373
 20
4.5735738006
 30
0.0
 10
8.7219139394
 20
4.5648172422
 30
0.0
 10
8.7263553182
 20
4.5579176675
 30
0.0
 10
8.7302979879
 20
4.5507223228
 30
0.0
 10
8.733719104
 20
4.5432651367
 30
0.0
 10
8.7365950558
 20
4.5355813332
 30
0.0
 10
8.7388996624
 20
4.5277076148
 30
0.0
 10
8.740316819
 20
4.5210176596
 30
0.0
 10
8.7411214093
 20
4.5156111039
 30
0.0
 10
8.7415485728
 20
4.51153309
 30
0.0
 10
8.7417830953
 20
4.5074391228
 30
0.0
 10
8.7417979371
 20
4.5033380198
 30
0.0
 10
8.7415835398
 20
4.4999248382
 30
0.0
 10
8.7412287589
 20
4.497213526
 30
0.0
 10
8.7408422137
 20
4.4951977106
 30
0.0
 10
8.7403155175
 20
4.4932121982
 30
0.0
 10
8.7395770909
 20
4.4912878534
 30
0.0
 10
8.7385582117
 20
4.4894920887
 30
0.0
 10
8.7374358002
 20
4.4881762672
 30
0.0
 10
8.7363656499
 20
4.4873155763
 30
0.0
 10
8.735201741
 20
4.4865829629
 30
0.0
 10
8.7336174671
 20
4.4858963584
 30
0.0
 10
8.7316144315
 20
4.4854028268
 30
0.0
 10
8.7302532969
 20
4.4852369879
 30
0.0
 10
8.729571622
 20
4.4851794924
 30
0.0
  0
SPLINE
  5
26C
100
AcDbEntity
  8
0
100
AcDbSpline
 62
7
  6
CONTINUOUS
 70
0
 71
3
 72
32
 73
28
 74
0
 42
0.0000001
 43
0.0000001
 44
0.0000000001
 40
0.0
 40
0.0
 40
0.0
 40
0.0
 40
0.1248981419
 40
0.2498077564
 40
0.3123009399
 40
0.374789766
 40
0.4372747122
 40
0.4997566576
 40
0.5622357125
 40
0.6247119925
 40
0.6871853251
 40
0.7184278044
 40
0.749669704
 40
0.7809118785
 40
0.8121555429
 40
0.8433979927
 40
0.8590252116
 40
0.8746546536
 40
0.8903012091
 40
0.9059427781
 40
0.9216526261
 40
0.937308857
 40
0.9451313825
 40
0.9529791446
 40
0.9687005434
 40
0.9843573279
 40
1.0
 40
1.0
 40
1.0
 40
1.0
 10
8.6391839982
 20
4.6946711271
 30
0.0
 10
8.6441128684
 20
4.6923171841
 30
0.0
 10
8.6536477558
 20
4.686898577
 30
0.0
 10
8.664492827
 20
4.6785201709
 30
0.0
 10
8.6723961475
 20
4.6709613542
 30
0.0
 10
8.6779125755
 20
4.6648868995
 30
0.0
 10
8.6829857775
 20
4.6584386246
 30
0.0
 10
8.6875876366
 20
4.6516462353
 30
0.0
 10
8.6916890662
 20
4.6445405889
 30
0.0
 10
8.6952582016
 20
4.6371535783
 30
0.0
 10
8.6977571511
 20
4.630788118
 30
0.0
 10
8.69944065
 20
4.6255877295
 30
0.0
 10
8.7005332008
 20
4.6216356416
 30
0.0
 10
8.7014383637
 20
4.6176361105
 30
0.0
 10
8.7021280165
 20
4.6135933831
 30
0.0
 10
8.7024783294
 20
4.6101914637
 30
0.0
 10
8.7025746506
 20
4.6074587351
 30
0.0
 10
8.7025251667
 20
4.6054067896
 30
0.0
 10
8.7023324556
 20
4.603361666
 30
0.0
 10
8.7019208339
 20
4.6013420263
 30
0.0
 10
8.7012114212
 20
4.5994030526
 30
0.0
 10
8.7003208928
 20
4.5979204356
 30
0.0
 10
8.6994070016
 20
4.5968953437
 30
0.0
 10
8.6983795497
 20
4.5959811507
 30
0.0
 10
8.6969298933
 20
4.5950431498
 30
0.0
 10
8.6950354079
 20
4.5942266632
 30
0.0
 10
8.693720133
 20
4.5938390527
 30
0.0
 10
8.6930572185
 20
4.5936701423
 30
0.0
  0
SPLINE
  5
26D
100
AcDbEntity
  8
0
100
AcDbSpline
 62
7
  6
CONTINUOUS
 70
0
 71
3
 72
32
 73
28
 74
0
 42
0.0000001
 43
0.0000001
 44
0.0000000001
 40
0.0
 40
0.0
 40
0.0
 40
0.0
 40
0.1248981417
 40
0.2498077563
 40
0.3123009398
 40
0.374789766
 40
0.4372747123
 40
0.4997566576
 40
0.5622357127
 40
0.6247119927
 40
0.6871853253
 40
0.7184278047
 40
0.7496697043
 40
0.7809118788
 40
0.8121555433
 40
0.8433979931
 40
0.859025212
 40
0.874654654
 40
0.8903012099
 40
0.9059427789
 40
0.9216526263
 40
0.9373088575
 40
0.945131383
 40
0.9529791449
 40
0.9687005434
 40
0.9843573279
 40
1.0
 40
1.0
 40
1.0
 40
1.0
 10
8.5694214561
 20
4.785427452
 30
0.0
 10
8.574670547
 20
4.7839168713
 30
0.0
 10
8.5849672588
 20
4.7801415427
 30
0.0
 10
8.5970434481
 20
4.7736624295
 30
0.0
 10
8.606083109
 20
4.7675075357
 30
0.0
 10
8.6125241149
 20
4.7624238934
 30
0.0
 10
8.6185894682
 20
4.7568985773
 30
0.0
 10
8.6242465457
 20
4.7509562601
 30
0.0
 10
8.6294615789
 20
4.7446225909
 30
0.0
 10
8.634197888
 20
4.7379237829
 30
0.0
 10
8.6377104668
 20
4.7320564476
 30
0.0
 10
8.6402269537
 20
4.7272040767
 30
0.0
 10
8.6419550903
 20
4.7234857155
 30
0.0
 10
8.6435062036
 20
4.7196897155
 30
0.0
 10
8.6448518557
 20
4.7158156367
 30
0.0
 10
8.6457573236
 20
4.7125177733
 30
0.0
 10
8.6463021195
 20
4.7098381688
 30
0.0
 10
8.6465910466
 20
4.7078060639
 30
0.0
 10
8.646737577
 20
4.7057571137
 30
0.0
 10
8.6466639882
 20
4.7036972686
 30
0.0
 10
8.6462833924
 20
4.7016679751
 30
0.0
 10
8.645649038
 20
4.7000590038
 30
0.0
 10
8.644916334
 20
4.6988974724
 30
0.0
 10
8.6440533649
 20
4.697826636
 30
0.0
 10
8.642777868
 20
4.6966628246
 30
0.0
 10
8.6410436086
 20
4.6955456544
 30
0.0
 10
8.6398100701
 20
4.6949468449
 30
0.0
 10
8.6391839982
 20
4.6946711271
 30
0.0
  0
SPLINE
  5
26E
100
AcDbEntity
  8
0
100
AcDbSpline
 62
7
  6
CONTINUOUS
 70
0
 71
3
 72
32
 73
28
 74
0
 42
0.0000001
 43
0.0000001
 44
0.0000000001
 40
0.0
 40
0.0
 40
0.0
 40
0.0
 40
0.1248981425
 40
0.2498077518
 40
0.3123009321
 40
0.3747897569
 40
0.4372747029
 40
0.4997566476
 40
0.5622357017
 40
0.6247119808
 40
0.6871853125
 40
0.7184277913
 40
0.7496696905
 40
0.7809118645
 40
0.8121555281
 40
0.8433979779
 40
0.8590251972
 40
0.8746546389
 40
0.8903011881
 40
0.9059427583
 40
0.9216526187
 40
0.9373088364
 40
0.945131365
 40
0.9529791348
 40
0.9687005408
 40
0.9843573257
 40
1.0
 40
1.0
 40
1.0
 40
1.0
 10
8.4856724987
 20
4.863463565
 30
0.0
 10
8.4910986314
 20
4.8628375507
 30
0.0
 10
8.5018763049
 20
4.8608084799
 30
0.0
 10
8.5148542109
 20
4.8564053898
 30
0.0
 10
8.5247836377
 20
4.8518223057
 30
0.0
 10
8.5319735308
 20
4.847868142
 30
0.0
 10
8.5388655911
 20
4.8434164984
 30
0.0
 10
8.5454235794
 20
4.8384863414
 30
0.0
 10
8.5516099661
 20
4.8330974126
 30
0.0
 10
8.5573842571
 20
4.8272695302
 30
0.0
 10
8.5618146528
 20
4.8220603628
 30
0.0
 10
8.5650954858
 20
4.8176883673
 30
0.0
 10
8.5674120701
 20
4.8143051584
 30
0.0
 10
8.5695668241
 20
4.8108162326
 30
0.0
 10
8.5715317706
 20
4.8072164756
 30
0.0
 10
8.5729676952
 20
4.8041126239
 30
0.0
 10
8.5739461052
 20
4.8015592346
 30
0.0
 10
8.5745655626
 20
4.7996024004
 30
0.0
 10
8.5750473389
 20
4.7976055129
 30
0.0
 10
8.5753137872
 20
4.7955616482
 30
0.0
 10
8.5752723939
 20
4.7934973878
 30
0.0
 10
8.5749115173
 20
4.7918059493
 30
0.0
 10
8.5743799833
 20
4.7905396627
 30
0.0
 10
8.5737050365
 20
4.7893413911
 30
0.0
 10
8.5726384926
 20
4.7879835118
 30
0.0
 10
8.5711117636
 20
4.7865961308
 30
0.0
 10
8.5699936081
 20
4.7858024567
 30
0.0
 10
8.5694214561
 20
4.785427452
 30
0.0
  0
SPLINE
  5
26F
100
AcDbEntity
  8
0
100
AcDbSpline
 62
7
  6
CONTINUOUS
 70
0
 71
3
 72
32
 73
28
 74
0
 42
0.0000001
 43
0.0000001
 44
0.0000000001
 40
0.0
 40
0.0
 40
0.0
 40
0.0
 40
0.1248981418
 40
0.2498077564
 40
0.3123009399
 40
0.3747897661
 40
0.4372747124
 40
0.4997566578
 40
0.5622357129
 40
0.6247119929
 40
0.6871853256
 40
0.718427805
 40
0.7496697047
 40
0.7809118792
 40
0.8121555437
 40
0.8433979935
 40
0.8590252124
 40
0.8746546544
 40
0.8903012105
 40
0.9059427795
 40
0.9216526266
 40
0.9373088584
 40
0.9451313837
 40
0.9529791453
 40
0.9687005436
 40
0.984357328
 40
1.0
 40
1.0
 40
1.0
 40
1.0
 10
8.3902215387
 20
4.926650882
 30
0.0
 10
8.395676705
 20
4.9269265098
 30
0.0
 10
8.4066413591
 20
4.9266990436
 30
0.0
 10
8.4201669853
 20
4.924492079
 30
0.0
 10
8.4307153347
 20
4.9216058165
 30
0.0
 10
8.4384579971
 20
4.9188889884
 30
0.0
 10
8.4459887705
 20
4.915632444
 30
0.0
 10
8.453268788
 20
4.9118489265
 30
0.0
 10
8.4602577827
 20
4.907551731
 30
0.0
 10
8.4669125508
 20
4.9027537404
 30
0.0
 10
8.4721399161
 20
4.8983448306
 30
0.0
 10
8.476095604
 20
4.8945724648
 30
0.0
 10
8.4789374466
 20
4.8916166914
 30
0.0
 10
8.4816370664
 20
4.8885300068
 30
0.0
 10
8.4841677093
 20
4.8853027615
 30
0.0
 10
8.4860949225
 20
4.8824775847
 30
0.0
 10
8.4874802591
 20
4.8801200593
 30
0.0
 10
8.4884133493
 20
4.8782918712
 30
0.0
 10
8.4892172279
 20
4.8764015147
 30
0.0
 10
8.4898164512
 20
4.8744293818
 30
0.0
 10
8.4901153815
 20
4.8723864608
 30
0.0
 10
8.4900378252
 20
4.8706586938
 30
0.0
 10
8.489721966
 20
4.8693221896
 30
0.0
 10
8.4892534511
 20
4.8680291699
 30
0.0
 10
8.4884249485
 20
4.8665142663
 30
0.0
 10
8.4871473959
 20
4.8648945181
 30
0.0
 10
8.4861751242
 20
4.8639276274
 30
0.0
 10
8.4856724987
 20
4.863463565
 30
0.0
  0
SPLINE
  5
270
100
AcDbEntity
  8
0
100
AcDbSpline
 62
7
  6
CONTINUOUS
 70
0
 71
3
 72
32
 73
28
 74
0
 42
0.0000001
 43
0.0000001
 44
0.0000000001
 40
0.0
 40
0.0
 40
0.0
 40
0.0
 40
0.1248981417
 40
0.2498077562
 40
0.3123009396
 40
0.3747897658
 40
0.437274712
 40
0.4997566574
 40
0.5622357123
 40
0.6247119923
 40
0.6871853249
 40
0.7184278043
 40
0.7496697039
 40
0.7809118784
 40
0.8121555429
 40
0.8433979927
 40
0.8590252116
 40
0.8746546536
 40
0.8903012093
 40
0.9059427783
 40
0.9216526261
 40
0.9373088569
 40
0.9451313825
 40
0.9529791446
 40
0.9687005434
 40
0.9843573278
 40
1.0
 40
1.0
 40
1.0
 40
1.0
 10
8.2856721834
 20
4.9732658485
 30
0.0
 10
8.2910075832
 20
4.9744356001
 30
0.0
 10
8.3018601357
 20
4.976015943
 30
0.0
 10
8.3155645445
 20
4.9760653033
 30
0.0
 10
8.3264440897
 20
4.9749545909
 30
0.0
 10
8.3345283255
 20
4.9735492053
 30
0.0
 10
8.3424923956
 20
4.9715765887
 30
0.0
 10
8.350295866
 20
4.9690429136
 30
0.0
 10
8.3578968304
 20
4.9659546657
 30
0.0
 10
8.3652505542
 20
4.9623174415
 30
0.0
 10
8.3711323025
 20
4.9588290509
 30
0.0
 10
8.3756549465
 20
4.9557592135
 30
0.0
 10
8.3789445308
 20
4.9533115
 30
0.0
 10
8.382115379
 20
4.950711252
 30
0.0
 10
8.3851426903
 20
4.9479445477
 30
0.0
 10
8.3875086241
 20
4.9454751081
 30
0.0
 10
8.3892630993
 20
4.9433777526
 30
0.0
 10
8.3904843709
 20
4.9417280785
 30
0.0
 10
8.3915884255
 20
4.9399958164
 30
0.0
 10
8.3925040757
 20
4.9381492083
 30
0.0
 10
8.3931351801
 20
4.9361833516
 30
0.0
 10
8.3933430602
 20
4.9344663834
 30
0.0
 10
8.393251488
 20
4.9330961188
 30
0.0
 10
8.3930021852
 20
4.9317436195
 30
0.0
 10
8.392434325
 20
4.9301130109
 30
0.0
 10
8.3914407956
 20
4.9283050772
 30
0.0
 10
8.3906409277
 20
4.9271913441
 30
0.0
 10
8.3902215387
 20
4.926650882
 30
0.0
  0
SPLINE
  5
271
100
AcDbEntity
  8
0
100
AcDbSpline
 62
7
  6
CONTINUOUS
 70
0
 71
3
 72
32
 73
28
 74
0
 42
0.0000001
 43
0.0000001
 44
0.0000000001
 40
0.0
 40
0.0
 40
0.0
 40
0.0
 40
0.1248981143
 40
0.2498077088
 40
0.3123008894
 40
0.3747897199
 40
0.4372746714
 40
0.4997566227
 40
0.5622356845
 40
0.6247119723
 40
0.6871853133
 40
0.7184277986
 40
0.7496697026
 40
0.7809118813
 40
0.8121555568
 40
0.8433980109
 40
0.8590252257
 40
0.8746546802
 40
0.890301283
 40
0.9059428547
 40
0.9216526403
 40
0.9373088817
 40
0.9451314069
 40
0.9529791606
 40
0.9687005351
 40
0.9843573188
 40
1.0
 40
1.0
 40
1.0
 40
1.0
 10
8.174876216
 20
5.0020369521
 30
0.0
 10
8.1799463151
 20
5.0040689199
 30
0.0
 10
8.19039074
 20
5.0074139645
 30
0.0
 10
8.2039001153
 20
5.0097183039
 30
0.0
 10
8.2148140952
 20
5.0104134384
 30
0.0
 10
8.2230193917
 20
5.0103578304
 30
0.0
 10
8.2311995242
 20
5.009722949
 30
0.0
 10
8.2393135937
 20
5.008508227
 30
0.0
 10
8.2473191982
 20
5.0067131647
 30
0.0
 10
8.2551712918
 20
5.004335919
 30
0.0
 10
8.2615469882
 20
5.0018631993
 30
0.0
 10
8.2665132256
 20
4.9995796264
 30
0.0
 10
8.2701608223
 20
4.9977067381
 30
0.0
 10
8.2737164087
 20
4.9956638527
 30
0.0
 10
8.2771578141
 20
4.9934331572
 30
0.0
 10
8.2798979325
 20
4.9913868118
 30
0.0
 10
8.281973691
 20
4.9896068363
 30
0.0
 10
8.283449832
 20
4.9881806711
 30
0.0
 10
8.2848239488
 20
4.986653752
 30
0.0
 10
8.2860310526
 20
4.9849830409
 30
0.0
 10
8.2869771106
 20
4.9831478699
 30
0.0
 10
8.2874647532
 20
4.9814885361
 30
0.0
 10
8.2875999695
 20
4.9801218879
 30
0.0
 10
8.2875766788
 20
4.9787468024
 30
0.0
 10
8.2872849481
 20
4.9770449688
 30
0.0
 10
8.286602542
 20
4.9750981654
 30
0.0
 10
8.2859968965
 20
4.9738679684
 30
0.0
 10
8.2856721834
 20
4.9732658485
 30
0.0
  0
SPLINE
  5
272
100
AcDbEntity
  8
0
100
AcDbSpline
 62
7
  6
CONTINUOUS
 70
0
 71
3
 72
32
 73
28
 74
0
 42
0.0000001
 43
0.0000001
 44
0.0000000001
 40
0.0
 40
0.0
 40
0.0
 40
0.0
 40
0.1248981393
 40
0.2498077516
 40
0.3123009345
 40
0.374789761
 40
0.4372747077
 40
0.4997566536
 40
0.5622357092
 40
0.6247119898
 40
0.6871853231
 40
0.718427803
 40
0.749669703
 40
0.7809118779
 40
0.8121555433
 40
0.8433979935
 40
0.859025212
 40
0.8746546551
 40
0.8903012147
 40
0.9059427841
 40
0.921652627
 40
0.9373088581
 40
0.9451313838
 40
0.9529791455
 40
0.9687005425
 40
0.9843573269
 40
1.0
 40
1.0
 40
1.0
 40
1.0
 10
8.0608558081
 20
5.012179406
 30
0.0
 10
8.0655223118
 20
5.015018165
 30
0.0
 10
8.0752737212
 20
5.0200366698
 30
0.0
 10
8.088219573
 20
5.0245331319
 30
0.0
 10
8.0988702893
 20
5.0270151522
 30
0.0
 10
8.1069728307
 20
5.0283108375
 30
0.0
 10
8.1151458952
 20
5.0290310082
 30
0.0
 10
8.1233492355
 20
5.0291683731
 30
0.0
 10
8.13154111
 20
5.0287154601
 30
0.0
 10
8.1396773904
 20
5.027663037
 30
0.0
 10
8.146373124
 20
5.0262734379
 30
0.0
 10
8.1516474891
 20
5.0248384174
 30
0.0
 10
8.1555536023
 20
5.0235914426
 30
0.0
 10
8.1593969403
 20
5.0221616445
 30
0.0
 10
8.1631585662
 20
5.0205278033
 30
0.0
 10
8.1661981283
 20
5.0189603731
 30
0.0
 10
8.1685385474
 20
5.0175463285
 30
0.0
 10
8.170229292
 20
5.0163825793
 30
0.0
 10
8.1718359869
 20
5.0151026571
 30
0.0
 10
8.1733016132
 20
5.0136534102
 30
0.0
 10
8.1745368301
 20
5.0119989847
 30
0.0
 10
8.1752909404
 20
5.0104425429
 30
0.0
 10
8.1756492503
 20
5.0091167886
 30
0.0
 10
8.1758526072
 20
5.0077566225
 30
0.0
 10
8.1758449678
 20
5.006029981
 30
0.0
 10
8.1754922997
 20
5.0039974087
 30
0.0
 10
8.1750973956
 20
5.0026843052
 30
0.0
 10
8.174876216
 20
5.0020369521
 30
0.0
  0
SPLINE
  5
273
100
AcDbEntity
  8
0
100
AcDbSpline
 62
7
  6
CONTINUOUS
 70
0
 71
3
 72
32
 73
28
 74
0
 42
0.0000001
 43
0.0000001
 44
0.0000000001
 40
0.0
 40
0.0
 40
0.0
 40
0.0
 40
0.1248981417
 40
0.2498077562
 40
0.3123009396
 40
0.3747897658
 40
0.437274712
 40
0.4997566574
 40
0.5622357123
 40
0.6247119923
 40
0.6871853249
 40
0.7184278043
 40
0.7496697039
 40
0.7809118784
 40
0.8121555429
 40
0.8433979927
 40
0.8590252116
 40
0.8746546536
 40
0.8903012093
 40
0.9059427783
 40
0.9216526261
 40
0.9373088569
 40
0.9451313825
 40
0.9529791446
 40
0.9687005434
 40
0.9843573278
 40
1.0
 40
1.0
 40
1.0
 40
1.0
 10
7.946721084
 20
5.0034165556
 30
0.0
 10
7.9508567036
 20
5.0069846728
 30
0.0
 10
7.9596491075
 20
5.0135397482
 30
0.0
 10
7.9716783114
 20
5.0201056839
 30
0.0
 10
7.981775245
 20
5.0243068881
 30
0.0
 10
7.9895540193
 20
5.026918525
 30
0.0
 10
7.9974970806
 20
5.0289741039
 30
0.0
 10
8.0055659306
 20
5.0304598089
 30
0.0
 10
8.0137206269
 20
5.0313613993
 30
0.0
 10
8.0219191626
 20
5.0316625055
 30
0.0
 10
8.0287522951
 20
5.0313939302
 30
0.0
 10
8.0341909204
 20
5.0308466054
 30
0.0
 10
8.0382490037
 20
5.0302595569
 30
0.0
 10
8.0422752594
 20
5.0294818462
 30
0.0
 10
8.0462545015
 20
5.0284894258
 30
0.0
 10
8.0495105969
 20
5.0274436641
 30
0.0
 10
8.0520518383
 20
5.0264341217
 30
0.0
 10
8.0539110688
 20
5.0255645294
 30
0.0
 10
8.055706517
 20
5.0245665145
 30
0.0
 10
8.0573906904
 20
5.023378265
 30
0.0
 10
8.0588813683
 20
5.0219497115
 30
0.0
 10
8.0598813737
 20
5.0205386186
 30
0.0
 10
8.0604530067
 20
5.0192899208
 30
0.0
 10
8.0608774641
 20
5.0179817763
 30
0.0
 10
8.0611541224
 20
5.0162774261
 30
0.0
 10
8.0611408117
 20
5.0142145281
 30
0.0
 10
8.0609674212
 20
5.0128543349
 30
0.0
 10
8.0608558081
 20
5.012179406
 30
0.0
  0
SPLINE
  5
274
100
AcDbEntity
  8
0
100
AcDbSpline
 62
7
  6
CONTINUOUS
 70
0
 71
3
 72
32
 73
28
 74
0
 42
0.0000001
 43
0.0000001
 44
0.0000000001
 40
0.0
 40
0.0
 40
0.0
 40
0.0
 40
0.1248981417
 40
0.2498077562
 40
0.3123009396
 40
0.3747897658
 40
0.437274712
 40
0.4997566574
 40
0.5622357123
 40
0.6247119923
 40
0.6871853249
 40
0.7184278043
 40
0.7496697039
 40
0.7809118784
 40
0.8121555429
 40
0.8433979927
 40
0.8590252116
 40
0.8746546536
 40
0.8903012093
 40
0.9059427783
 40
0.9216526261
 40
0.9373088569
 40
0.9451313825
 40
0.9529791446
 40
0.9687005434
 40
0.9843573278
 40
1.0
 40
1.0
 40
1.0
 40
1.0
 10
7.8355852863
 20
4.9759874242
 30
0.0
 10
7.8390772148
 20
4.9801875724
 30
0.0
 10
7.8466707834
 20
4.9881004161
 30
0.0
 10
7.8574552196
 20
4.996556727
 30
0.0
 10
7.8667229572
 20
5.0023625193
 30
0.0
 10
7.8739657835
 20
5.0062188704
 30
0.0
 10
7.8814621796
 20
5.0095537878
 30
0.0
 10
7.8891764461
 20
5.0123473075
 30
0.0
 10
7.8970715293
 20
5.0145788086
 30
0.0
 10
7.9051086896
 20
5.0162252309
 30
0.0
 10
7.9118928344
 20
5.0170850053
 30
0.0
 10
7.9173473712
 20
5.0174403056
 30
0.0
 10
7.9214467327
 20
5.0175291962
 30
0.0
 10
7.9255460823
 20
5.0174247863
 30
0.0
 10
7.9296343993
 20
5.017100857
 30
0.0
 10
7.9330182118
 20
5.0166052888
 30
0.0
 10
7.9356909583
 20
5.0160277859
 30
0.0
 10
7.9376679607
 20
5.0154760701
 30
0.0
 10
7.9396031882
 20
5.014787185
 30
0.0
 10
7.9414599698
 20
5.0138923448
 30
0.0
 10
7.9431654472
 20
5.01272863
 30
0.0
 10
7.9443840703
 20
5.0115013762
 30
0.0
 10
7.9451534342
 20
5.0103637956
 30
0.0
 10
7.9457874144
 20
5.0091433549
 30
0.0
 10
7.9463408238
 20
5.0075077854
 30
0.0
 10
7.9466672335
 20
5.0054708314
 30
0.0
 10
7.9467200863
 20
5.0041006502
 30
0.0
 10
7.946721084
 20
5.0034165556
 30
0.0
  0
SPLINE
  5
275
100
AcDbEntity
  8
0
100
AcDbSpline
 62
7
  6
CONTINUOUS
 70
0
 71
3
 72
32
 73
28
 74
0
 42
0.0000001
 43
0.0000001
 44
0.0000000001
 40
0.0
 40
0.0
 40
0.0
 40
0.0
 40
0.1248981417
 40
0.249807756
 40
0.3123009394
 40
0.3747897656
 40
0.4372747118
 40
0.4997566572
 40
0.5622357122
 40
0.6247119922
 40
0.6871853248
 40
0.7184278042
 40
0.7496697039
 40
0.7809118783
 40
0.8121555428
 40
0.8433979927
 40
0.8590252116
 40
0.8746546536
 40
0.8903012094
 40
0.9059427784
 40
0.9216526261
 40
0.9373088569
 40
0.9451313825
 40
0.9529791446
 40
0.9687005433
 40
0.9843573278
 40
1.0
 40
1.0
 40
1.0
 40
1.0
 10
7.7304798559
 20
4.9306401938
 30
0.0
 10
7.7332328444
 20
4.9353578059
 30
0.0
 10
7.7394204487
 20
4.94441258
 30
0.0
 10
7.748665951
 20
4.9545286041
 30
0.0
 10
7.7568516974
 20
4.9617806204
 30
0.0
 10
7.7633610138
 20
4.9667764963
 30
0.0
 10
7.7702062661
 20
4.971299786
 30
0.0
 10
7.7773555278
 20
4.9753249217
 30
0.0
 10
7.7847756445
 20
4.9788254651
 30
0.0
 10
7.7924322005
 20
4.9817722943
 30
0.0
 10
7.7989823071
 20
4.9837369664
 30
0.0
 10
7.8043039725
 20
4.9849852003
 30
0.0
 10
7.8083327942
 20
4.9857476053
 30
0.0
 10
7.8123934202
 20
4.9863193443
 30
0.0
 10
7.8164792954
 20
4.9866727417
 30
0.0
 10
7.8198985251
 20
4.9867408847
 30
0.0
 10
7.8226298724
 20
4.9866111738
 30
0.0
 10
7.8246707202
 20
4.9863923836
 30
0.0
 10
7.82669294
 20
4.986031419
 30
0.0
 10
7.8286716825
 20
4.9854543965
 30
0.0
 10
7.8305454393
 20
4.9845872628
 30
0.0
 10
7.8319494398
 20
4.9835773239
 30
0.0
 10
7.8328955488
 20
4.9825818902
 30
0.0
 10
7.8337217585
 20
4.9814824432
 30
0.0
 10
7.8345368238
 20
4.9799602678
 30
0.0
 10
7.8351940504
 20
4.9780048194
 30
0.0
 10
7.8354717048
 20
4.9766620245
 30
0.0
 10
7.8355852863
 20
4.9759874242
 30
0.0
  0
SPLINE
  5
276
100
AcDbEntity
  8
0
100
AcDbSpline
 62
7
  6
CONTINUOUS
 70
0
 71
3
 72
32
 73
28
 74
0
 42
0.0000001
 43
0.0000001
 44
0.0000000001
 40
0.0
 40
0.0
 40
0.0
 40
0.0
 40
0.1248981417
 40
0.2498077562
 40
0.3123009396
 40
0.3747897658
 40
0.437274712
 40
0.4997566574
 40
0.5622357123
 40
0.6247119923
 40
0.6871853249
 40
0.7184278043
 40
0.7496697039
 40
0.7809118784
 40
0.8121555429
 40
0.8433979927
 40
0.8590252116
 40
0.8746546536
 40
0.8903012093
 40
0.9059427783
 40
0.9216526261
 40
0.9373088569
 40
0.9451313825
 40
0.9529791446
 40
0.9687005434
 40
0.9843573278
 40
1.0
 40
1.0
 40
1.0
 40
1.0
 10
7.6342717443
 20
4.8686117966
 30
0.0
 10
7.6362106997
 20
4.8737181909
 30
0.0
 10
7.6408235609
 20
4.883667909
 30
0.0
 10
7.6482779407
 20
4.8951677124
 30
0.0
 10
7.655158414
 20
4.9036681402
 30
0.0
 10
7.6607566665
 20
4.9096672689
 30
0.0
 10
7.6667640577
 20
4.9152555495
 30
0.0
 10
7.6731533048
 20
4.920402508
 30
0.0
 10
7.6798960571
 20
4.9250766097
 30
0.0
 10
7.6869631617
 20
4.9292434653
 30
0.0
 10
7.6931005634
 20
4.9322594449
 30
0.0
 10
7.6981441987
 20
4.9343665644
 30
0.0
 10
7.7019925869
 20
4.9357816879
 30
0.0
 10
7.7059037279
 20
4.9370139803
 30
0.0
 10
7.7098757113
 20
4.938035065
 30
0.0
 10
7.7132370921
 20
4.9386650604
 30
0.0
 10
7.7159525376
 20
4.9389866796
 30
0.0
 10
7.7180015627
 20
4.9391067829
 30
0.0
 10
7.7200556149
 20
4.9390835848
 30
0.0
 10
7.7221023444
 20
4.9388401194
 30
0.0
 10
7.7240932703
 20
4.9382932197
 30
0.0
 10
7.7256443514
 20
4.9375281436
 30
0.0
 10
7.7267413984
 20
4.9367020091
 30
0.0
 10
7.7277373014
 20
4.9357535453
 30
0.0
 10
7.7287917901
 20
4.9343862842
 30
0.0
 10
7.7297619065
 20
4.9325656801
 30
0.0
 10
7.730256789
 20
4.9312868989
 30
0.0
 10
7.7304798559
 20
4.9306401938
 30
0.0
  0
SPLINE
  5
277
100
AcDbEntity
  8
0
100
AcDbSpline
 62
7
  6
CONTINUOUS
 70
0
 71
3
 72
32
 73
28
 74
0
 42
0.0000001
 43
0.0000001
 44
0.0000000001
 40
0.0
 40
0.0
 40
0.0
 40
0.0
 40
0.1248981437
 40
0.2498077453
 40
0.3123009211
 40
0.3747897438
 40
0.4372746895
 40
0.4997566331
 40
0.562235686
 40
0.6247119638
 40
0.6871852942
 40
0.7184277723
 40
0.7496696706
 40
0.7809118441
 40
0.8121555063
 40
0.8433979561
 40
0.859025176
 40
0.8746546172
 40
0.8903011568
 40
0.9059427287
 40
0.9216526078
 40
0.9373088064
 40
0.9451313394
 40
0.9529791205
 40
0.968700537
 40
0.9843573226
 40
1.0
 40
1.0
 40
1.0
 40
1.0
 10
7.5495852114
 20
4.7915941757
 30
0.0
 10
7.5506572449
 20
4.7969500654
 30
0.0
 10
7.5535695384
 20
4.8075233296
 30
0.0
 10
7.5590294627
 20
4.8200932325
 30
0.0
 10
7.5644169842
 20
4.8296102054
 30
0.0
 10
7.5689514693
 20
4.8364489489
 30
0.0
 10
7.573957136
 20
4.8429497892
 30
0.0
 10
7.5794120892
 20
4.8490781774
 30
0.0
 10
7.5852935553
 20
4.8547983424
 30
0.0
 10
7.5915784392
 20
4.8600715654
 30
0.0
 10
7.5971357263
 20
4.864056586
 30
0.0
 10
7.6017637564
 20
4.8669651156
 30
0.0
 10
7.6053267387
 20
4.8689943573
 30
0.0
 10
7.6089817107
 20
4.8708535902
 30
0.0
 10
7.6127314584
 20
4.8725145105
 30
0.0
 10
7.615943302
 20
4.8736891746
 30
0.0
 10
7.6185687769
 20
4.8744533503
 30
0.0
 10
7.6205700873
 20
4.874909072
 30
0.0
 10
7.6225999428
 20
4.8752242758
 30
0.0
 10
7.6246588317
 20
4.8753210018
 30
0.0
 10
7.6267126208
 20
4.8751092629
 30
0.0
 10
7.6283684758
 20
4.8746099198
 30
0.0
 10
7.6295865329
 20
4.8739756119
 30
0.0
 10
7.6307249664
 20
4.8732040034
 30
0.0
 10
7.6319901214
 20
4.872028955
 30
0.0
 10
7.6332466658
 20
4.8703928538
 30
0.0
 10
7.6339452763
 20
4.8692129666
 30
0.0
 10
7.6342717443
 20
4.8686117966
 30
0.0
  0
SPLINE
  5
278
100
AcDbEntity
  8
0
100
AcDbSpline
 62
7
  6
CONTINUOUS
 70
0
 71
3
 72
32
 73
28
 74
0
 42
0.0000001
 43
0.0000001
 44
0.0000000001
 40
0.0
 40
0.0
 40
0.0
 40
0.0
 40
0.1248981417
 40
0.2498077562
 40
0.3123009396
 40
0.3747897658
 40
0.437274712
 40
0.4997566574
 40
0.5622357124
 40
0.6247119924
 40
0.6871853249
 40
0.7184278043
 40
0.749669704
 40
0.7809118784
 40
0.8121555429
 40
0.8433979927
 40
0.8590252116
 40
0.8746546536
 40
0.8903012094
 40
0.9059427784
 40
0.9216526262
 40
0.937308857
 40
0.9451313826
 40
0.9529791446
 40
0.9687005434
 40
0.9843573278
 40
1.0
 40
1.0
 40
1.0
 40
1.0
 10
7.478730244
 20
4.7016881337
 30
0.0
 10
7.4789061139
 20
4.7071474267
 30
0.0
 10
7.4800384015
 20
4.7180558319
 30
0.0
 10
7.4833549414
 20
4.7313529677
 30
0.0
 10
7.4871025575
 20
4.7416268938
 30
0.0
 10
7.4904495894
 20
4.749118713
 30
0.0
 10
7.4943169931
 20
4.7563547905
 30
0.0
 10
7.4986888588
 20
4.7632974449
 30
0.0
 10
7.5035486113
 20
4.7699076447
 30
0.0
 10
7.5088798432
 20
4.776143398
 30
0.0
 10
7.5137054308
 20
4.7809887604
 30
0.0
 10
7.5177916182
 20
4.7846193641
 30
0.0
 10
7.5209720079
 20
4.7872073725
 30
0.0
 10
7.5242711149
 20
4.7896428316
 30
0.0
 10
7.5276963462
 20
4.791898282
 30
0.0
 10
7.5306710439
 20
4.7935855722
 30
0.0
 10
7.533134933
 20
4.7947714617
 30
0.0
 10
7.5350339412
 20
4.7955503693
 30
0.0
 10
7.5369842334
 20
4.796195372
 30
0.0
 10
7.5389991198
 20
4.7966296644
 30
0.0
 10
7.5410597503
 20
4.7967588436
 30
0.0
 10
7.5427752087
 20
4.7965388517
 30
0.0
 10
7.5440810589
 20
4.7961136862
 30
0.0
 10
7.5453309651
 20
4.7955399783
 30
0.0
 10
7.5467722649
 20
4.7945891868
 30
0.0
 10
7.5482809627
 20
4.7931822199
 30
0.0
 10
7.5491642476
 20
4.7921334121
 30
0.0
 10
7.5495852114
 20
4.7915941757
 30
0.0
  0
SPLINE
  5
279
100
AcDbEntity
  8
0
100
AcDbSpline
 62
7
  6
CONTINUOUS
 70
0
 71
3
 72
32
 73
28
 74
0
 42
0.0000001
 43
0.0000001
 44
0.0000000001
 40
0.0
 40
0.0
 40
0.0
 40
0.0
 40
0.1249230075
 40
0.2498329902
 40
0.3123072352
 40
0.3747792988
 40
0.4372494009
 40
0.4997176736
 40
0.5621841123
 40
0.6246489225
 40
0.6558852171
 40
0.6871212577
 40
0.7183576994
 40
0.749596011
 40
0.7808344784
 40
0.7964564559
 40
0.8120810498
 40
0.8433298969
 40
0.8589761665
 40
0.8746160626
 40
0.890310379
 40
0.9060260551
 40
0.9216640517
 40
0.9373214415
 40
0.9530516115
 40
0.9687385085
 40
1.0
 40
1.0
 40
1.0
 40
1.0
 10
7.4235735277
 20
4.6315951207
 30
0.0
 10
7.4241102965
 20
4.6357617266
 30
0.0
 10
7.4256353301
 20
4.6440429905
 30
0.0
 10
7.4286495618
 20
4.6541262476
 30
0.0
 10
7.431707555
 20
4.6619563027
 30
0.0
 10
7.4343210755
 20
4.6676951806
 30
0.0
 10
7.4372495178
 20
4.6732796147
 30
0.0
 10
7.4404890767
 20
4.6786895507
 30
0.0
 10
7.4440373144
 20
4.6839021022
 30
0.0
 10
7.4472525928
 20
4.6880593912
 30
0.0
 10
7.4499832812
 20
4.6912534151
 30
0.0
 10
7.4521137988
 20
4.6935763915
 30
0.0
 10
7.454330295
 20
4.6958177535
 30
0.0
 10
7.4566391637
 20
4.6979641996
 30
0.0
 10
7.4586491509
 20
4.6996569938
 30
0.0
 10
7.4603178416
 20
4.7009347753
 30
0.0
 10
7.4620300756
 20
4.7021538148
 30
0.0
 10
7.4638207632
 20
4.7032637064
 30
0.0
 10
7.4657012577
 20
4.7042087119
 30
0.0
 10
7.4671709357
 20
4.7047955034
 30
0.0
 10
7.4686999292
 20
4.7052173564
 30
0.0
 10
7.470272972
 20
4.705432901
 30
0.0
 10
7.4718624164
 20
4.7053888449
 30
0.0
 10
7.4734137863
 20
4.7050399128
 30
0.0
 10
7.4748890034
 20
4.7044504402
 30
0.0
 10
7.4767256822
 20
4.7034054803
 30
0.0
 10
7.4779557499
 20
4.7023990322
 30
0.0
 10
7.478730244
 20
4.7016881337
 30
0.0
  0
SPLINE
  5
27A
100
AcDbEntity
  8
0
100
AcDbSpline
 62
7
  6
CONTINUOUS
 70
0
 71
3
 72
15
 73
11
 74
0
 42
0.0000001
 43
0.0000001
 44
0.0000000001
 40
0.0
 40
0.0
 40
0.0
 40
0.0
 40
0.1250008419
 40
0.250013927
 40
0.3750319798
 40
0.5000456997
 40
0.6250479465
 40
0.7500408851
 40
0.8750251437
 40
1.0
 40
1.0
 40
1.0
 40
1.0
 10
7.4741352285
 20
3.9435275222
 30
0.0
 10
7.4708303244
 20
3.9451060005
 30
0.0
 10
7.4643670926
 20
3.948581596
 30
0.0
 10
7.4552119097
 20
3.9546864252
 30
0.0
 10
7.4466710845
 20
3.9616268702
 30
0.0
 10
7.4388214582
 20
3.9693396516
 30
0.0
 10
7.4317347012
 20
3.9777579651
 30
0.0
 10
7.4254796653
 20
3.9868111614
 30
0.0
 10
7.4201266113
 20
3.9964235487
 30
0.0
 10
7.4172092819
 20
4.0031578613
 30
0.0
 10
7.4159340919
 20
4.0065903966
 30
0.0
  0
SPLINE
  5
27B
100
AcDbEntity
  8
0
100
AcDbSpline
 62
7
  6
CONTINUOUS
 70
0
 71
3
 72
32
 73
28
 74
0
 42
0.0000001
 43
0.0000001
 44
0.0000000001
 40
0.0
 40
0.0
 40
0.0
 40
0.0
 40
0.1248981417
 40
0.2498077563
 40
0.3123009398
 40
0.374789766
 40
0.4372747123
 40
0.4997566576
 40
0.5622357127
 40
0.6247119927
 40
0.6871853253
 40
0.7184278047
 40
0.7496697043
 40
0.7809118788
 40
0.8121555433
 40
0.8433979931
 40
0.859025212
 40
0.874654654
 40
0.8903012099
 40
0.9059427789
 40
0.9216526263
 40
0.9373088575
 40
0.945131383
 40
0.9529791449
 40
0.9687005434
 40
0.9843573279
 40
1.0
 40
1.0
 40
1.0
 40
1.0
 10
7.5438952362
 20
3.8527692492
 30
0.0
 10
7.5386461874
 20
3.8542799764
 30
0.0
 10
7.5283495811
 20
3.8580555926
 30
0.0
 10
7.5162735727
 20
3.8645350431
 30
0.0
 10
7.5072340837
 20
3.8706901892
 30
0.0
 10
7.5007932197
 20
3.8757740114
 30
0.0
 10
7.4947280207
 20
3.8812994969
 30
0.0
 10
7.4890711092
 20
3.8872419721
 30
0.0
 10
7.4838562529
 20
3.8935757869
 30
0.0
 10
7.4791201309
 20
3.9002747271
 30
0.0
 10
7.4756077159
 20
3.9061421605
 30
0.0
 10
7.4730913645
 20
3.9109946017
 30
0.0
 10
7.4713633317
 20
3.9147130112
 30
0.0
 10
7.4698123245
 20
3.9185090545
 30
0.0
 10
7.4684667805
 20
3.9223831708
 30
0.0
 10
7.4675614047
 20
3.9256810595
 30
0.0
 10
7.4670166837
 20
3.9283606793
 30
0.0
 10
7.4667278133
 20
3.9303927922
 30
0.0
 10
7.4665813401
 20
3.9324417466
 30
0.0
 10
7.4666549865
 20
3.9345015895
 30
0.0
 10
7.4670356389
 20
3.9365308725
 30
0.0
 10
7.4676700382
 20
3.938139826
 30
0.0
 10
7.4684027746
 20
3.939301337
 30
0.0
 10
7.4692657736
 20
3.9403721493
 30
0.0
 10
7.4705413031
 20
3.9415359251
 30
0.0
 10
7.4722755937
 20
3.9426530469
 30
0.0
 10
7.4735091489
 20
3.9432518218
 30
0.0
 10
7.4741352285
 20
3.9435275222
 30
0.0
  0
SPLINE
  5
27C
100
AcDbEntity
  8
0
100
AcDbSpline
 62
7
  6
CONTINUOUS
 70
0
 71
3
 72
32
 73
28
 74
0
 42
0.0000001
 43
0.0000001
 44
0.0000000001
 40
0.0
 40
0.0
 40
0.0
 40
0.0
 40
0.1248981425
 40
0.2498077518
 40
0.3123009321
 40
0.3747897569
 40
0.4372747029
 40
0.4997566476
 40
0.5622357017
 40
0.6247119808
 40
0.6871853125
 40
0.7184277913
 40
0.7496696904
 40
0.7809118645
 40
0.8121555281
 40
0.8433979779
 40
0.8590251972
 40
0.8746546389
 40
0.890301188
 40
0.9059427582
 40
0.9216526187
 40
0.9373088364
 40
0.945131365
 40
0.9529791348
 40
0.9687005408
 40
0.9843573257
 40
1.0
 40
1.0
 40
1.0
 40
1.0
 10
7.6276420144
 20
3.7747307975
 30
0.0
 10
7.6222158992
 20
3.7753569634
 30
0.0
 10
7.6114382823
 20
3.7773863351
 30
0.0
 10
7.5984604992
 20
3.7817897876
 30
0.0
 10
7.5885312005
 20
3.786373149
 30
0.0
 10
7.5813414178
 20
3.7903275134
 30
0.0
 10
7.5744494818
 20
3.7947793496
 30
0.0
 10
7.5678916312
 20
3.7997096896
 30
0.0
 10
7.561705395
 20
3.8050987912
 30
0.0
 10
7.5559312667
 20
3.8109268349
 30
0.0
 10
7.5515010164
 20
3.816136126
 30
0.0
 10
7.5482203056
 20
3.8205082131
 30
0.0
 10
7.5459038158
 20
3.8238914867
 30
0.0
 10
7.5437491592
 20
3.8273804726
 30
0.0
 10
7.5417843132
 20
3.8309802845
 30
0.0
 10
7.5403484753
 20
3.8340841763
 30
0.0
 10
7.5393701366
 20
3.836637593
 30
0.0
 10
7.5387507338
 20
3.8385944445
 30
0.0
 10
7.5382690133
 20
3.8405913453
 30
0.0
 10
7.5380026221
 20
3.8426352175
 30
0.0
 10
7.5380440731
 20
3.8446994768
 30
0.0
 10
7.5384049969
 20
3.8463909052
 30
0.0
 10
7.5389365662
 20
3.847657177
 30
0.0
 10
7.5396115465
 20
3.8488554297
 30
0.0
 10
7.5406781283
 20
3.8502132792
 30
0.0
 10
7.5422048961
 20
3.8516006176
 30
0.0
 10
7.5433230737
 20
3.8523942605
 30
0.0
 10
7.5438952362
 20
3.8527692492
 30
0.0
  0
SPLINE
  5
27D
100
AcDbEntity
  8
0
100
AcDbSpline
 62
7
  6
CONTINUOUS
 70
0
 71
3
 72
32
 73
28
 74
0
 42
0.0000001
 43
0.0000001
 44
0.0000000001
 40
0.0
 40
0.0
 40
0.0
 40
0.0
 40
0.1248981418
 40
0.2498077564
 40
0.3123009399
 40
0.3747897661
 40
0.4372747124
 40
0.4997566578
 40
0.5622357129
 40
0.6247119929
 40
0.6871853256
 40
0.718427805
 40
0.7496697047
 40
0.7809118792
 40
0.8121555437
 40
0.8433979935
 40
0.8590252124
 40
0.8746546544
 40
0.8903012105
 40
0.9059427795
 40
0.9216526266
 40
0.9373088584
 40
0.9451313837
 40
0.9529791453
 40
0.9687005436
 40
0.984357328
 40
1.0
 40
1.0
 40
1.0
 40
1.0
 10
7.7230912098
 20
3.711540815
 30
0.0
 10
7.7176360358
 20
3.7112653395
 30
0.0
 10
7.7066713881
 20
3.711493112
 30
0.0
 10
7.6931458235
 20
3.7137004542
 30
0.0
 10
7.6825975547
 20
3.7165870113
 30
0.0
 10
7.6748549681
 20
3.7193040557
 30
0.0
 10
7.6673242857
 20
3.7225608104
 30
0.0
 10
7.6600443738
 20
3.7263445311
 30
0.0
 10
7.6530554992
 20
3.7306419218
 30
0.0
 10
7.646400865
 20
3.7354400983
 30
0.0
 10
7.6411736229
 20
3.739849154
 30
0.0
 10
7.6372180404
 20
3.7436216302
 30
0.0
 10
7.6343762802
 20
3.746577483
 30
0.0
 10
7.6316767467
 20
3.749664243
 30
0.0
 10
7.6291461939
 20
3.752891559
 30
0.0
 10
7.6272190595
 20
3.7557167896
 30
0.0
 10
7.6258337888
 20
3.7580743537
 30
0.0
 10
7.6249007496
 20
3.7599025678
 30
0.0
 10
7.6240969239
 20
3.7617929467
 30
0.0
 10
7.6234977557
 20
3.7637650964
 30
0.0
 10
7.6231988824
 20
3.7658080257
 30
0.0
 10
7.623276487
 20
3.7675357906
 30
0.0
 10
7.6235923835
 20
3.768872286
 30
0.0
 10
7.6240609345
 20
3.7701652926
 30
0.0
 10
7.6248894793
 20
3.771680173
 30
0.0
 10
7.6261670772
 20
3.7732998856
 30
0.0
 10
7.6271393759
 20
3.7742667491
 30
0.0
 10
7.6276420144
 20
3.7747307975
 30
0.0
  0
SPLINE
  5
27E
100
AcDbEntity
  8
0
100
AcDbSpline
 62
7
  6
CONTINUOUS
 70
0
 71
3
 72
32
 73
28
 74
0
 42
0.0000001
 43
0.0000001
 44
0.0000000001
 40
0.0
 40
0.0
 40
0.0
 40
0.0
 40
0.1248981417
 40
0.2498077562
 40
0.3123009396
 40
0.3747897658
 40
0.437274712
 40
0.4997566574
 40
0.5622357123
 40
0.6247119923
 40
0.6871853249
 40
0.7184278043
 40
0.7496697039
 40
0.7809118784
 40
0.8121555429
 40
0.8433979927
 40
0.8590252116
 40
0.8746546536
 40
0.8903012093
 40
0.9059427783
 40
0.9216526261
 40
0.9373088569
 40
0.9451313825
 40
0.9529791446
 40
0.9687005434
 40
0.9843573278
 40
1.0
 40
1.0
 40
1.0
 40
1.0
 10
7.8276392633
 20
3.664922929
 30
0.0
 10
7.8223038308
 20
3.6637533264
 30
0.0
 10
7.8114512342
 20
3.6621732866
 30
0.0
 10
7.797746824
 20
3.6621243089
 30
0.0
 10
7.7868673099
 20
3.6632353252
 30
0.0
 10
7.7787831134
 20
3.6646409366
 30
0.0
 10
7.7708190984
 20
3.6666137755
 30
0.0
 10
7.7630156987
 20
3.6691476686
 30
0.0
 10
7.7554148205
 20
3.6722361287
 30
0.0
 10
7.7480611983
 20
3.6758735582
 30
0.0
 10
7.7421795474
 20
3.6793621131
 30
0.0
 10
7.7376569892
 20
3.6824320768
 30
0.0
 10
7.7343674732
 20
3.6848798821
 30
0.0
 10
7.7311966976
 20
3.6874802187
 30
0.0
 10
7.7281694636
 20
3.6902470075
 30
0.0
 10
7.7258035987
 20
3.6927165132
 30
0.0
 10
7.7240491821
 20
3.6948139177
 30
0.0
 10
7.7228279566
 20
3.6964636259
 30
0.0
 10
7.7217239503
 20
3.6981959188
 30
0.0
 10
7.7208083517
 20
3.7000425525
 30
0.0
 10
7.7201773022
 20
3.7020084268
 30
0.0
 10
7.7199694701
 20
3.7037254008
 30
0.0
 10
7.7200610805
 20
3.7050956628
 30
0.0
 10
7.7203104211
 20
3.7064481552
 30
0.0
 10
7.7208783268
 20
3.7080787479
 30
0.0
 10
7.7218719067
 20
3.7098866539
 30
0.0
 10
7.7226718057
 20
3.7110003646
 30
0.0
 10
7.7230912098
 20
3.711540815
 30
0.0
  0
SPLINE
  5
27F
100
AcDbEntity
  8
0
100
AcDbSpline
 62
7
  6
CONTINUOUS
 70
0
 71
3
 72
32
 73
28
 74
0
 42
0.0000001
 43
0.0000001
 44
0.0000000001
 40
0.0
 40
0.0
 40
0.0
 40
0.0
 40
0.1248981143
 40
0.2498077088
 40
0.3123008893
 40
0.3747897199
 40
0.4372746714
 40
0.4997566227
 40
0.5622356845
 40
0.6247119723
 40
0.6871853133
 40
0.7184277986
 40
0.7496697026
 40
0.7809118813
 40
0.8121555568
 40
0.8433980109
 40
0.8590252257
 40
0.8746546802
 40
0.890301283
 40
0.9059428547
 40
0.9216526403
 40
0.9373088817
 40
0.9451314069
 40
0.9529791606
 40
0.9687005351
 40
0.9843573188
 40
1.0
 40
1.0
 40
1.0
 40
1.0
 10
7.9384344272
 20
3.6361487314
 30
0.0
 10
7.9333642714
 20
3.6341169052
 30
0.0
 10
7.9229197531
 20
3.6307721523
 30
0.0
 10
7.9094103134
 20
3.6284681901
 30
0.0
 10
7.8984963141
 20
3.6277733603
 30
0.0
 10
7.8902910192
 20
3.6278291975
 30
0.0
 10
7.8821109045
 20
3.6284643074
 30
0.0
 10
7.8739968688
 20
3.6296792559
 30
0.0
 10
7.8659913145
 20
3.6314745418
 30
0.0
 10
7.8581392873
 20
3.6338520067
 30
0.0
 10
7.8517636599
 20
3.6363249044
 30
0.0
 10
7.8467974863
 20
3.6386086161
 30
0.0
 10
7.8431499419
 20
3.6404816062
 30
0.0
 10
7.8395944126
 20
3.6425245909
 30
0.0
 10
7.8361530694
 20
3.6447553825
 30
0.0
 10
7.8334130082
 20
3.6468018044
 30
0.0
 10
7.8313372993
 20
3.6485818379
 30
0.0
 10
7.8298611982
 20
3.6500080444
 30
0.0
 10
7.828487124
 20
3.6515350018
 30
0.0
 10
7.8272800669
 20
3.6532057467
 30
0.0
 10
7.8263340601
 20
3.655040944
 30
0.0
 10
7.8258464639
 20
3.6567002915
 30
0.0
 10
7.8257112858
 20
3.6580669434
 30
0.0
 10
7.8257346149
 20
3.6594420283
 30
0.0
 10
7.8260263931
 20
3.6611438538
 30
0.0
 10
7.8267088536
 20
3.6630906381
 30
0.0
 10
7.8273145335
 20
3.6643208182
 30
0.0
 10
7.8276392633
 20
3.664922929
 30
0.0
  0
SPLINE
  5
280
100
AcDbEntity
  8
0
100
AcDbSpline
 62
7
  6
CONTINUOUS
 70
0
 71
3
 72
26
 73
22
 74
0
 42
0.0000001
 43
0.0000001
 44
0.0000000001
 40
0.0
 40
0.0
 40
0.0
 40
0.0
 40
0.1249906016
 40
0.2499719048
 40
0.3749306919
 40
0.4998764435
 40
0.5623739489
 40
0.6248691652
 40
0.6873619075
 40
0.749853038
 40
0.7811026855
 40
0.8123515618
 40
0.8436006756
 40
0.8748577244
 40
0.9061081826
 40
0.9217303674
 40
0.9373533156
 40
0.9529962081
 40
0.9686937859
 40
0.9843801272
 40
1.0
 40
1.0
 40
1.0
 40
1.0
 10
7.9827539979
 20
3.6799669754
 30
0.0
 10
7.9869035904
 20
3.6821122961
 30
0.0
 10
7.9954711691
 20
3.6859039922
 30
0.0
 10
8.008903632
 20
3.6900059398
 30
0.0
 10
8.0227304099
 20
3.6924680074
 30
0.0
 10
8.0344194689
 20
3.6931158978
 30
0.0
 10
8.0437592152
 20
3.6927736844
 30
0.0
 10
8.0507368445
 20
3.6920814808
 30
0.0
 10
8.0576557433
 20
3.6909460564
 30
0.0
 10
8.0633473219
 20
3.6896196322
 30
0.0
 10
8.0678342118
 20
3.6883168258
 30
0.0
 10
8.0711605881
 20
3.6872133875
 30
0.0
 10
8.0744388391
 20
3.6859729922
 30
0.0
 10
8.0776567323
 20
3.6845826669
 30
0.0
 10
8.0802704931
 20
3.6832761983
 30
0.0
 10
8.0823036278
 20
3.6821255316
 30
0.0
 10
8.0837914681
 20
3.681198372
 30
0.0
 10
8.0852291934
 20
3.6801899083
 30
0.0
 10
8.086602826
 20
3.6790909897
 30
0.0
 10
8.0878785665
 20
3.6778795489
 30
0.0
 10
8.0886299253
 20
3.676977182
 30
0.0
 10
8.0889691667
 20
3.6765020988
 30
0.0
  0
SPLINE
  5
281
100
AcDbEntity
  8
0
100
AcDbSpline
 62
7
  6
CONTINUOUS
 70
0
 71
3
 72
16
 73
12
 74
0
 42
0.0000001
 43
0.0000001
 44
0.0000000001
 40
0.0
 40
0.0
 40
0.0
 40
0.0
 40
0.1137460986
 40
0.237294455
 40
0.3677111802
 40
0.5019512344
 40
0.6365622469
 40
0.7676537609
 40
0.89078596
 40
0.9476533146
 40
1.0
 40
1.0
 40
1.0
 40
1.0
 10
8.0524976516
 20
3.6260293235
 30
0.0
 10
8.0542146918
 20
3.6276560997
 30
0.0
 10
8.0576018825
 20
3.6312569825
 30
0.0
 10
8.0623811177
 20
3.6372318821
 30
0.0
 10
8.0670661766
 20
3.6438093362
 30
0.0
 10
8.071642556
 20
3.6507377053
 30
0.0
 10
8.0761097372
 20
3.6577528058
 30
0.0
 10
8.0804641867
 20
3.6645656231
 30
0.0
 10
8.084066723
 20
3.6699405934
 30
0.0
 10
8.0868995215
 20
3.6738552075
 30
0.0
 10
8.0882872355
 20
3.6756536557
 30
0.0
 10
8.0889691667
 20
3.6765020988
 30
0.0
  0
SPLINE
  5
282
100
AcDbEntity
  8
0
100
AcDbSpline
 62
7
  6
CONTINUOUS
 70
0
 71
3
 72
17
 73
13
 74
0
 42
0.0000001
 43
0.0000001
 44
0.0000000001
 40
0.0
 40
0.0
 40
0.0
 40
0.0
 40
0.0523428894
 40
0.1092473617
 40
0.1695229115
 40
0.2324150734
 40
0.3635227137
 40
0.4981315395
 40
0.6323580207
 40
0.762751736
 40
0.886275351
 40
1.0
 40
1.0
 40
1.0
 40
1.0
 10
8.1943152398
 20
3.6906049538
 30
0.0
 10
8.1937819225
 20
3.6896550445
 30
0.0
 10
8.1927084098
 20
3.6876501055
 30
0.0
 10
8.1911383782
 20
3.6844900744
 30
0.0
 10
8.1895513378
 20
3.6810946535
 30
0.0
 10
8.1873931183
 20
3.676262451
 30
0.0
 10
8.1847101202
 20
3.6699713186
 30
0.0
 10
8.1814564859
 20
3.6623098051
 30
0.0
 10
8.1780809572
 20
3.654716571
 30
0.0
 10
8.1745400011
 20
3.6474525445
 30
0.0
 10
8.1708063109
 20
3.6407683019
 30
0.0
 10
8.1680552204
 20
3.6366568729
 30
0.0
 10
8.1666277405
 20
3.634768897
 30
0.0
  0
SPLINE
  5
283
100
AcDbEntity
  8
0
100
AcDbSpline
 62
7
  6
CONTINUOUS
 70
0
 71
3
 72
17
 73
13
 74
0
 42
0.0000001
 43
0.0000001
 44
0.0000000001
 40
0.0
 40
0.0
 40
0.0
 40
0.0
 40
0.0523428915
 40
0.1092474131
 40
0.1695229756
 40
0.2324151448
 40
0.3635227873
 40
0.4981316042
 40
0.632358063
 40
0.7627517519
 40
0.8862753548
 40
1.0
 40
1.0
 40
1.0
 40
1.0
 10
8.2958824249
 20
3.7218328436
 30
0.0
 10
8.2955127298
 20
3.7208081092
 30
0.0
 10
8.2947838574
 20
3.7186538205
 30
0.0
 10
8.2937553571
 20
3.7152784698
 30
0.0
 10
8.2927488243
 20
3.7116681397
 30
0.0
 10
8.291415387
 20
3.7065466125
 30
0.0
 10
8.289804458
 20
3.6998996782
 30
0.0
 10
8.287856231
 20
3.6918071306
 30
0.0
 10
8.2857765338
 20
3.6837618688
 30
0.0
 10
8.28347948
 20
3.6760140966
 30
0.0
 10
8.2808968924
 20
3.6688064778
 30
0.0
 10
8.2788600356
 20
3.6642983121
 30
0.0
 10
8.2777627723
 20
3.6622011319
 30
0.0
  0
SPLINE
  5
284
100
AcDbEntity
  8
0
100
AcDbSpline
 62
7
  6
CONTINUOUS
 70
0
 71
3
 72
17
 73
13
 74
0
 42
0.0000001
 43
0.0000001
 44
0.0000000001
 40
0.0
 40
0.0
 40
0.0
 40
0.0
 40
0.0523428915
 40
0.1092474131
 40
0.1695229756
 40
0.2324151448
 40
0.3635227873
 40
0.4981316042
 40
0.632358063
 40
0.7627517519
 40
0.8862753548
 40
1.0
 40
1.0
 40
1.0
 40
1.0
 10
8.3909244941
 20
3.7693520953
 30
0.0
 10
8.3907285053
 20
3.7682804874
 30
0.0
 10
8.3903641548
 20
3.7660356124
 30
0.0
 10
8.3899052412
 20
3.7625370122
 30
0.0
 10
8.3895066715
 20
3.7588102531
 30
0.0
 10
8.3890343885
 20
3.7535391009
 30
0.0
 10
8.3885394699
 20
3.7467176727
 30
0.0
 10
8.3879497915
 20
3.7384148301
 30
0.0
 10
8.387222653
 20
3.7301369894
 30
0.0
 10
8.3862321577
 20
3.7221168055
 30
0.0
 10
8.3848711171
 20
3.7145824113
 30
0.0
 10
8.3836040531
 20
3.7098004773
 30
0.0
 10
8.3828669362
 20
3.7075512974
 30
0.0
  0
SPLINE
  5
285
100
AcDbEntity
  8
0
100
AcDbSpline
 62
7
  6
CONTINUOUS
 70
0
 71
3
 72
17
 73
13
 74
0
 42
0.0000001
 43
0.0000001
 44
0.0000000001
 40
0.0
 40
0.0
 40
0.0
 40
0.0
 40
0.0523428915
 40
0.1092474131
 40
0.1695229756
 40
0.2324151448
 40
0.3635227873
 40
0.4981316042
 40
0.632358063
 40
0.7627517519
 40
0.8862753548
 40
1.0
 40
1.0
 40
1.0
 40
1.0
 10
8.4768489934
 20
3.8318665304
 30
0.0
 10
8.4768320569
 20
3.8307772792
 30
0.0
 10
8.4768421666
 20
3.8285030512
 30
0.0
 10
8.4769653575
 20
3.8249766325
 30
0.0
 10
8.4771856227
 20
3.8212350988
 30
0.0
 10
8.4775873764
 20
3.8159581024
 30
0.0
 10
8.478221968
 20
3.8091482477
 30
0.0
 10
8.4790069228
 20
3.8008615861
 30
0.0
 10
8.4796521772
 20
3.7925769603
 30
0.0
 10
8.479995258
 20
3.7845031306
 30
0.0
 10
8.4798928895
 20
3.7768474759
 30
0.0
 10
8.4794301798
 20
3.7719222101
 30
0.0
 10
8.4790733156
 20
3.7695823812
 30
0.0
  0
SPLINE
  5
286
100
AcDbEntity
  8
0
100
AcDbSpline
 62
7
  6
CONTINUOUS
 70
0
 71
3
 72
17
 73
13
 74
0
 42
0.0000001
 43
0.0000001
 44
0.0000000001
 40
0.0
 40
0.0
 40
0.0
 40
0.0
 40
0.0523428915
 40
0.1092474131
 40
0.1695229756
 40
0.2324151448
 40
0.3635227873
 40
0.4981316042
 40
0.632358063
 40
0.7627517519
 40
0.8862753548
 40
1.0
 40
1.0
 40
1.0
 40
1.0
 10
8.5513121682
 20
3.9076709484
 30
0.0
 10
8.551474746
 20
3.9065937653
 30
0.0
 10
8.5518590401
 20
3.9043522183
 30
0.0
 10
8.5525609752
 20
3.9008941708
 30
0.0
 10
8.5533940671
 20
3.89723992
 30
0.0
 10
8.5546588989
 20
3.8921010196
 30
0.0
 10
8.556405691
 20
3.8854884902
 30
0.0
 10
8.5585438679
 20
3.8774440441
 30
0.0
 10
8.5605439146
 20
3.8693786122
 30
0.0
 10
8.5622112132
 20
3.8614713658
 30
0.0
 10
8.5633703092
 20
3.8539032733
 30
0.0
 10
8.5637245751
 20
3.8489690216
 30
0.0
 10
8.5637576978
 20
3.8466023669
 30
0.0
  0
SPLINE
  5
287
100
AcDbEntity
  8
0
100
AcDbSpline
 62
7
  6
CONTINUOUS
 70
0
 71
3
 72
17
 73
13
 74
0
 42
0.0000001
 43
0.0000001
 44
0.0000000001
 40
0.0
 40
0.0
 40
0.0
 40
0.0
 40
0.0523428915
 40
0.1092474131
 40
0.1695229756
 40
0.2324151448
 40
0.3635227873
 40
0.4981316042
 40
0.632358063
 40
0.7627517519
 40
0.8862753548
 40
1.0
 40
1.0
 40
1.0
 40
1.0
 10
8.6122828931
 20
3.9946976391
 30
0.0
 10
8.6126205505
 20
3.9936619063
 30
0.0
 10
8.6133685467
 20
3.9915141827
 30
0.0
 10
8.6146300794
 20
3.9882188313
 30
0.0
 10
8.6160532738
 20
3.9847515401
 30
0.0
 10
8.618146683
 20
3.979890909
 30
0.0
 10
8.6209580286
 20
3.9736560743
 30
0.0
 10
8.6243911047
 20
3.9660732712
 30
0.0
 10
8.6276913886
 20
3.9584470333
 30
0.0
 10
8.6306374264
 20
3.9509220555
 30
0.0
 10
8.6330263702
 20
3.9436479593
 30
0.0
 10
8.6341879485
 20
3.9388393129
 30
0.0
 10
8.6346101545
 20
3.9365103875
 30
0.0
  0
SPLINE
  5
288
100
AcDbEntity
  8
0
100
AcDbSpline
 62
7
  6
CONTINUOUS
 70
0
 71
3
 72
17
 73
13
 74
0
 42
0.0000001
 43
0.0000001
 44
0.0000000001
 40
0.0
 40
0.0
 40
0.0
 40
0.0
 40
0.0523428915
 40
0.1092474131
 40
0.1695229756
 40
0.2324151448
 40
0.3635227873
 40
0.4981316042
 40
0.632358063
 40
0.7627517519
 40
0.8862753548
 40
1.0
 40
1.0
 40
1.0
 40
1.0
 10
8.6580980752
 20
4.0905727834
 30
0.0
 10
8.658601602
 20
4.0896067524
 30
0.0
 10
8.6596928973
 20
4.0876114355
 30
0.0
 10
8.6614796168
 20
4.0845686673
 30
0.0
 10
8.6634540934
 20
4.0813829125
 30
0.0
 10
8.6663189783
 20
4.0769331337
 30
0.0
 10
8.6701181925
 20
4.0712460608
 30
0.0
 10
8.6747525242
 20
4.0643317362
 30
0.0
 10
8.6792630237
 20
4.0573527125
 30
0.0
 10
8.6834074418
 20
4.0504152613
 30
0.0
 10
8.6869610705
 20
4.0436335763
 30
0.0
 10
8.6888982768
 20
4.0390817003
 30
0.0
 10
8.6896980498
 20
4.03685403
 30
0.0
  0
SPLINE
  5
289
100
AcDbEntity
  8
0
100
AcDbSpline
 62
7
  6
CONTINUOUS
 70
0
 71
3
 72
17
 73
13
 74
0
 42
0.0000001
 43
0.0000001
 44
0.0000000001
 40
0.0
 40
0.0
 40
0.0
 40
0.0
 40
0.0523428915
 40
0.1092474131
 40
0.1695229756
 40
0.2324151448
 40
0.3635227873
 40
0.4981316042
 40
0.632358063
 40
0.7627517519
 40
0.8862753548
 40
1.0
 40
1.0
 40
1.0
 40
1.0
 10
8.6875080179
 20
4.1926812035
 30
0.0
 10
8.6881636795
 20
4.1918112248
 30
0.0
 10
8.6895685066
 20
4.1900227406
 30
0.0
 10
8.6918316769
 20
4.1873155528
 30
0.0
 10
8.694303578
 20
4.1844982321
 30
0.0
 10
8.6978617934
 20
4.1805806818
 30
0.0
 10
8.7025452453
 20
4.1755964964
 30
0.0
 10
8.7082544223
 20
4.1695392517
 30
0.0
 10
8.713852105
 20
4.1633978084
 30
0.0
 10
8.7190818566
 20
4.1572371161
 30
0.0
 10
8.723703238
 20
4.1511328257
 30
0.0
 10
8.7263632314
 20
4.1469618811
 30
0.0
 10
8.727518756
 20
4.14489623
 30
0.0
  0
SPLINE
  5
28A
100
AcDbEntity
  8
0
100
AcDbSpline
 62
7
  6
CONTINUOUS
 70
0
 71
3
 72
17
 73
13
 74
0
 42
0.0000001
 43
0.0000001
 44
0.0000000001
 40
0.0
 40
0.0
 40
0.0
 40
0.0
 40
0.0523428915
 40
0.1092474131
 40
0.1695229755
 40
0.2324151448
 40
0.3635227872
 40
0.4981316042
 40
0.6323580629
 40
0.7627517519
 40
0.8862753548
 40
1.0
 40
1.0
 40
1.0
 40
1.0
 10
8.6997105089
 20
4.2982376974
 30
0.0
 10
8.7005004208
 20
4.2974875012
 30
0.0
 10
8.7021804605
 20
4.2959546342
 30
0.0
 10
8.7048583491
 20
4.2936568705
 30
0.0
 10
8.707760249
 20
4.2912848317
 30
0.0
 10
8.7119147377
 20
4.2880063686
 30
0.0
 10
8.7173546774
 20
4.2838610237
 30
0.0
 10
8.7239829709
 20
4.2788260819
 30
0.0
 10
8.7305151493
 20
4.2736897386
 30
0.0
 10
8.7366875828
 20
4.2684738499
 30
0.0
 10
8.7422506601
 20
4.2632134602
 30
0.0
 10
8.7455608842
 20
4.2595372175
 30
0.0
 10
8.7470406412
 20
4.2576899301
 30
0.0
  0
SPLINE
  5
28B
100
AcDbEntity
  8
0
100
AcDbSpline
 62
7
  6
CONTINUOUS
 70
0
 71
3
 72
17
 73
13
 74
0
 42
0.0000001
 43
0.0000001
 44
0.0000000001
 40
0.0
 40
0.0
 40
0.0
 40
0.0
 40
0.0523428915
 40
0.1092474131
 40
0.1695229756
 40
0.2324151448
 40
0.3635227873
 40
0.4981316042
 40
0.632358063
 40
0.7627517519
 40
0.8862753548
 40
1.0
 40
1.0
 40
1.0
 40
1.0
 10
8.6943727019
 20
4.4043630102
 30
0.0
 10
8.6952753178
 20
4.4037530596
 30
0.0
 10
8.6971847438
 20
4.4025176215
 30
0.0
 10
8.7002043063
 20
4.4006919578
 30
0.0
 10
8.7034570501
 20
4.3988299028
 30
0.0
 10
8.7080944905
 20
4.3962799532
 30
0.0
 10
8.7141425331
 20
4.3930865212
 30
0.0
 10
8.7215091438
 20
4.3892112198
 30
0.0
 10
8.7287976403
 20
4.38522008
 30
0.0
 10
8.7357443909
 20
4.3810912682
 30
0.0
 10
8.7420974204
 20
4.3768182665
 30
0.0
 10
8.7459675825
 20
4.3737370023
 30
0.0
 10
8.7477312087
 20
4.3721584669
 30
0.0
  0
SPLINE
  5
28C
100
AcDbEntity
  8
0
100
AcDbSpline
 62
7
  6
CONTINUOUS
 70
0
 71
3
 72
17
 73
13
 74
0
 42
0.0000001
 43
0.0000001
 44
0.0000000001
 40
0.0
 40
0.0
 40
0.0
 40
0.0
 40
0.0523428915
 40
0.1092474131
 40
0.1695229756
 40
0.2324151448
 40
0.3635227873
 40
0.4981316042
 40
0.632358063
 40
0.7627517519
 40
0.8862753548
 40
1.0
 40
1.0
 40
1.0
 40
1.0
 10
8.6716401959
 20
4.5081623712
 30
0.0
 10
8.6726308951
 20
4.5077093038
 30
0.0
 10
8.6747176241
 20
4.5068049936
 30
0.0
 10
8.6779964962
 20
4.5055012285
 30
0.0
 10
8.6815113591
 20
4.5041999483
 30
0.0
 10
8.6865052562
 20
4.5024480669
 30
0.0
 10
8.6929964298
 20
4.5002936548
 30
0.0
 10
8.7009004194
 20
4.4976837001
 30
0.0
 10
8.7087464263
 20
4.4949466298
 30
0.0
 10
8.716278008
 20
4.4920175161
 30
0.0
 10
8.7232476988
 20
4.4888484567
 30
0.0
 10
8.7275722329
 20
4.4864462182
 30
0.0
 10
8.729571622
 20
4.4851794924
 30
0.0
  0
SPLINE
  5
28D
100
AcDbEntity
  8
0
100
AcDbSpline
 62
7
  6
CONTINUOUS
 70
0
 71
3
 72
17
 73
13
 74
0
 42
0.0000001
 43
0.0000001
 44
0.0000000001
 40
0.0
 40
0.0
 40
0.0
 40
0.0
 40
0.0523428915
 40
0.1092474131
 40
0.1695229756
 40
0.2324151448
 40
0.3635227873
 40
0.4981316042
 40
0.632358063
 40
0.7627517519
 40
0.8862753548
 40
1.0
 40
1.0
 40
1.0
 40
1.0
 10
8.6321330633
 20
4.6068044549
 30
0.0
 10
8.6331848227
 20
4.6065206289
 30
0.0
 10
8.6353919352
 20
4.6059721133
 30
0.0
 10
8.6388406793
 20
4.6052258094
 30
0.0
 10
8.6425217867
 20
4.604520799
 30
0.0
 10
8.6477359224
 20
4.6036147718
 30
0.0
 10
8.6544931679
 20
4.6025581451
 30
0.0
 10
8.66271894
 20
4.6012847287
 30
0.0
 10
8.6709084424
 20
4.5998763868
 30
0.0
 10
8.678819417
 20
4.5982268683
 30
0.0
 10
8.6862156575
 20
4.5962481932
 30
0.0
 10
8.6908766035
 20
4.5945905062
 30
0.0
 10
8.6930572185
 20
4.5936701423
 30
0.0
  0
SPLINE
  5
28E
100
AcDbEntity
  8
0
100
AcDbSpline
 62
7
  6
CONTINUOUS
 70
0
 71
3
 72
17
 73
13
 74
0
 42
0.0000001
 43
0.0000001
 44
0.0000000001
 40
0.0
 40
0.0
 40
0.0
 40
0.0
 40
0.0523428915
 40
0.1092474131
 40
0.1695229756
 40
0.2324151448
 40
0.3635227873
 40
0.4981316042
 40
0.632358063
 40
0.7627517519
 40
0.8862753548
 40
1.0
 40
1.0
 40
1.0
 40
1.0
 10
8.5769289365
 20
4.6975986099
 30
0.0
 10
8.5780130674
 20
4.6974917672
 30
0.0
 10
8.5802803602
 20
4.6973140081
 30
0.0
 10
8.5838049053
 20
4.6971455223
 30
0.0
 10
8.5875518479
 20
4.6970560122
 30
0.0
 10
8.5928439967
 20
4.6970205527
 30
0.0
 10
8.5996829974
 20
4.6970905331
 30
0.0
 10
8.6080061782
 20
4.6971883898
 30
0.0
 10
8.6163157919
 20
4.6971471913
 30
0.0
 10
8.6243903725
 20
4.6968222619
 30
0.0
 10
8.632011416
 20
4.6960879434
 30
0.0
 10
8.6368816378
 20
4.6952200244
 30
0.0
 10
8.6391839982
 20
4.6946711271
 30
0.0
  0
SPLINE
  5
28F
100
AcDbEntity
  8
0
100
AcDbSpline
 62
7
  6
CONTINUOUS
 70
0
 71
3
 72
17
 73
13
 74
0
 42
0.0000001
 43
0.0000001
 44
0.0000000001
 40
0.0
 40
0.0
 40
0.0
 40
0.0
 40
0.0523428915
 40
0.1092474131
 40
0.1695229756
 40
0.2324151448
 40
0.3635227873
 40
0.4981316042
 40
0.632358063
 40
0.7627517519
 40
0.8862753548
 40
1.0
 40
1.0
 40
1.0
 40
1.0
 10
8.5075336137
 20
4.7780682523
 30
0.0
 10
8.5086205442
 20
4.7781413073
 30
0.0
 10
8.5108861726
 20
4.7783391535
 30
0.0
 10
8.5143903799
 20
4.7787530814
 30
0.0
 10
8.5181009528
 20
4.7792815131
 30
0.0
 10
8.5233267613
 20
4.7801175887
 30
0.0
 10
8.5300609702
 20
4.7813122673
 30
0.0
 10
8.5382545292
 20
4.7827787278
 30
0.0
 10
8.5464575936
 20
4.7841057967
 30
0.0
 10
8.5544755305
 20
4.7851143194
 30
0.0
 10
8.5621134986
 20
4.7856443872
 30
0.0
 10
8.5670601516
 20
4.7855899105
 30
0.0
 10
8.5694214561
 20
4.785427452
 30
0.0
  0
SPLINE
  5
290
100
AcDbEntity
  8
0
100
AcDbSpline
 62
7
  6
CONTINUOUS
 70
0
 71
3
 72
17
 73
13
 74
0
 42
0.0000001
 43
0.0000001
 44
0.0000000001
 40
0.0
 40
0.0
 40
0.0
 40
0.0
 40
0.0523428915
 40
0.1092474131
 40
0.1695229756
 40
0.2324151448
 40
0.3635227873
 40
0.4981316042
 40
0.632358063
 40
0.7627517519
 40
0.8862753548
 40
1.0
 40
1.0
 40
1.0
 40
1.0
 10
8.4258399846
 20
4.8460184191
 30
0.0
 10
8.4269000667
 20
4.846269379
 30
0.0
 10
8.4291022313
 20
4.8468374337
 30
0.0
 10
8.432490517
 20
4.8478224849
 30
0.0
 10
8.4360635071
 20
4.8489544444
 30
0.0
 10
8.4410804314
 20
4.8506392495
 30
0.0
 10
8.4475261602
 20
4.852926039
 30
0.0
 10
8.4553666024
 20
4.8557211029
 30
0.0
 10
8.4632393632
 20
4.8583802407
 30
0.0
 10
8.4709819519
 20
4.8606947062
 30
0.0
 10
8.4784285044
 20
4.8624747019
 30
0.0
 10
8.4833166592
 20
4.8632351533
 30
0.0
 10
8.4856724987
 20
4.863463565
 30
0.0
  0
SPLINE
  5
291
100
AcDbEntity
  8
0
100
AcDbSpline
 62
7
  6
CONTINUOUS
 70
0
 71
3
 72
17
 73
13
 74
0
 42
0.0000001
 43
0.0000001
 44
0.0000000001
 40
0.0
 40
0.0
 40
0.0
 40
0.0
 40
0.0523428915
 40
0.1092474131
 40
0.1695229756
 40
0.2324151448
 40
0.3635227873
 40
0.4981316042
 40
0.632358063
 40
0.7627517519
 40
0.8862753548
 40
1.0
 40
1.0
 40
1.0
 40
1.0
 10
8.3340763991
 20
4.8995956396
 30
0.0
 10
8.335080717
 20
4.9000176591
 30
0.0
 10
8.3371593496
 20
4.9009404276
 30
0.0
 10
8.3403392916
 20
4.9024697327
 30
0.0
 10
8.3436772389
 20
4.9041743438
 30
0.0
 10
8.3483484327
 20
4.906661922
 30
0.0
 10
8.3543298619
 20
4.909978446
 30
0.0
 10
8.3616033242
 20
4.9140258725
 30
0.0
 10
8.3689310369
 20
4.9179445463
 30
0.0
 10
8.3761870835
 20
4.921501823
 30
0.0
 10
8.3832391014
 20
4.9244831938
 30
0.0
 10
8.3879354243
 20
4.9260378305
 30
0.0
 10
8.3902215387
 20
4.926650882
 30
0.0
  0
SPLINE
  5
292
100
AcDbEntity
  8
0
100
AcDbSpline
 62
7
  6
CONTINUOUS
 70
0
 71
3
 72
17
 73
13
 74
0
 42
0.0000001
 43
0.0000001
 44
0.0000000001
 40
0.0
 40
0.0
 40
0.0
 40
0.0
 40
0.0523428915
 40
0.1092474131
 40
0.1695229756
 40
0.2324151448
 40
0.3635227873
 40
0.4981316042
 40
0.632358063
 40
0.7627517519
 40
0.8862753548
 40
1.0
 40
1.0
 40
1.0
 40
1.0
 10
8.234745884
 20
4.9373384928
 30
0.0
 10
8.2356670431
 20
4.9379200605
 30
0.0
 10
8.237565445
 20
4.9391723725
 30
0.0
 10
8.2404503044
 20
4.9412042169
 30
0.0
 10
8.2434621599
 20
4.943434983
 30
0.0
 10
8.2476602075
 20
4.9466574809
 30
0.0
 10
8.2530141822
 20
4.9509132749
 30
0.0
 10
8.2595222671
 20
4.9561026628
 30
0.0
 10
8.2661050543
 20
4.9611739831
 30
0.0
 10
8.2726766363
 20
4.9658770395
 30
0.0
 10
8.2791417624
 20
4.9699784628
 30
0.0
 10
8.2835181521
 20
4.9722848793
 30
0.0
 10
8.2856721834
 20
4.9732658485
 30
0.0
  0
SPLINE
  5
293
100
AcDbEntity
  8
0
100
AcDbSpline
 62
7
  6
CONTINUOUS
 70
0
 71
3
 72
17
 73
13
 74
0
 42
0.0000001
 43
0.0000001
 44
0.0000000001
 40
0.0
 40
0.0
 40
0.0
 40
0.0
 40
0.0523428915
 40
0.109247413
 40
0.1695229754
 40
0.2324151447
 40
0.3635227872
 40
0.4981316042
 40
0.6323580629
 40
0.7627517519
 40
0.8862753548
 40
1.0
 40
1.0
 40
1.0
 40
1.0
 10
8.130557869
 20
4.9582174705
 30
0.0
 10
8.1313707428
 20
4.9589427229
 30
0.0
 10
8.1330371314
 20
4.9604904193
 30
0.0
 10
8.1355482182
 20
4.9629693805
 30
0.0
 10
8.1381518279
 20
4.9656654531
 30
0.0
 10
8.1417622195
 20
4.969534971
 30
0.0
 10
8.1463426998
 20
4.9746139501
 30
0.0
 10
8.1519078868
 20
4.9808037488
 30
0.0
 10
8.1575661904
 20
4.9868893858
 30
0.0
 10
8.1632740554
 20
4.9926099372
 30
0.0
 10
8.168975941
 20
4.9977195388
 30
0.0
 10
8.1729130232
 20
5.000714823
 30
0.0
 10
8.174876216
 20
5.0020369521
 30
0.0
  0
SPLINE
  5
294
100
AcDbEntity
  8
0
100
AcDbSpline
 62
7
  6
CONTINUOUS
 70
0
 71
3
 72
17
 73
13
 74
0
 42
0.0000001
 43
0.0000001
 44
0.0000000001
 40
0.0
 40
0.0
 40
0.0
 40
0.0
 40
0.0523428915
 40
0.1092474131
 40
0.1695229756
 40
0.2324151448
 40
0.3635227873
 40
0.4981316042
 40
0.632358063
 40
0.7627517519
 40
0.8862753548
 40
1.0
 40
1.0
 40
1.0
 40
1.0
 10
8.0243542809
 20
4.9616630585
 30
0.0
 10
8.0250366969
 20
4.9625122131
 30
0.0
 10
8.0264256183
 20
4.9643130774
 30
0.0
 10
8.0284944377
 20
4.9671715371
 30
0.0
 10
8.0306187831
 20
4.9702593758
 30
0.0
 10
8.0335430385
 20
4.9746703651
 30
0.0
 10
8.0372250829
 20
4.9804339904
 30
0.0
 10
8.041695571
 20
4.9874553614
 30
0.0
 10
8.04627505
 20
4.9943893177
 30
0.0
 10
8.050963505
 20
5.000971325
 30
0.0
 10
8.0557466203
 20
5.0069497308
 30
0.0
 10
8.0591370036
 20
5.0105521807
 30
0.0
 10
8.0608558081
 20
5.012179406
 30
0.0
  0
SPLINE
  5
295
100
AcDbEntity
  8
0
100
AcDbSpline
 62
7
  6
CONTINUOUS
 70
0
 71
3
 72
17
 73
13
 74
0
 42
0.0000001
 43
0.0000001
 44
0.0000000001
 40
0.0
 40
0.0
 40
0.0
 40
0.0
 40
0.0523428915
 40
0.1092474131
 40
0.1695229756
 40
0.2324151448
 40
0.3635227873
 40
0.4981316042
 40
0.632358063
 40
0.7627517519
 40
0.8862753548
 40
1.0
 40
1.0
 40
1.0
 40
1.0
 10
7.9190320255
 20
4.947581272
 30
0.0
 10
7.9195653694
 20
4.9485311664
 30
0.0
 10
7.9206389382
 20
4.9505360766
 30
0.0
 10
7.9222090592
 20
4.9536960649
 30
0.0
 10
7.9237961948
 20
4.9570914428
 30
0.0
 10
7.9259545492
 20
4.9619235855
 30
0.0
 10
7.9286377231
 20
4.968214643
 30
0.0
 10
7.9318915711
 20
4.9758760651
 30
0.0
 10
7.9352673114
 20
4.9834692038
 30
0.0
 10
7.9388084699
 20
4.9907331302
 30
0.0
 10
7.9425423463
 20
4.9974172678
 30
0.0
 10
7.9452935515
 20
5.0015286196
 30
0.0
 10
7.946721084
 20
5.0034165556
 30
0.0
  0
SPLINE
  5
296
100
AcDbEntity
  8
0
100
AcDbSpline
 62
7
  6
CONTINUOUS
 70
0
 71
3
 72
17
 73
13
 74
0
 42
0.0000001
 43
0.0000001
 44
0.0000000001
 40
0.0
 40
0.0
 40
0.0
 40
0.0
 40
0.0523428915
 40
0.1092474131
 40
0.1695229756
 40
0.2324151448
 40
0.3635227873
 40
0.4981316042
 40
0.632358063
 40
0.7627517519
 40
0.8862753548
 40
1.0
 40
1.0
 40
1.0
 40
1.0
 10
7.8174639684
 20
4.9163562185
 30
0.0
 10
7.8178336922
 20
4.9173809425
 30
0.0
 10
7.8185626247
 20
4.919535211
 30
0.0
 10
7.8195912193
 20
4.922910533
 30
0.0
 10
7.8205978529
 20
4.9265208349
 30
0.0
 10
7.8219314332
 20
4.9316423249
 30
0.0
 10
7.8235425478
 20
4.9382892142
 30
0.0
 10
7.8254910008
 20
4.9463817073
 30
0.0
 10
7.8275709227
 20
4.954426911
 30
0.0
 10
7.8298681928
 20
4.9621746191
 30
0.0
 10
7.8324509817
 20
4.9693821658
 30
0.0
 10
7.8344879644
 20
4.9738902747
 30
0.0
 10
7.8355852863
 20
4.9759874242
 30
0.0
  0
SPLINE
  5
297
100
AcDbEntity
  8
0
100
AcDbSpline
 62
7
  6
CONTINUOUS
 70
0
 71
3
 72
17
 73
13
 74
0
 42
0.0000001
 43
0.0000001
 44
0.0000000001
 40
0.0
 40
0.0
 40
0.0
 40
0.0
 40
0.0523428915
 40
0.1092474131
 40
0.1695229756
 40
0.2324151448
 40
0.3635227873
 40
0.4981316042
 40
0.632358063
 40
0.7627517519
 40
0.8862753548
 40
1.0
 40
1.0
 40
1.0
 40
1.0
 10
7.7224205723
 20
4.8688396209
 30
0.0
 10
7.722616591
 20
4.8699112233
 30
0.0
 10
7.7229810042
 20
4.8721560881
 30
0.0
 10
7.7234400155
 20
4.8756546756
 30
0.0
 10
7.7238386893
 20
4.8793814235
 30
0.0
 10
7.7243111195
 20
4.8846525625
 30
0.0
 10
7.7248062286
 20
4.8914739769
 30
0.0
 10
7.7253961388
 20
4.899776803
 30
0.0
 10
7.7261235085
 20
4.9080546234
 30
0.0
 10
7.7271142278
 20
4.9160747796
 30
0.0
 10
7.7284754787
 20
4.9236091359
 30
0.0
 10
7.7297426763
 20
4.9283910345
 30
0.0
 10
7.7304798559
 20
4.9306401938
 30
0.0
  0
SPLINE
  5
298
100
AcDbEntity
  8
0
100
AcDbSpline
 62
7
  6
CONTINUOUS
 70
0
 71
3
 72
17
 73
13
 74
0
 42
0.0000001
 43
0.0000001
 44
0.0000000001
 40
0.0
 40
0.0
 40
0.0
 40
0.0
 40
0.0523428915
 40
0.1092474131
 40
0.1695229756
 40
0.2324151448
 40
0.3635227873
 40
0.4981316042
 40
0.632358063
 40
0.7627517519
 40
0.8862753548
 40
1.0
 40
1.0
 40
1.0
 40
1.0
 10
7.6364943272
 20
4.8063275853
 30
0.0
 10
7.6365112942
 20
4.807416836
 30
0.0
 10
7.636501248
 20
4.8096910643
 30
0.0
 10
7.6363781556
 20
4.8132174865
 30
0.0
 10
7.6361579949
 20
4.8169590263
 30
0.0
 10
7.6357563886
 20
4.8222360339
 30
0.0
 10
7.6351219871
 20
4.8290459063
 30
0.0
 10
7.6343372637
 20
4.8373325898
 30
0.0
 10
7.6336922407
 20
4.8456172337
 30
0.0
 10
7.6333493854
 20
4.8536910729
 30
0.0
 10
7.6334519676
 20
4.8613467247
 30
0.0
 10
7.6339148148
 20
4.8662719777
 30
0.0
 10
7.6342717443
 20
4.8686117966
 30
0.0
  0
SPLINE
  5
299
100
AcDbEntity
  8
0
100
AcDbSpline
 62
7
  6
CONTINUOUS
 70
0
 71
3
 72
17
 73
13
 74
0
 42
0.0000001
 43
0.0000001
 44
0.0000000001
 40
0.0
 40
0.0
 40
0.0
 40
0.0
 40
0.0523428915
 40
0.1092474131
 40
0.1695229756
 40
0.2324151448
 40
0.3635227873
 40
0.4981316042
 40
0.632358063
 40
0.7627517519
 40
0.8862753548
 40
1.0
 40
1.0
 40
1.0
 40
1.0
 10
7.5620290356
 20
4.7305252467
 30
0.0
 10
7.561866488
 20
4.7316024344
 30
0.0
 10
7.5614822564
 20
4.7338439921
 30
0.0
 10
7.5607804179
 20
4.7373020592
 30
0.0
 10
7.5599474281
 20
4.7409563333
 30
0.0
 10
7.5586827398
 20
4.746095269
 30
0.0
 10
7.5569361323
 20
4.7527078471
 30
0.0
 10
7.55479818
 20
4.760752353
 30
0.0
 10
7.5527983586
 20
4.7688178407
 30
0.0
 10
7.5511312807
 20
4.7767251337
 30
0.0
 10
7.5499723961
 20
4.7842932586
 30
0.0
 10
7.549618268
 20
4.7892275201
 30
0.0
 10
7.5495852114
 20
4.7915941757
 30
0.0
  0
SPLINE
  5
29A
100
AcDbEntity
  8
0
100
AcDbSpline
 62
7
  6
CONTINUOUS
 70
0
 71
3
 72
17
 73
13
 74
0
 42
0.0000001
 43
0.0000001
 44
0.0000000001
 40
0.0
 40
0.0
 40
0.0
 40
0.0
 40
0.0523428915
 40
0.1092474131
 40
0.1695229756
 40
0.2324151448
 40
0.3635227873
 40
0.4981316042
 40
0.632358063
 40
0.7627517519
 40
0.8862753548
 40
1.0
 40
1.0
 40
1.0
 40
1.0
 10
7.5010558805
 20
4.6435002586
 30
0.0
 10
7.500718252
 20
4.6445360009
 30
0.0
 10
7.4999703158
 20
4.6466837454
 30
0.0
 10
7.4987088751
 20
4.649979132
 30
0.0
 10
7.4972857776
 20
4.653446463
 30
0.0
 10
7.4951925041
 20
4.6583071526
 30
0.0
 10
7.4923813327
 20
4.6645420657
 30
0.0
 10
7.4889484682
 20
4.6721249647
 30
0.0
 10
7.4856483973
 20
4.6797512947
 30
0.0
 10
7.4827025697
 20
4.6872763548
 30
0.0
 10
7.480313829
 20
4.6945505178
 30
0.0
 10
7.479152385
 20
4.6993591966
 30
0.0
 10
7.478730244
 20
4.7016881337
 30
0.0
  0
SPLINE
  5
29B
100
AcDbEntity
  8
0
100
AcDbSpline
 62
7
  6
CONTINUOUS
 70
0
 71
3
 72
17
 73
13
 74
0
 42
0.0000001
 43
0.0000001
 44
0.0000000001
 40
0.0
 40
0.0
 40
0.0
 40
0.0
 40
0.0523428915
 40
0.1092474131
 40
0.1695229756
 40
0.2324151448
 40
0.3635227873
 40
0.4981316042
 40
0.632358063
 40
0.7627517519
 40
0.8862753548
 40
1.0
 40
1.0
 40
1.0
 40
1.0
 10
7.5363902084
 20
3.9405983009
 30
0.0
 10
7.5353060805
 20
3.9407051739
 30
0.0
 10
7.5330387927
 20
3.9408829962
 30
0.0
 10
7.5295142523
 20
3.9410515805
 30
0.0
 10
7.5257673122
 20
3.9411411953
 30
0.0
 10
7.5204751643
 20
3.9411768025
 30
0.0
 10
7.5136361617
 20
3.9411070131
 30
0.0
 10
7.5053129782
 20
3.9410093889
 30
0.0
 10
7.4970033656
 20
3.9410508193
 30
0.0
 10
7.4889287941
 20
3.9413759742
 30
0.0
 10
7.4813077711
 20
3.9421105056
 30
0.0
 10
7.4764375735
 20
3.9429785606
 30
0.0
 10
7.4741352285
 20
3.9435275222
 30
0.0
  0
SPLINE
  5
29C
100
AcDbEntity
  8
0
100
AcDbSpline
 62
7
  6
CONTINUOUS
 70
0
 71
3
 72
17
 73
13
 74
0
 42
0.0000001
 43
0.0000001
 44
0.0000000001
 40
0.0
 40
0.0
 40
0.0
 40
0.0
 40
0.0523428915
 40
0.1092474131
 40
0.1695229756
 40
0.2324151448
 40
0.3635227873
 40
0.4981316042
 40
0.632358063
 40
0.7627517519
 40
0.8862753548
 40
1.0
 40
1.0
 40
1.0
 40
1.0
 10
7.6057832841
 20
3.8601267206
 30
0.0
 10
7.6046963515
 20
3.860053696
 30
0.0
 10
7.6024307176
 20
3.8598559131
 30
0.0
 10
7.5989264987
 20
3.859442083
 30
0.0
 10
7.5952159111
 20
3.8589137549
 30
0.0
 10
7.5899900793
 20
3.8580778252
 30
0.0
 10
7.5832558369
 20
3.8568833348
 30
0.0
 10
7.575062237
 20
3.8554171031
 30
0.0
 10
7.5668591355
 20
3.8540902632
 30
0.0
 10
7.5588411705
 20
3.8530819645
 30
0.0
 10
7.5512031876
 20
3.8525521099
 30
0.0
 10
7.5462565361
 20
3.8526067248
 30
0.0
 10
7.5438952362
 20
3.8527692492
 30
0.0
  0
SPLINE
  5
29D
100
AcDbEntity
  8
0
100
AcDbSpline
 62
7
  6
CONTINUOUS
 70
0
 71
3
 72
17
 73
13
 74
0
 42
0.0000001
 43
0.0000001
 44
0.0000000001
 40
0.0
 40
0.0
 40
0.0
 40
0.0
 40
0.0523428915
 40
0.1092474131
 40
0.1695229756
 40
0.2324151448
 40
0.3635227873
 40
0.4981316042
 40
0.632358063
 40
0.7627517519
 40
0.8862753548
 40
1.0
 40
1.0
 40
1.0
 40
1.0
 10
7.6874750156
 20
3.7921742726
 30
0.0
 10
7.6864149264
 20
3.7919233422
 30
0.0
 10
7.684212746
 20
3.791355349
 30
0.0
 10
7.6808244328
 20
3.7903703925
 30
0.0
 10
7.6772514111
 20
3.7892385327
 30
0.0
 10
7.6722344398
 20
3.7875538678
 30
0.0
 10
7.6657886471
 20
3.7852672582
 30
0.0
 10
7.6579481269
 20
3.7824724133
 30
0.0
 10
7.6500752918
 20
3.7798134953
 30
0.0
 10
7.6423326384
 20
3.7774992461
 30
0.0
 10
7.6348860363
 20
3.7757194583
 30
0.0
 10
7.6299978602
 20
3.7749591435
 30
0.0
 10
7.6276420144
 20
3.7747307975
 30
0.0
  0
SPLINE
  5
29E
100
AcDbEntity
  8
0
100
AcDbSpline
 62
7
  6
CONTINUOUS
 70
0
 71
3
 72
17
 73
13
 74
0
 42
0.0000001
 43
0.0000001
 44
0.0000000001
 40
0.0
 40
0.0
 40
0.0
 40
0.0
 40
0.0523428915
 40
0.1092474131
 40
0.1695229756
 40
0.2324151448
 40
0.3635227873
 40
0.4981316042
 40
0.632358063
 40
0.7627517519
 40
0.8862753548
 40
1.0
 40
1.0
 40
1.0
 40
1.0
 10
7.7792371049
 20
3.7385944896
 30
0.0
 10
7.7782327752
 20
3.7381724981
 30
0.0
 10
7.7761541169
 20
3.7372497877
 30
0.0
 10
7.7729741322
 20
3.7357205714
 30
0.0
 10
7.7696361372
 20
3.7340160535
 30
0.0
 10
7.764964874
 20
3.7315286057
 30
0.0
 10
7.7589833522
 20
3.7282122487
 30
0.0
 10
7.7517097769
 20
3.7241650253
 30
0.0
 10
7.7443819547
 20
3.7202465562
 30
0.0
 10
7.7371258088
 20
3.7166894822
 30
0.0
 10
7.7300737076
 20
3.7137083083
 30
0.0
 10
7.7253773413
 20
3.7121538027
 30
0.0
 10
7.7230912098
 20
3.711540815
 30
0.0
  0
SPLINE
  5
29F
100
AcDbEntity
  8
0
100
AcDbSpline
 62
7
  6
CONTINUOUS
 70
0
 71
3
 72
17
 73
13
 74
0
 42
0.0000001
 43
0.0000001
 44
0.0000000001
 40
0.0
 40
0.0
 40
0.0
 40
0.0
 40
0.0523428915
 40
0.1092474131
 40
0.1695229756
 40
0.2324151448
 40
0.3635227873
 40
0.4981316042
 40
0.632358063
 40
0.7627517519
 40
0.8862753548
 40
1.0
 40
1.0
 40
1.0
 40
1.0
 10
7.878566566
 20
3.7008488625
 30
0.0
 10
7.8776453906
 20
3.7002673206
 30
0.0
 10
7.8757469538
 20
3.6990150616
 30
0.0
 10
7.8728620377
 20
3.6969832977
 30
0.0
 10
7.8698501198
 20
3.6947526158
 30
0.0
 10
7.8656519822
 20
3.6915302351
 30
0.0
 10
7.8602978887
 20
3.6872745906
 30
0.0
 10
7.8537896589
 20
3.6820853845
 30
0.0
 10
7.8472067301
 20
3.6770142479
 30
0.0
 10
7.8406350167
 20
3.672311375
 30
0.0
 10
7.8341697761
 20
3.6682101323
 30
0.0
 10
7.829793322
 20
3.6659038381
 30
0.0
 10
7.8276392633
 20
3.664922929
 30
0.0
  0
SPLINE
  5
2A0
100
AcDbEntity
  8
0
100
AcDbSpline
 62
7
  6
CONTINUOUS
 70
0
 71
3
 72
17
 73
13
 74
0
 42
0.0000001
 43
0.0000001
 44
0.0000000001
 40
0.0
 40
0.0
 40
0.0
 40
0.0
 40
0.0523428915
 40
0.109247413
 40
0.1695229754
 40
0.2324151447
 40
0.3635227872
 40
0.4981316042
 40
0.6323580629
 40
0.7627517519
 40
0.8862753548
 40
1.0
 40
1.0
 40
1.0
 40
1.0
 10
7.9827539979
 20
3.6799669754
 30
0.0
 10
7.9819411038
 20
3.6792417456
 30
0.0
 10
7.980274672
 20
3.6776940958
 30
0.0
 10
7.977763516
 20
3.6752152047
 30
0.0
 10
7.975159831
 20
3.6725192048
 30
0.0
 10
7.9715493313
 20
3.6686497877
 30
0.0
 10
7.9669687093
 20
3.6635709366
 30
0.0
 10
7.9614033494
 20
3.6573812933
 30
0.0
 10
7.9557448758
 20
3.6512958143
 30
0.0
 10
7.9500368511
 20
3.6455754223
 30
0.0
 10
7.9443348228
 20
3.6404659799
 30
0.0
 10
7.9403976569
 20
3.6374708057
 30
0.0
 10
7.9384344272
 20
3.6361487314
 30
0.0
  0
SPLINE
  5
2A1
100
AcDbEntity
  8
0
100
AcDbSpline
 62
7
  6
CONTINUOUS
 70
0
 71
3
 72
25
 73
21
 74
0
 42
0.0000001
 43
0.0000001
 44
0.0000000001
 40
0.0
 40
0.0
 40
0.0
 40
0.0
 40
0.1249940853
 40
0.2499746446
 40
0.3749383261
 40
0.4998887439
 40
0.5623890572
 40
0.6248869698
 40
0.6873827508
 40
0.7498762919
 40
0.8123675172
 40
0.8436181885
 40
0.8748718808
 40
0.906128419
 40
0.9217537264
 40
0.9373782685
 40
0.9530123086
 40
0.9686911194
 40
0.9843761234
 40
1.0
 40
1.0
 40
1.0
 40
1.0
 10
7.878566566
 20
3.7008488625
 30
0.0
 10
7.8830119435
 20
3.7022816959
 30
0.0
 10
7.8920850782
 20
3.7046112598
 30
0.0
 10
7.9060070625
 20
3.7064463653
 30
0.0
 10
7.9200481322
 20
3.706599864
 30
0.0
 10
7.9316827099
 20
3.7053159449
 30
0.0
 10
7.9408375661
 20
3.7034422719
 30
0.0
 10
7.9476052177
 20
3.7016119373
 30
0.0
 10
7.9542423533
 20
3.6993541452
 30
0.0
 10
7.9607152915
 20
3.6966613998
 30
0.0
 10
7.9659378026
 20
3.6940384905
 30
0.0
 10
7.9699769362
 20
3.6916905564
 30
0.0
 10
7.9729214069
 20
3.6897894304
 30
0.0
 10
7.9752858582
 20
3.6880729672
 30
0.0
 10
7.9771006234
 20
3.6866018689
 30
0.0
 10
7.97841626
 20
3.6854440774
 30
0.0
 10
7.9796691935
 20
3.6842153511
 30
0.0
 10
7.9808421183
 20
3.6829062461
 30
0.0
 10
7.981902256
 20
3.681503527
 30
0.0
 10
7.9824966504
 20
3.6804910034
 30
0.0
 10
7.9827539979
 20
3.6799669754
 30
0.0
  0
SPLINE
  5
2A2
100
AcDbEntity
  8
0
100
AcDbSpline
 62
7
  6
CONTINUOUS
 70
0
 71
3
 72
25
 73
21
 74
0
 42
0.0000001
 43
0.0000001
 44
0.0000000001
 40
0.0
 40
0.0
 40
0.0
 40
0.0
 40
0.1249940011
 40
0.2499744666
 40
0.3749380724
 40
0.4998884151
 40
0.5623886926
 40
0.6248865702
 40
0.6873823157
 40
0.7498758211
 40
0.8123670127
 40
0.8436176426
 40
0.8748713796
 40
0.9061279005
 40
0.9217530881
 40
0.9373774545
 40
0.9530116325
 40
0.9686910647
 40
0.9843761905
 40
1.0
 40
1.0
 40
1.0
 40
1.0
 10
7.7792371049
 20
3.7385944896
 30
0.0
 10
7.7838576859
 20
3.7392761022
 30
0.0
 10
7.7931905007
 20
3.7400805188
 30
0.0
 10
7.8072246472
 20
3.7395991348
 30
0.0
 10
7.8210994748
 20
3.7374394808
 30
0.0
 10
7.8323640448
 20
3.7342581054
 30
0.0
 10
7.8410856454
 20
3.7309031649
 30
0.0
 10
7.8474597337
 20
3.7279838882
 30
0.0
 10
7.8536347301
 20
3.7246644665
 30
0.0
 10
7.8595761776
 20
3.7209430484
 30
0.0
 10
7.8642957499
 20
3.7174963298
 30
0.0
 10
7.8678933397
 20
3.7145156034
 30
0.0
 10
7.8704847489
 20
3.7121557758
 30
0.0
 10
7.8725344199
 20
3.7100735413
 30
0.0
 10
7.8740823184
 20
3.708323839
 30
0.0
 10
7.8751894322
 20
3.7069652873
 30
0.0
 10
7.8762230246
 20
3.7055470598
 30
0.0
 10
7.8771645583
 20
3.7040627629
 30
0.0
 10
7.8779793634
 20
3.7025046539
 30
0.0
 10
7.8783989804
 20
3.7014080988
 30
0.0
 10
7.878566566
 20
3.7008488625
 30
0.0
  0
SPLINE
  5
2A3
100
AcDbEntity
  8
0
100
AcDbSpline
 62
7
  6
CONTINUOUS
 70
0
 71
3
 72
25
 73
21
 74
0
 42
0.0000001
 43
0.0000001
 44
0.0000000001
 40
0.0
 40
0.0
 40
0.0
 40
0.0
 40
0.1249940012
 40
0.2499744668
 40
0.3749380726
 40
0.4998884153
 40
0.5623886928
 40
0.6248865704
 40
0.6873823159
 40
0.7498758214
 40
0.812367013
 40
0.8436176429
 40
0.8748713799
 40
0.9061279008
 40
0.9217530884
 40
0.9373774549
 40
0.9530116329
 40
0.9686910647
 40
0.9843761905
 40
1.0
 40
1.0
 40
1.0
 40
1.0
 10
1.6874750156
 20
3.7921742726
 30
0.0
 10
1.6921447677
 20
3.7920860732
 30
0.0
 10
1.7014826988
 20
3.7913434014
 30
0.0
 10
1.7152462087
 20
3.7885586585
 30
0.0
 10
1.7285763409
 20
3.7841447574
 30
0.0
 10
1.739163647
 20
3.7791527001
 30
0.0
 10
1.7472140983
 20
3.7744080002
 30
0.0
 10
1.7530207609
 20
3.7704794067
 30
0.0
 10
1.7585651859
 20
3.7661888947
 30
0.0
 10
1.7638130813
 20
3.7615403095
 30
0.0
 10
1.7679009797
 20
3.7573637896
 30
0.0
 10
1.7709588968
 20
3.7538315771
 30
0.0
 10
1.7731265517
 20
3.7510774057
 30
0.0
 10
1.7748055469
 20
3.7486862078
 30
0.0
 10
1.7760443455
 20
3.7467055954
 30
0.0
 10
1.7769127517
 20
3.7451833488
 30
0.0
 10
1.7776988169
 20
3.7436143416
 30
0.0
 10
1.7783832045
 20
3.7419953182
 30
0.0
 10
1.7789304428
 20
3.740324348
 30
0.0
 10
1.7791638515
 20
3.7391736822
 30
0.0
 10
1.7792371049
 20
3.7385944896
 30
0.0
  0
SPLINE
  5
2A4
100
AcDbEntity
  8
0
100
AcDbSpline
 62
7
  6
CONTINUOUS
 70
0
 71
3
 72
25
 73
21
 74
0
 42
0.0000001
 43
0.0000001
 44
0.0000000001
 40
0.0
 40
0.0
 40
0.0
 40
0.0
 40
0.1249940001
 40
0.2499744644
 40
0.3749380691
 40
0.4998884105
 40
0.5623886873
 40
0.6248865643
 40
0.6873823092
 40
0.7498758139
 40
0.8123670049
 40
0.8436176341
 40
0.8748713717
 40
0.9061278923
 40
0.9217530779
 40
0.9373774414
 40
0.9530116216
 40
0.9686910638
 40
0.9843761916
 40
1.0
 40
1.0
 40
1.0
 40
1.0
 10
1.6057832841
 20
3.8601267206
 30
0.0
 10
1.6103748309
 20
3.8592711149
 30
0.0
 10
1.6194631683
 20
3.8570016127
 30
0.0
 10
1.6325806155
 20
3.8519894702
 30
0.0
 10
1.6450024474
 20
3.8454417196
 30
0.0
 10
1.6546237005
 20
3.8387751484
 30
0.0
 10
1.661783411
 20
3.8327701099
 30
0.0
 10
1.6668642602
 20
3.8279393595
 30
0.0
 10
1.6716268789
 20
3.8227947893
 30
0.0
 10
1.6760380759
 20
3.8173458361
 30
0.0
 10
1.6793827951
 20
3.8125534375
 30
0.0
 10
1.681817629
 20
3.8085660868
 30
0.0
 10
1.6835024029
 20
3.805492697
 30
0.0
 10
1.6847649242
 20
3.8028577603
 30
0.0
 10
1.6856608326
 20
3.8007002629
 30
0.0
 10
1.6862668434
 20
3.7990558437
 30
0.0
 10
1.6867839398
 20
3.797378854
 30
0.0
 10
1.6871925144
 20
3.7956692658
 30
0.0
 10
1.687457259
 20
3.7939310129
 30
0.0
 10
1.6874980923
 20
3.7927576229
 30
0.0
 10
1.6874750156
 20
3.7921742726
 30
0.0
  0
SPLINE
  5
2A5
100
AcDbEntity
  8
0
100
AcDbSpline
 62
7
  6
CONTINUOUS
 70
0
 71
3
 72
25
 73
21
 74
0
 42
0.0000001
 43
0.0000001
 44
0.0000000001
 40
0.0
 40
0.0
 40
0.0
 40
0.0
 40
0.1249940012
 40
0.2499744667
 40
0.3749380725
 40
0.4998884152
 40
0.5623886927
 40
0.6248865703
 40
0.6873823159
 40
0.7498758213
 40
0.8123670129
 40
0.8436176428
 40
0.8748713798
 40
0.9061279007
 40
0.9217530883
 40
0.9373774548
 40
0.9530116328
 40
0.9686910647
 40
0.9843761905
 40
1.0
 40
1.0
 40
1.0
 40
1.0
 10
1.5363902084
 20
3.9405983009
 30
0.0
 10
1.5407783068
 20
3.9389986272
 30
0.0
 10
1.5493691489
 20
3.9352641995
 30
0.0
 10
1.5614827302
 20
3.9281613729
 30
0.0
 10
1.5726574328
 20
3.9196583751
 30
0.0
 10
1.5810501951
 20
3.9114991332
 30
0.0
 10
1.58712387
 20
3.9043975548
 30
0.0
 10
1.5913403159
 20
3.8987964155
 30
0.0
 10
1.5951912189
 20
3.8929381148
 30
0.0
 10
1.5986453936
 20
3.886837424
 30
0.0
 10
1.6011557001
 20
3.8815598684
 30
0.0
 10
1.602901036
 20
3.877226142
 30
0.0
 10
1.6040569732
 20
3.8739173662
 30
0.0
 10
1.6048685833
 20
3.8711105636
 30
0.0
 10
1.6053971633
 20
3.8688350305
 30
0.0
 10
1.6057242492
 20
3.8671132934
 30
0.0
 10
1.6059582726
 20
3.865374065
 30
0.0
 10
1.6060798872
 20
3.8636205448
 30
0.0
 10
1.6060549168
 20
3.8618624244
 30
0.0
 10
1.6059020615
 20
3.8606983167
 30
0.0
 10
1.6057832841
 20
3.8601267206
 30
0.0
  0
SPLINE
  5
2A6
100
AcDbEntity
  8
0
100
AcDbSpline
 62
7
  6
CONTINUOUS
 70
0
 71
3
 72
25
 73
21
 74
0
 42
0.0000001
 43
0.0000001
 44
0.0000000001
 40
0.0
 40
0.0
 40
0.0
 40
0.0
 40
0.1249940007
 40
0.2499744658
 40
0.3749380712
 40
0.4998884136
 40
0.5623886909
 40
0.6248865683
 40
0.6873823136
 40
0.7498758189
 40
0.8123670104
 40
0.8436176401
 40
0.8748713773
 40
0.9061278981
 40
0.9217530851
 40
0.9373774507
 40
0.9530116294
 40
0.9686910644
 40
0.9843761908
 40
1.0
 40
1.0
 40
1.0
 40
1.0
 10
1.4811886171
 20
4.0313939975
 30
0.0
 10
1.4852535734
 20
4.02909389
 30
0.0
 10
1.4931125885
 20
4.0239964004
 30
0.0
 10
1.5038918827
 20
4.014996633
 30
0.0
 10
1.5135146444
 20
4.0047703236
 30
0.0
 10
1.5204499871
 20
3.9953409702
 30
0.0
 10
1.5252719554
 20
3.9873365611
 30
0.0
 10
1.5285089864
 20
3.9811178146
 30
0.0
 10
1.5313431329
 20
3.9747055799
 30
0.0
 10
1.5337460662
 20
3.9681195596
 30
0.0
 10
1.5353534865
 20
3.9625008026
 30
0.0
 10
1.5363617171
 20
3.9579389112
 30
0.0
 10
1.5369572873
 20
3.9544850026
 30
0.0
 10
1.5372958479
 20
3.951582895
 30
0.0
 10
1.5374426818
 20
3.9492513961
 30
0.0
 10
1.5374819206
 20
3.9474993047
 30
0.0
 10
1.537426487
 20
3.9457452781
 30
0.0
 10
1.537257826
 20
3.943995656
 30
0.0
 10
1.5369438214
 20
3.9422656235
 30
0.0
 10
1.5366014467
 20
3.9411425514
 30
0.0
 10
1.5363902084
 20
3.9405983009
 30
0.0
  0
SPLINE
  5
2A7
100
AcDbEntity
  8
0
100
AcDbSpline
 62
7
  6
CONTINUOUS
 70
0
 71
3
 72
25
 73
21
 74
0
 42
0.0000001
 43
0.0000001
 44
0.0000000001
 40
0.0
 40
0.0
 40
0.0
 40
0.0
 40
0.1249940011
 40
0.2499744666
 40
0.3749380724
 40
0.4998884151
 40
0.5623886926
 40
0.6248865702
 40
0.6873823157
 40
0.7498758211
 40
0.8123670127
 40
0.8436176426
 40
0.8748713796
 40
0.9061279005
 40
0.9217530881
 40
0.9373774545
 40
0.9530116325
 40
0.9686910647
 40
0.9843761905
 40
1.0
 40
1.0
 40
1.0
 40
1.0
 10
1.4416842391
 20
4.1300371843
 30
0.0
 10
1.4453151737
 20
4.1270993828
 30
0.0
 10
1.4522279922
 20
4.1207778751
 30
0.0
 10
1.4613789735
 20
4.1101266528
 30
0.0
 10
1.4691873153
 20
4.0984559738
 30
0.0
 10
1.4744760638
 20
4.0880137122
 30
0.0
 10
1.477914797
 20
4.079324808
 30
0.0
 10
1.4800841169
 20
4.0726580825
 30
0.0
 10
1.4818242001
 20
4.0658668196
 30
0.0
 10
1.4831103474
 20
4.0589751162
 30
0.0
 10
1.4837710361
 20
4.0531684199
 30
0.0
 10
1.48401466
 20
4.0485027978
 30
0.0
 10
1.4840336178
 20
4.0449979685
 30
0.0
 10
1.483889894
 20
4.0420797164
 30
0.0
 10
1.4836509764
 20
4.0397558476
 30
0.0
 10
1.4834012979
 20
4.0380211936
 30
0.0
 10
1.4830579198
 20
4.0363002132
 30
0.0
 10
1.482603583
 20
4.0346022139
 30
0.0
 10
1.4820091095
 20
4.0329474595
 30
0.0
 10
1.4814865544
 20
4.0318960569
 30
0.0
 10
1.4811886171
 20
4.0313939975
 30
0.0
  0
SPLINE
  5
2A8
100
AcDbEntity
  8
0
100
AcDbSpline
 62
7
  6
CONTINUOUS
 70
0
 71
3
 72
25
 73
21
 74
0
 42
0.0000001
 43
0.0000001
 44
0.0000000001
 40
0.0
 40
0.0
 40
0.0
 40
0.0
 40
0.1249940011
 40
0.2499744666
 40
0.3749380724
 40
0.4998884151
 40
0.5623886926
 40
0.6248865702
 40
0.6873823157
 40
0.7498758211
 40
0.8123670127
 40
0.8436176426
 40
0.8748713796
 40
0.9061279005
 40
0.9217530881
 40
0.9373774545
 40
0.9530116325
 40
0.9686910647
 40
0.9843761905
 40
1.0
 40
1.0
 40
1.0
 40
1.0
 10
1.4189546317
 20
4.2338371802
 30
0.0
 10
1.422052504
 20
4.2303418188
 30
0.0
 10
1.4278305655
 20
4.2229687242
 30
0.0
 10
1.4351036235
 20
4.2109565793
 30
0.0
 10
1.4408845578
 20
4.1981598708
 30
0.0
 10
1.4443824513
 20
4.1869895339
 30
0.0
 10
1.4463441515
 20
4.177853141
 30
0.0
 10
1.4473865879
 20
4.1709202841
 30
0.0
 10
1.4479851438
 20
4.1639352379
 30
0.0
 10
1.4481194229
 20
4.1569258356
 30
0.0
 10
1.4478153585
 20
4.1510895888
 30
0.0
 10
1.4472877303
 20
4.1464474998
 30
0.0
 10
1.4467295587
 20
4.1429873506
 30
0.0
 10
1.4461074707
 20
4.1401325549
 30
0.0
 10
1.4454893188
 20
4.1378797043
 30
0.0
 10
1.4449575334
 20
4.1362098036
 30
0.0
 10
1.4443355768
 20
4.1345688124
 30
0.0
 10
1.4436079574
 20
4.132968752
 30
0.0
 10
1.4427492305
 20
4.1314344121
 30
0.0
 10
1.4420607485
 20
4.1304833579
 30
0.0
 10
1.4416842391
 20
4.1300371843
 30
0.0
  0
SPLINE
  5
2A9
100
AcDbEntity
  8
0
100
AcDbSpline
 62
7
  6
CONTINUOUS
 70
0
 71
3
 72
25
 73
21
 74
0
 42
0.0000001
 43
0.0000001
 44
0.0000000001
 40
0.0
 40
0.0
 40
0.0
 40
0.0
 40
0.1249940011
 40
0.2499744666
 40
0.3749380724
 40
0.4998884151
 40
0.5623886926
 40
0.6248865702
 40
0.6873823157
 40
0.7498758211
 40
0.8123670127
 40
0.8436176426
 40
0.8748713796
 40
0.9061279005
 40
0.9217530881
 40
0.9373774545
 40
0.9530116325
 40
0.9686910647
 40
0.9843761905
 40
1.0
 40
1.0
 40
1.0
 40
1.0
 10
1.4136197883
 20
4.3399626419
 30
0.0
 10
1.4161000979
 20
4.3360050634
 30
0.0
 10
1.4205857948
 20
4.3277814971
 30
0.0
 10
1.4257825428
 20
4.3147360838
 30
0.0
 10
1.4293783837
 20
4.3011624006
 30
0.0
 10
1.4309900105
 20
4.2895686805
 30
0.0
 10
1.4314211686
 20
4.2802340115
 30
0.0
 10
1.4313082871
 20
4.2732241302
 30
0.0
 10
1.4307489889
 20
4.2662358309
 30
0.0
 10
1.4297277371
 20
4.2592999246
 30
0.0
 10
1.4284672134
 20
4.2535933222
 30
0.0
 10
1.4271827253
 20
4.2491013881
 30
0.0
 10
1.4260626495
 20
4.2457803012
 30
0.0
 10
1.424979166
 20
4.2430668319
 30
0.0
 10
1.423998641
 20
4.2409464502
 30
0.0
 10
1.4231992541
 20
4.2393868527
 30
0.0
 10
1.4223156842
 20
4.2378706118
 30
0.0
 10
1.4213346294
 20
4.2364121349
 30
0.0
 10
1.4202350723
 20
4.2350400616
 30
0.0
 10
1.4193994432
 20
4.2342152978
 30
0.0
 10
1.4189546317
 20
4.2338371802
 30
0.0
  0
SPLINE
  5
2AA
100
AcDbEntity
  8
0
100
AcDbSpline
 62
7
  6
CONTINUOUS
 70
0
 71
3
 72
25
 73
21
 74
0
 42
0.0000001
 43
0.0000001
 44
0.0000000001
 40
0.0
 40
0.0
 40
0.0
 40
0.0
 40
0.1249940487
 40
0.2499745672
 40
0.3749382156
 40
0.4998886004
 40
0.5623888979
 40
0.6248867951
 40
0.6873825604
 40
0.7498760857
 40
0.8123672962
 40
0.8436179491
 40
0.8748716609
 40
0.906128192
 40
0.9217534466
 40
0.9373779108
 40
0.9530120106
 40
0.9686910949
 40
0.9843761529
 40
1.0
 40
1.0
 40
1.0
 40
1.0
 10
1.425825227
 20
4.445518795
 30
0.0
 10
1.4276203194
 20
4.4412069482
 30
0.0
 10
1.4306912966
 20
4.4323572201
 30
0.0
 10
1.4336699838
 20
4.4186343717
 30
0.0
 10
1.4349826466
 20
4.4046539566
 30
0.0
 10
1.4346640447
 20
4.3929530904
 30
0.0
 10
1.4335528977
 20
4.3836747635
 30
0.0
 10
1.4322877755
 20
4.3767790638
 30
0.0
 10
1.430585877
 20
4.3699781292
 30
0.0
 10
1.4284369492
 20
4.3633049071
 30
0.0
 10
1.4262543451
 20
4.357883607
 30
0.0
 10
1.4242480347
 20
4.3536643526
 30
0.0
 10
1.4225966003
 20
4.3505729205
 30
0.0
 10
1.4210812824
 20
4.3480747858
 30
0.0
 10
1.419765111
 20
4.3461447155
 30
0.0
 10
1.4187199328
 20
4.3447379548
 30
0.0
 10
1.4175988712
 20
4.3433878204
 30
0.0
 10
1.4163911259
 20
4.3421107494
 30
0.0
 10
1.4150807467
 20
4.3409383748
 30
0.0
 10
1.41412077
 20
4.3402623904
 30
0.0
 10
1.4136197883
 20
4.3399626419
 30
0.0
  0
SPLINE
  5
2AB
100
AcDbEntity
  8
0
100
AcDbSpline
 62
7
  6
CONTINUOUS
 70
0
 71
3
 72
25
 73
21
 74
0
 42
0.0000001
 43
0.0000001
 44
0.0000000001
 40
0.0
 40
0.0
 40
0.0
 40
0.0
 40
0.1249940011
 40
0.2499744666
 40
0.3749380724
 40
0.4998884151
 40
0.5623886926
 40
0.6248865702
 40
0.6873823157
 40
0.7498758211
 40
0.8123670127
 40
0.8436176426
 40
0.8748713796
 40
0.9061279005
 40
0.9217530881
 40
0.9373774545
 40
0.9530116325
 40
0.9686910647
 40
0.9843761905
 40
1.0
 40
1.0
 40
1.0
 40
1.0
 10
1.4552380211
 20
4.5476263939
 30
0.0
 10
1.4562989304
 20
4.5430778957
 30
0.0
 10
1.4578714194
 20
4.5338434061
 30
0.0
 10
1.4585507957
 20
4.51981745
 30
0.0
 10
1.4575444775
 20
4.5058116558
 30
0.0
 10
1.4553043409
 20
4.4943228145
 30
0.0
 10
1.4526812019
 20
4.4853539191
 30
0.0
 10
1.4502983513
 20
4.4787604981
 30
0.0
 10
1.4475002793
 20
4.4723324397
 30
0.0
 10
1.4442822949
 20
4.4661039304
 30
0.0
 10
1.4412371538
 20
4.4611158099
 30
0.0
 10
1.4385637454
 20
4.4572843259
 30
0.0
 10
1.4364260114
 20
4.4545068664
 30
0.0
 10
1.4345201785
 20
4.4522922212
 30
0.0
 10
1.4329042992
 20
4.4506050989
 30
0.0
 10
1.4316418284
 20
4.4493895615
 30
0.0
 10
1.4303138135
 20
4.4482423655
 30
0.0
 10
1.4289123514
 20
4.4471814568
 30
0.0
 10
1.4274268627
 20
4.4462407474
 30
0.0
 10
1.4263687114
 20
4.4457319968
 30
0.0
 10
1.425825227
 20
4.445518795
 30
0.0
  0
SPLINE
  5
2AC
100
AcDbEntity
  8
0
100
AcDbSpline
 62
7
  6
CONTINUOUS
 70
0
 71
3
 72
25
 73
21
 74
0
 42
0.0000001
 43
0.0000001
 44
0.0000000001
 40
0.0
 40
0.0
 40
0.0
 40
0.0
 40
0.1249940012
 40
0.2499744669
 40
0.3749380727
 40
0.4998884154
 40
0.5623886929
 40
0.6248865705
 40
0.687382316
 40
0.7498758214
 40
0.8123670131
 40
0.843617643
 40
0.87487138
 40
0.9061279009
 40
0.9217530885
 40
0.937377455
 40
0.953011633
 40
0.9686910647
 40
0.9843761904
 40
1.0
 40
1.0
 40
1.0
 40
1.0
 10
1.5010558805
 20
4.6435002586
 30
0.0
 10
1.5013536691
 20
4.6388391766
 30
0.0
 10
1.5013847781
 20
4.6294718103
 30
0.0
 10
1.4997463126
 20
4.6155253259
 30
0.0
 10
1.4964484613
 20
4.6018761821
 30
0.0
 10
1.4923478923
 20
4.5909127419
 30
0.0
 10
1.4882843102
 20
4.5824979191
 30
0.0
 10
1.4848487261
 20
4.576386623
 30
0.0
 10
1.4810308012
 20
4.5705067769
 30
0.0
 10
1.4768315352
 20
4.564892873
 30
0.0
 10
1.4730069147
 20
4.560473992
 30
0.0
 10
1.4697393314
 20
4.5571347883
 30
0.0
 10
1.467173602
 20
4.5547470654
 30
0.0
 10
1.4649292464
 20
4.5528763115
 30
0.0
 10
1.4630577164
 20
4.5514781617
 30
0.0
 10
1.4616123946
 20
4.5504869963
 30
0.0
 10
1.4601136712
 20
4.5495740284
 30
0.0
 10
1.4585567046
 20
4.5487582599
 30
0.0
 10
1.4569366413
 20
4.5480748816
 30
0.0
 10
1.4558091847
 20
4.547747234
 30
0.0
 10
1.4552380211
 20
4.5476263939
 30
0.0
  0
SPLINE
  5
2AD
100
AcDbEntity
  8
0
100
AcDbSpline
 62
7
  6
CONTINUOUS
 70
0
 71
3
 72
25
 73
21
 74
0
 42
0.0000001
 43
0.0000001
 44
0.0000000001
 40
0.0
 40
0.0
 40
0.0
 40
0.0
 40
0.1249940011
 40
0.2499744666
 40
0.3749380725
 40
0.4998884151
 40
0.5623886926
 40
0.6248865702
 40
0.6873823157
 40
0.7498758211
 40
0.8123670128
 40
0.8436176426
 40
0.8748713796
 40
0.9061279005
 40
0.9217530881
 40
0.9373774545
 40
0.9530116326
 40
0.9686910647
 40
0.9843761905
 40
1.0
 40
1.0
 40
1.0
 40
1.0
 10
1.5620290356
 20
4.7305252467
 30
0.0
 10
1.5615555807
 20
4.7258787207
 30
0.0
 10
1.5600444612
 20
4.7166339904
 30
0.0
 10
1.5561328462
 20
4.7031473947
 30
0.0
 10
1.550633417
 20
4.6902272078
 30
0.0
 10
1.5447842664
 20
4.6800882176
 30
0.0
 10
1.5393910832
 20
4.6724569977
 30
0.0
 10
1.5349964777
 20
4.6669945238
 30
0.0
 10
1.530262841
 20
4.661823274
 30
0.0
 10
1.5251968365
 20
4.6569771054
 30
0.0
 10
1.5206970604
 20
4.6532479975
 30
0.0
 10
1.5169244319
 20
4.6504921571
 30
0.0
 10
1.5140006923
 20
4.6485593005
 30
0.0
 10
1.5114790329
 20
4.6470834664
 30
0.0
 10
1.5094029018
 20
4.6460124261
 30
0.0
 10
1.507814153
 20
4.6452726688
 30
0.0
 10
1.5061856016
 20
4.644618832
 30
0.0
 10
1.5045155997
 20
4.6440704553
 30
0.0
 10
1.5028051522
 20
4.6436630485
 30
0.0
 10
1.5016391438
 20
4.6435254412
 30
0.0
 10
1.5010558805
 20
4.6435002586
 30
0.0
  0
SPLINE
  5
2AE
100
AcDbEntity
  8
0
100
AcDbSpline
 62
7
  6
CONTINUOUS
 70
0
 71
3
 72
25
 73
21
 74
0
 42
0.0000001
 43
0.0000001
 44
0.0000000001
 40
0.0
 40
0.0
 40
0.0
 40
0.0
 40
0.1249939984
 40
0.249974461
 40
0.3749380638
 40
0.4998884034
 40
0.5623886792
 40
0.6248865552
 40
0.6873822991
 40
0.7498758028
 40
0.8123669928
 40
0.8436176208
 40
0.8748713594
 40
0.9061278796
 40
0.9217530621
 40
0.9373774211
 40
0.9530116048
 40
0.9686910625
 40
0.9843761933
 40
1.0
 40
1.0
 40
1.0
 40
1.0
 10
1.6364943272
 20
4.8063275853
 30
0.0
 10
1.6352625432
 20
4.8018223582
 30
0.0
 10
1.6322504139
 20
4.7929524319
 30
0.0
 10
1.6261723463
 20
4.7802935978
 30
0.0
 10
1.618621347
 20
4.7684547909
 30
0.0
 10
1.6111831618
 20
4.759416811
 30
0.0
 10
1.604607487
 20
4.7527773502
 30
0.0
 10
1.5993737316
 20
4.748112698
 30
0.0
 10
1.5938535024
 20
4.7437911001
 30
0.0
 10
1.5880589445
 20
4.7398448555
 30
0.0
 10
1.5830067531
 20
4.7369072389
 30
0.0
 10
1.578831985
 20
4.7348099328
 30
0.0
 10
1.575629986
 20
4.7333846644
 30
0.0
 10
1.5728998059
 20
4.7323440069
 30
0.0
 10
1.570675705
 20
4.7316292898
 30
0.0
 10
1.5689868653
 20
4.7311611195
 30
0.0
 10
1.5672729067
 20
4.7307842495
 30
0.0
 10
1.5655354211
 20
4.7305182196
 30
0.0
 10
1.5637812439
 20
4.7303978975
 30
0.0
 10
1.5626084889
 20
4.7304540846
 30
0.0
 10
1.5620290356
 20
4.7305252467
 30
0.0
  0
SPLINE
  5
2AF
100
AcDbEntity
  8
0
100
AcDbSpline
 62
7
  6
CONTINUOUS
 70
0
 71
3
 72
25
 73
21
 74
0
 42
0.0000001
 43
0.0000001
 44
0.0000000001
 40
0.0
 40
0.0
 40
0.0
 40
0.0
 40
0.1249940011
 40
0.2499744666
 40
0.3749380724
 40
0.4998884151
 40
0.5623886926
 40
0.6248865702
 40
0.6873823157
 40
0.7498758211
 40
0.8123670127
 40
0.8436176426
 40
0.8748713796
 40
0.9061279005
 40
0.9217530881
 40
0.9373774545
 40
0.9530116325
 40
0.9686910647
 40
0.9843761905
 40
1.0
 40
1.0
 40
1.0
 40
1.0
 10
1.7224205723
 20
4.8688396209
 30
0.0
 10
1.7204640584
 20
4.8645985813
 30
0.0
 10
1.7160330807
 20
4.8563454028
 30
0.0
 10
1.7079543511
 20
4.8448596235
 30
0.0
 10
1.6985577491
 20
4.8344251222
 30
0.0
 10
1.6897334194
 20
4.8267346806
 30
0.0
 10
1.6821546167
 20
4.8212680826
 30
0.0
 10
1.6762244717
 20
4.8175284893
 30
0.0
 10
1.6700682243
 20
4.8141744233
 30
0.0
 10
1.6637031702
 20
4.8112357437
 30
0.0
 10
1.6582363711
 20
4.809169748
 30
0.0
 10
1.6537733382
 20
4.807788184
 30
0.0
 10
1.6503804199
 20
4.8069093816
 30
0.0
 10
1.6475161901
 20
4.8063322853
 30
0.0
 10
1.6452047843
 20
4.8059933888
 30
0.0
 10
1.64346192
 20
4.8058095743
 30
0.0
 10
1.6417093078
 20
4.8057199489
 30
0.0
 10
1.6399517336
 20
4.8057435283
 30
0.0
 10
1.6382016775
 20
4.8059135722
 30
0.0
 10
1.6370541649
 20
4.8061620197
 30
0.0
 10
1.6364943272
 20
4.8063275853
 30
0.0
  0
SPLINE
  5
2B0
100
AcDbEntity
  8
0
100
AcDbSpline
 62
7
  6
CONTINUOUS
 70
0
 71
3
 72
25
 73
21
 74
0
 42
0.0000001
 43
0.0000001
 44
0.0000000001
 40
0.0
 40
0.0
 40
0.0
 40
0.0
 40
0.1249940014
 40
0.2499744671
 40
0.3749380732
 40
0.4998884161
 40
0.5623886936
 40
0.6248865713
 40
0.6873823169
 40
0.7498758224
 40
0.8123670141
 40
0.8436176441
 40
0.874871381
 40
0.906127902
 40
0.9217530899
 40
0.9373774567
 40
0.9530116344
 40
0.9686910648
 40
0.9843761903
 40
1.0
 40
1.0
 40
1.0
 40
1.0
 10
1.8174639684
 20
4.9163562185
 30
0.0
 10
1.8148360923
 20
4.9124950489
 30
0.0
 10
1.8091071297
 20
4.9050837394
 30
0.0
 10
1.799248101
 20
4.8950843119
 30
0.0
 10
1.7882622067
 20
4.8863387372
 30
0.0
 10
1.7782924333
 20
4.8802056055
 30
0.0
 10
1.7699172293
 20
4.8760609825
 30
0.0
 10
1.7634524509
 20
4.8733484526
 30
0.0
 10
1.7568281089
 20
4.8710534069
 30
0.0
 10
1.7500661778
 20
4.8692024507
 30
0.0
 10
1.7443338886
 20
4.8680644296
 30
0.0
 10
1.7397043286
 20
4.8674362926
 30
0.0
 10
1.7362130396
 20
4.8671279269
 30
0.0
 10
1.7332928875
 20
4.8670301338
 30
0.0
 10
1.7309572256
 20
4.8670763009
 30
0.0
 10
1.7292078766
 20
4.8671818569
 30
0.0
 10
1.7274644157
 20
4.8673819216
 30
0.0
 10
1.7257346931
 20
4.8676944643
 30
0.0
 10
1.7240364933
 20
4.8681502362
 30
0.0
 10
1.7229455237
 20
4.868584168
 30
0.0
 10
1.7224205723
 20
4.8688396209
 30
0.0
  0
SPLINE
  5
2B1
100
AcDbEntity
  8
0
100
AcDbSpline
 62
7
  6
CONTINUOUS
 70
0
 71
3
 72
25
 73
21
 74
0
 42
0.0000001
 43
0.0000001
 44
0.0000000001
 40
0.0
 40
0.0
 40
0.0
 40
0.0
 40
0.1249940011
 40
0.2499744666
 40
0.3749380724
 40
0.4998884151
 40
0.5623886926
 40
0.6248865702
 40
0.6873823157
 40
0.7498758211
 40
0.8123670127
 40
0.8436176426
 40
0.8748713796
 40
0.9061279005
 40
0.9217530881
 40
0.9373774545
 40
0.9530116325
 40
0.9686910647
 40
0.9843761905
 40
1.0
 40
1.0
 40
1.0
 40
1.0
 10
1.9190320255
 20
4.947581272
 30
0.0
 10
1.9158044675
 20
4.9442052932
 30
0.0
 10
1.9089337885
 20
4.9378380105
 30
0.0
 10
1.8975633846
 20
4.9295976882
 30
0.0
 10
1.8852878593
 20
4.9227795925
 30
0.0
 10
1.8744445868
 20
4.9183710636
 30
0.0
 10
1.8655014311
 20
4.9156614679
 30
0.0
 10
1.8586783585
 20
4.9140499909
 30
0.0
 10
1.8517666135
 20
4.9128765674
 30
0.0
 10
1.84479225
 20
4.9121638228
 30
0.0
 10
1.8389508299
 20
4.911984818
 30
0.0
 10
1.8342810229
 20
4.9121272416
 30
0.0
 10
1.8307865948
 20
4.9123977237
 30
0.0
 10
1.827890173
 20
4.9127819014
 30
0.0
 10
1.8255939648
 20
4.9132118728
 30
0.0
 10
1.823885848
 20
4.91360392
 30
0.0
 10
1.8221990944
 20
4.9140882179
 30
0.0
 10
1.8205444049
 20
4.9146811983
 30
0.0
 10
1.8189443827
 20
4.9154102664
 30
0.0
 10
1.8179397145
 20
4.9160178461
 30
0.0
 10
1.8174639684
 20
4.9163562185
 30
0.0
  0
SPLINE
  5
2B2
100
AcDbEntity
  8
0
100
AcDbSpline
 62
7
  6
CONTINUOUS
 70
0
 71
3
 72
25
 73
21
 74
0
 42
0.0000001
 43
0.0000001
 44
0.0000000001
 40
0.0
 40
0.0
 40
0.0
 40
0.0
 40
0.1249940011
 40
0.2499744666
 40
0.3749380724
 40
0.4998884151
 40
0.5623886926
 40
0.6248865702
 40
0.6873823157
 40
0.7498758211
 40
0.8123670127
 40
0.8436176426
 40
0.8748713796
 40
0.9061279005
 40
0.9217530881
 40
0.9373774545
 40
0.9530116325
 40
0.9686910647
 40
0.9843761905
 40
1.0
 40
1.0
 40
1.0
 40
1.0
 10
2.0243542809
 20
4.9616630585
 30
0.0
 10
2.0206150788
 20
4.9588643567
 30
0.0
 10
2.0127900942
 20
4.9537147806
 30
0.0
 10
2.0002184645
 20
4.9474583341
 30
0.0
 10
1.9869881467
 20
4.9427536939
 30
0.0
 10
1.975567146
 20
4.9401900188
 30
0.0
 10
1.9662999803
 20
4.9389893599
 30
0.0
 10
1.9593047257
 20
4.9385228919
 30
0.0
 10
1.9522941089
 20
4.9385030979
 30
0.0
 10
1.945297552
 20
4.9389480065
 30
0.0
 10
1.9395063369
 20
4.9397329007
 30
0.0
 10
1.9349236608
 20
4.940642
 30
0.0
 10
1.9315214108
 20
4.9414839521
 30
0.0
 10
1.9287277247
 20
4.9423396214
 30
0.0
 10
1.9265336035
 20
4.9431416687
 30
0.0
 10
1.9249133111
 20
4.9438095133
 30
0.0
 10
1.9233292744
 20
4.9445648342
 30
0.0
 10
1.9217947527
 20
4.9454220778
 30
0.0
 10
1.920336552
 20
4.9464045552
 30
0.0
 10
1.9194455894
 20
4.94716921
 30
0.0
 10
1.9190320255
 20
4.947581272
 30
0.0
  0
SPLINE
  5
2B3
100
AcDbEntity
  8
0
100
AcDbSpline
 62
7
  6
CONTINUOUS
 70
0
 71
3
 72
25
 73
21
 74
0
 42
0.0000001
 43
0.0000001
 44
0.0000000001
 40
0.0
 40
0.0
 40
0.0
 40
0.0
 40
0.124994009
 40
0.2499744833
 40
0.3749380961
 40
0.4998884458
 40
0.5623887265
 40
0.6248866073
 40
0.6873823561
 40
0.7498758648
 40
0.8123670595
 40
0.8436176931
 40
0.874871426
 40
0.9061279486
 40
0.9217531472
 40
0.9373775295
 40
0.9530116946
 40
0.9686910696
 40
0.9843761843
 40
1.0
 40
1.0
 40
1.0
 40
1.0
 10
2.130557869
 20
4.9582174705
 30
0.0
 10
2.1264090165
 20
4.9560723855
 30
0.0
 10
2.117843167
 20
4.9522809802
 30
0.0
 10
2.1044132259
 20
4.9481790659
 30
0.0
 10
2.0905889967
 20
4.9457162095
 30
0.0
 10
2.0789017969
 20
4.9450673175
 30
0.0
 10
2.0695634003
 20
4.945408346
 30
0.0
 10
2.0625867725
 20
4.9460996111
 30
0.0
 10
2.0556685113
 20
4.9472339868
 30
0.0
 10
2.0488406053
 20
4.948824413
 30
0.0
 10
2.0432575614
 20
4.9505517975
 30
0.0
 10
2.0388870173
 20
4.9522027751
 30
0.0
 10
2.0356697488
 20
4.9535932323
 30
0.0
 10
2.0330550005
 20
4.9548970519
 30
0.0
 10
2.0310228158
 20
4.956049301
 30
0.0
 10
2.0295345432
 20
4.9569747253
 30
0.0
 10
2.0280964308
 20
4.957980463
 30
0.0
 10
2.0267239404
 20
4.9590785899
 30
0.0
 10
2.0254473375
 20
4.9602876751
 30
0.0
 10
2.024694382
 20
4.9611885464
 30
0.0
 10
2.0243542809
 20
4.9616630585
 30
0.0
  0
SPLINE
  5
2B4
100
AcDbEntity
  8
0
100
AcDbSpline
 62
7
  6
CONTINUOUS
 70
0
 71
3
 72
25
 73
21
 74
0
 42
0.0000001
 43
0.0000001
 44
0.0000000001
 40
0.0
 40
0.0
 40
0.0
 40
0.0
 40
0.1249940853
 40
0.2499746445
 40
0.3749383261
 40
0.4998887438
 40
0.5623890572
 40
0.6248869697
 40
0.6873827507
 40
0.7498762918
 40
0.8123675171
 40
0.8436181884
 40
0.8748718807
 40
0.9061284189
 40
0.9217537263
 40
0.9373782684
 40
0.9530123085
 40
0.9686911194
 40
0.9843761234
 40
1.0
 40
1.0
 40
1.0
 40
1.0
 10
2.234745884
 20
4.9373384928
 30
0.0
 10
2.2303005465
 20
4.9359055353
 30
0.0
 10
2.2212274769
 20
4.9335757181
 30
0.0
 10
2.2073055438
 20
4.9317402238
 30
0.0
 10
2.1932644784
 20
4.9315863329
 30
0.0
 10
2.1816298649
 20
4.9328699272
 30
0.0
 10
2.1724749563
 20
4.9347433445
 30
0.0
 10
2.1657072537
 20
4.9365734901
 30
0.0
 10
2.159070055
 20
4.9388310969
 30
0.0
 10
2.1525970416
 20
4.9415236616
 30
0.0
 10
2.1473744572
 20
4.944146425
 30
0.0
 10
2.143335258
 20
4.9464942463
 30
0.0
 10
2.1403907343
 20
4.9483952901
 30
0.0
 10
2.138026235
 20
4.9501116872
 30
0.0
 10
2.1362114288
 20
4.9515827348
 30
0.0
 10
2.1348957598
 20
4.9527404896
 30
0.0
 10
2.1336427921
 20
4.9539691809
 30
0.0
 10
2.1324698306
 20
4.9552782532
 30
0.0
 10
2.1314096538
 20
4.9566809426
 30
0.0
 10
2.1308152311
 20
4.9576934496
 30
0.0
 10
2.130557869
 20
4.9582174705
 30
0.0
  0
SPLINE
  5
2B5
100
AcDbEntity
  8
0
100
AcDbSpline
 62
7
  6
CONTINUOUS
 70
0
 71
3
 72
25
 73
21
 74
0
 42
0.0000001
 43
0.0000001
 44
0.0000000001
 40
0.0
 40
0.0
 40
0.0
 40
0.0
 40
0.1249940011
 40
0.2499744666
 40
0.3749380724
 40
0.4998884151
 40
0.5623886926
 40
0.6248865702
 40
0.6873823157
 40
0.7498758211
 40
0.8123670127
 40
0.8436176426
 40
0.8748713796
 40
0.9061279005
 40
0.9217530881
 40
0.9373774545
 40
0.9530116325
 40
0.9686910647
 40
0.9843761905
 40
1.0
 40
1.0
 40
1.0
 40
1.0
 10
2.3340763991
 20
4.8995956396
 30
0.0
 10
2.3294558372
 20
4.8989138979
 30
0.0
 10
2.3201230448
 20
4.8981092207
 30
0.0
 10
2.3060888849
 20
4.8985902128
 30
0.0
 10
2.2922139969
 20
4.9007494794
 30
0.0
 10
2.2809493381
 20
4.9039305402
 30
0.0
 10
2.2722276438
 20
4.9072852371
 30
0.0
 10
2.265853474
 20
4.9102043358
 30
0.0
 10
2.2596783849
 20
4.9135235851
 30
0.0
 10
2.2537368335
 20
4.9172448373
 30
0.0
 10
2.249017165
 20
4.9206914241
 30
0.0
 10
2.245419492
 20
4.92367205
 30
0.0
 10
2.2428280169
 20
4.9260318053
 30
0.0
 10
2.2407782877
 20
4.9281139825
 30
0.0
 10
2.2392303403
 20
4.9298636415
 30
0.0
 10
2.2381231886
 20
4.9312221624
 30
0.0
 10
2.2370895566
 20
4.9326403609
 30
0.0
 10
2.2361479814
 20
4.9341246316
 30
0.0
 10
2.2353331328
 20
4.9356827179
 30
0.0
 10
2.2349134852
 20
4.9367792612
 30
0.0
 10
2.234745884
 20
4.9373384928
 30
0.0
  0
SPLINE
  5
2B6
100
AcDbEntity
  8
0
100
AcDbSpline
 62
7
  6
CONTINUOUS
 70
0
 71
3
 72
25
 73
21
 74
0
 42
0.0000001
 43
0.0000001
 44
0.0000000001
 40
0.0
 40
0.0
 40
0.0
 40
0.0
 40
0.1249940012
 40
0.2499744668
 40
0.3749380726
 40
0.4998884153
 40
0.5623886928
 40
0.6248865704
 40
0.6873823159
 40
0.7498758214
 40
0.812367013
 40
0.8436176429
 40
0.8748713799
 40
0.9061279008
 40
0.9217530884
 40
0.9373774549
 40
0.9530116329
 40
0.9686910647
 40
0.9843761905
 40
1.0
 40
1.0
 40
1.0
 40
1.0
 10
2.4258399846
 20
4.8460184191
 30
0.0
 10
2.4211702301
 20
4.8461064881
 30
0.0
 10
2.4118322782
 20
4.8468488991
 30
0.0
 10
2.3980686905
 20
4.8496332576
 30
0.0
 10
2.384738435
 20
4.8540467865
 30
0.0
 10
2.3741509896
 20
4.8590385481
 30
0.0
 10
2.3661004058
 20
4.8637830233
 30
0.0
 10
2.3602936334
 20
4.8677114546
 30
0.0
 10
2.3547490887
 20
4.8720018117
 30
0.0
 10
2.3495010634
 20
4.8766502504
 30
0.0
 10
2.3454130484
 20
4.8808266562
 30
0.0
 10
2.3423550327
 20
4.8843587832
 30
0.0
 10
2.3401873009
 20
4.8871128941
 30
0.0
 10
2.3385082389
 20
4.8895040451
 30
0.0
 10
2.337269385
 20
4.891484623
 30
0.0
 10
2.3364009363
 20
4.8930068453
 30
0.0
 10
2.3356148273
 20
4.8945758305
 30
0.0
 10
2.3349303945
 20
4.8961948348
 30
0.0
 10
2.3343831095
 20
4.8978657897
 30
0.0
 10
2.3341496687
 20
4.899016449
 30
0.0
 10
2.3340763991
 20
4.8995956396
 30
0.0
  0
SPLINE
  5
2B7
100
AcDbEntity
  8
0
100
AcDbSpline
 62
7
  6
CONTINUOUS
 70
0
 71
3
 72
25
 73
21
 74
0
 42
0.0000001
 43
0.0000001
 44
0.0000000001
 40
0.0
 40
0.0
 40
0.0
 40
0.0
 40
0.1249940001
 40
0.2499744644
 40
0.3749380691
 40
0.4998884105
 40
0.5623886874
 40
0.6248865643
 40
0.6873823092
 40
0.7498758139
 40
0.8123670049
 40
0.8436176341
 40
0.8748713717
 40
0.9061278923
 40
0.9217530779
 40
0.9373774414
 40
0.9530116216
 40
0.9686910638
 40
0.9843761916
 40
1.0
 40
1.0
 40
1.0
 40
1.0
 10
2.5075336137
 20
4.7780682523
 30
0.0
 10
2.502942043
 20
4.7789237298
 30
0.0
 10
2.4938536421
 20
4.7811929782
 30
0.0
 10
2.480736055
 20
4.7862047544
 30
0.0
 10
2.4683140403
 20
4.7927521582
 30
0.0
 10
2.458692601
 20
4.7994184607
 30
0.0
 10
2.4515327229
 20
4.8054232993
 30
0.0
 10
2.4464517388
 20
4.8102539077
 30
0.0
 10
2.4416889764
 20
4.8153983449
 30
0.0
 10
2.4372776272
 20
4.820847175
 30
0.0
 10
2.4339327742
 20
4.8256394801
 30
0.0
 10
2.431497829
 20
4.8296267628
 30
0.0
 10
2.4298129692
 20
4.8327001056
 30
0.0
 10
2.4285503744
 20
4.8353350071
 30
0.0
 10
2.4276544057
 20
4.8374924794
 30
0.0
 10
2.4270483489
 20
4.8391368817
 30
0.0
 10
2.4265312058
 20
4.840813857
 30
0.0
 10
2.4261225834
 20
4.8425234338
 30
0.0
 10
2.4258577903
 20
4.8442616792
 30
0.0
 10
2.4258169242
 20
4.8454350681
 30
0.0
 10
2.4258399846
 20
4.8460184191
 30
0.0
  0
SPLINE
  5
2B8
100
AcDbEntity
  8
0
100
AcDbSpline
 62
7
  6
CONTINUOUS
 70
0
 71
3
 72
25
 73
21
 74
0
 42
0.0000001
 43
0.0000001
 44
0.0000000001
 40
0.0
 40
0.0
 40
0.0
 40
0.0
 40
0.1249940012
 40
0.2499744667
 40
0.3749380725
 40
0.4998884152
 40
0.5623886927
 40
0.6248865703
 40
0.6873823159
 40
0.7498758213
 40
0.8123670129
 40
0.8436176428
 40
0.8748713798
 40
0.9061279007
 40
0.9217530883
 40
0.9373774548
 40
0.9530116328
 40
0.9686910647
 40
0.9843761905
 40
1.0
 40
1.0
 40
1.0
 40
1.0
 10
2.5769289365
 20
4.6975986099
 30
0.0
 10
2.5725407934
 20
4.699198161
 30
0.0
 10
2.563949847
 20
4.7029323489
 30
0.0
 10
2.5518360674
 20
4.7100348372
 30
0.0
 10
2.5406611274
 20
4.7185375229
 30
0.0
 10
2.5322681373
 20
4.7266965304
 30
0.0
 10
2.526194264
 20
4.7337979392
 30
0.0
 10
2.5219776617
 20
4.7393989608
 30
0.0
 10
2.5181265952
 20
4.745257154
 30
0.0
 10
2.51467225
 20
4.7513577483
 30
0.0
 10
2.5121617962
 20
4.7566352338
 30
0.0
 10
2.5104163392
 20
4.7609689114
 30
0.0
 10
2.5092603097
 20
4.764277655
 30
0.0
 10
2.5084486211
 20
4.7670844349
 30
0.0
 10
2.5079199777
 20
4.7693599532
 30
0.0
 10
2.5075928437
 20
4.7710816812
 30
0.0
 10
2.5073587717
 20
4.772820903
 30
0.0
 10
2.5072371081
 20
4.7745744198
 30
0.0
 10
2.5072620295
 20
4.776332541
 30
0.0
 10
2.5074148522
 20
4.7774966529
 30
0.0
 10
2.5075336137
 20
4.7780682523
 30
0.0
  0
SPLINE
  5
2B9
100
AcDbEntity
  8
0
100
AcDbSpline
 62
7
  6
CONTINUOUS
 70
0
 71
3
 72
20
 73
16
 74
0
 42
0.0000001
 43
0.0000001
 44
0.0000000001
 40
0.0
 40
0.0
 40
0.0
 40
0.0
 40
0.1249889661
 40
0.2499700194
 40
0.3749443965
 40
0.4999120105
 40
0.6248717836
 40
0.687367082
 40
0.7498597735
 40
0.812357608
 40
0.8748495206
 40
0.9060939863
 40
0.9373739733
 40
0.9687504359
 40
1.0
 40
1.0
 40
1.0
 40
1.0
 10
2.6017503014
 20
4.6315831162
 30
0.0
 10
2.5997578372
 20
4.6338660844
 30
0.0
 10
2.5959501394
 20
4.6385900554
 30
0.0
 10
2.590815599
 20
4.6461018741
 30
0.0
 10
2.586295822
 20
4.6539994668
 30
0.0
 10
2.5824352696
 20
4.6622387358
 30
0.0
 10
2.5798120724
 20
4.669355922
 30
0.0
 10
2.578118884
 20
4.6751762525
 30
0.0
 10
2.5770726324
 20
4.6796018903
 30
0.0
 10
2.5762864552
 20
4.6840814212
 30
0.0
 10
2.5759040847
 20
4.6878549538
 30
0.0
 10
2.5758274426
 20
4.6908865099
 30
0.0
 10
2.5759329582
 20
4.6931630199
 30
0.0
 10
2.5762424726
 20
4.6954222941
 30
0.0
 10
2.576654836
 20
4.6968923378
 30
0.0
 10
2.5769289365
 20
4.6975986099
 30
0.0
  0
SPLINE
  5
2BA
100
AcDbEntity
  8
0
100
AcDbSpline
 62
7
  6
CONTINUOUS
 70
0
 71
3
 72
25
 73
21
 74
0
 42
0.0000001
 43
0.0000001
 44
0.0000000001
 40
0.0
 40
0.0
 40
0.0
 40
0.0
 40
0.1249940011
 40
0.2499744666
 40
0.3749380725
 40
0.4998884151
 40
0.5623886926
 40
0.6248865702
 40
0.6873823157
 40
0.7498758211
 40
0.8123670128
 40
0.8436176426
 40
0.8748713796
 40
0.9061279005
 40
0.9217530881
 40
0.9373774545
 40
0.9530116326
 40
0.9686910647
 40
0.9843761905
 40
1.0
 40
1.0
 40
1.0
 40
1.0
 10
2.5513121682
 20
3.9076709484
 30
0.0
 10
2.5517854934
 20
3.9123174877
 30
0.0
 10
2.5532963548
 20
3.9215622601
 30
0.0
 10
2.5572075931
 20
3.9350489651
 30
0.0
 10
2.5627066615
 20
3.9479693055
 30
0.0
 10
2.568555529
 20
3.9581084591
 30
0.0
 10
2.5739484991
 20
3.9657398296
 30
0.0
 10
2.5783429521
 20
3.9712024262
 30
0.0
 10
2.5830764443
 20
3.9763738082
 30
0.0
 10
2.5881423135
 20
3.9812201182
 30
0.0
 10
2.5926419855
 20
3.9849493519
 30
0.0
 10
2.596414537
 20
3.9877052976
 30
0.0
 10
2.5993382226
 20
3.9896382358
 30
0.0
 10
2.6018598408
 20
3.9911141403
 30
0.0
 10
2.6039359419
 20
3.9921852386
 30
0.0
 10
2.6055246702
 20
3.9929250403
 30
0.0
 10
2.6071532033
 20
3.9935789226
 30
0.0
 10
2.6088231898
 20
3.9941273459
 30
0.0
 10
2.610533626
 20
3.9945348005
 30
0.0
 10
2.6116996305
 20
3.9946724404
 30
0.0
 10
2.6122828931
 20
3.9946976391
 30
0.0
  0
SPLINE
  5
2BB
100
AcDbEntity
  8
0
100
AcDbSpline
 62
7
  6
CONTINUOUS
 70
0
 71
3
 72
25
 73
21
 74
0
 42
0.0000001
 43
0.0000001
 44
0.0000000001
 40
0.0
 40
0.0
 40
0.0
 40
0.0
 40
0.1249939984
 40
0.249974461
 40
0.3749380638
 40
0.4998884034
 40
0.5623886792
 40
0.6248865552
 40
0.6873822991
 40
0.7498758028
 40
0.8123669928
 40
0.8436176208
 40
0.8748713594
 40
0.9061278796
 40
0.9217530621
 40
0.9373774211
 40
0.9530116048
 40
0.9686910625
 40
0.9843761933
 40
1.0
 40
1.0
 40
1.0
 40
1.0
 10
2.4768489934
 20
3.8318665304
 30
0.0
 10
2.4780806517
 20
3.8363717919
 30
0.0
 10
2.4810925333
 20
3.8452418023
 30
0.0
 10
2.4871702473
 20
3.8579008062
 30
0.0
 10
2.494720916
 20
3.8697398239
 30
0.0
 10
2.5021588489
 20
3.8787780115
 30
0.0
 10
2.5087343382
 20
3.885417656
 30
0.0
 10
2.5139679634
 20
3.8900824543
 30
0.0
 10
2.5194880719
 20
3.8944042063
 30
0.0
 10
2.5252825196
 20
3.8983506128
 30
0.0
 10
2.530334629
 20
3.9012883704
 30
0.0
 10
2.5345093385
 20
3.9033857931
 30
0.0
 10
2.5377112978
 20
3.9048111509
 30
0.0
 10
2.5404414487
 20
3.9058518846
 30
0.0
 10
2.5426655296
 20
3.9065666638
 30
0.0
 10
2.5443543563
 20
3.9070348813
 30
0.0
 10
2.5460683044
 20
3.9074117992
 30
0.0
 10
2.5478057825
 20
3.9076778776
 30
0.0
 10
2.5495599564
 20
3.9077982487
 30
0.0
 10
2.550732713
 20
3.9077420943
 30
0.0
 10
2.5513121682
 20
3.9076709484
 30
0.0
  0
SPLINE
  5
2BC
100
AcDbEntity
  8
0
100
AcDbSpline
 62
7
  6
CONTINUOUS
 70
0
 71
3
 72
25
 73
21
 74
0
 42
0.0000001
 43
0.0000001
 44
0.0000000001
 40
0.0
 40
0.0
 40
0.0
 40
0.0
 40
0.1249940011
 40
0.2499744666
 40
0.3749380724
 40
0.4998884151
 40
0.5623886926
 40
0.6248865702
 40
0.6873823157
 40
0.7498758211
 40
0.8123670127
 40
0.8436176426
 40
0.8748713796
 40
0.9061279005
 40
0.9217530881
 40
0.9373774545
 40
0.9530116325
 40
0.9686910647
 40
0.9843761905
 40
1.0
 40
1.0
 40
1.0
 40
1.0
 10
2.3909244941
 20
3.7693520953
 30
0.0
 10
2.3928808896
 20
3.7735931895
 30
0.0
 10
2.3973116368
 20
3.7818464918
 30
0.0
 10
2.4053900456
 20
3.7933324967
 30
0.0
 10
2.4147863563
 20
3.8037672604
 30
0.0
 10
2.4236104712
 20
3.8114579484
 30
0.0
 10
2.4311891212
 20
3.816924758
 30
0.0
 10
2.4371191618
 20
3.8206645169
 30
0.0
 10
2.4432753155
 20
3.8240187549
 30
0.0
 10
2.4496402875
 20
3.8269576121
 30
0.0
 10
2.455107029
 20
3.8290237606
 30
0.0
 10
2.4595700233
 20
3.8304054492
 30
0.0
 10
2.4629629171
 20
3.8312843463
 30
0.0
 10
2.4658271307
 20
3.8318615226
 30
0.0
 10
2.468138527
 20
3.8322004837
 30
0.0
 10
2.4698813862
 20
3.8323843468
 30
0.0
 10
2.4716339959
 20
3.8324740212
 30
0.0
 10
2.4733915708
 20
3.8324504909
 30
0.0
 10
2.4751416316
 20
3.8322804958
 30
0.0
 10
2.4762891511
 20
3.8320320803
 30
0.0
 10
2.4768489934
 20
3.8318665304
 30
0.0
  0
SPLINE
  5
2BD
100
AcDbEntity
  8
0
100
AcDbSpline
 62
7
  6
CONTINUOUS
 70
0
 71
3
 72
25
 73
21
 74
0
 42
0.0000001
 43
0.0000001
 44
0.0000000001
 40
0.0
 40
0.0
 40
0.0
 40
0.0
 40
0.1249940014
 40
0.2499744671
 40
0.3749380732
 40
0.4998884161
 40
0.5623886936
 40
0.6248865713
 40
0.6873823169
 40
0.7498758224
 40
0.8123670141
 40
0.8436176441
 40
0.874871381
 40
0.906127902
 40
0.9217530899
 40
0.9373774567
 40
0.9530116344
 40
0.9686910648
 40
0.9843761903
 40
1.0
 40
1.0
 40
1.0
 40
1.0
 10
2.2958824249
 20
3.7218328436
 30
0.0
 10
2.2985101932
 20
3.7256940866
 30
0.0
 10
2.3042389488
 20
3.7331055561
 30
0.0
 10
2.3140976983
 20
3.7431052589
 30
0.0
 10
2.3250833483
 20
3.7518511403
 30
0.0
 10
2.3350529505
 20
3.7579845504
 30
0.0
 10
2.3434280388
 20
3.7621294074
 30
0.0
 10
2.3498927414
 20
3.7648421178
 30
0.0
 10
2.3565170193
 20
3.7671373484
 30
0.0
 10
2.3632788987
 20
3.7689884935
 30
0.0
 10
2.3690111562
 20
3.7701266747
 30
0.0
 10
2.3736406986
 20
3.770754941
 30
0.0
 10
2.377131979
 20
3.7710634042
 30
0.0
 10
2.3800521284
 20
3.7711612788
 30
0.0
 10
2.3823877916
 20
3.7711151769
 30
0.0
 10
2.3841371435
 20
3.7710096698
 30
0.0
 10
2.38588061
 20
3.7708096538
 30
0.0
 10
2.3876103413
 20
3.7704971594
 30
0.0
 10
2.3893085539
 20
3.7700414349
 30
0.0
 10
2.3903995355
 20
3.7696075336
 30
0.0
 10
2.3909244941
 20
3.7693520953
 30
0.0
  0
SPLINE
  5
2BE
100
AcDbEntity
  8
0
100
AcDbSpline
 62
7
  6
CONTINUOUS
 70
0
 71
3
 72
25
 73
21
 74
0
 42
0.0000001
 43
0.0000001
 44
0.0000000001
 40
0.0
 40
0.0
 40
0.0
 40
0.0
 40
0.1249940011
 40
0.2499744666
 40
0.3749380724
 40
0.4998884151
 40
0.5623886926
 40
0.6248865702
 40
0.6873823157
 40
0.7498758211
 40
0.8123670127
 40
0.8436176426
 40
0.8748713796
 40
0.9061279005
 40
0.9217530881
 40
0.9373774545
 40
0.9530116325
 40
0.9686910647
 40
0.9843761905
 40
1.0
 40
1.0
 40
1.0
 40
1.0
 10
2.1943152398
 20
3.6906049538
 30
0.0
 10
2.1975427035
 20
3.6939810228
 30
0.0
 10
2.2044132048
 20
3.7003484973
 30
0.0
 10
2.2157833786
 20
3.7085891371
 30
0.0
 10
2.2280587134
 20
3.7154075756
 30
0.0
 10
2.2389018628
 20
3.7198164074
 30
0.0
 10
2.2478449429
 20
3.7225262528
 30
0.0
 10
2.2546679705
 20
3.7241379203
 30
0.0
 10
2.2615796826
 20
3.7253115368
 30
0.0
 10
2.2685540263
 20
3.7260244761
 30
0.0
 10
2.2743954414
 20
3.7262036441
 30
0.0
 10
2.2790652523
 20
3.7260613509
 30
0.0
 10
2.282559688
 20
3.7257909664
 30
0.0
 10
2.2854561205
 20
3.7254068695
 30
0.0
 10
2.2877523408
 20
3.7249769623
 30
0.0
 10
2.2894604685
 20
3.7245849628
 30
0.0
 10
2.2911472356
 20
3.7241007119
 30
0.0
 10
2.2928019417
 20
3.7235077778
 30
0.0
 10
2.2944019842
 20
3.7227787544
 30
0.0
 10
2.2954066694
 20
3.7221712027
 30
0.0
 10
2.2958824249
 20
3.7218328436
 30
0.0
  0
SPLINE
  5
2BF
100
AcDbEntity
  8
0
100
AcDbSpline
 62
7
  6
CONTINUOUS
 70
0
 71
3
 72
23
 73
19
 74
0
 42
0.0000001
 43
0.0000001
 44
0.0000000001
 40
0.0
 40
0.0
 40
0.0
 40
0.0
 40
0.03126311
 40
0.046925103
 40
0.0625607045
 40
0.0781924381
 40
0.0938229203
 40
0.1250825994
 40
0.1563382199
 40
0.1875931658
 40
0.2500934959
 40
0.312596111
 40
0.375100669
 40
0.5000723656
 40
0.6250503558
 40
0.7500319374
 40
0.8750157022
 40
1.0
 40
1.0
 40
1.0
 40
1.0
 10
2.1943152398
 20
3.6906049538
 30
0.0
 10
2.1936574129
 20
3.6912603553
 30
0.0
 10
2.192550661
 20
3.6921264727
 30
0.0
 10
2.1909676298
 20
3.6930994747
 30
0.0
 10
2.1897370321
 20
3.6937563282
 30
0.0
 10
2.1884758807
 20
3.6943487964
 30
0.0
 10
2.1867645145
 20
3.695070895
 30
0.0
 10
2.1845799311
 20
3.6958601004
 30
0.0
 10
2.1819128026
 20
3.6966659446
 30
0.0
 10
2.1783134524
 20
3.6975820238
 30
0.0
 10
2.1737537728
 20
3.6984699006
 30
0.0
 10
2.1682277425
 20
3.6991891058
 30
0.0
 10
2.1608190113
 20
3.6997271605
 30
0.0
 10
2.1515205118
 20
3.6996574938
 30
0.0
 10
2.1404312788
 20
3.6984591638
 30
0.0
 10
2.1295107703
 20
3.6961861867
 30
0.0
 10
2.1188605859
 20
3.6928745472
 30
0.0
 10
2.1120015003
 20
3.6899974394
 30
0.0
 10
2.1086505222
 20
3.6883997808
 30
0.0
  0
SPLINE
  5
2C0
100
AcDbEntity
  8
0
100
AcDbSpline
 62
7
  6
CONTINUOUS
 70
0
 71
3
 72
37
 73
33
 74
0
 42
0.0000001
 43
0.0000001
 44
0.0000000001
 40
0.0
 40
0.0
 40
0.0
 40
0.0
 40
0.0156280852
 40
0.0234516712
 40
0.0312838541
 40
0.039110858
 40
0.0469394163
 40
0.0547834448
 40
0.06262588
 40
0.0704551492
 40
0.0782861238
 40
0.0861317517
 40
0.0939740864
 40
0.1096130038
 40
0.1174373625
 40
0.1252575897
 40
0.1408871852
 40
0.1565164309
 40
0.1877622826
 40
0.2190079134
 40
0.2502535857
 40
0.2814994802
 40
0.3127457772
 40
0.37522763
 40
0.4377118996
 40
0.5001982019
 40
0.5626870235
 40
0.6251788471
 40
0.6876733728
 40
0.7501693265
 40
0.8750846954
 40
1.0
 40
1.0
 40
1.0
 40
1.0
 10
1.9384344272
 20
3.6361487314
 30
0.0
 10
1.9382133351
 20
3.6355016931
 30
0.0
 10
1.9379206118
 20
3.6345159004
 30
0.0
 10
1.9376467632
 20
3.6331740472
 30
0.0
 10
1.9375094417
 20
3.6321548731
 30
0.0
 10
1.9374555016
 20
3.6311272843
 30
0.0
 10
1.9375017074
 20
3.6300982584
 30
0.0
 10
1.9376600825
 20
3.6290795771
 30
0.0
 10
1.9379294963
 20
3.6280843127
 30
0.0
 10
1.9383136112
 20
3.627127816
 30
0.0
 10
1.9388050939
 20
3.626222161
 30
0.0
 10
1.939382959
 20
3.6253690046
 30
0.0
 10
1.940245769
 20
3.6243023498
 30
0.0
 10
1.9412220498
 20
3.6233353627
 30
0.0
 10
1.9422684216
 20
3.6224527281
 30
0.0
 10
1.9433511304
 20
3.6216153781
 30
0.0
 10
1.9447613462
 20
3.6206460864
 30
0.0
 10
1.9471021898
 20
3.6192301273
 30
0.0
 10
1.9501436966
 20
3.6176621543
 30
0.0
 10
1.9539067449
 20
3.6160260491
 30
0.0
 10
1.9577521341
 20
3.6145951162
 30
0.0
 10
1.9616604642
 20
3.6133473337
 30
0.0
 10
1.966937824
 20
3.6119110892
 30
0.0
 10
1.9736375164
 20
3.6105207637
 30
0.0
 10
1.9817785791
 20
3.6094679983
 30
0.0
 10
1.9899752041
 20
3.6090154823
 30
0.0
 10
1.9981831971
 20
3.6091538999
 30
0.0
 10
2.0063607317
 20
3.6098757771
 30
0.0
 10
2.0144673858
 20
3.611173748
 30
0.0
 10
2.025123006
 20
3.6136594892
 30
0.0
 10
2.0380745743
 20
3.6181621291
 30
0.0
 10
2.0478295464
 20
3.6231869584
 30
0.0
 10
2.0524976516
 20
3.6260293235
 30
0.0
  0
SPLINE
  5
2C1
100
AcDbEntity
  8
0
100
AcDbSpline
 62
7
  6
CONTINUOUS
 70
0
 71
3
 72
36
 73
32
 74
0
 42
0.0000001
 43
0.0000001
 44
0.0000000001
 40
0.0
 40
0.0
 40
0.0
 40
0.0
 40
0.1249189306
 40
0.2498383267
 40
0.3123362597
 40
0.3748328216
 40
0.4373268836
 40
0.4998181919
 40
0.5623071495
 40
0.6247942125
 40
0.6872788762
 40
0.7185266197
 40
0.7497739801
 40
0.7810211232
 40
0.8122681479
 40
0.8278940286
 40
0.8435214261
 40
0.8591495424
 40
0.8747807434
 40
0.8904185538
 40
0.9060610383
 40
0.9217215536
 40
0.9295596925
 40
0.9373869484
 40
0.945221789
 40
0.9530640394
 40
0.9608955453
 40
0.9687198212
 40
0.9765485753
 40
0.9843716466
 40
1.0
 40
1.0
 40
1.0
 40
1.0
 10
2.1666277405
 20
3.634768897
 30
0.0
 10
2.1624904396
 20
3.6311991276
 30
0.0
 10
2.1536945832
 20
3.624641532
 30
0.0
 10
2.1416604649
 20
3.6180737402
 30
0.0
 10
2.1315595523
 20
3.6138720252
 30
0.0
 10
2.1237775095
 20
3.6112603275
 30
0.0
 10
2.1158309314
 20
3.6092050816
 30
0.0
 10
2.1077584554
 20
3.6077202082
 30
0.0
 10
2.0996000956
 20
3.6068199718
 30
0.0
 10
2.0913979161
 20
3.6065208356
 30
0.0
 10
2.0845618307
 20
3.6067914553
 30
0.0
 10
2.0791210349
 20
3.6073411312
 30
0.0
 10
2.0750613591
 20
3.607929842
 30
0.0
 10
2.0710339722
 20
3.6087098044
 30
0.0
 10
2.0677165445
 20
3.6095394539
 30
0.0
 10
2.0651002025
 20
3.6103347236
 30
0.0
 10
2.0631617194
 20
3.611005965
 30
0.0
 10
2.0612563084
 20
3.6117673088
 30
0.0
 10
2.0593962801
 20
3.6126361372
 30
0.0
 10
2.057606549
 20
3.6136452774
 30
0.0
 10
2.0559249181
 20
3.6148320553
 30
0.0
 10
2.0546836966
 20
3.6160256247
 30
0.0
 10
2.0538433919
 20
3.6171109295
 30
0.0
 10
2.0533072705
 20
3.6179909694
 30
0.0
 10
2.0528817498
 20
3.6189295545
 30
0.0
 10
2.0525628574
 20
3.6199093328
 30
0.0
 10
2.0523502662
 20
3.6209168841
 30
0.0
 10
2.0522364693
 20
3.621939245
 30
0.0
 10
2.0522062099
 20
3.6229666882
 30
0.0
 10
2.0522578895
 20
3.6243347903
 30
0.0
 10
2.0523853951
 20
3.6253549532
 30
0.0
 10
2.0524976516
 20
3.6260293235
 30
0.0
  0
SPLINE
  5
2C2
100
AcDbEntity
  8
0
100
AcDbSpline
 62
7
  6
CONTINUOUS
 70
0
 71
3
 72
32
 73
28
 74
0
 42
0.0000001
 43
0.0000001
 44
0.0000000001
 40
0.0
 40
0.0
 40
0.0
 40
0.0
 40
0.1248981417
 40
0.2498077562
 40
0.3123009396
 40
0.3747897658
 40
0.437274712
 40
0.4997566574
 40
0.5622357123
 40
0.6247119923
 40
0.6871853249
 40
0.7184278043
 40
0.7496697039
 40
0.7809118784
 40
0.8121555429
 40
0.8433979927
 40
0.8590252116
 40
0.8746546536
 40
0.8903012093
 40
0.9059427783
 40
0.9216526261
 40
0.9373088569
 40
0.9451313825
 40
0.9529791446
 40
0.9687005434
 40
0.9843573278
 40
1.0
 40
1.0
 40
1.0
 40
1.0
 10
2.2777627723
 20
3.6622011319
 30
0.0
 10
2.274270961
 20
3.6580008862
 30
0.0
 10
2.2666776134
 20
3.6500878305
 30
0.0
 10
2.2558934134
 20
3.6416312184
 30
0.0
 10
2.2466258379
 20
3.6358251673
 30
0.0
 10
2.2393831193
 20
3.6319686139
 30
0.0
 10
2.2318868163
 20
3.6286334872
 30
0.0
 10
2.2241726278
 20
3.6258397521
 30
0.0
 10
2.2162776069
 20
3.6236080305
 30
0.0
 10
2.2082404926
 20
3.6219613837
 30
0.0
 10
2.2014563718
 20
3.6211014199
 30
0.0
 10
2.1960018449
 20
3.6207459673
 30
0.0
 10
2.1919024859
 20
3.6206569622
 30
0.0
 10
2.1878031334
 20
3.6207612576
 30
0.0
 10
2.1837148074
 20
3.6210850728
 30
0.0
 10
2.180330981
 20
3.6215805465
 30
0.0
 10
2.1776582184
 20
3.6221579747
 30
0.0
 10
2.1756812006
 20
3.6227096353
 30
0.0
 10
2.1737459538
 20
3.6233984664
 30
0.0
 10
2.1718891473
 20
3.6242932548
 30
0.0
 10
2.1701836374
 20
3.6254569219
 30
0.0
 10
2.16896498
 20
3.6266841417
 30
0.0
 10
2.1681955843
 20
3.6278217008
 30
0.0
 10
2.1675615701
 20
3.6290421238
 30
0.0
 10
2.167008115
 20
3.6306776778
 30
0.0
 10
2.1666816485
 20
3.6327146227
 30
0.0
 10
2.1666287574
 20
3.6340848025
 30
0.0
 10
2.1666277405
 20
3.634768897
 30
0.0
  0
SPLINE
  5
2C3
100
AcDbEntity
  8
0
100
AcDbSpline
 62
7
  6
CONTINUOUS
 70
0
 71
3
 72
32
 73
28
 74
0
 42
0.0000001
 43
0.0000001
 44
0.0000000001
 40
0.0
 40
0.0
 40
0.0
 40
0.0
 40
0.1248981417
 40
0.249807756
 40
0.3123009394
 40
0.3747897656
 40
0.4372747118
 40
0.4997566572
 40
0.5622357122
 40
0.6247119922
 40
0.6871853248
 40
0.7184278042
 40
0.7496697039
 40
0.7809118783
 40
0.8121555428
 40
0.8433979927
 40
0.8590252116
 40
0.8746546536
 40
0.8903012094
 40
0.9059427784
 40
0.9216526261
 40
0.9373088569
 40
0.9451313825
 40
0.9529791446
 40
0.9687005433
 40
0.9843573278
 40
1.0
 40
1.0
 40
1.0
 40
1.0
 10
2.3828669362
 20
3.7075512974
 30
0.0
 10
2.3801140796
 20
3.7028336084
 30
0.0
 10
2.3739267281
 20
3.6937786616
 30
0.0
 10
2.3646815083
 20
3.6836623792
 30
0.0
 10
2.3564959644
 20
3.6764101344
 30
0.0
 10
2.3499867875
 20
3.6714140767
 30
0.0
 10
2.3431416615
 20
3.6668905958
 30
0.0
 10
2.3359925122
 20
3.6628652605
 30
0.0
 10
2.3285724933
 20
3.6593645098
 30
0.0
 10
2.3209160196
 20
3.6564174668
 30
0.0
 10
2.3143659678
 20
3.6544526118
 30
0.0
 10
2.3090443373
 20
3.6532042293
 30
0.0
 10
2.3050155369
 20
3.6524417118
 30
0.0
 10
2.3009549269
 20
3.6518698595
 30
0.0
 10
2.2968690616
 20
3.6515163479
 30
0.0
 10
2.2934498338
 20
3.6514481095
 30
0.0
 10
2.2907184828
 20
3.6515777441
 30
0.0
 10
2.2886776289
 20
3.6517964773
 30
0.0
 10
2.286655399
 20
3.6521573855
 30
0.0
 10
2.2846766404
 20
3.6527343527
 30
0.0
 10
2.2828028594
 20
3.653601434
 30
0.0
 10
2.2813988307
 20
3.6546113337
 30
0.0
 10
2.2804526939
 20
3.655606741
 30
0.0
 10
2.2796264535
 20
3.656706165
 30
0.0
 10
2.2788113457
 20
3.6582283176
 30
0.0
 10
2.2781540645
 20
3.6601837476
 30
0.0
 10
2.2778763726
 20
3.6615265347
 30
0.0
 10
2.2777627723
 20
3.6622011319
 30
0.0
  0
SPLINE
  5
2C4
100
AcDbEntity
  8
0
100
AcDbSpline
 62
7
  6
CONTINUOUS
 70
0
 71
3
 72
32
 73
28
 74
0
 42
0.0000001
 43
0.0000001
 44
0.0000000001
 40
0.0
 40
0.0
 40
0.0
 40
0.0
 40
0.1248981417
 40
0.2498077562
 40
0.3123009396
 40
0.3747897658
 40
0.437274712
 40
0.4997566574
 40
0.5622357123
 40
0.6247119923
 40
0.6871853249
 40
0.7184278043
 40
0.7496697039
 40
0.7809118784
 40
0.8121555429
 40
0.8433979927
 40
0.8590252116
 40
0.8746546536
 40
0.8903012093
 40
0.9059427783
 40
0.9216526261
 40
0.9373088569
 40
0.9451313825
 40
0.9529791446
 40
0.9687005434
 40
0.9843573278
 40
1.0
 40
1.0
 40
1.0
 40
1.0
 10
2.4790733156
 20
3.7695823812
 30
0.0
 10
2.4771345029
 20
3.7644759328
 30
0.0
 10
2.4725219195
 20
3.7545260858
 30
0.0
 10
2.4650678609
 20
3.7430260742
 30
0.0
 10
2.4581876249
 20
3.7345254544
 30
0.0
 10
2.45258954
 20
3.7285261693
 30
0.0
 10
2.4465823048
 20
3.722937721
 30
0.0
 10
2.4401932015
 20
3.717790584
 30
0.0
 10
2.4334505797
 20
3.713116294
 30
0.0
 10
2.4263835915
 20
3.7089492411
 30
0.0
 10
2.420246274
 20
3.7059330901
 30
0.0
 10
2.4152026975
 20
3.7038258297
 30
0.0
 10
2.4113543489
 20
3.7024105988
 30
0.0
 10
2.4074432423
 20
3.7011781971
 30
0.0
 10
2.4034712874
 20
3.7001570015
 30
0.0
 10
2.4001099242
 20
3.6995269123
 30
0.0
 10
2.3973944877
 20
3.6992052173
 30
0.0
 10
2.3953454659
 20
3.6990850568
 30
0.0
 10
2.3932914131
 20
3.6991081975
 30
0.0
 10
2.3912446768
 20
3.6993516057
 30
0.0
 10
2.3892537356
 20
3.6998984499
 30
0.0
 10
2.3877026331
 20
3.7006634826
 30
0.0
 10
2.386605563
 20
3.7014895865
 30
0.0
 10
2.3856096336
 20
3.7024380225
 30
0.0
 10
2.3845551067
 20
3.7038052542
 30
0.0
 10
2.3835849394
 20
3.7056258311
 30
0.0
 10
2.3830900212
 20
3.7069045985
 30
0.0
 10
2.3828669362
 20
3.7075512974
 30
0.0
  0
SPLINE
  5
2C5
100
AcDbEntity
  8
0
100
AcDbSpline
 62
7
  6
CONTINUOUS
 70
0
 71
3
 72
32
 73
28
 74
0
 42
0.0000001
 43
0.0000001
 44
0.0000000001
 40
0.0
 40
0.0
 40
0.0
 40
0.0
 40
0.1248981437
 40
0.2498077453
 40
0.3123009211
 40
0.3747897439
 40
0.4372746895
 40
0.4997566331
 40
0.562235686
 40
0.6247119638
 40
0.6871852942
 40
0.7184277723
 40
0.7496696706
 40
0.7809118441
 40
0.8121555063
 40
0.8433979561
 40
0.859025176
 40
0.8746546172
 40
0.8903011568
 40
0.9059427287
 40
0.9216526078
 40
0.9373088064
 40
0.9451313394
 40
0.9529791205
 40
0.968700537
 40
0.9843573226
 40
1.0
 40
1.0
 40
1.0
 40
1.0
 10
2.5637576978
 20
3.8466023669
 30
0.0
 10
2.5626858139
 20
3.8412464473
 30
0.0
 10
2.5597738156
 20
3.8306731018
 30
0.0
 10
2.5543142424
 20
3.8181030464
 30
0.0
 10
2.5489269866
 20
3.8085859231
 30
0.0
 10
2.5443926925
 20
3.801747053
 30
0.0
 10
2.5393872074
 20
3.7952460728
 30
0.0
 10
2.5339324253
 20
3.7891175323
 30
0.0
 10
2.5280511189
 20
3.7833972031
 30
0.0
 10
2.5217663823
 20
3.7781238046
 30
0.0
 10
2.5162092065
 20
3.7741386288
 30
0.0
 10
2.5115812576
 20
3.77122997
 30
0.0
 10
2.508018332
 20
3.7692006287
 30
0.0
 10
2.5043634119
 20
3.7673412938
 30
0.0
 10
2.5006137106
 20
3.7656802688
 30
0.0
 10
2.4974018998
 20
3.764505515
 30
0.0
 10
2.4947764462
 20
3.763741266
 30
0.0
 10
2.4927751485
 20
3.7632854884
 30
0.0
 10
2.4907453018
 20
3.7629702279
 30
0.0
 10
2.4886864157
 20
3.7628734444
 30
0.0
 10
2.4866326206
 20
3.763085126
 30
0.0
 10
2.4849767517
 20
3.7635844228
 30
0.0
 10
2.4837586769
 20
3.7642186967
 30
0.0
 10
2.4826202218
 20
3.7649902735
 30
0.0
 10
2.481355034
 20
3.7661652865
 30
0.0
 10
2.4800984439
 20
3.7678013526
 30
0.0
 10
2.4793998004
 20
3.7689812203
 30
0.0
 10
2.4790733156
 20
3.7695823812
 30
0.0
  0
SPLINE
  5
2C6
100
AcDbEntity
  8
0
100
AcDbSpline
 62
7
  6
CONTINUOUS
 70
0
 71
3
 72
32
 73
28
 74
0
 42
0.0000001
 43
0.0000001
 44
0.0000000001
 40
0.0
 40
0.0
 40
0.0
 40
0.0
 40
0.1248981417
 40
0.2498077562
 40
0.3123009396
 40
0.3747897658
 40
0.437274712
 40
0.4997566574
 40
0.5622357124
 40
0.6247119924
 40
0.6871853249
 40
0.7184278043
 40
0.749669704
 40
0.7809118784
 40
0.8121555429
 40
0.8433979927
 40
0.8590252116
 40
0.8746546536
 40
0.8903012094
 40
0.9059427784
 40
0.9216526262
 40
0.937308857
 40
0.9451313826
 40
0.9529791446
 40
0.9687005434
 40
0.9843573278
 40
1.0
 40
1.0
 40
1.0
 40
1.0
 10
2.6346101545
 20
3.9365103875
 30
0.0
 10
2.6344344371
 20
3.9310510897
 30
0.0
 10
2.6333024541
 20
3.9201426528
 30
0.0
 10
2.6299862855
 20
3.9068454244
 30
0.0
 10
2.6262389563
 20
3.8965713936
 30
0.0
 10
2.6228921337
 20
3.889079481
 30
0.0
 10
2.619024932
 20
3.8818432955
 30
0.0
 10
2.6146532602
 20
3.8749005191
 30
0.0
 10
2.6097936923
 20
3.8682901835
 30
0.0
 10
2.6044626345
 20
3.8620542814
 30
0.0
 10
2.5996371822
 20
3.8572087842
 30
0.0
 10
2.5955510963
 20
3.8535780664
 30
0.0
 10
2.5923707789
 20
3.8509899692
 30
0.0
 10
2.5890717398
 20
3.8485544179
 30
0.0
 10
2.5856465715
 20
3.8462988719
 30
0.0
 10
2.5826719209
 20
3.8446114986
 30
0.0
 10
2.5802080649
 20
3.8434255403
 30
0.0
 10
2.5783090785
 20
3.8426465797
 30
0.0
 10
2.5763588043
 20
3.8420015225
 30
0.0
 10
2.57434393
 20
3.8415671739
 30
0.0
 10
2.5722833032
 20
3.8414379371
 30
0.0
 10
2.5705678386
 20
3.8416578812
 30
0.0
 10
2.5692619765
 20
3.8420830102
 30
0.0
 10
2.5680120543
 20
3.8426566832
 30
0.0
 10
2.566570728
 20
3.8436074344
 30
0.0
 10
2.5650619908
 20
3.8450143592
 30
0.0
 10
2.5641786767
 20
3.8460631423
 30
0.0
 10
2.5637576978
 20
3.8466023669
 30
0.0
  0
SPLINE
  5
2C7
100
AcDbEntity
  8
0
100
AcDbSpline
 62
7
  6
CONTINUOUS
 70
0
 71
3
 72
33
 73
29
 74
0
 42
0.0000001
 43
0.0000001
 44
0.0000000001
 40
0.0
 40
0.0
 40
0.0
 40
0.0
 40
0.1249217428
 40
0.249830461
 40
0.3123040688
 40
0.3747754952
 40
0.4372449604
 40
0.4997125978
 40
0.562178402
 40
0.6246425789
 40
0.655878554
 40
0.6871142792
 40
0.7183504023
 40
0.7495884041
 40
0.7808265495
 40
0.7964483778
 40
0.8120728123
 40
0.8276969088
 40
0.8433313999
 40
0.8589775027
 40
0.8746172548
 40
0.8903115263
 40
0.9060269848
 40
0.9216647706
 40
0.9373220733
 40
0.9530521083
 40
0.9687388137
 40
1.0
 40
1.0
 40
1.0
 40
1.0
 10
2.6897626363
 20
4.0065872708
 30
0.0
 10
2.6892254426
 20
4.0024214676
 30
0.0
 10
2.6876997245
 20
3.9941418481
 30
0.0
 10
2.6846850518
 20
3.9840606699
 30
0.0
 10
2.6816269465
 20
3.9762322535
 30
0.0
 10
2.67901346
 20
3.9704945851
 30
0.0
 10
2.6760851659
 20
3.9649113319
 30
0.0
 10
2.6728458659
 20
3.9595025401
 30
0.0
 10
2.6692979916
 20
3.9542910892
 30
0.0
 10
2.6660830995
 20
3.9501346757
 30
0.0
 10
2.6633527623
 20
3.9469413276
 30
0.0
 10
2.6612225324
 20
3.9446188439
 30
0.0
 10
2.6590063369
 20
3.9423779621
 30
0.0
 10
2.6566978001
 20
3.9402319958
 30
0.0
 10
2.654688069
 20
3.9385395533
 30
0.0
 10
2.6530196495
 20
3.9372621619
 30
0.0
 10
2.6517355497
 20
3.9363478763
 30
0.0
 10
2.6504127764
 20
3.9354893693
 30
0.0
 10
2.6490478358
 20
3.9346978711
 30
0.0
 10
2.6476368841
 20
3.933989156
 30
0.0
 10
2.6461674363
 20
3.9334026234
 30
0.0
 10
2.6446386407
 20
3.9329810563
 30
0.0
 10
2.6430658474
 20
3.9327657672
 30
0.0
 10
2.6414766921
 20
3.9328100644
 30
0.0
 10
2.6399256399
 20
3.93315911
 30
0.0
 10
2.6384507198
 20
3.9337485672
 30
0.0
 10
2.6366143963
 20
3.9347933917
 30
0.0
 10
2.6353845321
 20
3.935799636
 30
0.0
 10
2.6346101545
 20
3.9365103875
 30
0.0
  0
SPLINE
  5
2C8
100
AcDbEntity
  8
0
100
AcDbSpline
 62
7
  6
CONTINUOUS
 70
0
 71
3
 72
15
 73
11
 74
0
 42
0.0000001
 43
0.0000001
 44
0.0000000001
 40
0.0
 40
0.0
 40
0.0
 40
0.0
 40
0.1250008529
 40
0.2500139445
 40
0.3750320074
 40
0.5000457262
 40
0.6250479699
 40
0.7500409052
 40
0.8750251578
 40
1.0
 40
1.0
 40
1.0
 40
1.0
 10
2.6391839982
 20
4.6946711271
 30
0.0
 10
2.642489661
 20
4.6930923998
 30
0.0
 10
2.6489543565
 20
4.6896161639
 30
0.0
 10
2.6581115077
 20
4.6835099857
 30
0.0
 10
2.6666540251
 20
4.6765678391
 30
0.0
 10
2.6745050179
 20
4.6688530442
 30
0.0
 10
2.6815927702
 20
4.6604324502
 30
0.0
 10
2.6878483855
 20
4.6513767538
 30
0.0
 10
2.6932015499
 20
4.6417616979
 30
0.0
 10
2.6961185948
 20
4.6350255227
 30
0.0
 10
2.6973935195
 20
4.631592045
 30
0.0
  0
SPLINE
  5
2C9
100
AcDbEntity
  8
0
100
AcDbSpline
 62
7
  6
CONTINUOUS
 70
0
 71
3
 72
32
 73
28
 74
0
 42
0.0000001
 43
0.0000001
 44
0.0000000001
 40
0.0
 40
0.0
 40
0.0
 40
0.0
 40
0.1248981417
 40
0.2498077563
 40
0.3123009398
 40
0.374789766
 40
0.4372747123
 40
0.4997566576
 40
0.5622357127
 40
0.6247119927
 40
0.6871853253
 40
0.7184278047
 40
0.7496697043
 40
0.7809118788
 40
0.8121555433
 40
0.8433979931
 40
0.859025212
 40
0.874654654
 40
0.8903012099
 40
0.9059427789
 40
0.9216526263
 40
0.9373088575
 40
0.945131383
 40
0.9529791449
 40
0.9687005434
 40
0.9843573279
 40
1.0
 40
1.0
 40
1.0
 40
1.0
 10
2.5694214561
 20
4.785427452
 30
0.0
 10
2.574670547
 20
4.7839168713
 30
0.0
 10
2.5849672588
 20
4.7801415427
 30
0.0
 10
2.5970434481
 20
4.7736624295
 30
0.0
 10
2.606083109
 20
4.7675075357
 30
0.0
 10
2.6125241149
 20
4.7624238934
 30
0.0
 10
2.6185894682
 20
4.7568985773
 30
0.0
 10
2.6242465457
 20
4.7509562601
 30
0.0
 10
2.6294615789
 20
4.7446225909
 30
0.0
 10
2.634197888
 20
4.7379237829
 30
0.0
 10
2.6377104668
 20
4.7320564476
 30
0.0
 10
2.6402269537
 20
4.7272040767
 30
0.0
 10
2.6419550903
 20
4.7234857155
 30
0.0
 10
2.6435062036
 20
4.7196897155
 30
0.0
 10
2.6448518557
 20
4.7158156367
 30
0.0
 10
2.6457573236
 20
4.7125177733
 30
0.0
 10
2.6463021195
 20
4.7098381688
 30
0.0
 10
2.6465910466
 20
4.7078060639
 30
0.0
 10
2.646737577
 20
4.7057571137
 30
0.0
 10
2.6466639882
 20
4.7036972686
 30
0.0
 10
2.6462833924
 20
4.7016679751
 30
0.0
 10
2.645649038
 20
4.7000590038
 30
0.0
 10
2.644916334
 20
4.6988974724
 30
0.0
 10
2.6440533649
 20
4.697826636
 30
0.0
 10
2.642777868
 20
4.6966628246
 30
0.0
 10
2.6410436086
 20
4.6955456544
 30
0.0
 10
2.6398100701
 20
4.6949468449
 30
0.0
 10
2.6391839982
 20
4.6946711271
 30
0.0
  0
SPLINE
  5
2CA
100
AcDbEntity
  8
0
100
AcDbSpline
 62
7
  6
CONTINUOUS
 70
0
 71
3
 72
32
 73
28
 74
0
 42
0.0000001
 43
0.0000001
 44
0.0000000001
 40
0.0
 40
0.0
 40
0.0
 40
0.0
 40
0.1248981425
 40
0.2498077518
 40
0.3123009321
 40
0.3747897569
 40
0.4372747029
 40
0.4997566476
 40
0.5622357017
 40
0.6247119808
 40
0.6871853125
 40
0.7184277913
 40
0.7496696905
 40
0.7809118645
 40
0.8121555281
 40
0.8433979779
 40
0.8590251972
 40
0.8746546389
 40
0.8903011881
 40
0.9059427583
 40
0.9216526187
 40
0.9373088364
 40
0.945131365
 40
0.9529791348
 40
0.9687005408
 40
0.9843573257
 40
1.0
 40
1.0
 40
1.0
 40
1.0
 10
2.4856724987
 20
4.863463565
 30
0.0
 10
2.4910986314
 20
4.8628375507
 30
0.0
 10
2.5018763049
 20
4.8608084799
 30
0.0
 10
2.5148542109
 20
4.8564053898
 30
0.0
 10
2.5247836377
 20
4.8518223057
 30
0.0
 10
2.5319735308
 20
4.847868142
 30
0.0
 10
2.5388655911
 20
4.8434164984
 30
0.0
 10
2.5454235794
 20
4.8384863414
 30
0.0
 10
2.5516099661
 20
4.8330974126
 30
0.0
 10
2.5573842571
 20
4.8272695302
 30
0.0
 10
2.5618146528
 20
4.8220603628
 30
0.0
 10
2.5650954858
 20
4.8176883673
 30
0.0
 10
2.5674120701
 20
4.8143051584
 30
0.0
 10
2.5695668241
 20
4.8108162326
 30
0.0
 10
2.5715317706
 20
4.8072164756
 30
0.0
 10
2.5729676952
 20
4.8041126239
 30
0.0
 10
2.5739461052
 20
4.8015592346
 30
0.0
 10
2.5745655626
 20
4.7996024004
 30
0.0
 10
2.5750473389
 20
4.7976055129
 30
0.0
 10
2.5753137872
 20
4.7955616482
 30
0.0
 10
2.5752723939
 20
4.7934973878
 30
0.0
 10
2.5749115173
 20
4.7918059493
 30
0.0
 10
2.5743799833
 20
4.7905396627
 30
0.0
 10
2.5737050365
 20
4.7893413911
 30
0.0
 10
2.5726384926
 20
4.7879835118
 30
0.0
 10
2.5711117636
 20
4.7865961308
 30
0.0
 10
2.5699936081
 20
4.7858024567
 30
0.0
 10
2.5694214561
 20
4.785427452
 30
0.0
  0
SPLINE
  5
2CB
100
AcDbEntity
  8
0
100
AcDbSpline
 62
7
  6
CONTINUOUS
 70
0
 71
3
 72
32
 73
28
 74
0
 42
0.0000001
 43
0.0000001
 44
0.0000000001
 40
0.0
 40
0.0
 40
0.0
 40
0.0
 40
0.1248981418
 40
0.2498077564
 40
0.3123009399
 40
0.3747897661
 40
0.4372747124
 40
0.4997566578
 40
0.5622357129
 40
0.6247119929
 40
0.6871853256
 40
0.718427805
 40
0.7496697047
 40
0.7809118792
 40
0.8121555437
 40
0.8433979935
 40
0.8590252124
 40
0.8746546544
 40
0.8903012105
 40
0.9059427795
 40
0.9216526266
 40
0.9373088584
 40
0.9451313837
 40
0.9529791453
 40
0.9687005436
 40
0.984357328
 40
1.0
 40
1.0
 40
1.0
 40
1.0
 10
2.3902215387
 20
4.926650882
 30
0.0
 10
2.395676705
 20
4.9269265098
 30
0.0
 10
2.4066413591
 20
4.9266990436
 30
0.0
 10
2.4201669853
 20
4.924492079
 30
0.0
 10
2.4307153347
 20
4.9216058165
 30
0.0
 10
2.4384579971
 20
4.9188889884
 30
0.0
 10
2.4459887705
 20
4.915632444
 30
0.0
 10
2.453268788
 20
4.9118489265
 30
0.0
 10
2.4602577827
 20
4.907551731
 30
0.0
 10
2.4669125508
 20
4.9027537404
 30
0.0
 10
2.4721399161
 20
4.8983448306
 30
0.0
 10
2.476095604
 20
4.8945724648
 30
0.0
 10
2.4789374466
 20
4.8916166914
 30
0.0
 10
2.4816370664
 20
4.8885300068
 30
0.0
 10
2.4841677093
 20
4.8853027615
 30
0.0
 10
2.4860949225
 20
4.8824775847
 30
0.0
 10
2.4874802591
 20
4.8801200593
 30
0.0
 10
2.4884133493
 20
4.8782918712
 30
0.0
 10
2.4892172279
 20
4.8764015147
 30
0.0
 10
2.4898164512
 20
4.8744293818
 30
0.0
 10
2.4901153815
 20
4.8723864608
 30
0.0
 10
2.4900378252
 20
4.8706586938
 30
0.0
 10
2.489721966
 20
4.8693221896
 30
0.0
 10
2.4892534511
 20
4.8680291699
 30
0.0
 10
2.4884249485
 20
4.8665142663
 30
0.0
 10
2.4871473959
 20
4.8648945181
 30
0.0
 10
2.4861751242
 20
4.8639276274
 30
0.0
 10
2.4856724987
 20
4.863463565
 30
0.0
  0
SPLINE
  5
2CC
100
AcDbEntity
  8
0
100
AcDbSpline
 62
7
  6
CONTINUOUS
 70
0
 71
3
 72
32
 73
28
 74
0
 42
0.0000001
 43
0.0000001
 44
0.0000000001
 40
0.0
 40
0.0
 40
0.0
 40
0.0
 40
0.1248981417
 40
0.2498077562
 40
0.3123009396
 40
0.3747897658
 40
0.437274712
 40
0.4997566574
 40
0.5622357123
 40
0.6247119923
 40
0.6871853249
 40
0.7184278043
 40
0.7496697039
 40
0.7809118784
 40
0.8121555429
 40
0.8433979927
 40
0.8590252116
 40
0.8746546536
 40
0.8903012093
 40
0.9059427783
 40
0.9216526261
 40
0.9373088569
 40
0.9451313825
 40
0.9529791446
 40
0.9687005434
 40
0.9843573278
 40
1.0
 40
1.0
 40
1.0
 40
1.0
 10
2.2856721834
 20
4.9732658485
 30
0.0
 10
2.2910075832
 20
4.9744356001
 30
0.0
 10
2.3018601357
 20
4.976015943
 30
0.0
 10
2.3155645445
 20
4.9760653033
 30
0.0
 10
2.3264440897
 20
4.9749545909
 30
0.0
 10
2.3345283255
 20
4.9735492053
 30
0.0
 10
2.3424923956
 20
4.9715765887
 30
0.0
 10
2.350295866
 20
4.9690429136
 30
0.0
 10
2.3578968304
 20
4.9659546657
 30
0.0
 10
2.3652505542
 20
4.9623174415
 30
0.0
 10
2.3711323025
 20
4.9588290509
 30
0.0
 10
2.3756549465
 20
4.9557592135
 30
0.0
 10
2.3789445308
 20
4.9533115
 30
0.0
 10
2.382115379
 20
4.950711252
 30
0.0
 10
2.3851426903
 20
4.9479445477
 30
0.0
 10
2.3875086241
 20
4.9454751081
 30
0.0
 10
2.3892630993
 20
4.9433777526
 30
0.0
 10
2.3904843709
 20
4.9417280785
 30
0.0
 10
2.3915884255
 20
4.9399958164
 30
0.0
 10
2.3925040757
 20
4.9381492083
 30
0.0
 10
2.3931351801
 20
4.9361833516
 30
0.0
 10
2.3933430602
 20
4.9344663834
 30
0.0
 10
2.393251488
 20
4.9330961188
 30
0.0
 10
2.3930021852
 20
4.9317436195
 30
0.0
 10
2.392434325
 20
4.9301130109
 30
0.0
 10
2.3914407956
 20
4.9283050772
 30
0.0
 10
2.3906409277
 20
4.9271913441
 30
0.0
 10
2.3902215387
 20
4.926650882
 30
0.0
  0
SPLINE
  5
2CD
100
AcDbEntity
  8
0
100
AcDbSpline
 62
7
  6
CONTINUOUS
 70
0
 71
3
 72
32
 73
28
 74
0
 42
0.0000001
 43
0.0000001
 44
0.0000000001
 40
0.0
 40
0.0
 40
0.0
 40
0.0
 40
0.1248981143
 40
0.2498077088
 40
0.3123008894
 40
0.3747897199
 40
0.4372746714
 40
0.4997566227
 40
0.5622356845
 40
0.6247119723
 40
0.6871853133
 40
0.7184277986
 40
0.7496697026
 40
0.7809118813
 40
0.8121555568
 40
0.8433980109
 40
0.8590252257
 40
0.8746546802
 40
0.890301283
 40
0.9059428547
 40
0.9216526403
 40
0.9373088817
 40
0.9451314069
 40
0.9529791606
 40
0.9687005351
 40
0.9843573188
 40
1.0
 40
1.0
 40
1.0
 40
1.0
 10
2.174876216
 20
5.0020369521
 30
0.0
 10
2.1799463151
 20
5.0040689199
 30
0.0
 10
2.19039074
 20
5.0074139645
 30
0.0
 10
2.2039001153
 20
5.0097183039
 30
0.0
 10
2.2148140952
 20
5.0104134384
 30
0.0
 10
2.2230193917
 20
5.0103578304
 30
0.0
 10
2.2311995242
 20
5.009722949
 30
0.0
 10
2.2393135937
 20
5.008508227
 30
0.0
 10
2.2473191982
 20
5.0067131647
 30
0.0
 10
2.2551712918
 20
5.004335919
 30
0.0
 10
2.2615469882
 20
5.0018631993
 30
0.0
 10
2.2665132256
 20
4.9995796264
 30
0.0
 10
2.2701608223
 20
4.9977067381
 30
0.0
 10
2.2737164087
 20
4.9956638527
 30
0.0
 10
2.2771578141
 20
4.9934331572
 30
0.0
 10
2.2798979325
 20
4.9913868118
 30
0.0
 10
2.281973691
 20
4.9896068363
 30
0.0
 10
2.283449832
 20
4.9881806711
 30
0.0
 10
2.2848239488
 20
4.986653752
 30
0.0
 10
2.2860310526
 20
4.9849830409
 30
0.0
 10
2.2869771106
 20
4.9831478699
 30
0.0
 10
2.2874647532
 20
4.9814885361
 30
0.0
 10
2.2875999695
 20
4.9801218879
 30
0.0
 10
2.2875766788
 20
4.9787468024
 30
0.0
 10
2.2872849481
 20
4.9770449688
 30
0.0
 10
2.286602542
 20
4.9750981654
 30
0.0
 10
2.2859968965
 20
4.9738679684
 30
0.0
 10
2.2856721834
 20
4.9732658485
 30
0.0
  0
SPLINE
  5
2CE
100
AcDbEntity
  8
0
100
AcDbSpline
 62
7
  6
CONTINUOUS
 70
0
 71
3
 72
32
 73
28
 74
0
 42
0.0000001
 43
0.0000001
 44
0.0000000001
 40
0.0
 40
0.0
 40
0.0
 40
0.0
 40
0.1248981393
 40
0.2498077516
 40
0.3123009345
 40
0.374789761
 40
0.4372747077
 40
0.4997566536
 40
0.5622357092
 40
0.6247119898
 40
0.6871853231
 40
0.718427803
 40
0.749669703
 40
0.7809118779
 40
0.8121555433
 40
0.8433979935
 40
0.859025212
 40
0.8746546551
 40
0.8903012147
 40
0.9059427841
 40
0.921652627
 40
0.9373088581
 40
0.9451313838
 40
0.9529791455
 40
0.9687005425
 40
0.9843573269
 40
1.0
 40
1.0
 40
1.0
 40
1.0
 10
2.0608558081
 20
5.012179406
 30
0.0
 10
2.0655223118
 20
5.015018165
 30
0.0
 10
2.0752737212
 20
5.0200366698
 30
0.0
 10
2.088219573
 20
5.0245331319
 30
0.0
 10
2.0988702893
 20
5.0270151522
 30
0.0
 10
2.1069728307
 20
5.0283108375
 30
0.0
 10
2.1151458952
 20
5.0290310082
 30
0.0
 10
2.1233492355
 20
5.0291683731
 30
0.0
 10
2.13154111
 20
5.0287154601
 30
0.0
 10
2.1396773904
 20
5.027663037
 30
0.0
 10
2.146373124
 20
5.0262734379
 30
0.0
 10
2.1516474891
 20
5.0248384174
 30
0.0
 10
2.1555536023
 20
5.0235914426
 30
0.0
 10
2.1593969403
 20
5.0221616445
 30
0.0
 10
2.1631585662
 20
5.0205278033
 30
0.0
 10
2.1661981283
 20
5.0189603731
 30
0.0
 10
2.1685385474
 20
5.0175463285
 30
0.0
 10
2.170229292
 20
5.0163825793
 30
0.0
 10
2.1718359869
 20
5.0151026571
 30
0.0
 10
2.1733016132
 20
5.0136534102
 30
0.0
 10
2.1745368301
 20
5.0119989847
 30
0.0
 10
2.1752909404
 20
5.0104425429
 30
0.0
 10
2.1756492503
 20
5.0091167886
 30
0.0
 10
2.1758526072
 20
5.0077566225
 30
0.0
 10
2.1758449678
 20
5.006029981
 30
0.0
 10
2.1754922997
 20
5.0039974087
 30
0.0
 10
2.1750973956
 20
5.0026843052
 30
0.0
 10
2.174876216
 20
5.0020369521
 30
0.0
  0
SPLINE
  5
2CF
100
AcDbEntity
  8
0
100
AcDbSpline
 62
7
  6
CONTINUOUS
 70
0
 71
3
 72
32
 73
28
 74
0
 42
0.0000001
 43
0.0000001
 44
0.0000000001
 40
0.0
 40
0.0
 40
0.0
 40
0.0
 40
0.1248981417
 40
0.2498077562
 40
0.3123009396
 40
0.3747897658
 40
0.437274712
 40
0.4997566574
 40
0.5622357123
 40
0.6247119923
 40
0.6871853249
 40
0.7184278043
 40
0.7496697039
 40
0.7809118784
 40
0.8121555429
 40
0.8433979927
 40
0.8590252116
 40
0.8746546536
 40
0.8903012093
 40
0.9059427783
 40
0.9216526261
 40
0.9373088569
 40
0.9451313825
 40
0.9529791446
 40
0.9687005434
 40
0.9843573278
 40
1.0
 40
1.0
 40
1.0
 40
1.0
 10
1.946721084
 20
5.0034165556
 30
0.0
 10
1.9508567036
 20
5.0069846728
 30
0.0
 10
1.9596491075
 20
5.0135397482
 30
0.0
 10
1.9716783114
 20
5.0201056839
 30
0.0
 10
1.981775245
 20
5.0243068881
 30
0.0
 10
1.9895540193
 20
5.026918525
 30
0.0
 10
1.9974970806
 20
5.0289741039
 30
0.0
 10
2.0055659306
 20
5.0304598089
 30
0.0
 10
2.0137206269
 20
5.0313613993
 30
0.0
 10
2.0219191626
 20
5.0316625055
 30
0.0
 10
2.0287522951
 20
5.0313939302
 30
0.0
 10
2.0341909204
 20
5.0308466054
 30
0.0
 10
2.0382490037
 20
5.0302595569
 30
0.0
 10
2.0422752594
 20
5.0294818462
 30
0.0
 10
2.0462545015
 20
5.0284894258
 30
0.0
 10
2.0495105969
 20
5.0274436641
 30
0.0
 10
2.0520518383
 20
5.0264341217
 30
0.0
 10
2.0539110688
 20
5.0255645294
 30
0.0
 10
2.055706517
 20
5.0245665145
 30
0.0
 10
2.0573906904
 20
5.023378265
 30
0.0
 10
2.0588813683
 20
5.0219497115
 30
0.0
 10
2.0598813737
 20
5.0205386186
 30
0.0
 10
2.0604530067
 20
5.0192899208
 30
0.0
 10
2.0608774641
 20
5.0179817763
 30
0.0
 10
2.0611541224
 20
5.0162774261
 30
0.0
 10
2.0611408117
 20
5.0142145281
 30
0.0
 10
2.0609674212
 20
5.0128543349
 30
0.0
 10
2.0608558081
 20
5.012179406
 30
0.0
  0
SPLINE
  5
2D0
100
AcDbEntity
  8
0
100
AcDbSpline
 62
7
  6
CONTINUOUS
 70
0
 71
3
 72
32
 73
28
 74
0
 42
0.0000001
 43
0.0000001
 44
0.0000000001
 40
0.0
 40
0.0
 40
0.0
 40
0.0
 40
0.1248981417
 40
0.2498077562
 40
0.3123009396
 40
0.3747897658
 40
0.437274712
 40
0.4997566574
 40
0.5622357123
 40
0.6247119923
 40
0.6871853249
 40
0.7184278043
 40
0.7496697039
 40
0.7809118784
 40
0.8121555429
 40
0.8433979927
 40
0.8590252116
 40
0.8746546536
 40
0.8903012093
 40
0.9059427783
 40
0.9216526261
 40
0.9373088569
 40
0.9451313825
 40
0.9529791446
 40
0.9687005434
 40
0.9843573278
 40
1.0
 40
1.0
 40
1.0
 40
1.0
 10
1.8355852863
 20
4.9759874242
 30
0.0
 10
1.8390772148
 20
4.9801875724
 30
0.0
 10
1.8466707834
 20
4.9881004161
 30
0.0
 10
1.8574552196
 20
4.996556727
 30
0.0
 10
1.8667229572
 20
5.0023625193
 30
0.0
 10
1.8739657835
 20
5.0062188704
 30
0.0
 10
1.8814621796
 20
5.0095537878
 30
0.0
 10
1.8891764461
 20
5.0123473075
 30
0.0
 10
1.8970715293
 20
5.0145788086
 30
0.0
 10
1.9051086896
 20
5.0162252309
 30
0.0
 10
1.9118928344
 20
5.0170850053
 30
0.0
 10
1.9173473712
 20
5.0174403056
 30
0.0
 10
1.9214467327
 20
5.0175291962
 30
0.0
 10
1.9255460823
 20
5.0174247863
 30
0.0
 10
1.9296343993
 20
5.017100857
 30
0.0
 10
1.9330182118
 20
5.0166052888
 30
0.0
 10
1.9356909583
 20
5.0160277859
 30
0.0
 10
1.9376679607
 20
5.0154760701
 30
0.0
 10
1.9396031882
 20
5.014787185
 30
0.0
 10
1.9414599698
 20
5.0138923448
 30
0.0
 10
1.9431654472
 20
5.01272863
 30
0.0
 10
1.9443840703
 20
5.0115013762
 30
0.0
 10
1.9451534342
 20
5.0103637956
 30
0.0
 10
1.9457874144
 20
5.0091433549
 30
0.0
 10
1.9463408238
 20
5.0075077854
 30
0.0
 10
1.9466672335
 20
5.0054708314
 30
0.0
 10
1.9467200863
 20
5.0041006502
 30
0.0
 10
1.946721084
 20
5.0034165556
 30
0.0
  0
SPLINE
  5
2D1
100
AcDbEntity
  8
0
100
AcDbSpline
 62
7
  6
CONTINUOUS
 70
0
 71
3
 72
32
 73
28
 74
0
 42
0.0000001
 43
0.0000001
 44
0.0000000001
 40
0.0
 40
0.0
 40
0.0
 40
0.0
 40
0.1248981417
 40
0.249807756
 40
0.3123009394
 40
0.3747897656
 40
0.4372747118
 40
0.4997566572
 40
0.5622357122
 40
0.6247119922
 40
0.6871853248
 40
0.7184278042
 40
0.7496697039
 40
0.7809118783
 40
0.8121555428
 40
0.8433979927
 40
0.8590252116
 40
0.8746546536
 40
0.8903012094
 40
0.9059427784
 40
0.9216526261
 40
0.9373088569
 40
0.9451313825
 40
0.9529791446
 40
0.9687005433
 40
0.9843573278
 40
1.0
 40
1.0
 40
1.0
 40
1.0
 10
1.7304798559
 20
4.9306401938
 30
0.0
 10
1.7332328444
 20
4.9353578059
 30
0.0
 10
1.7394204487
 20
4.94441258
 30
0.0
 10
1.748665951
 20
4.9545286041
 30
0.0
 10
1.7568516974
 20
4.9617806204
 30
0.0
 10
1.7633610138
 20
4.9667764963
 30
0.0
 10
1.7702062661
 20
4.971299786
 30
0.0
 10
1.7773555278
 20
4.9753249217
 30
0.0
 10
1.7847756445
 20
4.9788254651
 30
0.0
 10
1.7924322005
 20
4.9817722943
 30
0.0
 10
1.7989823071
 20
4.9837369664
 30
0.0
 10
1.8043039725
 20
4.9849852003
 30
0.0
 10
1.8083327942
 20
4.9857476053
 30
0.0
 10
1.8123934202
 20
4.9863193443
 30
0.0
 10
1.8164792954
 20
4.9866727417
 30
0.0
 10
1.8198985251
 20
4.9867408847
 30
0.0
 10
1.8226298724
 20
4.9866111738
 30
0.0
 10
1.8246707202
 20
4.9863923836
 30
0.0
 10
1.82669294
 20
4.986031419
 30
0.0
 10
1.8286716825
 20
4.9854543965
 30
0.0
 10
1.8305454393
 20
4.9845872628
 30
0.0
 10
1.8319494398
 20
4.9835773239
 30
0.0
 10
1.8328955488
 20
4.9825818902
 30
0.0
 10
1.8337217585
 20
4.9814824432
 30
0.0
 10
1.8345368238
 20
4.9799602678
 30
0.0
 10
1.8351940504
 20
4.9780048194
 30
0.0
 10
1.8354717048
 20
4.9766620245
 30
0.0
 10
1.8355852863
 20
4.9759874242
 30
0.0
  0
SPLINE
  5
2D2
100
AcDbEntity
  8
0
100
AcDbSpline
 62
7
  6
CONTINUOUS
 70
0
 71
3
 72
32
 73
28
 74
0
 42
0.0000001
 43
0.0000001
 44
0.0000000001
 40
0.0
 40
0.0
 40
0.0
 40
0.0
 40
0.1248981417
 40
0.2498077562
 40
0.3123009396
 40
0.3747897658
 40
0.437274712
 40
0.4997566574
 40
0.5622357123
 40
0.6247119923
 40
0.6871853249
 40
0.7184278043
 40
0.7496697039
 40
0.7809118784
 40
0.8121555429
 40
0.8433979927
 40
0.8590252116
 40
0.8746546536
 40
0.8903012093
 40
0.9059427783
 40
0.9216526261
 40
0.9373088569
 40
0.9451313825
 40
0.9529791446
 40
0.9687005434
 40
0.9843573278
 40
1.0
 40
1.0
 40
1.0
 40
1.0
 10
1.6342717443
 20
4.8686117966
 30
0.0
 10
1.6362106997
 20
4.8737181909
 30
0.0
 10
1.6408235609
 20
4.883667909
 30
0.0
 10
1.6482779407
 20
4.8951677124
 30
0.0
 10
1.655158414
 20
4.9036681402
 30
0.0
 10
1.6607566665
 20
4.9096672689
 30
0.0
 10
1.6667640577
 20
4.9152555495
 30
0.0
 10
1.6731533048
 20
4.920402508
 30
0.0
 10
1.6798960571
 20
4.9250766097
 30
0.0
 10
1.6869631617
 20
4.9292434653
 30
0.0
 10
1.6931005634
 20
4.9322594449
 30
0.0
 10
1.6981441987
 20
4.9343665644
 30
0.0
 10
1.7019925869
 20
4.9357816879
 30
0.0
 10
1.7059037279
 20
4.9370139803
 30
0.0
 10
1.7098757113
 20
4.938035065
 30
0.0
 10
1.7132370921
 20
4.9386650604
 30
0.0
 10
1.7159525376
 20
4.9389866796
 30
0.0
 10
1.7180015627
 20
4.9391067829
 30
0.0
 10
1.7200556149
 20
4.9390835848
 30
0.0
 10
1.7221023444
 20
4.9388401194
 30
0.0
 10
1.7240932703
 20
4.9382932197
 30
0.0
 10
1.7256443514
 20
4.9375281436
 30
0.0
 10
1.7267413984
 20
4.9367020091
 30
0.0
 10
1.7277373014
 20
4.9357535453
 30
0.0
 10
1.7287917901
 20
4.9343862842
 30
0.0
 10
1.7297619065
 20
4.9325656801
 30
0.0
 10
1.730256789
 20
4.9312868989
 30
0.0
 10
1.7304798559
 20
4.9306401938
 30
0.0
  0
SPLINE
  5
2D3
100
AcDbEntity
  8
0
100
AcDbSpline
 62
7
  6
CONTINUOUS
 70
0
 71
3
 72
32
 73
28
 74
0
 42
0.0000001
 43
0.0000001
 44
0.0000000001
 40
0.0
 40
0.0
 40
0.0
 40
0.0
 40
0.1248981437
 40
0.2498077453
 40
0.3123009211
 40
0.3747897438
 40
0.4372746895
 40
0.4997566331
 40
0.562235686
 40
0.6247119638
 40
0.6871852942
 40
0.7184277723
 40
0.7496696706
 40
0.7809118441
 40
0.8121555063
 40
0.8433979561
 40
0.859025176
 40
0.8746546172
 40
0.8903011568
 40
0.9059427287
 40
0.9216526078
 40
0.9373088064
 40
0.9451313394
 40
0.9529791205
 40
0.968700537
 40
0.9843573226
 40
1.0
 40
1.0
 40
1.0
 40
1.0
 10
1.5495852114
 20
4.7915941757
 30
0.0
 10
1.5506572449
 20
4.7969500654
 30
0.0
 10
1.5535695384
 20
4.8075233296
 30
0.0
 10
1.5590294627
 20
4.8200932325
 30
0.0
 10
1.5644169842
 20
4.8296102054
 30
0.0
 10
1.5689514693
 20
4.8364489489
 30
0.0
 10
1.573957136
 20
4.8429497892
 30
0.0
 10
1.5794120892
 20
4.8490781774
 30
0.0
 10
1.5852935553
 20
4.8547983424
 30
0.0
 10
1.5915784392
 20
4.8600715654
 30
0.0
 10
1.5971357263
 20
4.864056586
 30
0.0
 10
1.6017637564
 20
4.8669651156
 30
0.0
 10
1.6053267387
 20
4.8689943573
 30
0.0
 10
1.6089817107
 20
4.8708535902
 30
0.0
 10
1.6127314584
 20
4.8725145105
 30
0.0
 10
1.615943302
 20
4.8736891746
 30
0.0
 10
1.6185687769
 20
4.8744533503
 30
0.0
 10
1.6205700873
 20
4.874909072
 30
0.0
 10
1.6225999428
 20
4.8752242758
 30
0.0
 10
1.6246588317
 20
4.8753210018
 30
0.0
 10
1.6267126208
 20
4.8751092629
 30
0.0
 10
1.6283684758
 20
4.8746099198
 30
0.0
 10
1.6295865329
 20
4.8739756119
 30
0.0
 10
1.6307249664
 20
4.8732040034
 30
0.0
 10
1.6319901214
 20
4.872028955
 30
0.0
 10
1.6332466658
 20
4.8703928538
 30
0.0
 10
1.6339452763
 20
4.8692129666
 30
0.0
 10
1.6342717443
 20
4.8686117966
 30
0.0
  0
SPLINE
  5
2D4
100
AcDbEntity
  8
0
100
AcDbSpline
 62
7
  6
CONTINUOUS
 70
0
 71
3
 72
32
 73
28
 74
0
 42
0.0000001
 43
0.0000001
 44
0.0000000001
 40
0.0
 40
0.0
 40
0.0
 40
0.0
 40
0.1248981417
 40
0.2498077562
 40
0.3123009396
 40
0.3747897658
 40
0.437274712
 40
0.4997566574
 40
0.5622357124
 40
0.6247119924
 40
0.6871853249
 40
0.7184278043
 40
0.749669704
 40
0.7809118784
 40
0.8121555429
 40
0.8433979927
 40
0.8590252116
 40
0.8746546536
 40
0.8903012094
 40
0.9059427784
 40
0.9216526262
 40
0.937308857
 40
0.9451313826
 40
0.9529791446
 40
0.9687005434
 40
0.9843573278
 40
1.0
 40
1.0
 40
1.0
 40
1.0
 10
1.478730244
 20
4.7016881337
 30
0.0
 10
1.4789061139
 20
4.7071474267
 30
0.0
 10
1.4800384015
 20
4.7180558319
 30
0.0
 10
1.4833549414
 20
4.7313529677
 30
0.0
 10
1.4871025575
 20
4.7416268938
 30
0.0
 10
1.4904495894
 20
4.749118713
 30
0.0
 10
1.4943169931
 20
4.7563547905
 30
0.0
 10
1.4986888588
 20
4.7632974449
 30
0.0
 10
1.5035486113
 20
4.7699076447
 30
0.0
 10
1.5088798432
 20
4.776143398
 30
0.0
 10
1.5137054308
 20
4.7809887604
 30
0.0
 10
1.5177916182
 20
4.7846193641
 30
0.0
 10
1.5209720079
 20
4.7872073725
 30
0.0
 10
1.5242711149
 20
4.7896428316
 30
0.0
 10
1.5276963462
 20
4.791898282
 30
0.0
 10
1.5306710439
 20
4.7935855722
 30
0.0
 10
1.533134933
 20
4.7947714617
 30
0.0
 10
1.5350339412
 20
4.7955503693
 30
0.0
 10
1.5369842334
 20
4.796195372
 30
0.0
 10
1.5389991198
 20
4.7966296644
 30
0.0
 10
1.5410597503
 20
4.7967588436
 30
0.0
 10
1.5427752087
 20
4.7965388517
 30
0.0
 10
1.5440810589
 20
4.7961136862
 30
0.0
 10
1.5453309651
 20
4.7955399783
 30
0.0
 10
1.5467722649
 20
4.7945891868
 30
0.0
 10
1.5482809627
 20
4.7931822199
 30
0.0
 10
1.5491642476
 20
4.7921334121
 30
0.0
 10
1.5495852114
 20
4.7915941757
 30
0.0
  0
SPLINE
  5
2D5
100
AcDbEntity
  8
0
100
AcDbSpline
 62
7
  6
CONTINUOUS
 70
0
 71
3
 72
32
 73
28
 74
0
 42
0.0000001
 43
0.0000001
 44
0.0000000001
 40
0.0
 40
0.0
 40
0.0
 40
0.0
 40
0.1248981418
 40
0.2498077565
 40
0.31230094
 40
0.3747897663
 40
0.4372747126
 40
0.4997566581
 40
0.5622357132
 40
0.6247119932
 40
0.6871853259
 40
0.7184278053
 40
0.749669705
 40
0.7809118795
 40
0.8121555441
 40
0.8433979939
 40
0.8590252128
 40
0.8746546548
 40
0.8903012111
 40
0.9059427801
 40
0.9216526269
 40
0.9373088591
 40
0.9451313843
 40
0.9529791456
 40
0.9687005437
 40
0.9843573281
 40
1.0
 40
1.0
 40
1.0
 40
1.0
 10
1.4236395467
 20
4.6013460296
 30
0.0
 10
1.4229144558
 20
4.6067598132
 30
0.0
 10
1.4222358521
 20
4.6177058115
 30
0.0
 10
1.4233185421
 20
4.6313674746
 30
0.0
 10
1.4253240289
 20
4.6421181122
 30
0.0
 10
1.4273923103
 20
4.650058653
 30
0.0
 10
1.4300159599
 20
4.6578325897
 30
0.0
 10
1.4331854869
 20
4.6654001361
 30
0.0
 10
1.4368909663
 20
4.672720065
 30
0.0
 10
1.4411231262
 20
4.6797482564
 30
0.0
 10
1.4450853869
 20
4.6853217942
 30
0.0
 10
1.4485182725
 20
4.6895754405
 30
0.0
 10
1.4512293182
 20
4.6926516228
 30
0.0
 10
1.4540825706
 20
4.6955968764
 30
0.0
 10
1.4570898554
 20
4.6983853355
 30
0.0
 10
1.4597462665
 20
4.7005392286
 30
0.0
 10
1.4619813627
 20
4.7021144836
 30
0.0
 10
1.4637262685
 20
4.7031953317
 30
0.0
 10
1.4655437988
 20
4.7041525423
 30
0.0
 10
1.4674597235
 20
4.7049125483
 30
0.0
 10
1.4694709883
 20
4.705379131
 30
0.0
 10
1.4711992597
 20
4.705444492
 30
0.0
 10
1.4725572795
 20
4.7052400595
 30
0.0
 10
1.4738845672
 20
4.704879902
 30
0.0
 10
1.4754627034
 20
4.7041793056
 30
0.0
 10
1.4771824021
 20
4.703039849
 30
0.0
 10
1.4782262669
 20
4.702150728
 30
0.0
 10
1.478730244
 20
4.7016881337
 30
0.0
  0
SPLINE
  5
2D6
100
AcDbEntity
  8
0
100
AcDbSpline
 62
7
  6
CONTINUOUS
 70
0
 71
3
 72
32
 73
28
 74
0
 42
0.0000001
 43
0.0000001
 44
0.0000000001
 40
0.0
 40
0.0
 40
0.0
 40
0.0
 40
0.1248981417
 40
0.2498077562
 40
0.3123009396
 40
0.3747897658
 40
0.437274712
 40
0.4997566574
 40
0.5622357123
 40
0.6247119923
 40
0.6871853249
 40
0.7184278043
 40
0.7496697039
 40
0.7809118784
 40
0.8121555429
 40
0.8433979927
 40
0.8590252116
 40
0.8746546536
 40
0.8903012093
 40
0.9059427783
 40
0.9216526261
 40
0.9373088569
 40
0.9451313825
 40
0.9529791446
 40
0.9687005434
 40
0.9843573278
 40
1.0
 40
1.0
 40
1.0
 40
1.0
 10
1.3858158234
 20
4.4933048858
 30
0.0
 10
1.38420955
 20
4.4985254888
 30
0.0
 10
1.3817385651
 20
4.509210507
 30
0.0
 10
1.3805578729
 20
4.5228640495
 30
0.0
 10
1.3807665267
 20
4.5337981544
 30
0.0
 10
1.3814996414
 20
4.5419708234
 30
0.0
 10
1.3828079718
 20
4.5500705703
 30
0.0
 10
1.3846887051
 20
4.5580565895
 30
0.0
 10
1.3871388374
 20
4.5658865823
 30
0.0
 10
1.3901564851
 20
4.5735155046
 30
0.0
 10
1.3931473406
 20
4.5796651889
 30
0.0
 10
1.3958332859
 20
4.5844258514
 30
0.0
 10
1.3980010386
 20
4.5879062988
 30
0.0
 10
1.4003306085
 20
4.5912810096
 30
0.0
 10
1.4028379174
 20
4.5945264168
 30
0.0
 10
1.4051035831
 20
4.5970881611
 30
0.0
 10
1.4070489198
 20
4.5990098136
 30
0.0
 10
1.4085921276
 20
4.6003631202
 30
0.0
 10
1.4102273192
 20
4.6016064289
 30
0.0
 10
1.4119920221
 20
4.6026714175
 30
0.0
 10
1.4138990598
 20
4.6034626775
 30
0.0
 10
1.4155930023
 20
4.6038116088
 30
0.0
 10
1.416966149
 20
4.6038334847
 30
0.0
 10
1.4183346141
 20
4.6036967018
 30
0.0
 10
1.4200065405
 20
4.6032654112
 30
0.0
 10
1.4218903319
 20
4.6024245455
 30
0.0
 10
1.4230663032
 20
4.6017193636
 30
0.0
 10
1.4236395467
 20
4.6013460296
 30
0.0
  0
SPLINE
  5
2D7
100
AcDbEntity
  8
0
100
AcDbSpline
 62
7
  6
CONTINUOUS
 70
0
 71
3
 72
32
 73
28
 74
0
 42
0.0000001
 43
0.0000001
 44
0.0000000001
 40
0.0
 40
0.0
 40
0.0
 40
0.0
 40
0.1248981265
 40
0.2498077289
 40
0.3123009102
 40
0.3747897386
 40
0.4372746877
 40
0.4997566363
 40
0.5622356949
 40
0.6247119791
 40
0.6871853163
 40
0.7184277989
 40
0.7496697008
 40
0.7809118776
 40
0.8121555481
 40
0.8433980002
 40
0.859025217
 40
0.8746546658
 40
0.8903012466
 40
0.9059428173
 40
0.9216526329
 40
0.9373088676
 40
0.9451313934
 40
0.9529791519
 40
0.9687005384
 40
0.9843573226
 40
1.0
 40
1.0
 40
1.0
 40
1.0
 10
1.3662907884
 20
4.3805117309
 30
0.0
 10
1.3638471469
 20
4.3853967508
 30
0.0
 10
1.3596511822
 20
4.3955293336
 30
0.0
 10
1.3562393131
 20
4.4088023277
 30
0.0
 10
1.3546454425
 20
4.4196216508
 30
0.0
 10
1.3540233931
 20
4.4278035231
 30
0.0
 10
1.3539807169
 20
4.4360081446
 30
0.0
 10
1.3545213557
 20
4.4441948031
 30
0.0
 10
1.3556493089
 20
4.4523212824
 30
0.0
 10
1.3573701322
 20
4.4603428427
 30
0.0
 10
1.3593080015
 20
4.4669009295
 30
0.0
 10
1.361173742
 20
4.4720387528
 30
0.0
 10
1.3627390726
 20
4.4758285297
 30
0.0
 10
1.3644814168
 20
4.4795406462
 30
0.0
 10
1.3664203577
 20
4.4831544778
 30
0.0
 10
1.3682334785
 20
4.4860541967
 30
0.0
 10
1.3698359927
 20
4.4882698305
 30
0.0
 10
1.37113541
 20
4.489858682
 30
0.0
 10
1.372543661
 20
4.4913541763
 30
0.0
 10
1.3741090052
 20
4.492695099
 30
0.0
 10
1.3758597984
 20
4.4937894502
 30
0.0
 10
1.3774732055
 20
4.494412432
 30
0.0
 10
1.3788240238
 20
4.4946600215
 30
0.0
 10
1.380196338
 20
4.4947503441
 30
0.0
 10
1.3819164486
 20
4.4946001223
 30
0.0
 10
1.3839129483
 20
4.4940807835
 30
0.0
 10
1.3851889496
 20
4.4935787763
 30
0.0
 10
1.3858158234
 20
4.4933048858
 30
0.0
  0
SPLINE
  5
2D8
100
AcDbEntity
  8
0
100
AcDbSpline
 62
7
  6
CONTINUOUS
 70
0
 71
3
 72
32
 73
28
 74
0
 42
0.0000001
 43
0.0000001
 44
0.0000000001
 40
0.0
 40
0.0
 40
0.0
 40
0.0
 40
0.1248981417
 40
0.2498077562
 40
0.3123009396
 40
0.3747897658
 40
0.437274712
 40
0.4997566574
 40
0.5622357123
 40
0.6247119923
 40
0.6871853249
 40
0.7184278043
 40
0.7496697039
 40
0.7809118784
 40
0.8121555429
 40
0.8433979927
 40
0.8590252116
 40
0.8746546536
 40
0.8903012093
 40
0.9059427783
 40
0.9216526261
 40
0.9373088569
 40
0.9451313825
 40
0.9529791446
 40
0.9687005434
 40
0.9843573278
 40
1.0
 40
1.0
 40
1.0
 40
1.0
 10
1.3655970243
 20
4.2660432135
 30
0.0
 10
1.3623826691
 20
4.2704594031
 30
0.0
 10
1.3565761767
 20
4.2797631672
 30
0.0
 10
1.3510261965
 20
4.2922935693
 30
0.0
 10
1.3476732774
 20
4.3027029938
 30
0.0
 10
1.3457130321
 20
4.3106708928
 30
0.0
 10
1.3443205137
 20
4.3187565914
 30
0.0
 10
1.3435063115
 20
4.3269205815
 30
0.0
 10
1.3432813185
 20
4.335121881
 30
0.0
 10
1.3436583788
 20
4.3433172747
 30
0.0
 10
1.3444904022
 20
4.3501048789
 30
0.0
 10
1.3454850468
 20
4.3554797176
 30
0.0
 10
1.346405257
 20
4.3594754503
 30
0.0
 10
1.3475128492
 20
4.3634237168
 30
0.0
 10
1.3488305346
 20
4.3673073968
 30
0.0
 10
1.3501416525
 20
4.3704659954
 30
0.0
 10
1.3513576332
 20
4.3729151737
 30
0.0
 10
1.352377813
 20
4.3746962301
 30
0.0
 10
1.3535207088
 20
4.3764031155
 30
0.0
 10
1.3548439986
 20
4.3779833942
 30
0.0
 10
1.3563907901
 20
4.3793509912
 30
0.0
 10
1.3578796549
 20
4.3802310342
 30
0.0
 10
1.359171299
 20
4.3806975811
 30
0.0
 10
1.3605100311
 20
4.3810125454
 30
0.0
 10
1.3622314082
 20
4.3811474918
 30
0.0
 10
1.3642861586
 20
4.3809638466
 30
0.0
 10
1.3656273839
 20
4.3806787067
 30
0.0
 10
1.3662907884
 20
4.3805117309
 30
0.0
  0
SPLINE
  5
2D9
100
AcDbEntity
  8
0
100
AcDbSpline
 62
7
  6
CONTINUOUS
 70
0
 71
3
 72
32
 73
28
 74
0
 42
0.0000001
 43
0.0000001
 44
0.0000000001
 40
0.0
 40
0.0
 40
0.0
 40
0.0
 40
0.1248981417
 40
0.2498077562
 40
0.3123009396
 40
0.3747897658
 40
0.437274712
 40
0.4997566574
 40
0.5622357123
 40
0.6247119923
 40
0.6871853249
 40
0.7184278043
 40
0.7496697039
 40
0.7809118784
 40
0.8121555429
 40
0.8433979927
 40
0.8590252116
 40
0.8746546536
 40
0.8903012093
 40
0.9059427783
 40
0.9216526261
 40
0.9373088569
 40
0.9451313825
 40
0.9529791446
 40
0.9687005434
 40
0.9843573278
 40
1.0
 40
1.0
 40
1.0
 40
1.0
 10
1.3837534548
 20
4.1530216809
 30
0.0
 10
1.379856064
 20
4.1568485798
 30
0.0
 10
1.3725974274
 20
4.165069746
 30
0.0
 10
1.3650607221
 20
4.1765157641
 30
0.0
 10
1.3600402118
 20
4.1862313527
 30
0.0
 10
1.3567952397
 20
4.1937679389
 30
0.0
 10
1.3540908626
 20
4.2015141621
 30
0.0
 10
1.3519440281
 20
4.2094327959
 30
0.0
 10
1.350372226
 20
4.2174852101
 30
0.0
 10
1.3493952382
 20
4.2256308928
 30
0.0
 10
1.349098721
 20
4.2324628699
 30
0.0
 10
1.3491951386
 20
4.2379281159
 30
0.0
 10
1.3494451283
 20
4.2420208132
 30
0.0
 10
1.3498877571
 20
4.2460975335
 30
0.0
 10
1.3505482442
 20
4.2501451281
 30
0.0
 10
1.3513215968
 20
4.2534764493
 30
0.0
 10
1.3521178755
 20
4.2560923666
 30
0.0
 10
1.3528309919
 20
4.2580170468
 30
0.0
 10
1.3536773587
 20
4.2598887657
 30
0.0
 10
1.3547224979
 20
4.2616652963
 30
0.0
 10
1.3560230965
 20
4.2632688326
 30
0.0
 10
1.3573468064
 20
4.2643819302
 30
0.0
 10
1.358544044
 20
4.2650547098
 30
0.0
 10
1.359812677
 20
4.2655857246
 30
0.0
 10
1.3614883658
 20
4.2660021575
 30
0.0
 10
1.3635453194
 20
4.2661592147
 30
0.0
 10
1.3649151846
 20
4.2660987202
 30
0.0
 10
1.3655970243
 20
4.2660432135
 30
0.0
  0
SPLINE
  5
2DA
100
AcDbEntity
  8
0
100
AcDbSpline
 62
7
  6
CONTINUOUS
 70
0
 71
3
 72
32
 73
28
 74
0
 42
0.0000001
 43
0.0000001
 44
0.0000000001
 40
0.0
 40
0.0
 40
0.0
 40
0.0
 40
0.1248981417
 40
0.2498077562
 40
0.3123009396
 40
0.3747897658
 40
0.437274712
 40
0.4997566574
 40
0.5622357123
 40
0.6247119923
 40
0.6871853249
 40
0.7184278043
 40
0.7496697039
 40
0.7809118784
 40
0.8121555429
 40
0.8433979927
 40
0.8590252116
 40
0.8746546536
 40
0.8903012093
 40
0.9059427783
 40
0.9216526261
 40
0.9373088569
 40
0.9451313825
 40
0.9529791446
 40
0.9687005434
 40
0.9843573278
 40
1.0
 40
1.0
 40
1.0
 40
1.0
 10
1.4202648287
 20
4.0445300113
 30
0.0
 10
1.415790711
 20
4.0476632334
 30
0.0
 10
1.4072779234
 20
4.0545775538
 30
0.0
 10
1.3979600711
 20
4.064626976
 30
0.0
 10
1.3914089135
 20
4.0733837173
 30
0.0
 10
1.3869677274
 20
4.0802834161
 30
0.0
 10
1.3830252587
 20
4.0874788708
 30
0.0
 10
1.3796043508
 20
4.0949361524
 30
0.0
 10
1.3767286135
 20
4.1026200363
 30
0.0
 10
1.3744242268
 20
4.110493819
 30
0.0
 10
1.3730072571
 20
4.1171838138
 30
0.0
 10
1.3722028177
 20
4.1225903919
 30
0.0
 10
1.3717757681
 20
4.1266684177
 30
0.0
 10
1.3715413599
 20
4.1307623915
 30
0.0
 10
1.3715266326
 20
4.1348634949
 30
0.0
 10
1.3717411253
 20
4.1382766706
 30
0.0
 10
1.3720959819
 20
4.1409879728
 30
0.0
 10
1.3724825834
 20
4.1430037774
 30
0.0
 10
1.373009335
 20
4.1449892751
 30
0.0
 10
1.3737478154
 20
4.1469135993
 30
0.0
 10
1.3747667447
 20
4.1487093355
 30
0.0
 10
1.375889193
 20
4.1500251257
 30
0.0
 10
1.3769593673
 20
4.1508857868
 30
0.0
 10
1.3781232966
 20
4.1516183676
 30
0.0
 10
1.3797075897
 20
4.1523049279
 30
0.0
 10
1.3817106391
 20
4.1527984035
 30
0.0
 10
1.3830717783
 20
4.1529642045
 30
0.0
 10
1.3837534548
 20
4.1530216809
 30
0.0
  0
SPLINE
  5
2DB
100
AcDbEntity
  8
0
100
AcDbSpline
 62
7
  6
CONTINUOUS
 70
0
 71
3
 72
32
 73
28
 74
0
 42
0.0000001
 43
0.0000001
 44
0.0000000001
 40
0.0
 40
0.0
 40
0.0
 40
0.0
 40
0.1248981419
 40
0.2498077564
 40
0.3123009399
 40
0.374789766
 40
0.4372747122
 40
0.4997566576
 40
0.5622357125
 40
0.6247119925
 40
0.6871853251
 40
0.7184278044
 40
0.749669704
 40
0.7809118785
 40
0.8121555429
 40
0.8433979927
 40
0.8590252116
 40
0.8746546536
 40
0.8903012091
 40
0.9059427781
 40
0.9216526261
 40
0.937308857
 40
0.9451313825
 40
0.9529791446
 40
0.9687005434
 40
0.9843573279
 40
1.0
 40
1.0
 40
1.0
 40
1.0
 10
1.4741352285
 20
3.9435275222
 30
0.0
 10
1.469206424
 20
3.9458816029
 30
0.0
 10
1.4596716879
 20
3.9513004762
 30
0.0
 10
1.4488268508
 20
3.9596791852
 30
0.0
 10
1.4409237413
 20
3.9672382225
 30
0.0
 10
1.435407483
 20
3.9733128313
 30
0.0
 10
1.430334461
 20
3.9797612478
 30
0.0
 10
1.4257327916
 20
3.9865537657
 30
0.0
 10
1.4216315604
 20
3.9936595266
 30
0.0
 10
1.4180626313
 20
4.0010466368
 30
0.0
 10
1.4155638596
 20
4.0074121669
 30
0.0
 10
1.4138805059
 20
4.0126126025
 30
0.0
 10
1.4127880655
 20
4.0165647209
 30
0.0
 10
1.4118830143
 20
4.0205642772
 30
0.0
 10
1.4111934744
 20
4.0246070239
 30
0.0
 10
1.4108432564
 20
4.0280089531
 30
0.0
 10
1.4107470116
 20
4.0307416844
 30
0.0
 10
1.4107965528
 20
4.0327936284
 30
0.0
 10
1.410989321
 20
4.0348387467
 30
0.0
 10
1.4114009991
 20
4.0368583749
 30
0.0
 10
1.4121104659
 20
4.0387973288
 30
0.0
 10
1.4130010357
 20
4.0402799209
 30
0.0
 10
1.4139149555
 20
4.0413049873
 30
0.0
 10
1.4149424329
 20
4.0422191516
 30
0.0
 10
1.4163921156
 20
4.043157112
 30
0.0
 10
1.4182866238
 20
4.0439735457
 30
0.0
 10
1.4196019095
 20
4.0443611195
 30
0.0
 10
1.4202648287
 20
4.0445300113
 30
0.0
  0
SPLINE
  5
2DC
100
AcDbEntity
  8
0
100
AcDbSpline
 62
7
  6
CONTINUOUS
 70
0
 71
3
 72
32
 73
28
 74
0
 42
0.0000001
 43
0.0000001
 44
0.0000000001
 40
0.0
 40
0.0
 40
0.0
 40
0.0
 40
0.1248981417
 40
0.2498077563
 40
0.3123009398
 40
0.374789766
 40
0.4372747123
 40
0.4997566576
 40
0.5622357127
 40
0.6247119927
 40
0.6871853253
 40
0.7184278047
 40
0.7496697043
 40
0.7809118788
 40
0.8121555433
 40
0.8433979931
 40
0.859025212
 40
0.874654654
 40
0.8903012099
 40
0.9059427789
 40
0.9216526263
 40
0.9373088575
 40
0.945131383
 40
0.9529791449
 40
0.9687005434
 40
0.9843573279
 40
1.0
 40
1.0
 40
1.0
 40
1.0
 10
1.5438952362
 20
3.8527692492
 30
0.0
 10
1.5386461874
 20
3.8542799764
 30
0.0
 10
1.5283495811
 20
3.8580555926
 30
0.0
 10
1.5162735727
 20
3.8645350431
 30
0.0
 10
1.5072340837
 20
3.8706901892
 30
0.0
 10
1.5007932197
 20
3.8757740114
 30
0.0
 10
1.4947280207
 20
3.8812994969
 30
0.0
 10
1.4890711092
 20
3.8872419721
 30
0.0
 10
1.4838562529
 20
3.8935757869
 30
0.0
 10
1.4791201309
 20
3.9002747271
 30
0.0
 10
1.4756077159
 20
3.9061421605
 30
0.0
 10
1.4730913645
 20
3.9109946017
 30
0.0
 10
1.4713633317
 20
3.9147130112
 30
0.0
 10
1.4698123245
 20
3.9185090545
 30
0.0
 10
1.4684667805
 20
3.9223831708
 30
0.0
 10
1.4675614047
 20
3.9256810595
 30
0.0
 10
1.4670166837
 20
3.9283606793
 30
0.0
 10
1.4667278133
 20
3.9303927922
 30
0.0
 10
1.4665813401
 20
3.9324417466
 30
0.0
 10
1.4666549865
 20
3.9345015895
 30
0.0
 10
1.4670356389
 20
3.9365308725
 30
0.0
 10
1.4676700382
 20
3.938139826
 30
0.0
 10
1.4684027746
 20
3.939301337
 30
0.0
 10
1.4692657736
 20
3.9403721493
 30
0.0
 10
1.470541303
 20
3.9415359251
 30
0.0
 10
1.4722755937
 20
3.9426530469
 30
0.0
 10
1.4735091489
 20
3.9432518218
 30
0.0
 10
1.4741352285
 20
3.9435275222
 30
0.0
  0
SPLINE
  5
2DD
100
AcDbEntity
  8
0
100
AcDbSpline
 62
7
  6
CONTINUOUS
 70
0
 71
3
 72
32
 73
28
 74
0
 42
0.0000001
 43
0.0000001
 44
0.0000000001
 40
0.0
 40
0.0
 40
0.0
 40
0.0
 40
0.1248981425
 40
0.2498077518
 40
0.3123009321
 40
0.3747897569
 40
0.4372747029
 40
0.4997566476
 40
0.5622357017
 40
0.6247119808
 40
0.6871853125
 40
0.7184277913
 40
0.7496696904
 40
0.7809118645
 40
0.8121555281
 40
0.8433979779
 40
0.8590251972
 40
0.8746546389
 40
0.890301188
 40
0.9059427582
 40
0.9216526187
 40
0.9373088364
 40
0.945131365
 40
0.9529791348
 40
0.9687005408
 40
0.9843573257
 40
1.0
 40
1.0
 40
1.0
 40
1.0
 10
1.6276420144
 20
3.7747307975
 30
0.0
 10
1.6222158992
 20
3.7753569634
 30
0.0
 10
1.6114382823
 20
3.7773863351
 30
0.0
 10
1.5984604992
 20
3.7817897876
 30
0.0
 10
1.5885312005
 20
3.786373149
 30
0.0
 10
1.5813414178
 20
3.7903275134
 30
0.0
 10
1.5744494818
 20
3.7947793496
 30
0.0
 10
1.5678916312
 20
3.7997096896
 30
0.0
 10
1.561705395
 20
3.8050987912
 30
0.0
 10
1.5559312667
 20
3.8109268349
 30
0.0
 10
1.5515010164
 20
3.816136126
 30
0.0
 10
1.5482203056
 20
3.8205082131
 30
0.0
 10
1.5459038158
 20
3.8238914867
 30
0.0
 10
1.5437491592
 20
3.8273804726
 30
0.0
 10
1.5417843132
 20
3.8309802845
 30
0.0
 10
1.5403484753
 20
3.8340841763
 30
0.0
 10
1.5393701366
 20
3.836637593
 30
0.0
 10
1.5387507338
 20
3.8385944445
 30
0.0
 10
1.5382690133
 20
3.8405913453
 30
0.0
 10
1.5380026221
 20
3.8426352175
 30
0.0
 10
1.5380440731
 20
3.8446994768
 30
0.0
 10
1.5384049969
 20
3.8463909052
 30
0.0
 10
1.5389365662
 20
3.847657177
 30
0.0
 10
1.5396115465
 20
3.8488554297
 30
0.0
 10
1.5406781283
 20
3.8502132792
 30
0.0
 10
1.5422048961
 20
3.8516006176
 30
0.0
 10
1.5433230737
 20
3.8523942605
 30
0.0
 10
1.5438952362
 20
3.8527692492
 30
0.0
  0
SPLINE
  5
2DE
100
AcDbEntity
  8
0
100
AcDbSpline
 62
7
  6
CONTINUOUS
 70
0
 71
3
 72
32
 73
28
 74
0
 42
0.0000001
 43
0.0000001
 44
0.0000000001
 40
0.0
 40
0.0
 40
0.0
 40
0.0
 40
0.1248981418
 40
0.2498077564
 40
0.3123009399
 40
0.3747897661
 40
0.4372747124
 40
0.4997566578
 40
0.5622357129
 40
0.6247119929
 40
0.6871853256
 40
0.718427805
 40
0.7496697047
 40
0.7809118792
 40
0.8121555437
 40
0.8433979935
 40
0.8590252124
 40
0.8746546544
 40
0.8903012105
 40
0.9059427795
 40
0.9216526266
 40
0.9373088584
 40
0.9451313837
 40
0.9529791453
 40
0.9687005436
 40
0.984357328
 40
1.0
 40
1.0
 40
1.0
 40
1.0
 10
1.7230912098
 20
3.711540815
 30
0.0
 10
1.7176360358
 20
3.7112653395
 30
0.0
 10
1.7066713881
 20
3.711493112
 30
0.0
 10
1.6931458235
 20
3.7137004542
 30
0.0
 10
1.6825975547
 20
3.7165870113
 30
0.0
 10
1.6748549681
 20
3.7193040557
 30
0.0
 10
1.6673242857
 20
3.7225608104
 30
0.0
 10
1.6600443738
 20
3.7263445311
 30
0.0
 10
1.6530554992
 20
3.7306419218
 30
0.0
 10
1.646400865
 20
3.7354400983
 30
0.0
 10
1.6411736229
 20
3.739849154
 30
0.0
 10
1.6372180404
 20
3.7436216302
 30
0.0
 10
1.6343762802
 20
3.746577483
 30
0.0
 10
1.6316767467
 20
3.749664243
 30
0.0
 10
1.6291461939
 20
3.752891559
 30
0.0
 10
1.6272190595
 20
3.7557167896
 30
0.0
 10
1.6258337888
 20
3.7580743537
 30
0.0
 10
1.6249007496
 20
3.7599025678
 30
0.0
 10
1.6240969239
 20
3.7617929467
 30
0.0
 10
1.6234977557
 20
3.7637650964
 30
0.0
 10
1.6231988824
 20
3.7658080257
 30
0.0
 10
1.623276487
 20
3.7675357906
 30
0.0
 10
1.6235923835
 20
3.768872286
 30
0.0
 10
1.6240609345
 20
3.7701652926
 30
0.0
 10
1.6248894793
 20
3.771680173
 30
0.0
 10
1.6261670772
 20
3.7732998856
 30
0.0
 10
1.6271393759
 20
3.7742667491
 30
0.0
 10
1.6276420144
 20
3.7747307975
 30
0.0
  0
SPLINE
  5
2DF
100
AcDbEntity
  8
0
100
AcDbSpline
 62
7
  6
CONTINUOUS
 70
0
 71
3
 72
32
 73
28
 74
0
 42
0.0000001
 43
0.0000001
 44
0.0000000001
 40
0.0
 40
0.0
 40
0.0
 40
0.0
 40
0.1248981417
 40
0.2498077562
 40
0.3123009396
 40
0.3747897658
 40
0.437274712
 40
0.4997566574
 40
0.5622357123
 40
0.6247119923
 40
0.6871853249
 40
0.7184278043
 40
0.7496697039
 40
0.7809118784
 40
0.8121555429
 40
0.8433979927
 40
0.8590252116
 40
0.8746546536
 40
0.8903012093
 40
0.9059427783
 40
0.9216526261
 40
0.9373088569
 40
0.9451313825
 40
0.9529791446
 40
0.9687005434
 40
0.9843573278
 40
1.0
 40
1.0
 40
1.0
 40
1.0
 10
1.8276392633
 20
3.664922929
 30
0.0
 10
1.8223038308
 20
3.6637533264
 30
0.0
 10
1.8114512342
 20
3.6621732866
 30
0.0
 10
1.797746824
 20
3.6621243089
 30
0.0
 10
1.7868673099
 20
3.6632353252
 30
0.0
 10
1.7787831134
 20
3.6646409366
 30
0.0
 10
1.7708190984
 20
3.6666137755
 30
0.0
 10
1.7630156987
 20
3.6691476686
 30
0.0
 10
1.7554148205
 20
3.6722361287
 30
0.0
 10
1.7480611983
 20
3.6758735582
 30
0.0
 10
1.7421795474
 20
3.6793621131
 30
0.0
 10
1.7376569892
 20
3.6824320768
 30
0.0
 10
1.7343674732
 20
3.6848798821
 30
0.0
 10
1.7311966976
 20
3.6874802187
 30
0.0
 10
1.7281694636
 20
3.6902470075
 30
0.0
 10
1.7258035987
 20
3.6927165132
 30
0.0
 10
1.7240491821
 20
3.6948139177
 30
0.0
 10
1.7228279566
 20
3.6964636259
 30
0.0
 10
1.7217239503
 20
3.6981959188
 30
0.0
 10
1.7208083517
 20
3.7000425525
 30
0.0
 10
1.7201773022
 20
3.7020084268
 30
0.0
 10
1.7199694701
 20
3.7037254008
 30
0.0
 10
1.7200610805
 20
3.7050956628
 30
0.0
 10
1.7203104211
 20
3.7064481552
 30
0.0
 10
1.7208783268
 20
3.7080787479
 30
0.0
 10
1.7218719067
 20
3.7098866539
 30
0.0
 10
1.7226718057
 20
3.7110003646
 30
0.0
 10
1.7230912098
 20
3.711540815
 30
0.0
  0
SPLINE
  5
2E0
100
AcDbEntity
  8
0
100
AcDbSpline
 62
7
  6
CONTINUOUS
 70
0
 71
3
 72
32
 73
28
 74
0
 42
0.0000001
 43
0.0000001
 44
0.0000000001
 40
0.0
 40
0.0
 40
0.0
 40
0.0
 40
0.1248981143
 40
0.2498077088
 40
0.3123008893
 40
0.3747897199
 40
0.4372746714
 40
0.4997566227
 40
0.5622356845
 40
0.6247119723
 40
0.6871853133
 40
0.7184277986
 40
0.7496697026
 40
0.7809118813
 40
0.8121555568
 40
0.8433980109
 40
0.8590252257
 40
0.8746546802
 40
0.890301283
 40
0.9059428547
 40
0.9216526403
 40
0.9373088817
 40
0.9451314069
 40
0.9529791606
 40
0.9687005351
 40
0.9843573188
 40
1.0
 40
1.0
 40
1.0
 40
1.0
 10
1.9384344272
 20
3.6361487314
 30
0.0
 10
1.9333642714
 20
3.6341169052
 30
0.0
 10
1.9229197531
 20
3.6307721523
 30
0.0
 10
1.9094103134
 20
3.6284681901
 30
0.0
 10
1.8984963141
 20
3.6277733603
 30
0.0
 10
1.8902910192
 20
3.6278291975
 30
0.0
 10
1.8821109045
 20
3.6284643074
 30
0.0
 10
1.8739968688
 20
3.6296792559
 30
0.0
 10
1.8659913145
 20
3.6314745418
 30
0.0
 10
1.8581392873
 20
3.6338520067
 30
0.0
 10
1.8517636599
 20
3.6363249044
 30
0.0
 10
1.8467974863
 20
3.6386086161
 30
0.0
 10
1.8431499419
 20
3.6404816062
 30
0.0
 10
1.8395944126
 20
3.6425245909
 30
0.0
 10
1.8361530694
 20
3.6447553825
 30
0.0
 10
1.8334130082
 20
3.6468018044
 30
0.0
 10
1.8313372993
 20
3.6485818379
 30
0.0
 10
1.8298611982
 20
3.6500080444
 30
0.0
 10
1.828487124
 20
3.6515350018
 30
0.0
 10
1.8272800669
 20
3.6532057467
 30
0.0
 10
1.8263340601
 20
3.655040944
 30
0.0
 10
1.8258464639
 20
3.6567002915
 30
0.0
 10
1.8257112858
 20
3.6580669434
 30
0.0
 10
1.8257346149
 20
3.6594420283
 30
0.0
 10
1.8260263931
 20
3.6611438538
 30
0.0
 10
1.8267088536
 20
3.6630906381
 30
0.0
 10
1.8273145335
 20
3.6643208182
 30
0.0
 10
1.8276392633
 20
3.664922929
 30
0.0
  0
SPLINE
  5
2E1
100
AcDbEntity
  8
0
100
AcDbSpline
 62
7
  6
CONTINUOUS
 70
0
 71
3
 72
26
 73
22
 74
0
 42
0.0000001
 43
0.0000001
 44
0.0000000001
 40
0.0
 40
0.0
 40
0.0
 40
0.0
 40
0.1249906016
 40
0.2499719048
 40
0.3749306919
 40
0.4998764435
 40
0.5623739489
 40
0.6248691652
 40
0.6873619075
 40
0.749853038
 40
0.7811026855
 40
0.8123515618
 40
0.8436006756
 40
0.8748577244
 40
0.9061081826
 40
0.9217303674
 40
0.9373533156
 40
0.9529962081
 40
0.9686937859
 40
0.9843801272
 40
1.0
 40
1.0
 40
1.0
 40
1.0
 10
1.9827539979
 20
3.6799669754
 30
0.0
 10
1.9869035904
 20
3.6821122961
 30
0.0
 10
1.9954711691
 20
3.6859039922
 30
0.0
 10
2.008903632
 20
3.6900059398
 30
0.0
 10
2.0227304099
 20
3.6924680074
 30
0.0
 10
2.0344194689
 20
3.6931158978
 30
0.0
 10
2.0437592152
 20
3.6927736844
 30
0.0
 10
2.0507368445
 20
3.6920814808
 30
0.0
 10
2.0576557433
 20
3.6909460564
 30
0.0
 10
2.0633473219
 20
3.6896196322
 30
0.0
 10
2.0678342118
 20
3.6883168258
 30
0.0
 10
2.0711605881
 20
3.6872133875
 30
0.0
 10
2.0744388391
 20
3.6859729922
 30
0.0
 10
2.0776567323
 20
3.6845826669
 30
0.0
 10
2.0802704931
 20
3.6832761983
 30
0.0
 10
2.0823036278
 20
3.6821255316
 30
0.0
 10
2.0837914681
 20
3.681198372
 30
0.0
 10
2.0852291934
 20
3.6801899083
 30
0.0
 10
2.086602826
 20
3.6790909897
 30
0.0
 10
2.0878785665
 20
3.6778795489
 30
0.0
 10
2.0886299253
 20
3.676977182
 30
0.0
 10
2.0889691667
 20
3.6765020988
 30
0.0
  0
SPLINE
  5
2E2
100
AcDbEntity
  8
0
100
AcDbSpline
 62
7
  6
CONTINUOUS
 70
0
 71
3
 72
16
 73
12
 74
0
 42
0.0000001
 43
0.0000001
 44
0.0000000001
 40
0.0
 40
0.0
 40
0.0
 40
0.0
 40
0.1137460986
 40
0.237294455
 40
0.3677111802
 40
0.5019512344
 40
0.6365622469
 40
0.7676537609
 40
0.89078596
 40
0.9476533146
 40
1.0
 40
1.0
 40
1.0
 40
1.0
 10
2.0524976516
 20
3.6260293235
 30
0.0
 10
2.0542146918
 20
3.6276560997
 30
0.0
 10
2.0576018825
 20
3.6312569825
 30
0.0
 10
2.0623811177
 20
3.6372318821
 30
0.0
 10
2.0670661766
 20
3.6438093362
 30
0.0
 10
2.071642556
 20
3.6507377053
 30
0.0
 10
2.0761097372
 20
3.6577528058
 30
0.0
 10
2.0804641867
 20
3.6645656231
 30
0.0
 10
2.084066723
 20
3.6699405934
 30
0.0
 10
2.0868995215
 20
3.6738552075
 30
0.0
 10
2.0882872355
 20
3.6756536557
 30
0.0
 10
2.0889691667
 20
3.6765020988
 30
0.0
  0
SPLINE
  5
2E3
100
AcDbEntity
  8
0
100
AcDbSpline
 62
7
  6
CONTINUOUS
 70
0
 71
3
 72
17
 73
13
 74
0
 42
0.0000001
 43
0.0000001
 44
0.0000000001
 40
0.0
 40
0.0
 40
0.0
 40
0.0
 40
0.0523428894
 40
0.1092473617
 40
0.1695229115
 40
0.2324150734
 40
0.3635227137
 40
0.4981315395
 40
0.6323580207
 40
0.762751736
 40
0.886275351
 40
1.0
 40
1.0
 40
1.0
 40
1.0
 10
2.1943152398
 20
3.6906049538
 30
0.0
 10
2.1937819225
 20
3.6896550445
 30
0.0
 10
2.1927084098
 20
3.6876501055
 30
0.0
 10
2.1911383782
 20
3.6844900744
 30
0.0
 10
2.1895513378
 20
3.6810946535
 30
0.0
 10
2.1873931183
 20
3.676262451
 30
0.0
 10
2.1847101202
 20
3.6699713186
 30
0.0
 10
2.1814564859
 20
3.6623098051
 30
0.0
 10
2.1780809572
 20
3.654716571
 30
0.0
 10
2.1745400011
 20
3.6474525445
 30
0.0
 10
2.1708063109
 20
3.6407683019
 30
0.0
 10
2.1680552204
 20
3.6366568729
 30
0.0
 10
2.1666277405
 20
3.634768897
 30
0.0
  0
SPLINE
  5
2E4
100
AcDbEntity
  8
0
100
AcDbSpline
 62
7
  6
CONTINUOUS
 70
0
 71
3
 72
17
 73
13
 74
0
 42
0.0000001
 43
0.0000001
 44
0.0000000001
 40
0.0
 40
0.0
 40
0.0
 40
0.0
 40
0.0523428915
 40
0.1092474131
 40
0.1695229756
 40
0.2324151448
 40
0.3635227873
 40
0.4981316042
 40
0.632358063
 40
0.7627517519
 40
0.8862753548
 40
1.0
 40
1.0
 40
1.0
 40
1.0
 10
2.2958824249
 20
3.7218328436
 30
0.0
 10
2.2955127298
 20
3.7208081092
 30
0.0
 10
2.2947838574
 20
3.7186538205
 30
0.0
 10
2.2937553571
 20
3.7152784698
 30
0.0
 10
2.2927488243
 20
3.7116681397
 30
0.0
 10
2.291415387
 20
3.7065466125
 30
0.0
 10
2.289804458
 20
3.6998996782
 30
0.0
 10
2.287856231
 20
3.6918071306
 30
0.0
 10
2.2857765338
 20
3.6837618688
 30
0.0
 10
2.28347948
 20
3.6760140966
 30
0.0
 10
2.2808968924
 20
3.6688064778
 30
0.0
 10
2.2788600356
 20
3.6642983121
 30
0.0
 10
2.2777627723
 20
3.6622011319
 30
0.0
  0
SPLINE
  5
2E5
100
AcDbEntity
  8
0
100
AcDbSpline
 62
7
  6
CONTINUOUS
 70
0
 71
3
 72
17
 73
13
 74
0
 42
0.0000001
 43
0.0000001
 44
0.0000000001
 40
0.0
 40
0.0
 40
0.0
 40
0.0
 40
0.0523428915
 40
0.1092474131
 40
0.1695229756
 40
0.2324151448
 40
0.3635227873
 40
0.4981316042
 40
0.632358063
 40
0.7627517519
 40
0.8862753548
 40
1.0
 40
1.0
 40
1.0
 40
1.0
 10
2.3909244941
 20
3.7693520953
 30
0.0
 10
2.3907285053
 20
3.7682804874
 30
0.0
 10
2.3903641548
 20
3.7660356124
 30
0.0
 10
2.3899052412
 20
3.7625370122
 30
0.0
 10
2.3895066715
 20
3.7588102531
 30
0.0
 10
2.3890343885
 20
3.7535391009
 30
0.0
 10
2.3885394699
 20
3.7467176727
 30
0.0
 10
2.3879497915
 20
3.7384148301
 30
0.0
 10
2.387222653
 20
3.7301369894
 30
0.0
 10
2.3862321577
 20
3.7221168055
 30
0.0
 10
2.3848711171
 20
3.7145824113
 30
0.0
 10
2.3836040531
 20
3.7098004773
 30
0.0
 10
2.3828669362
 20
3.7075512974
 30
0.0
  0
SPLINE
  5
2E6
100
AcDbEntity
  8
0
100
AcDbSpline
 62
7
  6
CONTINUOUS
 70
0
 71
3
 72
17
 73
13
 74
0
 42
0.0000001
 43
0.0000001
 44
0.0000000001
 40
0.0
 40
0.0
 40
0.0
 40
0.0
 40
0.0523428915
 40
0.1092474131
 40
0.1695229756
 40
0.2324151448
 40
0.3635227873
 40
0.4981316042
 40
0.632358063
 40
0.7627517519
 40
0.8862753548
 40
1.0
 40
1.0
 40
1.0
 40
1.0
 10
2.4768489934
 20
3.8318665304
 30
0.0
 10
2.4768320569
 20
3.8307772792
 30
0.0
 10
2.4768421666
 20
3.8285030512
 30
0.0
 10
2.4769653575
 20
3.8249766325
 30
0.0
 10
2.4771856227
 20
3.8212350988
 30
0.0
 10
2.4775873764
 20
3.8159581024
 30
0.0
 10
2.478221968
 20
3.8091482477
 30
0.0
 10
2.4790069228
 20
3.8008615861
 30
0.0
 10
2.4796521772
 20
3.7925769603
 30
0.0
 10
2.479995258
 20
3.7845031306
 30
0.0
 10
2.4798928895
 20
3.7768474759
 30
0.0
 10
2.4794301798
 20
3.7719222101
 30
0.0
 10
2.4790733156
 20
3.7695823812
 30
0.0
  0
SPLINE
  5
2E7
100
AcDbEntity
  8
0
100
AcDbSpline
 62
7
  6
CONTINUOUS
 70
0
 71
3
 72
17
 73
13
 74
0
 42
0.0000001
 43
0.0000001
 44
0.0000000001
 40
0.0
 40
0.0
 40
0.0
 40
0.0
 40
0.0523428915
 40
0.1092474131
 40
0.1695229756
 40
0.2324151448
 40
0.3635227873
 40
0.4981316042
 40
0.632358063
 40
0.7627517519
 40
0.8862753548
 40
1.0
 40
1.0
 40
1.0
 40
1.0
 10
2.5513121682
 20
3.9076709484
 30
0.0
 10
2.551474746
 20
3.9065937653
 30
0.0
 10
2.5518590401
 20
3.9043522183
 30
0.0
 10
2.5525609752
 20
3.9008941708
 30
0.0
 10
2.5533940671
 20
3.89723992
 30
0.0
 10
2.5546588989
 20
3.8921010196
 30
0.0
 10
2.556405691
 20
3.8854884902
 30
0.0
 10
2.5585438679
 20
3.8774440441
 30
0.0
 10
2.5605439146
 20
3.8693786122
 30
0.0
 10
2.5622112132
 20
3.8614713658
 30
0.0
 10
2.5633703092
 20
3.8539032733
 30
0.0
 10
2.5637245751
 20
3.8489690216
 30
0.0
 10
2.5637576978
 20
3.8466023669
 30
0.0
  0
SPLINE
  5
2E8
100
AcDbEntity
  8
0
100
AcDbSpline
 62
7
  6
CONTINUOUS
 70
0
 71
3
 72
17
 73
13
 74
0
 42
0.0000001
 43
0.0000001
 44
0.0000000001
 40
0.0
 40
0.0
 40
0.0
 40
0.0
 40
0.0523428915
 40
0.1092474131
 40
0.1695229756
 40
0.2324151448
 40
0.3635227873
 40
0.4981316042
 40
0.632358063
 40
0.7627517519
 40
0.8862753548
 40
1.0
 40
1.0
 40
1.0
 40
1.0
 10
2.6122828931
 20
3.9946976391
 30
0.0
 10
2.6126205505
 20
3.9936619063
 30
0.0
 10
2.6133685467
 20
3.9915141827
 30
0.0
 10
2.6146300794
 20
3.9882188313
 30
0.0
 10
2.6160532738
 20
3.9847515401
 30
0.0
 10
2.618146683
 20
3.979890909
 30
0.0
 10
2.6209580286
 20
3.9736560743
 30
0.0
 10
2.6243911047
 20
3.9660732712
 30
0.0
 10
2.6276913886
 20
3.9584470333
 30
0.0
 10
2.6306374264
 20
3.9509220555
 30
0.0
 10
2.6330263702
 20
3.9436479593
 30
0.0
 10
2.6341879485
 20
3.9388393129
 30
0.0
 10
2.6346101545
 20
3.9365103875
 30
0.0
  0
SPLINE
  5
2E9
100
AcDbEntity
  8
0
100
AcDbSpline
 62
7
  6
CONTINUOUS
 70
0
 71
3
 72
17
 73
13
 74
0
 42
0.0000001
 43
0.0000001
 44
0.0000000001
 40
0.0
 40
0.0
 40
0.0
 40
0.0
 40
0.0523428915
 40
0.1092474131
 40
0.1695229756
 40
0.2324151448
 40
0.3635227873
 40
0.4981316042
 40
0.632358063
 40
0.7627517519
 40
0.8862753548
 40
1.0
 40
1.0
 40
1.0
 40
1.0
 10
2.5769289365
 20
4.6975986099
 30
0.0
 10
2.5780130674
 20
4.6974917672
 30
0.0
 10
2.5802803602
 20
4.6973140081
 30
0.0
 10
2.5838049053
 20
4.6971455223
 30
0.0
 10
2.5875518479
 20
4.6970560122
 30
0.0
 10
2.5928439967
 20
4.6970205527
 30
0.0
 10
2.5996829974
 20
4.6970905331
 30
0.0
 10
2.6080061782
 20
4.6971883898
 30
0.0
 10
2.6163157919
 20
4.6971471913
 30
0.0
 10
2.6243903725
 20
4.6968222619
 30
0.0
 10
2.632011416
 20
4.6960879434
 30
0.0
 10
2.6368816378
 20
4.6952200244
 30
0.0
 10
2.6391839982
 20
4.6946711271
 30
0.0
  0
SPLINE
  5
2EA
100
AcDbEntity
  8
0
100
AcDbSpline
 62
7
  6
CONTINUOUS
 70
0
 71
3
 72
17
 73
13
 74
0
 42
0.0000001
 43
0.0000001
 44
0.0000000001
 40
0.0
 40
0.0
 40
0.0
 40
0.0
 40
0.0523428915
 40
0.1092474131
 40
0.1695229756
 40
0.2324151448
 40
0.3635227873
 40
0.4981316042
 40
0.632358063
 40
0.7627517519
 40
0.8862753548
 40
1.0
 40
1.0
 40
1.0
 40
1.0
 10
2.5075336137
 20
4.7780682523
 30
0.0
 10
2.5086205442
 20
4.7781413073
 30
0.0
 10
2.5108861726
 20
4.7783391535
 30
0.0
 10
2.5143903799
 20
4.7787530814
 30
0.0
 10
2.5181009528
 20
4.7792815131
 30
0.0
 10
2.5233267613
 20
4.7801175887
 30
0.0
 10
2.5300609702
 20
4.7813122673
 30
0.0
 10
2.5382545292
 20
4.7827787278
 30
0.0
 10
2.5464575936
 20
4.7841057967
 30
0.0
 10
2.5544755305
 20
4.7851143194
 30
0.0
 10
2.5621134986
 20
4.7856443872
 30
0.0
 10
2.5670601516
 20
4.7855899105
 30
0.0
 10
2.5694214561
 20
4.785427452
 30
0.0
  0
SPLINE
  5
2EB
100
AcDbEntity
  8
0
100
AcDbSpline
 62
7
  6
CONTINUOUS
 70
0
 71
3
 72
17
 73
13
 74
0
 42
0.0000001
 43
0.0000001
 44
0.0000000001
 40
0.0
 40
0.0
 40
0.0
 40
0.0
 40
0.0523428915
 40
0.1092474131
 40
0.1695229756
 40
0.2324151448
 40
0.3635227873
 40
0.4981316042
 40
0.632358063
 40
0.7627517519
 40
0.8862753548
 40
1.0
 40
1.0
 40
1.0
 40
1.0
 10
2.4258399846
 20
4.8460184191
 30
0.0
 10
2.4269000667
 20
4.846269379
 30
0.0
 10
2.4291022313
 20
4.8468374337
 30
0.0
 10
2.432490517
 20
4.8478224849
 30
0.0
 10
2.4360635071
 20
4.8489544444
 30
0.0
 10
2.4410804314
 20
4.8506392495
 30
0.0
 10
2.4475261602
 20
4.852926039
 30
0.0
 10
2.4553666024
 20
4.8557211029
 30
0.0
 10
2.4632393632
 20
4.8583802407
 30
0.0
 10
2.4709819519
 20
4.8606947062
 30
0.0
 10
2.4784285044
 20
4.8624747019
 30
0.0
 10
2.4833166592
 20
4.8632351533
 30
0.0
 10
2.4856724987
 20
4.863463565
 30
0.0
  0
SPLINE
  5
2EC
100
AcDbEntity
  8
0
100
AcDbSpline
 62
7
  6
CONTINUOUS
 70
0
 71
3
 72
17
 73
13
 74
0
 42
0.0000001
 43
0.0000001
 44
0.0000000001
 40
0.0
 40
0.0
 40
0.0
 40
0.0
 40
0.0523428915
 40
0.1092474131
 40
0.1695229756
 40
0.2324151448
 40
0.3635227873
 40
0.4981316042
 40
0.632358063
 40
0.7627517519
 40
0.8862753548
 40
1.0
 40
1.0
 40
1.0
 40
1.0
 10
2.3340763991
 20
4.8995956396
 30
0.0
 10
2.335080717
 20
4.9000176591
 30
0.0
 10
2.3371593496
 20
4.9009404276
 30
0.0
 10
2.3403392916
 20
4.9024697327
 30
0.0
 10
2.3436772389
 20
4.9041743438
 30
0.0
 10
2.3483484327
 20
4.906661922
 30
0.0
 10
2.3543298619
 20
4.909978446
 30
0.0
 10
2.3616033242
 20
4.9140258725
 30
0.0
 10
2.3689310369
 20
4.9179445463
 30
0.0
 10
2.3761870835
 20
4.921501823
 30
0.0
 10
2.3832391014
 20
4.9244831938
 30
0.0
 10
2.3879354243
 20
4.9260378305
 30
0.0
 10
2.3902215387
 20
4.926650882
 30
0.0
  0
SPLINE
  5
2ED
100
AcDbEntity
  8
0
100
AcDbSpline
 62
7
  6
CONTINUOUS
 70
0
 71
3
 72
17
 73
13
 74
0
 42
0.0000001
 43
0.0000001
 44
0.0000000001
 40
0.0
 40
0.0
 40
0.0
 40
0.0
 40
0.0523428915
 40
0.1092474131
 40
0.1695229756
 40
0.2324151448
 40
0.3635227873
 40
0.4981316042
 40
0.632358063
 40
0.7627517519
 40
0.8862753548
 40
1.0
 40
1.0
 40
1.0
 40
1.0
 10
2.234745884
 20
4.9373384928
 30
0.0
 10
2.2356670431
 20
4.9379200605
 30
0.0
 10
2.237565445
 20
4.9391723725
 30
0.0
 10
2.2404503044
 20
4.9412042169
 30
0.0
 10
2.2434621599
 20
4.943434983
 30
0.0
 10
2.2476602075
 20
4.9466574809
 30
0.0
 10
2.2530141822
 20
4.9509132749
 30
0.0
 10
2.2595222671
 20
4.9561026628
 30
0.0
 10
2.2661050543
 20
4.9611739831
 30
0.0
 10
2.2726766363
 20
4.9658770395
 30
0.0
 10
2.2791417624
 20
4.9699784628
 30
0.0
 10
2.2835181521
 20
4.9722848793
 30
0.0
 10
2.2856721834
 20
4.9732658485
 30
0.0
  0
SPLINE
  5
2EE
100
AcDbEntity
  8
0
100
AcDbSpline
 62
7
  6
CONTINUOUS
 70
0
 71
3
 72
17
 73
13
 74
0
 42
0.0000001
 43
0.0000001
 44
0.0000000001
 40
0.0
 40
0.0
 40
0.0
 40
0.0
 40
0.0523428915
 40
0.109247413
 40
0.1695229754
 40
0.2324151447
 40
0.3635227872
 40
0.4981316042
 40
0.6323580629
 40
0.7627517519
 40
0.8862753548
 40
1.0
 40
1.0
 40
1.0
 40
1.0
 10
2.130557869
 20
4.9582174705
 30
0.0
 10
2.1313707428
 20
4.9589427229
 30
0.0
 10
2.1330371314
 20
4.9604904193
 30
0.0
 10
2.1355482182
 20
4.9629693805
 30
0.0
 10
2.1381518279
 20
4.9656654531
 30
0.0
 10
2.1417622195
 20
4.969534971
 30
0.0
 10
2.1463426998
 20
4.9746139501
 30
0.0
 10
2.1519078868
 20
4.9808037488
 30
0.0
 10
2.1575661904
 20
4.9868893858
 30
0.0
 10
2.1632740554
 20
4.9926099372
 30
0.0
 10
2.168975941
 20
4.9977195388
 30
0.0
 10
2.1729130232
 20
5.000714823
 30
0.0
 10
2.174876216
 20
5.0020369521
 30
0.0
  0
SPLINE
  5
2EF
100
AcDbEntity
  8
0
100
AcDbSpline
 62
7
  6
CONTINUOUS
 70
0
 71
3
 72
17
 73
13
 74
0
 42
0.0000001
 43
0.0000001
 44
0.0000000001
 40
0.0
 40
0.0
 40
0.0
 40
0.0
 40
0.0523428915
 40
0.1092474131
 40
0.1695229756
 40
0.2324151448
 40
0.3635227873
 40
0.4981316042
 40
0.632358063
 40
0.7627517519
 40
0.8862753548
 40
1.0
 40
1.0
 40
1.0
 40
1.0
 10
2.0243542809
 20
4.9616630585
 30
0.0
 10
2.0250366969
 20
4.9625122131
 30
0.0
 10
2.0264256183
 20
4.9643130774
 30
0.0
 10
2.0284944377
 20
4.9671715371
 30
0.0
 10
2.0306187831
 20
4.9702593758
 30
0.0
 10
2.0335430385
 20
4.9746703651
 30
0.0
 10
2.0372250829
 20
4.9804339904
 30
0.0
 10
2.041695571
 20
4.9874553614
 30
0.0
 10
2.04627505
 20
4.9943893177
 30
0.0
 10
2.050963505
 20
5.000971325
 30
0.0
 10
2.0557466203
 20
5.0069497308
 30
0.0
 10
2.0591370036
 20
5.0105521807
 30
0.0
 10
2.0608558081
 20
5.012179406
 30
0.0
  0
SPLINE
  5
2F0
100
AcDbEntity
  8
0
100
AcDbSpline
 62
7
  6
CONTINUOUS
 70
0
 71
3
 72
17
 73
13
 74
0
 42
0.0000001
 43
0.0000001
 44
0.0000000001
 40
0.0
 40
0.0
 40
0.0
 40
0.0
 40
0.0523428915
 40
0.1092474131
 40
0.1695229756
 40
0.2324151448
 40
0.3635227873
 40
0.4981316042
 40
0.632358063
 40
0.7627517519
 40
0.8862753548
 40
1.0
 40
1.0
 40
1.0
 40
1.0
 10
1.9190320255
 20
4.947581272
 30
0.0
 10
1.9195653694
 20
4.9485311664
 30
0.0
 10
1.9206389382
 20
4.9505360766
 30
0.0
 10
1.9222090592
 20
4.9536960649
 30
0.0
 10
1.9237961948
 20
4.9570914428
 30
0.0
 10
1.9259545492
 20
4.9619235855
 30
0.0
 10
1.9286377231
 20
4.968214643
 30
0.0
 10
1.9318915711
 20
4.9758760651
 30
0.0
 10
1.9352673114
 20
4.9834692038
 30
0.0
 10
1.9388084699
 20
4.9907331302
 30
0.0
 10
1.9425423463
 20
4.9974172678
 30
0.0
 10
1.9452935515
 20
5.0015286196
 30
0.0
 10
1.946721084
 20
5.0034165556
 30
0.0
  0
SPLINE
  5
2F1
100
AcDbEntity
  8
0
100
AcDbSpline
 62
7
  6
CONTINUOUS
 70
0
 71
3
 72
17
 73
13
 74
0
 42
0.0000001
 43
0.0000001
 44
0.0000000001
 40
0.0
 40
0.0
 40
0.0
 40
0.0
 40
0.0523428915
 40
0.1092474131
 40
0.1695229756
 40
0.2324151448
 40
0.3635227873
 40
0.4981316042
 40
0.632358063
 40
0.7627517519
 40
0.8862753548
 40
1.0
 40
1.0
 40
1.0
 40
1.0
 10
1.8174639684
 20
4.9163562185
 30
0.0
 10
1.8178336922
 20
4.9173809425
 30
0.0
 10
1.8185626247
 20
4.919535211
 30
0.0
 10
1.8195912193
 20
4.922910533
 30
0.0
 10
1.8205978529
 20
4.9265208349
 30
0.0
 10
1.8219314332
 20
4.9316423249
 30
0.0
 10
1.8235425478
 20
4.9382892142
 30
0.0
 10
1.8254910008
 20
4.9463817073
 30
0.0
 10
1.8275709227
 20
4.954426911
 30
0.0
 10
1.8298681928
 20
4.9621746191
 30
0.0
 10
1.8324509817
 20
4.9693821658
 30
0.0
 10
1.8344879644
 20
4.9738902747
 30
0.0
 10
1.8355852863
 20
4.9759874242
 30
0.0
  0
SPLINE
  5
2F2
100
AcDbEntity
  8
0
100
AcDbSpline
 62
7
  6
CONTINUOUS
 70
0
 71
3
 72
17
 73
13
 74
0
 42
0.0000001
 43
0.0000001
 44
0.0000000001
 40
0.0
 40
0.0
 40
0.0
 40
0.0
 40
0.0523428915
 40
0.1092474131
 40
0.1695229756
 40
0.2324151448
 40
0.3635227873
 40
0.4981316042
 40
0.632358063
 40
0.7627517519
 40
0.8862753548
 40
1.0
 40
1.0
 40
1.0
 40
1.0
 10
1.7224205723
 20
4.8688396209
 30
0.0
 10
1.722616591
 20
4.8699112233
 30
0.0
 10
1.7229810042
 20
4.8721560881
 30
0.0
 10
1.7234400155
 20
4.8756546756
 30
0.0
 10
1.7238386893
 20
4.8793814235
 30
0.0
 10
1.7243111195
 20
4.8846525625
 30
0.0
 10
1.7248062286
 20
4.8914739769
 30
0.0
 10
1.7253961388
 20
4.899776803
 30
0.0
 10
1.7261235085
 20
4.9080546234
 30
0.0
 10
1.7271142278
 20
4.9160747796
 30
0.0
 10
1.7284754787
 20
4.9236091359
 30
0.0
 10
1.7297426763
 20
4.9283910345
 30
0.0
 10
1.7304798559
 20
4.9306401938
 30
0.0
  0
SPLINE
  5
2F3
100
AcDbEntity
  8
0
100
AcDbSpline
 62
7
  6
CONTINUOUS
 70
0
 71
3
 72
17
 73
13
 74
0
 42
0.0000001
 43
0.0000001
 44
0.0000000001
 40
0.0
 40
0.0
 40
0.0
 40
0.0
 40
0.0523428915
 40
0.1092474131
 40
0.1695229756
 40
0.2324151448
 40
0.3635227873
 40
0.4981316042
 40
0.632358063
 40
0.7627517519
 40
0.8862753548
 40
1.0
 40
1.0
 40
1.0
 40
1.0
 10
1.6364943272
 20
4.8063275853
 30
0.0
 10
1.6365112942
 20
4.807416836
 30
0.0
 10
1.636501248
 20
4.8096910643
 30
0.0
 10
1.6363781556
 20
4.8132174865
 30
0.0
 10
1.6361579949
 20
4.8169590263
 30
0.0
 10
1.6357563886
 20
4.8222360339
 30
0.0
 10
1.6351219871
 20
4.8290459063
 30
0.0
 10
1.6343372637
 20
4.8373325898
 30
0.0
 10
1.6336922407
 20
4.8456172337
 30
0.0
 10
1.6333493854
 20
4.8536910729
 30
0.0
 10
1.6334519676
 20
4.8613467247
 30
0.0
 10
1.6339148148
 20
4.8662719777
 30
0.0
 10
1.6342717443
 20
4.8686117966
 30
0.0
  0
SPLINE
  5
2F4
100
AcDbEntity
  8
0
100
AcDbSpline
 62
7
  6
CONTINUOUS
 70
0
 71
3
 72
17
 73
13
 74
0
 42
0.0000001
 43
0.0000001
 44
0.0000000001
 40
0.0
 40
0.0
 40
0.0
 40
0.0
 40
0.0523428915
 40
0.1092474131
 40
0.1695229756
 40
0.2324151448
 40
0.3635227873
 40
0.4981316042
 40
0.632358063
 40
0.7627517519
 40
0.8862753548
 40
1.0
 40
1.0
 40
1.0
 40
1.0
 10
1.5620290356
 20
4.7305252467
 30
0.0
 10
1.561866488
 20
4.7316024344
 30
0.0
 10
1.5614822564
 20
4.7338439921
 30
0.0
 10
1.5607804179
 20
4.7373020592
 30
0.0
 10
1.5599474281
 20
4.7409563333
 30
0.0
 10
1.5586827398
 20
4.746095269
 30
0.0
 10
1.5569361323
 20
4.7527078471
 30
0.0
 10
1.55479818
 20
4.760752353
 30
0.0
 10
1.5527983586
 20
4.7688178407
 30
0.0
 10
1.5511312807
 20
4.7767251337
 30
0.0
 10
1.5499723961
 20
4.7842932586
 30
0.0
 10
1.549618268
 20
4.7892275201
 30
0.0
 10
1.5495852114
 20
4.7915941757
 30
0.0
  0
SPLINE
  5
2F5
100
AcDbEntity
  8
0
100
AcDbSpline
 62
7
  6
CONTINUOUS
 70
0
 71
3
 72
17
 73
13
 74
0
 42
0.0000001
 43
0.0000001
 44
0.0000000001
 40
0.0
 40
0.0
 40
0.0
 40
0.0
 40
0.0523428915
 40
0.1092474131
 40
0.1695229756
 40
0.2324151448
 40
0.3635227873
 40
0.4981316042
 40
0.632358063
 40
0.7627517519
 40
0.8862753548
 40
1.0
 40
1.0
 40
1.0
 40
1.0
 10
1.5010558805
 20
4.6435002586
 30
0.0
 10
1.500718252
 20
4.6445360009
 30
0.0
 10
1.4999703158
 20
4.6466837454
 30
0.0
 10
1.4987088751
 20
4.649979132
 30
0.0
 10
1.4972857776
 20
4.653446463
 30
0.0
 10
1.4951925041
 20
4.6583071526
 30
0.0
 10
1.4923813327
 20
4.6645420657
 30
0.0
 10
1.4889484682
 20
4.6721249647
 30
0.0
 10
1.4856483973
 20
4.6797512947
 30
0.0
 10
1.4827025697
 20
4.6872763548
 30
0.0
 10
1.480313829
 20
4.6945505178
 30
0.0
 10
1.479152385
 20
4.6993591966
 30
0.0
 10
1.478730244
 20
4.7016881337
 30
0.0
  0
SPLINE
  5
2F6
100
AcDbEntity
  8
0
100
AcDbSpline
 62
7
  6
CONTINUOUS
 70
0
 71
3
 72
17
 73
13
 74
0
 42
0.0000001
 43
0.0000001
 44
0.0000000001
 40
0.0
 40
0.0
 40
0.0
 40
0.0
 40
0.0523428915
 40
0.1092474131
 40
0.1695229756
 40
0.2324151448
 40
0.3635227873
 40
0.4981316042
 40
0.632358063
 40
0.7627517519
 40
0.8862753548
 40
1.0
 40
1.0
 40
1.0
 40
1.0
 10
1.4552380211
 20
4.5476263939
 30
0.0
 10
1.4547345213
 20
4.5485924389
 30
0.0
 10
1.4536432817
 20
4.5505877862
 30
0.0
 10
1.4518566471
 20
4.5536306044
 30
0.0
 10
1.4498822595
 20
4.5568164143
 30
0.0
 10
1.4470174989
 20
4.5612662731
 30
0.0
 10
1.4432184436
 20
4.5669534521
 30
0.0
 10
1.438584305
 20
4.5738679061
 30
0.0
 10
1.4340740003
 20
4.5808470558
 30
0.0
 10
1.4299297759
 20
4.5877846227
 30
0.0
 10
1.4263763367
 20
4.5945664069
 30
0.0
 10
1.4244392574
 20
4.5991183371
 30
0.0
 10
1.4236395467
 20
4.6013460296
 30
0.0
  0
SPLINE
  5
2F7
100
AcDbEntity
  8
0
100
AcDbSpline
 62
7
  6
CONTINUOUS
 70
0
 71
3
 72
17
 73
13
 74
0
 42
0.0000001
 43
0.0000001
 44
0.0000000001
 40
0.0
 40
0.0
 40
0.0
 40
0.0
 40
0.0523428915
 40
0.1092474131
 40
0.1695229756
 40
0.2324151448
 40
0.3635227873
 40
0.4981316042
 40
0.632358063
 40
0.7627517519
 40
0.8862753548
 40
1.0
 40
1.0
 40
1.0
 40
1.0
 10
1.425825227
 20
4.445518795
 30
0.0
 10
1.4251695898
 20
4.4463887921
 30
0.0
 10
1.4237648125
 20
4.4481773155
 30
0.0
 10
1.4215017179
 20
4.4508845665
 30
0.0
 10
1.4190298954
 20
4.4537019562
 30
0.0
 10
1.4154717895
 20
4.4576196058
 30
0.0
 10
1.4107884767
 20
4.4626039221
 30
0.0
 10
1.4050794689
 20
4.4686613262
 30
0.0
 10
1.3994819577
 20
4.4748029258
 30
0.0
 10
1.3942523782
 20
4.4809637641
 30
0.0
 10
1.3896311672
 20
4.4870681836
 30
0.0
 10
1.3869712902
 20
4.4912392025
 30
0.0
 10
1.3858158234
 20
4.4933048858
 30
0.0
  0
SPLINE
  5
2F8
100
AcDbEntity
  8
0
100
AcDbSpline
 62
7
  6
CONTINUOUS
 70
0
 71
3
 72
17
 73
13
 74
0
 42
0.0000001
 43
0.0000001
 44
0.0000000001
 40
0.0
 40
0.0
 40
0.0
 40
0.0
 40
0.0523428915
 40
0.1092474131
 40
0.1695229755
 40
0.2324151448
 40
0.3635227872
 40
0.4981316042
 40
0.6323580629
 40
0.7627517519
 40
0.8862753548
 40
1.0
 40
1.0
 40
1.0
 40
1.0
 10
1.4136197883
 20
4.3399626419
 30
0.0
 10
1.4128298974
 20
4.3407128602
 30
0.0
 10
1.4111499005
 20
4.3422457742
 30
0.0
 10
1.408472076
 20
4.3445436126
 30
0.0
 10
1.4055702424
 20
4.3469157324
 30
0.0
 10
1.4014158452
 20
4.3501943116
 30
0.0
 10
1.3959760213
 20
4.3543398083
 30
0.0
 10
1.3893478684
 20
4.3593749353
 30
0.0
 10
1.3828158334
 20
4.364511461
 30
0.0
 10
1.3766435456
 20
4.3697275221
 30
0.0
 10
1.3710806152
 20
4.3749880671
 30
0.0
 10
1.3677704937
 20
4.3786644022
 30
0.0
 10
1.3662907884
 20
4.3805117309
 30
0.0
  0
SPLINE
  5
2F9
100
AcDbEntity
  8
0
100
AcDbSpline
 62
7
  6
CONTINUOUS
 70
0
 71
3
 72
17
 73
13
 74
0
 42
0.0000001
 43
0.0000001
 44
0.0000000001
 40
0.0
 40
0.0
 40
0.0
 40
0.0
 40
0.0523428915
 40
0.1092474131
 40
0.1695229756
 40
0.2324151448
 40
0.3635227873
 40
0.4981316042
 40
0.632358063
 40
0.7627517519
 40
0.8862753548
 40
1.0
 40
1.0
 40
1.0
 40
1.0
 10
1.4189546317
 20
4.2338371802
 30
0.0
 10
1.4180520329
 20
4.2344471559
 30
0.0
 10
1.4161426414
 20
4.2356826474
 30
0.0
 10
1.4131231299
 20
4.2375083953
 30
0.0
 10
1.4098704381
 20
4.2393705412
 30
0.0
 10
1.4052330689
 20
4.2419206203
 30
0.0
 10
1.3991851155
 20
4.2451142212
 30
0.0
 10
1.3918186129
 20
4.2489897283
 30
0.0
 10
1.3845302279
 20
4.2529810716
 30
0.0
 10
1.3775835927
 20
4.2571100774
 30
0.0
 10
1.3712306824
 20
4.2613832565
 30
0.0
 10
1.3673606064
 20
4.2644646288
 30
0.0
 10
1.3655970243
 20
4.2660432135
 30
0.0
  0
SPLINE
  5
2FA
100
AcDbEntity
  8
0
100
AcDbSpline
 62
7
  6
CONTINUOUS
 70
0
 71
3
 72
17
 73
13
 74
0
 42
0.0000001
 43
0.0000001
 44
0.0000000001
 40
0.0
 40
0.0
 40
0.0
 40
0.0
 40
0.0523428915
 40
0.1092474131
 40
0.1695229756
 40
0.2324151448
 40
0.3635227873
 40
0.4981316042
 40
0.632358063
 40
0.7627517519
 40
0.8862753548
 40
1.0
 40
1.0
 40
1.0
 40
1.0
 10
1.4416842391
 20
4.1300371843
 30
0.0
 10
1.4406935526
 20
4.1304902794
 30
0.0
 10
1.4386068488
 20
4.1313946479
 30
0.0
 10
1.4353280131
 20
4.1326985046
 30
0.0
 10
1.4318131866
 20
4.1339998829
 30
0.0
 10
1.4268193384
 20
4.1357519037
 30
0.0
 10
1.4203282249
 20
4.1379064972
 30
0.0
 10
1.4124243082
 20
4.1405166725
 30
0.0
 10
1.4045783778
 20
4.1432539619
 30
0.0
 10
1.3970468779
 20
4.146183286
 30
0.0
 10
1.3900772755
 20
4.1493525401
 30
0.0
 10
1.3857528086
 20
4.1517548993
 30
0.0
 10
1.3837534548
 20
4.1530216809
 30
0.0
  0
SPLINE
  5
2FB
100
AcDbEntity
  8
0
100
AcDbSpline
 62
7
  6
CONTINUOUS
 70
0
 71
3
 72
17
 73
13
 74
0
 42
0.0000001
 43
0.0000001
 44
0.0000000001
 40
0.0
 40
0.0
 40
0.0
 40
0.0
 40
0.0523428915
 40
0.1092474131
 40
0.1695229756
 40
0.2324151448
 40
0.3635227873
 40
0.4981316042
 40
0.632358063
 40
0.7627517519
 40
0.8862753548
 40
1.0
 40
1.0
 40
1.0
 40
1.0
 10
1.4811886171
 20
4.0313939975
 30
0.0
 10
1.4801368656
 20
4.0316778528
 30
0.0
 10
1.4779297685
 20
4.03222643
 30
0.0
 10
1.4744810452
 20
4.0329728303
 30
0.0
 10
1.4707999575
 20
4.0336779435
 30
0.0
 10
1.4655858471
 20
4.0345841163
 30
0.0
 10
1.4588286311
 20
4.0356409316
 30
0.0
 10
1.4506028946
 20
4.0369145778
 30
0.0
 10
1.4424134315
 20
4.0383231484
 30
0.0
 10
1.4345025029
 20
4.0399728878
 30
0.0
 10
1.4271063177
 20
4.0419517694
 30
0.0
 10
1.422445418
 20
4.0436095865
 30
0.0
 10
1.4202648287
 20
4.0445300113
 30
0.0
  0
SPLINE
  5
2FC
100
AcDbEntity
  8
0
100
AcDbSpline
 62
7
  6
CONTINUOUS
 70
0
 71
3
 72
17
 73
13
 74
0
 42
0.0000001
 43
0.0000001
 44
0.0000000001
 40
0.0
 40
0.0
 40
0.0
 40
0.0
 40
0.0523428915
 40
0.1092474131
 40
0.1695229756
 40
0.2324151448
 40
0.3635227873
 40
0.4981316042
 40
0.632358063
 40
0.7627517519
 40
0.8862753548
 40
1.0
 40
1.0
 40
1.0
 40
1.0
 10
1.5363902084
 20
3.9405983009
 30
0.0
 10
1.5353060805
 20
3.9407051739
 30
0.0
 10
1.5330387927
 20
3.9408829962
 30
0.0
 10
1.5295142523
 20
3.9410515805
 30
0.0
 10
1.5257673122
 20
3.9411411953
 30
0.0
 10
1.5204751643
 20
3.9411768025
 30
0.0
 10
1.5136361617
 20
3.9411070131
 30
0.0
 10
1.5053129782
 20
3.9410093889
 30
0.0
 10
1.4970033656
 20
3.9410508193
 30
0.0
 10
1.4889287941
 20
3.9413759742
 30
0.0
 10
1.4813077711
 20
3.9421105056
 30
0.0
 10
1.4764375735
 20
3.9429785606
 30
0.0
 10
1.4741352285
 20
3.9435275222
 30
0.0
  0
SPLINE
  5
2FD
100
AcDbEntity
  8
0
100
AcDbSpline
 62
7
  6
CONTINUOUS
 70
0
 71
3
 72
17
 73
13
 74
0
 42
0.0000001
 43
0.0000001
 44
0.0000000001
 40
0.0
 40
0.0
 40
0.0
 40
0.0
 40
0.0523428915
 40
0.1092474131
 40
0.1695229756
 40
0.2324151448
 40
0.3635227873
 40
0.4981316042
 40
0.632358063
 40
0.7627517519
 40
0.8862753548
 40
1.0
 40
1.0
 40
1.0
 40
1.0
 10
1.6057832841
 20
3.8601267206
 30
0.0
 10
1.6046963515
 20
3.860053696
 30
0.0
 10
1.6024307176
 20
3.8598559131
 30
0.0
 10
1.5989264987
 20
3.859442083
 30
0.0
 10
1.5952159111
 20
3.8589137549
 30
0.0
 10
1.5899900793
 20
3.8580778252
 30
0.0
 10
1.5832558369
 20
3.8568833348
 30
0.0
 10
1.575062237
 20
3.8554171031
 30
0.0
 10
1.5668591355
 20
3.8540902632
 30
0.0
 10
1.5588411705
 20
3.8530819645
 30
0.0
 10
1.5512031876
 20
3.8525521099
 30
0.0
 10
1.5462565361
 20
3.8526067248
 30
0.0
 10
1.5438952362
 20
3.8527692492
 30
0.0
  0
SPLINE
  5
2FE
100
AcDbEntity
  8
0
100
AcDbSpline
 62
7
  6
CONTINUOUS
 70
0
 71
3
 72
17
 73
13
 74
0
 42
0.0000001
 43
0.0000001
 44
0.0000000001
 40
0.0
 40
0.0
 40
0.0
 40
0.0
 40
0.0523428915
 40
0.1092474131
 40
0.1695229756
 40
0.2324151448
 40
0.3635227873
 40
0.4981316042
 40
0.632358063
 40
0.7627517519
 40
0.8862753548
 40
1.0
 40
1.0
 40
1.0
 40
1.0
 10
1.6874750156
 20
3.7921742726
 30
0.0
 10
1.6864149264
 20
3.7919233422
 30
0.0
 10
1.684212746
 20
3.791355349
 30
0.0
 10
1.6808244328
 20
3.7903703925
 30
0.0
 10
1.6772514111
 20
3.7892385327
 30
0.0
 10
1.6722344398
 20
3.7875538678
 30
0.0
 10
1.6657886471
 20
3.7852672582
 30
0.0
 10
1.6579481269
 20
3.7824724133
 30
0.0
 10
1.6500752918
 20
3.7798134953
 30
0.0
 10
1.6423326384
 20
3.7774992461
 30
0.0
 10
1.6348860363
 20
3.7757194583
 30
0.0
 10
1.6299978602
 20
3.7749591435
 30
0.0
 10
1.6276420144
 20
3.7747307975
 30
0.0
  0
SPLINE
  5
2FF
100
AcDbEntity
  8
0
100
AcDbSpline
 62
7
  6
CONTINUOUS
 70
0
 71
3
 72
17
 73
13
 74
0
 42
0.0000001
 43
0.0000001
 44
0.0000000001
 40
0.0
 40
0.0
 40
0.0
 40
0.0
 40
0.0523428915
 40
0.1092474131
 40
0.1695229756
 40
0.2324151448
 40
0.3635227873
 40
0.4981316042
 40
0.632358063
 40
0.7627517519
 40
0.8862753548
 40
1.0
 40
1.0
 40
1.0
 40
1.0
 10
1.7792371049
 20
3.7385944896
 30
0.0
 10
1.7782327752
 20
3.7381724981
 30
0.0
 10
1.7761541169
 20
3.7372497877
 30
0.0
 10
1.7729741322
 20
3.7357205714
 30
0.0
 10
1.7696361372
 20
3.7340160535
 30
0.0
 10
1.764964874
 20
3.7315286057
 30
0.0
 10
1.7589833522
 20
3.7282122487
 30
0.0
 10
1.7517097769
 20
3.7241650253
 30
0.0
 10
1.7443819547
 20
3.7202465562
 30
0.0
 10
1.7371258088
 20
3.7166894822
 30
0.0
 10
1.7300737076
 20
3.7137083083
 30
0.0
 10
1.7253773413
 20
3.7121538027
 30
0.0
 10
1.7230912098
 20
3.711540815
 30
0.0
  0
SPLINE
  5
300
100
AcDbEntity
  8
0
100
AcDbSpline
 62
7
  6
CONTINUOUS
 70
0
 71
3
 72
17
 73
13
 74
0
 42
0.0000001
 43
0.0000001
 44
0.0000000001
 40
0.0
 40
0.0
 40
0.0
 40
0.0
 40
0.0523428915
 40
0.1092474131
 40
0.1695229756
 40
0.2324151448
 40
0.3635227873
 40
0.4981316042
 40
0.632358063
 40
0.7627517519
 40
0.8862753548
 40
1.0
 40
1.0
 40
1.0
 40
1.0
 10
1.878566566
 20
3.7008488625
 30
0.0
 10
1.8776453906
 20
3.7002673206
 30
0.0
 10
1.8757469538
 20
3.6990150616
 30
0.0
 10
1.8728620377
 20
3.6969832977
 30
0.0
 10
1.8698501198
 20
3.6947526158
 30
0.0
 10
1.8656519822
 20
3.6915302351
 30
0.0
 10
1.8602978887
 20
3.6872745906
 30
0.0
 10
1.8537896589
 20
3.6820853845
 30
0.0
 10
1.8472067301
 20
3.6770142479
 30
0.0
 10
1.8406350167
 20
3.672311375
 30
0.0
 10
1.8341697761
 20
3.6682101323
 30
0.0
 10
1.829793322
 20
3.6659038381
 30
0.0
 10
1.8276392633
 20
3.664922929
 30
0.0
  0
SPLINE
  5
301
100
AcDbEntity
  8
0
100
AcDbSpline
 62
7
  6
CONTINUOUS
 70
0
 71
3
 72
17
 73
13
 74
0
 42
0.0000001
 43
0.0000001
 44
0.0000000001
 40
0.0
 40
0.0
 40
0.0
 40
0.0
 40
0.0523428915
 40
0.109247413
 40
0.1695229754
 40
0.2324151447
 40
0.3635227872
 40
0.4981316042
 40
0.6323580629
 40
0.7627517519
 40
0.8862753548
 40
1.0
 40
1.0
 40
1.0
 40
1.0
 10
1.9827539979
 20
3.6799669754
 30
0.0
 10
1.9819411038
 20
3.6792417456
 30
0.0
 10
1.980274672
 20
3.6776940958
 30
0.0
 10
1.977763516
 20
3.6752152047
 30
0.0
 10
1.975159831
 20
3.6725192048
 30
0.0
 10
1.9715493313
 20
3.6686497877
 30
0.0
 10
1.9669687093
 20
3.6635709366
 30
0.0
 10
1.9614033494
 20
3.6573812933
 30
0.0
 10
1.9557448758
 20
3.6512958143
 30
0.0
 10
1.9500368511
 20
3.6455754223
 30
0.0
 10
1.9443348228
 20
3.6404659799
 30
0.0
 10
1.9403976569
 20
3.6374708057
 30
0.0
 10
1.9384344272
 20
3.6361487314
 30
0.0
  0
SPLINE
  5
302
100
AcDbEntity
  8
0
100
AcDbSpline
 62
7
  6
CONTINUOUS
 70
0
 71
3
 72
25
 73
21
 74
0
 42
0.0000001
 43
0.0000001
 44
0.0000000001
 40
0.0
 40
0.0
 40
0.0
 40
0.0
 40
0.1249940853
 40
0.2499746446
 40
0.3749383261
 40
0.4998887439
 40
0.5623890572
 40
0.6248869698
 40
0.6873827508
 40
0.7498762919
 40
0.8123675172
 40
0.8436181885
 40
0.8748718808
 40
0.906128419
 40
0.9217537264
 40
0.9373782685
 40
0.9530123086
 40
0.9686911194
 40
0.9843761234
 40
1.0
 40
1.0
 40
1.0
 40
1.0
 10
1.878566566
 20
3.7008488625
 30
0.0
 10
1.8830119435
 20
3.7022816959
 30
0.0
 10
1.8920850782
 20
3.7046112598
 30
0.0
 10
1.9060070625
 20
3.7064463653
 30
0.0
 10
1.9200481322
 20
3.706599864
 30
0.0
 10
1.9316827099
 20
3.7053159449
 30
0.0
 10
1.9408375661
 20
3.7034422719
 30
0.0
 10
1.9476052177
 20
3.7016119373
 30
0.0
 10
1.9542423533
 20
3.6993541452
 30
0.0
 10
1.9607152915
 20
3.6966613998
 30
0.0
 10
1.9659378026
 20
3.6940384905
 30
0.0
 10
1.9699769362
 20
3.6916905564
 30
0.0
 10
1.9729214069
 20
3.6897894304
 30
0.0
 10
1.9752858582
 20
3.6880729672
 30
0.0
 10
1.9771006234
 20
3.6866018689
 30
0.0
 10
1.97841626
 20
3.6854440774
 30
0.0
 10
1.9796691935
 20
3.6842153511
 30
0.0
 10
1.9808421183
 20
3.6829062461
 30
0.0
 10
1.981902256
 20
3.681503527
 30
0.0
 10
1.9824966504
 20
3.6804910034
 30
0.0
 10
1.9827539979
 20
3.6799669754
 30
0.0
  0
SPLINE
  5
303
100
AcDbEntity
  8
0
100
AcDbSpline
 62
7
  6
CONTINUOUS
 70
0
 71
3
 72
25
 73
21
 74
0
 42
0.0000001
 43
0.0000001
 44
0.0000000001
 40
0.0
 40
0.0
 40
0.0
 40
0.0
 40
0.1249940011
 40
0.2499744666
 40
0.3749380724
 40
0.4998884151
 40
0.5623886926
 40
0.6248865702
 40
0.6873823157
 40
0.7498758211
 40
0.8123670127
 40
0.8436176426
 40
0.8748713796
 40
0.9061279005
 40
0.9217530881
 40
0.9373774545
 40
0.9530116325
 40
0.9686910647
 40
0.9843761905
 40
1.0
 40
1.0
 40
1.0
 40
1.0
 10
1.7792371049
 20
3.7385944896
 30
0.0
 10
1.7838576859
 20
3.7392761022
 30
0.0
 10
1.7931905007
 20
3.7400805188
 30
0.0
 10
1.8072246472
 20
3.7395991348
 30
0.0
 10
1.8210994748
 20
3.7374394808
 30
0.0
 10
1.8323640448
 20
3.7342581054
 30
0.0
 10
1.8410856454
 20
3.7309031649
 30
0.0
 10
1.8474597337
 20
3.7279838882
 30
0.0
 10
1.8536347301
 20
3.7246644665
 30
0.0
 10
1.8595761776
 20
3.7209430484
 30
0.0
 10
1.8642957499
 20
3.7174963298
 30
0.0
 10
1.8678933397
 20
3.7145156034
 30
0.0
 10
1.8704847489
 20
3.7121557758
 30
0.0
 10
1.8725344199
 20
3.7100735413
 30
0.0
 10
1.8740823184
 20
3.708323839
 30
0.0
 10
1.8751894322
 20
3.7069652873
 30
0.0
 10
1.8762230246
 20
3.7055470598
 30
0.0
 10
1.8771645583
 20
3.7040627629
 30
0.0
 10
1.8779793634
 20
3.7025046539
 30
0.0
 10
1.8783989804
 20
3.7014080988
 30
0.0
 10
1.878566566
 20
3.7008488625
 30
0.0
  0
ENDSEC
  0
SECTION
  2
OBJECTS
  0
DICTIONARY
  5
C
100
AcDbDictionary
280
0
281
1
  3
ACAD_GROUP
350
D
  3
ACAD_MLINESTYLE
350
17
  3
ACAD_LAYOUT
350
1A
  3
ACAD_PLOTSETTINGS
350
19
  3
ACAD_PLOTSTYLENAME
350
E
  0
DICTIONARY
  5
D
102
{ACAD_REACTORS
330
C
102
}
100
AcDbDictionary
280
0
281
1
  0
ACDBDICTIONARYWDFLT
  5
E
102
{ACAD_REACTORS
330
C
102
}
100
AcDbDictionary
281
1
  3
Normal
350
F
100
AcDbDictionaryWithDefault
340
F
  0
DICTIONARY
  5
17
102
{ACAD_REACTORS
330
C
102
}
100
AcDbDictionary
280
0
281
1
  3
Standard
350
18
  0
DICTIONARY
  5
19
102
{ACAD_REACTORS
330
C
102
}
100
AcDbDictionary
281
1
  0
DICTIONARY
  5
1A
102
{ACAD_REACTORS
330
C
102
}
100
AcDbDictionary
281
1
  3
Model
350
304
  3
Layout1
350
305
  0
ACDBPLACEHOLDER
  5
F
102
{ACAD_REACTORS
330
E
102
}
  0
MLINESTYLE
  5
18
102
{ACAD_REACTORS
330
17
102
}
100
AcDbMlineStyle
  2
STANDARD
 70
0
  3

 62
256
 51
90.0
 52
90.0
 71
2
 49
0.5
 62
256
  6
BYLAYER
 49
-0.5
 62
256
  6
BYLAYER
  0
LAYOUT
  5
304
102
{ACAD_REACTORS
330
1A
102
}
100
AcDbPlotSettings
  1

  2
none_device
  4
ANSI_A_(11.00_x_8.50_Inches)
  6

 40
0.0
 41
0.0
 42
0.0
 43
0.0
 44
279.4
 45
215.9
 46
0.0
 47
0.0
 48
0.0
 49
0.0
140
0.0
141
0.0
142
1.0
143
1.0
 70
1024
 72
0
 73
0
 74
0
  7

 75
0
147
1.0
148
0.0
149
0.0
100
AcDbLayout
  1
Model
 70
0
 71
0
 10
0.0
 20
0.0
 11
11.0
 21
8.5
 12
0.0
 22
0.0
 32
0.0
 14
0.0
 24
0.0
 34
0.0
 15
0.0
 25
0.0
 35
0.0
146
0.0
 13
0.0
 23
0.0
 33
0.0
 16
1.0
 26
0.0
 36
0.0
 17
0.0
 27
1.0
 37
0.0
 76
0
330
216
345
0
346
0
  0
LAYOUT
  5
305
102
{ACAD_REACTORS
330
1A
102
}
100
AcDbPlotSettings
  1

  2
none_device
  4
ANSI_A_(11.00_x_8.50_Inches)
  6

 40
0.0
 41
0.0
 42
0.0
 43
0.0
 44
279.4
 45
215.9
 46
0.0
 47
0.0
 48
0.0
 49
0.0
140
0.0
141
0.0
142
1.0
143
1.0
 70
0
 72
0
 73
0
 74
0
  7

 75
0
147
1.0
148
0.0
149
0.0
100
AcDbLayout
  1
Layout1
 70
0
 71
1
 10
0.0
 20
0.0
 11
11.0
 21
8.5
 12
0.0
 22
0.0
 32
0.0
 14
0.0
 24
0.0
 34
0.0
 15
0.0
 25
0.0
 35
0.0
146
0.0
 13
0.0
 23
0.0
 33
0.0
 16
1.0
 26
0.0
 36
0.0
 17
0.0
 27
1.0
 37
0.0
 76
0
330
217
345
0
346
0
  0
ENDSEC
  0
EOF
