999
DXF file: 1020-3912_top.dxf
999
Pro/ENGINEER 2013150 by Parametric Technology Corporation
  0
SECTION
  2
HEADER
  9
$ACADVER
  1
AC1021
  9
$DWGCODEPAGE
  3
ANSI_1252
  9
$EXTMAX
 10
11.0
 20
8.5
 30
0.0
  9
$EXTMIN
 10
0.0
 20
0.0
 30
0.0
  9
$LIMMIN
 10
0.0
 20
0.0
  9
$LIMMAX
 10
11.0
 20
8.5
  9
$VIEWCTR
 10
5.5
 20
4.25
  9
$VIEWSIZE
 40
8.5
  9
$CLAYER
  8
0
  9
$LTSCALE
 40
0.605
  9
$CELTYPE
  6
BYLAYER
  9
$DIMSCALE
 40
1.0
  9
$DIMASZ
 40
0.1
  9
$DIMEXO
 40
0.0625
  9
$DIMDLI
 40
0.418
  9
$DIMEXE
 40
0.125
  9
$DIMCEN
 40
0.099
  9
$DIMLFAC
 40
1.0
  9
$DIMBLK
  1
_FILLED
  9
$DIMTXT
 40
0.08
  9
$DIMTOL
 70
1
  9
$DIMLIM
 70
0
  9
$DIMTFAC
 40
1.0
  9
$DIMTP
 40
0.001
  9
$DIMTM
 40
0.001
  9
$DIMGAP
 40
0.09
  9
$DIMDSEP
 70
46
  9
$PDMODE
 70
3
  9
$PDSIZE
 40
0.3125
  9
$HANDSEED
  5
2A9
  9
$TILEMODE
 70
1
  9
$MEASUREMENT
 70
0
  9
$INSUNITS
 70
1
  0
ENDSEC
  0
SECTION
  2
CLASSES
  0
CLASS
  1
ACDBDICTIONARYWDFLT
  2
AcDbDictionaryWithDefault
  3
AutoCAD 2000
 90
0
 91
1
280
0
281
0
  0
CLASS
  1
ACDBPLACEHOLDER
  2
AcDbPlaceHolder
  3
AutoCAD 2000
 90
0
 91
1
280
0
281
0
  0
CLASS
  1
LAYOUT
  2
AcDbLayout
  3
AutoCAD 2000
 90
0
 91
0
280
0
281
0
  0
ENDSEC
  0
SECTION
  2
TABLES
  0
TABLE
  2
VPORT
  5
8
100
AcDbSymbolTable
 70
2
  0
VPORT
  5
1F4
100
AcDbSymbolTableRecord
100
AcDbViewportTableRecord
  2
*ACTIVE
 70
0
 10
0.0
 20
0.0
 11
1.0
 21
1.0
 12
5.5
 22
4.25
 13
0.0
 23
0.0
 14
1.0
 24
1.0
 15
0.0
 25
0.0
 16
0.0
 26
0.0
 36
1.0
 17
0.0
 27
0.0
 37
0.0
 40
8.5
 41
1.2941176471
 42
50.0
 43
0.0
 44
0.0
 50
0.0
 51
0.0
 71
0
 72
100
 73
1
 74
1
 75
0
 76
0
 77
0
 78
0
  0
ENDTAB
  0
TABLE
  2
LTYPE
  5
5
100
AcDbSymbolTable
 70
6
  0
LTYPE
  5
14
100
AcDbSymbolTableRecord
100
AcDbLinetypeTableRecord
  2
BYBLOCK
 70
0
  3

 72
65
 73
0
 40
0.0
  0
LTYPE
  5
15
100
AcDbSymbolTableRecord
100
AcDbLinetypeTableRecord
  2
BYLAYER
 70
0
  3

 72
65
 73
0
 40
0.0
  0
LTYPE
  5
16
100
AcDbSymbolTableRecord
100
AcDbLinetypeTableRecord
  2
CONTINUOUS
 70
64
  3
Solid line
 72
65
 73
0
 40
0.0
  0
LTYPE
  5
1F5
100
AcDbSymbolTableRecord
100
AcDbLinetypeTableRecord
  2
CENTER
 70
64
  3
____ _ ____ _ ____ _ ____ _ ____ _ ____ _ ____
 72
65
 73
4
 40
0.6
 49
0.375
 74
0
 49
-0.075
 74
0
 49
0.075
 74
0
 49
-0.075
 74
0
  0
LTYPE
  5
1F6
100
AcDbSymbolTableRecord
100
AcDbLinetypeTableRecord
  2
HIDDEN
 70
64
  3
- - - - - - - - - - - - - - - - - - - -
 72
65
 73
2
 40
0.2
 49
0.1
 74
0
 49
-0.1
 74
0
  0
LTYPE
  5
1F7
100
AcDbSymbolTableRecord
100
AcDbLinetypeTableRecord
  2
PHANTOM
 70
64
  3
_____ _ _ _____ _ _ _____ _ _ _____
 72
65
 73
6
 40
0.8
 49
0.45
 74
0
 49
-0.05
 74
0
 49
0.1
 74
0
 49
-0.05
 74
0
 49
0.1
 74
0
 49
-0.05
 74
0
  0
LTYPE
  5
1F8
100
AcDbSymbolTableRecord
100
AcDbLinetypeTableRecord
  2
DOT
 70
64
  3
. . . . . . . . . . . . . . . . . . . .
 72
65
 73
2
 40
0.2
 49
0.1
 74
0
 49
-0.1
 74
0
  0
LTYPE
  5
1F9
100
AcDbSymbolTableRecord
100
AcDbLinetypeTableRecord
  2
DASHED
 70
64
  3
- - - - - - - - - - - - - - - - - - - -
 72
65
 73
2
 40
0.2
 49
0.1
 74
0
 49
-0.1
 74
0
  0
ENDTAB
  0
TABLE
  2
LAYER
  5
2
100
AcDbSymbolTable
 70
36
  0
LAYER
  5
10
100
AcDbSymbolTableRecord
100
AcDbLayerTableRecord
  2
0
 70
0
 62
7
  6
CONTINUOUS
370
-3
390
F
  0
LAYER
  5
1FA
100
AcDbSymbolTableRecord
100
AcDbLayerTableRecord
  2
DEFAULT_1
 70
0
 62
7
  6
CENTER
370
-3
390
F
  0
LAYER
  5
1FB
100
AcDbSymbolTableRecord
100
AcDbLayerTableRecord
  2
DEFAULT_2
 70
0
 62
8
  6
HIDDEN
370
-3
390
F
  0
LAYER
  5
1FC
100
AcDbSymbolTableRecord
100
AcDbLayerTableRecord
  2
DEFAULT_3
 70
0
 62
7
  6
PHANTOM
370
-3
390
F
  0
LAYER
  5
1FD
100
AcDbSymbolTableRecord
100
AcDbLayerTableRecord
  2
_  SHELL
 70
0
 62
7
  6
CONTINUOUS
370
-3
390
F
  0
LAYER
  5
1FE
100
AcDbSymbolTableRecord
100
AcDbLayerTableRecord
  2
01___PRT_ALL_DTM_PLN
 70
0
 62
7
  6
CONTINUOUS
370
-3
390
F
  0
LAYER
  5
1FF
100
AcDbSymbolTableRecord
100
AcDbLayerTableRecord
  2
01___PRT_DEF_DTM_PLN
 70
0
 62
7
  6
CONTINUOUS
370
-3
390
F
  0
LAYER
  5
200
100
AcDbSymbolTableRecord
100
AcDbLayerTableRecord
  2
02___PRT_ALL_AXES
 70
0
 62
7
  6
CONTINUOUS
370
-3
390
F
  0
LAYER
  5
201
100
AcDbSymbolTableRecord
100
AcDbLayerTableRecord
  2
03___PRT_ALL_CURVES
 70
0
 62
7
  6
CONTINUOUS
370
-3
390
F
  0
LAYER
  5
202
100
AcDbSymbolTableRecord
100
AcDbLayerTableRecord
  2
04___PRT_ALL_DTM_PNT
 70
0
 62
7
  6
CONTINUOUS
370
-3
390
F
  0
LAYER
  5
203
100
AcDbSymbolTableRecord
100
AcDbLayerTableRecord
  2
05___PRT_ALL_DTM_CSYS
 70
0
 62
7
  6
CONTINUOUS
370
-3
390
F
  0
LAYER
  5
204
100
AcDbSymbolTableRecord
100
AcDbLayerTableRecord
  2
05___PRT_DEF_DTM_CSYS
 70
0
 62
7
  6
CONTINUOUS
370
-3
390
F
  0
LAYER
  5
205
100
AcDbSymbolTableRecord
100
AcDbLayerTableRecord
  2
06___PRT_ALL_SURFS
 70
0
 62
7
  6
CONTINUOUS
370
-3
390
F
  0
LAYER
  5
206
100
AcDbSymbolTableRecord
100
AcDbLayerTableRecord
  2
ALL_FEATURES
 70
0
 62
7
  6
CONTINUOUS
370
-3
390
F
  0
LAYER
  5
207
100
AcDbSymbolTableRecord
100
AcDbLayerTableRecord
  2
AXES_FEATURES
 70
0
 62
7
  6
CONTINUOUS
370
-3
390
F
  0
LAYER
  5
208
100
AcDbSymbolTableRecord
100
AcDbLayerTableRecord
  2
DEFAULT_COORDINATE_SYSTEM
 70
0
 62
7
  6
CONTINUOUS
370
-3
390
F
  0
LAYER
  5
209
100
AcDbSymbolTableRecord
100
AcDbLayerTableRecord
  2
DEFAULT_DATUM_AXES
 70
0
 62
7
  6
CONTINUOUS
370
-3
390
F
  0
LAYER
  5
20A
100
AcDbSymbolTableRecord
100
AcDbLayerTableRecord
  2
DEFAULT_DATUM_CURVES
 70
0
 62
7
  6
CONTINUOUS
370
-3
390
F
  0
LAYER
  5
20B
100
AcDbSymbolTableRecord
100
AcDbLayerTableRecord
  2
DEFAULT_DATUM_PLANES
 70
0
 62
7
  6
CONTINUOUS
370
-3
390
F
  0
LAYER
  5
20C
100
AcDbSymbolTableRecord
100
AcDbLayerTableRecord
  2
DEFAULT_SURFACES
 70
0
 62
7
  6
CONTINUOUS
370
-3
390
F
  0
LAYER
  5
20D
100
AcDbSymbolTableRecord
100
AcDbLayerTableRecord
  2
DIMENSIONS
 70
0
 62
7
  6
CONTINUOUS
370
-3
390
F
  0
LAYER
  5
20E
100
AcDbSymbolTableRecord
100
AcDbLayerTableRecord
  2
INTF_BLANK
 70
0
 62
7
  6
CONTINUOUS
370
-3
390
F
  0
LAYER
  5
20F
100
AcDbSymbolTableRecord
100
AcDbLayerTableRecord
  2
PLATED_SURFACE_ARE
 70
0
 62
7
  6
CONTINUOUS
370
-3
390
F
  0
LAYER
  5
210
100
AcDbSymbolTableRecord
100
AcDbLayerTableRecord
  2
PLATED_SURFACE_AREA
 70
0
 62
7
  6
CONTINUOUS
370
-3
390
F
  0
LAYER
  5
211
100
AcDbSymbolTableRecord
100
AcDbLayerTableRecord
  2
SHELL
 70
0
 62
7
  6
CONTINUOUS
370
-3
390
F
  0
LAYER
  5
212
100
AcDbSymbolTableRecord
100
AcDbLayerTableRecord
  2
XSEC_DATUMS
 70
0
 62
7
  6
CONTINUOUS
370
-3
390
F
  0
LAYER
  5
213
100
AcDbSymbolTableRecord
100
AcDbLayerTableRecord
  2
___SHELL
 70
0
 62
7
  6
CONTINUOUS
370
-3
390
F
  0
ENDTAB
  0
TABLE
  2
STYLE
  5
3
100
AcDbSymbolTable
 70
1
  0
STYLE
  5
11
100
AcDbSymbolTableRecord
100
AcDbTextStyleTableRecord
  2
STANDARD
 70
0
 40
0.0
 41
0.8
 50
0.0
 71
0
 42
0.2
  3
txt
  4

  0
STYLE
  5
214
100
AcDbSymbolTableRecord
100
AcDbTextStyleTableRecord
  2
TEXTSTYLE_1
 70
0
 40
0.0
 41
0.8
 50
0.0
 71
0
 42
0.2
  3
gdt
  4

  0
ENDTAB
  0
TABLE
  2
VIEW
  5
6
100
AcDbSymbolTable
 70
0
  0
ENDTAB
  0
TABLE
  2
UCS
  5
7
100
AcDbSymbolTable
 70
0
  0
ENDTAB
  0
TABLE
  2
APPID
  5
9
100
AcDbSymbolTable
 70
1
  0
APPID
  5
215
100
AcDbSymbolTableRecord
100
AcDbRegAppTableRecord
  2
ACAD
 70
0
  0
ENDTAB
  0
TABLE
  2
BLOCK_RECORD
  5
1
100
AcDbSymbolTable
 70
0
  0
BLOCK_RECORD
  5
216
100
AcDbSymbolTableRecord
100
AcDbBlockTableRecord
  2
*Model_Space
  0
BLOCK_RECORD
  5
217
100
AcDbSymbolTableRecord
100
AcDbBlockTableRecord
  2
*Paper_Space
  0
ENDTAB
  0
TABLE
  2
DIMSTYLE
  5
A
100
AcDbSymbolTable
 70
1
100
AcDbDimStyleTable
 71
0
  0
DIMSTYLE
105
218
100
AcDbSymbolTableRecord
100
AcDbDimStyleTableRecord
  2
STANDARD
 70
0
  3

  4

 40
1.0
 41
0.1
 42
0.0625
 43
0.38
 44
0.125
 45
0.0
 46
0.0
 47
0.001
 48
0.001
140
0.08
141
0.09
142
0.0
143
25.4
144
1.0
145
0.0
146
1.0
147
0.09
 71
1.0
 72
0.0
 73
1
 74
1
 75
0
 76
0
 77
0
 78
4
170
0
171
2
172
0
173
0
174
0
175
0
176
0
177
0
178
0
270
2
271
3
272
3
273
2
274
2
275
0
280
0
281
0
282
0
283
1
284
4
285
0
286
0
287
3
288
0
340
11
278
46
  0
ENDTAB
  0
ENDSEC
  0
SECTION
  2
BLOCKS
  0
BLOCK
  5
20
100
AcDbEntity
  8
0
100
AcDbBlockBegin
  2
*Model_Space
 70
0
 10
0.0
 20
0.0
 30
0.0
  3
*Model_Space
  1

  0
ENDBLK
  5
21
100
AcDbEntity
  8
0
100
AcDbBlockEnd
  0
BLOCK
  5
1C
100
AcDbEntity
  8
0
100
AcDbBlockBegin
  2
*Paper_Space
 70
0
 10
0.0
 20
0.0
 30
0.0
  3
*Paper_Space
  1

  0
ENDBLK
  5
1D
100
AcDbEntity
  8
0
100
AcDbBlockEnd
  0
ENDSEC
  0
SECTION
  2
ENTITIES
  0
LINE
  5
219
100
AcDbEntity
  8
0
100
AcDbLine
 62
7
  6
CONTINUOUS
 10
0.0
 20
0.0
 11
0.0
 21
8.5
  0
LINE
  5
21A
100
AcDbEntity
  8
0
100
AcDbLine
 62
7
  6
CONTINUOUS
 10
0.0
 20
0.0
 11
11.0
 21
0.0
  0
LINE
  5
21B
100
AcDbEntity
  8
0
100
AcDbLine
 62
7
  6
CONTINUOUS
 10
0.0
 20
8.5
 11
11.0
 21
8.5
  0
LINE
  5
21C
100
AcDbEntity
  8
0
100
AcDbLine
 62
7
  6
CONTINUOUS
 10
11.0
 20
0.0
 11
11.0
 21
8.5
  0
LINE
  5
21D
100
AcDbEntity
  8
0
100
AcDbLine
 62
7
  6
CONTINUOUS
 10
1.3066648573
 20
5.0065911911
 11
1.3066648573
 21
4.7665911911
  0
LINE
  5
21E
100
AcDbEntity
  8
0
100
AcDbLine
 62
7
  6
CONTINUOUS
 10
2.8066648573
 20
5.0065911911
 11
2.8066648573
 21
4.7665911911
  0
LINE
  5
21F
100
AcDbEntity
  8
0
100
AcDbLine
 62
7
  6
CONTINUOUS
 10
2.8691648573
 20
4.2565911911
 11
2.8691648573
 21
3.6315911911
  0
LINE
  5
220
100
AcDbEntity
  8
0
100
AcDbLine
 62
7
  6
CONTINUOUS
 10
2.8691648573
 20
3.6315911911
 11
7.2441648573
 21
3.6315911911
  0
LINE
  5
221
100
AcDbEntity
  8
0
100
AcDbLine
 62
7
  6
CONTINUOUS
 10
2.8691648573
 20
4.2565911911
 11
7.2441648573
 21
4.2565911911
  0
LINE
  5
222
100
AcDbEntity
  8
0
100
AcDbLine
 62
7
  6
CONTINUOUS
 10
8.4641648573
 20
4.7065911911
 11
7.6491648573
 21
4.7065911911
  0
LINE
  5
223
100
AcDbEntity
  8
0
100
AcDbLine
 62
7
  6
CONTINUOUS
 10
2.4641648573
 20
4.7065911911
 11
1.6491648573
 21
4.7065911911
  0
LINE
  5
224
100
AcDbEntity
  8
0
100
AcDbLine
 62
7
  6
CONTINUOUS
 10
8.3648751673
 20
4.7365911911
 11
8.3616518041
 21
4.7365911911
  0
LINE
  5
225
100
AcDbEntity
  8
0
100
AcDbLine
 62
7
  6
CONTINUOUS
 10
8.2659508245
 20
4.7365911911
 11
8.2562181345
 21
4.7365911911
  0
LINE
  5
226
100
AcDbEntity
  8
0
100
AcDbLine
 62
7
  6
CONTINUOUS
 10
8.1609613524
 20
4.7365911911
 11
8.1457393119
 21
4.7365911911
  0
LINE
  5
227
100
AcDbEntity
  8
0
100
AcDbLine
 62
7
  6
CONTINUOUS
 10
8.0527584132
 20
4.7365911911
 11
8.0332283318
 21
4.7365911911
  0
LINE
  5
228
100
AcDbEntity
  8
0
100
AcDbLine
 62
7
  6
CONTINUOUS
 10
7.9442275449
 20
4.7365911911
 11
7.9216525013
 21
4.7365911911
  0
LINE
  5
229
100
AcDbEntity
  8
0
100
AcDbLine
 62
7
  6
CONTINUOUS
 10
7.838309479
 20
4.7365911911
 11
7.8145186515
 21
4.7365911911
  0
LINE
  5
22A
100
AcDbEntity
  8
0
100
AcDbLine
 62
7
  6
CONTINUOUS
 10
7.7377628175
 20
4.7365911911
 11
7.714724755
 21
4.7365911911
  0
LINE
  5
22B
100
AcDbEntity
  8
0
100
AcDbLine
 62
7
  6
CONTINUOUS
 10
7.6450572619
 20
4.7365911911
 11
7.6253413532
 21
4.7365911911
  0
LINE
  5
22C
100
AcDbEntity
  8
0
100
AcDbLine
 62
7
  6
CONTINUOUS
 10
2.3648751673
 20
4.7365911911
 11
2.3616518041
 21
4.7365911911
  0
LINE
  5
22D
100
AcDbEntity
  8
0
100
AcDbLine
 62
7
  6
CONTINUOUS
 10
2.2659508245
 20
4.7365911911
 11
2.2562181345
 21
4.7365911911
  0
LINE
  5
22E
100
AcDbEntity
  8
0
100
AcDbLine
 62
7
  6
CONTINUOUS
 10
2.1609613524
 20
4.7365911911
 11
2.1457393119
 21
4.7365911911
  0
LINE
  5
22F
100
AcDbEntity
  8
0
100
AcDbLine
 62
7
  6
CONTINUOUS
 10
2.0527584132
 20
4.7365911911
 11
2.0332283318
 21
4.7365911911
  0
LINE
  5
230
100
AcDbEntity
  8
0
100
AcDbLine
 62
7
  6
CONTINUOUS
 10
1.9442275449
 20
4.7365911911
 11
1.9216525013
 21
4.7365911911
  0
LINE
  5
231
100
AcDbEntity
  8
0
100
AcDbLine
 62
7
  6
CONTINUOUS
 10
1.838309479
 20
4.7365911911
 11
1.8145186515
 21
4.7365911911
  0
LINE
  5
232
100
AcDbEntity
  8
0
100
AcDbLine
 62
7
  6
CONTINUOUS
 10
1.7377628175
 20
4.7365911911
 11
1.714724755
 21
4.7365911911
  0
LINE
  5
233
100
AcDbEntity
  8
0
100
AcDbLine
 62
7
  6
CONTINUOUS
 10
1.6450572619
 20
4.7365911911
 11
1.6253413532
 21
4.7365911911
  0
LINE
  5
234
100
AcDbEntity
  8
0
100
AcDbLine
 62
7
  6
CONTINUOUS
 10
8.7966648573
 20
4.7565911911
 11
7.3166648573
 21
4.7565911911
  0
LINE
  5
235
100
AcDbEntity
  8
0
100
AcDbLine
 62
7
  6
CONTINUOUS
 10
2.7966648573
 20
4.7565911911
 11
1.3166648573
 21
4.7565911911
  0
LINE
  5
236
100
AcDbEntity
  8
0
100
AcDbLine
 62
7
  6
CONTINUOUS
 10
8.8066648573
 20
4.7665911911
 11
7.3066648573
 21
4.7665911911
  0
LINE
  5
237
100
AcDbEntity
  8
0
100
AcDbLine
 62
7
  6
CONTINUOUS
 10
2.8066648573
 20
4.7665911911
 11
1.3066648573
 21
4.7665911911
  0
LINE
  5
238
100
AcDbEntity
  8
0
100
AcDbLine
 62
7
  6
CONTINUOUS
 10
8.8066648573
 20
5.0065911911
 11
7.3066648573
 21
5.0065911911
  0
LINE
  5
239
100
AcDbEntity
  8
0
100
AcDbLine
 62
7
  6
CONTINUOUS
 10
2.8066648573
 20
5.0065911911
 11
1.3066648573
 21
5.0065911911
  0
LINE
  5
23A
100
AcDbEntity
  8
0
100
AcDbLine
 62
7
  6
CONTINUOUS
 10
7.2441648573
 20
4.2565911911
 11
7.2441648573
 21
3.6315911911
  0
LINE
  5
23B
100
AcDbEntity
  8
0
100
AcDbLine
 62
7
  6
CONTINUOUS
 10
7.3066648573
 20
5.0065911911
 11
7.3066648573
 21
4.7665911911
  0
LINE
  5
23C
100
AcDbEntity
  8
0
100
AcDbLine
 62
7
  6
CONTINUOUS
 10
8.8066648573
 20
5.0065911911
 11
8.8066648573
 21
4.7665911911
  0
ARC
  5
23D
100
AcDbEntity
  8
0
100
AcDbCircle
 62
7
  6
CONTINUOUS
 10
1.6491648573
 20
4.7365911911
 40
0.03
100
AcDbArc
 50
187.0948287814
 51
270.0
  0
ARC
  5
23E
100
AcDbEntity
  8
0
100
AcDbCircle
 62
7
  6
CONTINUOUS
 10
1.7850267016
 20
4.7907827181
 40
0.0616043364
100
AcDbArc
 50
311.3152439261
 51
314.0691311145
  0
ARC
  5
23F
100
AcDbEntity
  8
0
100
AcDbCircle
 62
7
  6
CONTINUOUS
 10
1.766813854
 20
4.7903719226
 40
0.0610620768
100
AcDbArc
 50
227.2761958197
 51
228.9827680814
  0
ARC
  5
240
100
AcDbEntity
  8
0
100
AcDbCircle
 62
7
  6
CONTINUOUS
 10
1.3985992602
 20
4.7874719991
 40
0.0608808598
100
AcDbArc
 50
267.8942589415
 51
280.980170384
  0
ARC
  5
241
100
AcDbEntity
  8
0
100
AcDbCircle
 62
7
  6
CONTINUOUS
 10
1.7875356852
 20
4.788208806
 40
0.0580099161
100
AcDbArc
 50
314.0567994973
 51
316.3840002573
  0
ARC
  5
242
100
AcDbEntity
  8
0
100
AcDbCircle
 62
7
  6
CONTINUOUS
 10
1.6891462095
 20
4.7784918812
 40
0.0490007924
100
AcDbArc
 50
314.5507003391
 51
317.7102490083
  0
ARC
  5
243
100
AcDbEntity
  8
0
100
AcDbCircle
 62
7
  6
CONTINUOUS
 10
1.6697696359
 20
4.7776915257
 40
0.0478164452
100
AcDbArc
 50
221.7127859824
 51
222.4753688583
  0
ARC
  5
244
100
AcDbEntity
  8
0
100
AcDbCircle
 62
7
  6
CONTINUOUS
 10
1.6900892891
 20
4.7776272832
 40
0.0477213772
100
AcDbArc
 50
317.7162617525
 51
318.4049494041
  0
ARC
  5
245
100
AcDbEntity
  8
0
100
AcDbCircle
 62
7
  6
CONTINUOUS
 10
1.6004694361
 20
4.7717787324
 40
0.0430582608
100
AcDbArc
 50
317.5754959947
 51
322.2401383261
  0
ARC
  5
246
100
AcDbEntity
  8
0
100
AcDbCircle
 62
7
  6
CONTINUOUS
 10
1.4194821996
 20
4.7666759604
 40
0.0400874539
100
AcDbArc
 50
194.5729369548
 51
301.7700424202
  0
ARC
  5
247
100
AcDbEntity
  8
0
100
AcDbCircle
 62
7
  6
CONTINUOUS
 10
1.3166648573
 20
4.7665911911
 40
0.01
100
AcDbArc
 50
180.0
 51
270.0
  0
ARC
  5
248
100
AcDbEntity
  8
0
100
AcDbCircle
 62
7
  6
CONTINUOUS
 10
2.8691648573
 20
4.7565911911
 40
1.125
100
AcDbArc
 50
182.5476430146
 51
270.0
  0
ARC
  5
249
100
AcDbEntity
  8
0
100
AcDbCircle
 62
7
  6
CONTINUOUS
 10
2.8691648573
 20
4.7565911911
 40
0.5
100
AcDbArc
 50
185.7422015248
 51
270.0
  0
ARC
  5
24A
100
AcDbEntity
  8
0
100
AcDbCircle
 62
7
  6
CONTINUOUS
 10
2.4641648573
 20
4.7365911911
 40
0.03
100
AcDbArc
 50
270.0
 51
341.1665288282
  0
ARC
  5
24B
100
AcDbEntity
  8
0
100
AcDbCircle
 62
7
  6
CONTINUOUS
 10
2.7189360651
 20
4.7699403521
 40
0.0433490684
100
AcDbArc
 50
267.3955352154
 51
274.6617011886
  0
ARC
  5
24C
100
AcDbEntity
  8
0
100
AcDbCircle
 62
7
  6
CONTINUOUS
 10
2.6513839349
 20
4.7677990059
 40
0.0412078211
100
AcDbArc
 50
262.9855693771
 51
290.6961231367
  0
ARC
  5
24D
100
AcDbEntity
  8
0
100
AcDbCircle
 62
7
  6
CONTINUOUS
 10
2.6938516421
 20
4.7667261205
 40
0.040134556
100
AcDbArc
 50
264.7115095354
 51
283.3911196999
  0
ARC
  5
24E
100
AcDbEntity
  8
0
100
AcDbCircle
 62
7
  6
CONTINUOUS
 10
2.7966648573
 20
4.7665911911
 40
0.01
100
AcDbArc
 50
270.0
 51
360.0
  0
ARC
  5
24F
100
AcDbEntity
  8
0
100
AcDbCircle
 62
7
  6
CONTINUOUS
 10
2.3138070548
 20
4.8469109804
 40
0.120319977
100
AcDbArc
 50
243.9991138729
 51
311.351463932
  0
ARC
  5
250
100
AcDbEntity
  8
0
100
AcDbCircle
 62
7
  6
CONTINUOUS
 10
1.6127589888
 20
4.8363063308
 40
0.1097150177
100
AcDbArc
 50
264.3265767736
 51
274.1979399629
  0
ARC
  5
251
100
AcDbEntity
  8
0
100
AcDbCircle
 62
7
  6
CONTINUOUS
 10
1.8738748839
 20
4.8074264342
 40
0.0792747868
100
AcDbArc
 50
232.5368472079
 51
233.2324389079
  0
ARC
  5
252
100
AcDbEntity
  8
0
100
AcDbCircle
 62
7
  6
CONTINUOUS
 10
1.427788542
 20
4.7996732816
 40
0.0730833477
100
AcDbArc
 50
266.3829565213
 51
285.5627947256
  0
ARC
  5
253
100
AcDbEntity
  8
0
100
AcDbCircle
 62
7
  6
CONTINUOUS
 10
1.7835662664
 20
4.7924164055
 40
0.0637955643
100
AcDbArc
 50
310.5464148537
 51
311.331727174
  0
ARC
  5
254
100
AcDbEntity
  8
0
100
AcDbCircle
 62
7
  6
CONTINUOUS
 10
1.8980170944
 20
4.7953589916
 40
0.0622496664
100
AcDbArc
 50
320.0401748494
 51
321.4806247076
  0
ARC
  5
255
100
AcDbEntity
  8
0
100
AcDbCircle
 62
7
  6
CONTINUOUS
 10
7.2441648573
 20
4.7565911911
 40
1.125
100
AcDbArc
 50
270.0
 51
357.4520838581
  0
ARC
  5
256
100
AcDbEntity
  8
0
100
AcDbCircle
 62
7
  6
CONTINUOUS
 10
7.2441648573
 20
4.7565911911
 40
0.5
100
AcDbArc
 50
270.0
 51
354.2569255653
  0
ARC
  5
257
100
AcDbEntity
  8
0
100
AcDbCircle
 62
7
  6
CONTINUOUS
 10
7.6491648573
 20
4.7365911911
 40
0.03
100
AcDbArc
 50
187.0948287814
 51
270.0
  0
ARC
  5
258
100
AcDbEntity
  8
0
100
AcDbCircle
 62
7
  6
CONTINUOUS
 10
7.7850267016
 20
4.7907827181
 40
0.0616043364
100
AcDbArc
 50
311.3152439261
 51
314.0691311145
  0
ARC
  5
259
100
AcDbEntity
  8
0
100
AcDbCircle
 62
7
  6
CONTINUOUS
 10
7.766813854
 20
4.7903719226
 40
0.0610620768
100
AcDbArc
 50
227.2761958197
 51
228.9827680814
  0
ARC
  5
25A
100
AcDbEntity
  8
0
100
AcDbCircle
 62
7
  6
CONTINUOUS
 10
7.3985992602
 20
4.7874719991
 40
0.0608808598
100
AcDbArc
 50
267.8942589415
 51
280.980170384
  0
ARC
  5
25B
100
AcDbEntity
  8
0
100
AcDbCircle
 62
7
  6
CONTINUOUS
 10
7.7875356852
 20
4.788208806
 40
0.0580099161
100
AcDbArc
 50
314.0567994974
 51
316.3840002572
  0
ARC
  5
25C
100
AcDbEntity
  8
0
100
AcDbCircle
 62
7
  6
CONTINUOUS
 10
7.6891462095
 20
4.7784918812
 40
0.0490007924
100
AcDbArc
 50
314.550700339
 51
317.7102490083
  0
ARC
  5
25D
100
AcDbEntity
  8
0
100
AcDbCircle
 62
7
  6
CONTINUOUS
 10
7.6697696359
 20
4.7776915257
 40
0.0478164453
100
AcDbArc
 50
221.7127859828
 51
222.4753688582
  0
ARC
  5
25E
100
AcDbEntity
  8
0
100
AcDbCircle
 62
7
  6
CONTINUOUS
 10
7.6900892892
 20
4.7776272832
 40
0.0477213772
100
AcDbArc
 50
317.7162617524
 51
318.4049494044
  0
ARC
  5
25F
100
AcDbEntity
  8
0
100
AcDbCircle
 62
7
  6
CONTINUOUS
 10
7.6004694361
 20
4.7717787324
 40
0.0430582608
100
AcDbArc
 50
317.5754959947
 51
322.2401383261
  0
ARC
  5
260
100
AcDbEntity
  8
0
100
AcDbCircle
 62
7
  6
CONTINUOUS
 10
7.4194821996
 20
4.7666759604
 40
0.0400874539
100
AcDbArc
 50
194.5729369684
 51
301.7700424013
  0
ARC
  5
261
100
AcDbEntity
  8
0
100
AcDbCircle
 62
7
  6
CONTINUOUS
 10
7.3166648573
 20
4.7665911911
 40
0.01
100
AcDbArc
 50
180.0
 51
270.0
  0
ARC
  5
262
100
AcDbEntity
  8
0
100
AcDbCircle
 62
7
  6
CONTINUOUS
 10
8.4641648573
 20
4.7365911911
 40
0.03
100
AcDbArc
 50
270.0
 51
341.1665288282
  0
ARC
  5
263
100
AcDbEntity
  8
0
100
AcDbCircle
 62
7
  6
CONTINUOUS
 10
8.7189360651
 20
4.7699403521
 40
0.0433490684
100
AcDbArc
 50
267.3955352155
 51
274.6617011886
  0
ARC
  5
264
100
AcDbEntity
  8
0
100
AcDbCircle
 62
7
  6
CONTINUOUS
 10
8.6513839349
 20
4.7677990059
 40
0.0412078211
100
AcDbArc
 50
262.985569377
 51
290.6961231367
  0
ARC
  5
265
100
AcDbEntity
  8
0
100
AcDbCircle
 62
7
  6
CONTINUOUS
 10
8.6938516421
 20
4.7667261205
 40
0.040134556
100
AcDbArc
 50
264.7115095354
 51
283.3911196999
  0
ARC
  5
266
100
AcDbEntity
  8
0
100
AcDbCircle
 62
7
  6
CONTINUOUS
 10
8.7966648573
 20
4.7665911911
 40
0.01
100
AcDbArc
 50
270.0
 51
360.0
  0
ARC
  5
267
100
AcDbEntity
  8
0
100
AcDbCircle
 62
7
  6
CONTINUOUS
 10
8.3138070548
 20
4.8469109804
 40
0.120319977
100
AcDbArc
 50
243.9991138729
 51
311.351463932
  0
ARC
  5
268
100
AcDbEntity
  8
0
100
AcDbCircle
 62
7
  6
CONTINUOUS
 10
7.6127589888
 20
4.8363063308
 40
0.1097150177
100
AcDbArc
 50
264.3265767736
 51
274.1979399629
  0
ARC
  5
269
100
AcDbEntity
  8
0
100
AcDbCircle
 62
7
  6
CONTINUOUS
 10
7.8738748839
 20
4.8074264342
 40
0.0792747868
100
AcDbArc
 50
232.5368472079
 51
233.2324389079
  0
ARC
  5
26A
100
AcDbEntity
  8
0
100
AcDbCircle
 62
7
  6
CONTINUOUS
 10
7.427788542
 20
4.7996732816
 40
0.0730833477
100
AcDbArc
 50
266.3829565213
 51
285.5627947256
  0
ARC
  5
26B
100
AcDbEntity
  8
0
100
AcDbCircle
 62
7
  6
CONTINUOUS
 10
7.7835662664
 20
4.7924164055
 40
0.0637955643
100
AcDbArc
 50
310.5464148536
 51
311.331727174
  0
ARC
  5
26C
100
AcDbEntity
  8
0
100
AcDbCircle
 62
7
  6
CONTINUOUS
 10
7.8980170944
 20
4.7953589916
 40
0.0622496664
100
AcDbArc
 50
320.0401748496
 51
321.4806247074
  0
SPLINE
  5
26D
100
AcDbEntity
  8
0
100
AcDbSpline
 62
7
  6
CONTINUOUS
 70
0
 71
3
 72
11
 73
7
 74
0
 42
0.0000001
 43
0.0000001
 44
0.0000000001
 40
0.0
 40
0.0
 40
0.0
 40
0.0
 40
0.2503825259
 40
0.5007360101
 40
0.7507028531
 40
1.0
 40
1.0
 40
1.0
 40
1.0
 10
8.5114041006
 20
4.7271678059
 30
0.0
 10
8.5141571904
 20
4.7267676517
 30
0.0
 10
8.5197323921
 20
4.7263824249
 30
0.0
 10
8.528076182
 20
4.7270633892
 30
0.0
 10
8.5362115275
 20
4.7289887266
 30
0.0
 10
8.5413732704
 20
4.7310939928
 30
0.0
 10
8.5438459505
 20
4.7323424017
 30
0.0
  0
SPLINE
  5
26E
100
AcDbEntity
  8
0
100
AcDbSpline
 62
7
  6
CONTINUOUS
 70
0
 71
3
 72
11
 73
7
 74
0
 42
0.0000001
 43
0.0000001
 44
0.0000000001
 40
0.0
 40
0.0
 40
0.0
 40
0.0
 40
0.2495836511
 40
0.4991913849
 40
0.7491895733
 40
1.0
 40
1.0
 40
1.0
 40
1.0
 10
8.5860459018
 20
4.7270683928
 30
0.0
 10
8.5882550971
 20
4.7267494029
 30
0.0
 10
8.5927263638
 20
4.7264302216
 30
0.0
 10
8.5994311972
 20
4.7269181761
 30
0.0
 10
8.6060073579
 20
4.7283672706
 30
0.0
 10
8.6102115036
 20
4.7299673091
 30
0.0
 10
8.6122423688
 20
4.7309196665
 30
0.0
  0
SPLINE
  5
26F
100
AcDbEntity
  8
0
100
AcDbSpline
 62
7
  6
CONTINUOUS
 70
0
 71
3
 72
18
 73
14
 74
0
 42
0.0000001
 43
0.0000001
 44
0.0000000001
 40
0.0
 40
0.0
 40
0.0
 40
0.0
 40
0.122828257
 40
0.2456739455
 40
0.368588562
 40
0.4917062495
 40
0.6153674344
 40
0.6776171995
 40
0.7402567803
 40
0.8035032012
 40
0.8677160687
 40
0.9332728485
 40
1.0
 40
1.0
 40
1.0
 40
1.0
 10
8.7206412735
 20
4.7268720282
 30
0.0
 10
8.7231749719
 20
4.7266036408
 30
0.0
 10
8.7282918798
 20
4.7264516529
 30
0.0
 10
8.7359088185
 20
4.727382433
 30
0.0
 10
8.7433047046
 20
4.7294622454
 30
0.0
 10
8.7503014456
 20
4.7326775153
 30
0.0
 10
8.7556415972
 20
4.7362829613
 30
0.0
 10
8.7595117369
 20
4.7396978158
 30
0.0
 10
8.762201731
 20
4.7425328363
 30
0.0
 10
8.7646404231
 20
4.7456393573
 30
0.0
 10
8.7667890828
 20
4.7490262485
 30
0.0
 10
8.7686049629
 20
4.7526835183
 30
0.0
 10
8.7695522948
 20
4.7552662721
 30
0.0
 10
8.7699524781
 20
4.7565913064
 30
0.0
  0
SPLINE
  5
270
100
AcDbEntity
  8
0
100
AcDbSpline
 62
7
  6
CONTINUOUS
 70
0
 71
3
 72
18
 73
14
 74
0
 42
0.0000001
 43
0.0000001
 44
0.0000000001
 40
0.0
 40
0.0
 40
0.0
 40
0.0
 40
0.1264871789
 40
0.2531840326
 40
0.3796350884
 40
0.5054056146
 40
0.6300893623
 40
0.7533686133
 40
0.8146237114
 40
0.875713287
 40
0.9370101541
 40
0.9681830841
 40
1.0
 40
1.0
 40
1.0
 40
1.0
 10
8.7008654421
 20
4.7281918062
 30
0.0
 10
8.7039532424
 20
4.7274664042
 30
0.0
 10
8.7102605695
 20
4.7265056961
 30
0.0
 10
8.7198171354
 20
4.7265544831
 30
0.0
 10
8.7292346958
 20
4.7280880841
 30
0.0
 10
8.7382445465
 20
4.731077361
 30
0.0
 10
8.7465748162
 20
4.7354639341
 30
0.0
 10
8.7527450271
 20
4.7402380598
 30
0.0
 10
8.7570306329
 20
4.7446745469
 30
0.0
 10
8.7598798827
 20
4.7483029798
 30
0.0
 10
8.7619152796
 20
4.7515837773
 30
0.0
 10
8.7632955535
 20
4.7543802564
 30
0.0
 10
8.7638989197
 20
4.7558417544
 30
0.0
 10
8.7641762422
 20
4.756589866
 30
0.0
  0
SPLINE
  5
271
100
AcDbEntity
  8
0
100
AcDbSpline
 62
7
  6
CONTINUOUS
 70
0
 71
3
 72
20
 73
16
 74
0
 42
0.0000001
 43
0.0000001
 44
0.0000000001
 40
0.0
 40
0.0
 40
0.0
 40
0.0
 40
0.129049592
 40
0.1939678051
 40
0.2589762936
 40
0.38876256
 40
0.5176869651
 40
0.5816002011
 40
0.6449293816
 40
0.768996517
 40
0.8293949145
 40
0.8882818686
 40
0.9453103818
 40
0.9729856427
 40
1.0
 40
1.0
 40
1.0
 40
1.0
 10
8.6632869239
 20
4.7300631402
 30
0.0
 10
8.6669446761
 20
4.7288851789
 30
0.0
 10
8.6725999858
 20
4.7275600913
 30
0.0
 10
8.6802695869
 20
4.7267043078
 30
0.0
 10
8.6880064792
 20
4.7264541205
 30
0.0
 10
8.6976526354
 20
4.7272859601
 30
0.0
 10
8.7070157623
 20
4.7296251695
 30
0.0
 10
8.7141427995
 20
4.7323662287
 30
0.0
 10
8.7208868286
 20
4.7356237581
 30
0.0
 10
8.7271121916
 20
4.7396691741
 30
0.0
 10
8.7325938161
 20
4.7444219537
 30
0.0
 10
8.7362171095
 20
4.7482334882
 30
0.0
 10
8.7388295193
 20
4.7516304995
 30
0.0
 10
8.7406194806
 20
4.7544364552
 30
0.0
 10
8.7414098401
 20
4.7558619453
 30
0.0
 10
8.7417748477
 20
4.7565787811
 30
0.0
  0
SPLINE
  5
272
100
AcDbEntity
  8
0
100
AcDbSpline
 62
7
  6
CONTINUOUS
 70
0
 71
3
 72
19
 73
15
 74
0
 42
0.0000001
 43
0.0000001
 44
0.0000000001
 40
0.0
 40
0.0
 40
0.0
 40
0.0
 40
0.06402207
 40
0.1284363512
 40
0.2578773401
 40
0.387561725
 40
0.4522971299
 40
0.5167938547
 40
0.644458841
 40
0.7074243526
 40
0.7694359551
 40
0.8301969348
 40
0.889312389
 40
1.0
 40
1.0
 40
1.0
 40
1.0
 10
8.6091348141
 20
4.7320097752
 30
0.0
 10
8.611199335
 20
4.731234296
 30
0.0
 10
8.615405083
 20
4.7298428389
 30
0.0
 10
8.6240391599
 20
4.7277241362
 30
0.0
 10
8.635146079
 20
4.7263390863
 30
0.0
 10
8.6463437489
 20
4.7266840229
 30
0.0
 10
8.6551750492
 20
4.727987684
 30
0.0
 10
8.6638086541
 20
4.7299604865
 30
0.0
 10
8.672131379
 20
4.7329184293
 30
0.0
 10
8.6799228358
 20
4.7368123105
 30
0.0
 10
8.6854012933
 20
4.7401314507
 30
0.0
 10
8.69047451
 20
4.7438229451
 30
0.0
 10
8.6964708955
 20
4.7490390099
 30
0.0
 10
8.7003603958
 20
4.7534727232
 30
0.0
 10
8.7025509186
 20
4.7565935209
 30
0.0
  0
SPLINE
  5
273
100
AcDbEntity
  8
0
100
AcDbSpline
 62
7
  6
CONTINUOUS
 70
0
 71
3
 72
20
 73
16
 74
0
 42
0.0000001
 43
0.0000001
 44
0.0000000001
 40
0.0
 40
0.0
 40
0.0
 40
0.0
 40
0.1266794634
 40
0.1904732624
 40
0.2544230962
 40
0.3184557859
 40
0.3825016363
 40
0.5102651005
 40
0.5739262057
 40
0.6372671271
 40
0.7001602594
 40
0.7624652621
 40
0.8843462523
 40
0.9433731015
 40
1.0
 40
1.0
 40
1.0
 40
1.0
 10
8.5397335134
 20
4.7338880717
 30
0.0
 10
8.5442768855
 20
4.7320243437
 30
0.0
 10
8.5513384656
 20
4.7297415063
 30
0.0
 10
8.5610126758
 20
4.7277902336
 30
0.0
 10
8.5683972293
 20
4.7268694978
 30
0.0
 10
8.57583967
 20
4.726504329
 30
0.0
 10
8.585760984
 20
4.7267642027
 30
0.0
 10
8.5956144734
 20
4.7281343004
 30
0.0
 10
8.6051853146
 20
4.7305999408
 30
0.0
 10
8.612161988
 20
4.7329712351
 30
0.0
 10
8.618889892
 20
4.7358464695
 30
0.0
 10
8.6273849476
 20
4.7402850837
 30
0.0
 10
8.6352201425
 20
4.745616984
 30
0.0
 10
8.6421348672
 20
4.7517093802
 30
0.0
 10
8.6452496494
 20
4.7549433784
 30
0.0
 10
8.6466993034
 20
4.7565917838
 30
0.0
  0
SPLINE
  5
274
100
AcDbEntity
  8
0
100
AcDbSpline
 62
7
  6
CONTINUOUS
 70
0
 71
3
 72
20
 73
16
 74
0
 42
0.0000001
 43
0.0000001
 44
0.0000000001
 40
0.0
 40
0.0
 40
0.0
 40
0.0
 40
0.1255318388
 40
0.1886098375
 40
0.2517881281
 40
0.3150271009
 40
0.3782880184
 40
0.5046454149
 40
0.6306239014
 40
0.6933682873
 40
0.7558266621
 40
0.8179034978
 40
0.8794968679
 40
0.9403528929
 40
1.0
 40
1.0
 40
1.0
 40
1.0
 10
8.4570247539
 20
4.7356268878
 30
0.0
 10
8.4619073736
 20
4.733499502
 30
0.0
 10
8.4694976687
 20
4.7308462285
 30
0.0
 10
8.4799146907
 20
4.7284500672
 30
0.0
 10
8.4878689773
 20
4.7272285242
 30
0.0
 10
8.4958985953
 20
4.726591422
 30
0.0
 10
8.5066344911
 20
4.7265302524
 30
0.0
 10
8.5200029472
 20
4.7279262582
 30
0.0
 10
8.533000744
 20
4.7312644329
 30
0.0
 10
8.542974666
 20
4.7350412497
 30
0.0
 10
8.5501824107
 20
4.738403539
 30
0.0
 10
8.5570769933
 20
4.7422688983
 30
0.0
 10
8.563603028
 20
4.7466075154
 30
0.0
 10
8.5696983875
 20
4.7513660243
 30
0.0
 10
8.573482102
 20
4.7548133629
 30
0.0
 10
8.5752830394
 20
4.7565912349
 30
0.0
  0
SPLINE
  5
275
100
AcDbEntity
  8
0
100
AcDbSpline
 62
7
  6
CONTINUOUS
 70
0
 71
3
 72
21
 73
17
 74
0
 42
0.0000001
 43
0.0000001
 44
0.0000000001
 40
0.0
 40
0.0
 40
0.0
 40
0.0
 40
0.0625119701
 40
0.125107398
 40
0.1877696963
 40
0.250476525
 40
0.3132065897
 40
0.3759472195
 40
0.4386876702
 40
0.5014175687
 40
0.6266946083
 40
0.7517013296
 40
0.8141064647
 40
0.8763871428
 40
0.9384120314
 40
1.0
 40
1.0
 40
1.0
 40
1.0
 10
8.3632640773
 20
4.7372479423
 30
0.0
 10
8.3658346997
 20
4.7360661183
 30
0.0
 10
8.3710678346
 20
4.7338880781
 30
0.0
 10
8.3791382767
 20
4.7312022827
 30
0.0
 10
8.3873919336
 20
4.7291095775
 30
0.0
 10
8.3957815108
 20
4.7276199153
 30
0.0
 10
8.4042610315
 20
4.7267455884
 30
0.0
 10
8.4127830168
 20
4.7264908589
 30
0.0
 10
8.4213014977
 20
4.7268549563
 30
0.0
 10
8.4325826416
 20
4.7281666087
 30
0.0
 10
8.4464456133
 20
4.7313344842
 30
0.0
 10
8.459686419
 20
4.7364814948
 30
0.0
 10
8.4697156645
 20
4.7417082862
 30
0.0
 10
8.4769081305
 20
4.7461597577
 30
0.0
 10
8.4837247941
 20
4.7511032703
 30
0.0
 10
8.4880054514
 20
4.7547149898
 30
0.0
 10
8.4900669497
 20
4.7565911932
 30
0.0
  0
SPLINE
  5
276
100
AcDbEntity
  8
0
100
AcDbSpline
 62
7
  6
CONTINUOUS
 70
0
 71
3
 72
19
 73
15
 74
0
 42
0.0000001
 43
0.0000001
 44
0.0000000001
 40
0.0
 40
0.0
 40
0.0
 40
0.0
 40
0.1244535304
 40
0.186915597
 40
0.2494072756
 40
0.3119283431
 40
0.374481586
 40
0.4995705431
 40
0.5621740312
 40
0.6247806444
 40
0.6873864953
 40
0.7499881432
 40
0.8750487158
 40
1.0
 40
1.0
 40
1.0
 40
1.0
 10
8.2875917992
 20
4.7565911913
 30
0.0
 10
8.2831310059
 20
4.7526217766
 30
0.0
 10
8.2759597001
 20
4.7471614637
 30
0.0
 10
8.2656743458
 20
4.7410304929
 30
0.0
 10
8.2576122717
 20
4.7370208478
 30
0.0
 10
8.2492666827
 20
4.7336298317
 30
0.0
 10
8.2378286481
 20
4.7299635055
 30
0.0
 10
8.2260004304
 20
4.7276032896
 30
0.0
 10
8.2140243737
 20
4.7266027213
 30
0.0
 10
8.2050043906
 20
4.7265312365
 30
0.0
 10
8.1960050253
 20
4.7271406841
 30
0.0
 10
8.1841109502
 20
4.7288579852
 30
0.0
 10
8.1695447787
 20
4.7326763856
 30
0.0
 10
8.1584853493
 20
4.7374570046
 30
0.0
 10
8.1531780316
 20
4.7402450298
 30
0.0
  0
SPLINE
  5
277
100
AcDbEntity
  8
0
100
AcDbSpline
 62
7
  6
CONTINUOUS
 70
0
 71
3
 72
21
 73
17
 74
0
 42
0.0000001
 43
0.0000001
 44
0.0000000001
 40
0.0
 40
0.0
 40
0.0
 40
0.0
 40
0.0608206019
 40
0.1224435314
 40
0.1845226834
 40
0.2468726568
 40
0.309438501
 40
0.3721697146
 40
0.4978476241
 40
0.560810413
 40
0.6237856027
 40
0.6867486217
 40
0.7496704501
 40
0.8125089917
 40
0.875221389
 40
1.0
 40
1.0
 40
1.0
 40
1.0
 10
8.1758374757
 20
4.7565912019
 30
0.0
 10
8.17371891
 20
4.7545980496
 30
0.0
 10
8.1692837447
 20
4.7507624592
 30
0.0
 10
8.162157962
 20
4.7455412055
 30
0.0
 10
8.154570851
 20
4.7408734925
 30
0.0
 10
8.1465919952
 20
4.7368132346
 30
0.0
 10
8.1382851869
 20
4.7333900538
 30
0.0
 10
8.1268487678
 20
4.7297145858
 30
0.0
 10
8.1149880949
 20
4.7274092762
 30
0.0
 10
8.1029767085
 20
4.7265352882
 30
0.0
 10
8.0939325654
 20
4.7265928901
 30
0.0
 10
8.0849240686
 20
4.7273678851
 30
0.0
 10
8.0760121967
 20
4.7288546873
 30
0.0
 10
8.0672562532
 20
4.7310383219
 30
0.0
 10
8.0558992798
 20
4.7348529545
 30
0.0
 10
8.0477538036
 20
4.738722022
 30
0.0
 10
8.0425885557
 20
4.741710744
 30
0.0
  0
SPLINE
  5
278
100
AcDbEntity
  8
0
100
AcDbSpline
 62
7
  6
CONTINUOUS
 70
0
 71
3
 72
22
 73
18
 74
0
 42
0.0000001
 43
0.0000001
 44
0.0000000001
 40
0.0
 40
0.0
 40
0.0
 40
0.0
 40
0.0584658681
 40
0.1187836952
 40
0.1801763513
 40
0.2423435646
 40
0.3050648513
 40
0.3681853931
 40
0.4315695005
 40
0.4951184667
 40
0.5587579162
 40
0.6224169893
 40
0.6860276586
 40
0.7495208315
 40
0.8128050274
 40
0.8757626989
 40
1.0
 40
1.0
 40
1.0
 40
1.0
 10
8.0611313785
 20
4.7565913339
 30
0.0
 10
8.0592491802
 20
4.7546172895
 30
0.0
 10
8.0552295675
 20
4.7507893003
 30
0.0
 10
8.0486387286
 20
4.7455552261
 30
0.0
 10
8.0414582553
 20
4.7408408608
 30
0.0
 10
8.0337947794
 20
4.7367196228
 30
0.0
 10
8.0257277704
 20
4.7332488909
 30
0.0
 10
8.0173395817
 20
4.7304636
 30
0.0
 10
8.008706264
 20
4.7283969898
 30
0.0
 10
7.9999045056
 20
4.7270697721
 30
0.0
 10
7.9910091719
 20
4.7264910634
 30
0.0
 10
7.9820940208
 20
4.726670956
 30
0.0
 10
7.9732326327
 20
4.7276025306
 30
0.0
 10
7.9645001794
 20
4.7292821947
 30
0.0
 10
7.9559708691
 20
4.7316923135
 30
0.0
 10
7.9450290796
 20
4.7358202884
 30
0.0
 10
7.9372712271
 20
4.7399569936
 30
0.0
 10
7.9324210732
 20
4.7431301077
 30
0.0
  0
SPLINE
  5
279
100
AcDbEntity
  8
0
100
AcDbSpline
 62
7
  6
CONTINUOUS
 70
0
 71
3
 72
19
 73
15
 74
0
 42
0.0000001
 43
0.0000001
 44
0.0000000001
 40
0.0
 40
0.0
 40
0.0
 40
0.0
 40
0.1120043578
 40
0.1634044319
 40
0.2130369246
 40
0.2620613792
 40
0.3116515495
 40
0.4165596678
 40
0.4737903112
 40
0.5349700952
 40
0.6005130741
 40
0.670695895
 40
0.825524174
 40
1.0
 40
1.0
 40
1.0
 40
1.0
 10
7.9257644749
 20
4.7479031327
 30
0.0
 10
7.9264687135
 20
4.747351144
 30
0.0
 10
7.9275794602
 20
4.7466354888
 30
0.0
 10
7.9291704259
 20
4.7460179867
 30
0.0
 10
7.9303428712
 20
4.7457474582
 30
0.0
 10
7.9315281962
 20
4.7456563808
 30
0.0
 10
7.9331551987
 20
4.7457728139
 30
0.0
 10
7.9347984966
 20
4.7462545986
 30
0.0
 10
7.9364103168
 20
4.7470221785
 30
0.0
 10
7.9376754689
 20
4.7477740496
 30
0.0
 10
7.9389622755
 20
4.7486809295
 30
0.0
 10
7.9407696146
 20
4.7501396384
 30
0.0
 10
7.9430805769
 20
4.7523481652
 30
0.0
 10
7.9448359305
 20
4.7543107446
 30
0.0
 10
7.9457311504
 20
4.7553791238
 30
0.0
  0
SPLINE
  5
27A
100
AcDbEntity
  8
0
100
AcDbSpline
 62
7
  6
CONTINUOUS
 70
0
 71
3
 72
23
 73
19
 74
0
 42
0.0000001
 43
0.0000001
 44
0.0000000001
 40
0.0
 40
0.0
 40
0.0
 40
0.0
 40
0.027652217
 40
0.0562193473
 40
0.1151417076
 40
0.1758786165
 40
0.2379112617
 40
0.3008714726
 40
0.364445465
 40
0.428445891
 40
0.4927154707
 40
0.6214139492
 40
0.6857335611
 40
0.7498174547
 40
0.8135285333
 40
0.8766522557
 40
0.9389211489
 40
1.0
 40
1.0
 40
1.0
 40
1.0
 10
7.9457286841
 20
4.7553804666
 30
0.0
 10
7.9449514512
 20
4.754453855
 30
0.0
 10
7.9433182372
 20
4.7526138235
 30
0.0
 10
7.9397800237
 20
4.749027602
 30
0.0
 10
7.9348618037
 20
4.7447844234
 30
0.0
 10
7.9283488573
 20
4.7402099374
 30
0.0
 10
7.9212705829
 20
4.7361991724
 30
0.0
 10
7.9137349857
 20
4.7328180369
 30
0.0
 10
7.9058356606
 20
4.730127006
 30
0.0
 10
7.8976669681
 20
4.7281561696
 30
0.0
 10
7.8865352816
 20
4.726524643
 30
0.0
 10
7.8752089269
 20
4.7264136087
 30
0.0
 10
7.8640423678
 20
4.7278330024
 30
0.0
 10
7.8558246653
 20
4.7296442973
 30
0.0
 10
7.8478593124
 20
4.7321886385
 30
0.0
 10
7.8402352606
 20
4.7354259823
 30
0.0
 10
7.8330494735
 20
4.7393079129
 30
0.0
 10
7.8285633247
 20
4.7423227104
 30
0.0
 10
7.8264233623
 20
4.7439217498
 30
0.0
  0
SPLINE
  5
27B
100
AcDbEntity
  8
0
100
AcDbSpline
 62
7
  6
CONTINUOUS
 70
0
 71
3
 72
21
 73
17
 74
0
 42
0.0000001
 43
0.0000001
 44
0.0000000001
 40
0.0
 40
0.0
 40
0.0
 40
0.0
 40
0.0596889861
 40
0.1207182033
 40
0.1827098597
 40
0.2454396835
 40
0.3722461563
 40
0.4361534534
 40
0.5001849667
 40
0.5642148156
 40
0.628118511
 40
0.6917717497
 40
0.755051744
 40
0.8178294377
 40
0.8798294561
 40
1.0
 40
1.0
 40
1.0
 40
1.0
 10
7.8250374556
 20
4.7439394574
 30
0.0
 10
7.8234274714
 20
4.7425621045
 30
0.0
 10
7.8200323237
 20
4.7399348739
 30
0.0
 10
7.8145425372
 20
4.7364649645
 30
0.0
 10
7.8086601683
 20
4.733465045
 30
0.0
 10
7.8003696064
 20
4.7301273011
 30
0.0
 10
7.7916041996
 20
4.7278749892
 30
0.0
 10
7.782622474
 20
4.7267602123
 30
0.0
 10
7.7758045747
 20
4.7264974033
 30
0.0
 10
7.7689896115
 20
4.7268102187
 30
0.0
 10
7.762239073
 20
4.7277006599
 30
0.0
 10
7.7556152002
 20
4.7291585899
 30
0.0
 10
7.7491799102
 20
4.7311706047
 30
0.0
 10
7.7430014782
 20
4.7337241003
 30
0.0
 10
7.7352858927
 20
4.7377466131
 30
0.0
 10
7.7299580465
 20
4.7415002187
 30
0.0
 10
7.7267396689
 20
4.7442998386
 30
0.0
  0
SPLINE
  5
27C
100
AcDbEntity
  8
0
100
AcDbSpline
 62
7
  6
CONTINUOUS
 70
0
 71
3
 72
19
 73
15
 74
0
 42
0.0000001
 43
0.0000001
 44
0.0000000001
 40
0.0
 40
0.0
 40
0.0
 40
0.0
 40
0.1216458852
 40
0.1838175071
 40
0.2465972193
 40
0.3732613336
 40
0.5007691162
 40
0.5646108682
 40
0.6283117575
 40
0.6917509923
 40
0.7548050327
 40
0.8790240819
 40
0.9400170083
 40
1.0
 40
1.0
 40
1.0
 40
1.0
 10
7.723522232
 20
4.7435724493
 30
0.0
 10
7.7206793766
 20
4.7407719388
 30
0.0
 10
7.7158676824
 20
4.7370337396
 30
0.0
 10
7.7087873857
 20
4.7331039491
 30
0.0
 10
7.701195585
 20
4.729831261
 30
0.0
 10
7.6910852186
 20
4.7271312548
 30
0.0
 10
7.6806159816
 20
4.7263673574
 30
0.0
 10
7.672257587
 20
4.7269276998
 30
0.0
 10
7.6660639543
 20
4.7279323042
 30
0.0
 10
7.6600171971
 20
4.7295110934
 30
0.0
 10
7.6522871908
 20
4.7323457781
 30
0.0
 10
7.6450716728
 20
4.7362668501
 30
0.0
 10
7.6386922887
 20
4.741185416
 30
0.0
 10
7.6358305077
 20
4.7439510077
 30
0.0
 10
7.6345017703
 20
4.745402362
 30
0.0
  0
SPLINE
  5
27D
100
AcDbEntity
  8
0
100
AcDbSpline
 62
7
  6
CONTINUOUS
 70
0
 71
3
 72
22
 73
18
 74
0
 42
0.0000001
 43
0.0000001
 44
0.0000000001
 40
0.0
 40
0.0
 40
0.0
 40
0.0
 40
0.0623791164
 40
0.1246428242
 40
0.1869507458
 40
0.2493827232
 40
0.311947208
 40
0.3746100752
 40
0.4373351018
 40
0.5000781413
 40
0.562793142
 40
0.6254384775
 40
0.7502097589
 40
0.8124981326
 40
0.8747580897
 40
0.9371635243
 40
1.0
 40
1.0
 40
1.0
 40
1.0
 10
7.6322536186
 20
4.7427308484
 30
0.0
 10
7.6309644269
 20
4.7413192142
 30
0.0
 10
7.6282011206
 20
4.7386642245
 30
0.0
 10
7.6236056928
 20
4.7352211229
 30
0.0
 10
7.618640924
 20
4.7323331556
 30
0.0
 10
7.6133788177
 20
4.7300110466
 30
0.0
 10
7.6078873335
 20
4.7282657015
 30
0.0
 10
7.6022334863
 20
4.7271098508
 30
0.0
 10
7.5964847205
 20
4.7265487453
 30
0.0
 10
7.59070742
 20
4.7265862251
 30
0.0
 10
7.5849666417
 20
4.7272232779
 30
0.0
 10
7.5774671679
 20
4.7288594206
 30
0.0
 10
7.5702757129
 20
4.7316803441
 30
0.0
 10
7.5637156992
 20
4.7356234715
 30
0.0
 10
7.5591705651
 20
4.739136113
 30
0.0
 10
7.5550813544
 20
4.7431935008
 30
0.0
 10
7.5527254597
 20
4.7462423323
 30
0.0
 10
7.5516619815
 20
4.7478478009
 30
0.0
  0
SPLINE
  5
27E
100
AcDbEntity
  8
0
100
AcDbSpline
 62
7
  6
CONTINUOUS
 70
0
 71
3
 72
23
 73
19
 74
0
 42
0.0000001
 43
0.0000001
 44
0.0000000001
 40
0.0
 40
0.0
 40
0.0
 40
0.0
 40
0.063341614
 40
0.126000286
 40
0.1881622597
 40
0.2499834494
 40
0.3115857563
 40
0.3730603178
 40
0.4344824756
 40
0.4959146199
 40
0.5574213086
 40
0.619076996
 40
0.6809713385
 40
0.7432409364
 40
0.8060275892
 40
0.8695659278
 40
0.9341359771
 40
1.0
 40
1.0
 40
1.0
 40
1.0
 10
7.5555209041
 20
4.7428912449
 30
0.0
 10
7.5542973456
 20
4.7413644217
 30
0.0
 10
7.5516405314
 20
4.7384990078
 30
0.0
 10
7.5471256279
 20
4.7348120124
 30
0.0
 10
7.5422012276
 20
4.7317817728
 30
0.0
 10
7.5369587645
 20
4.7294243961
 30
0.0
 10
7.5314827629
 20
4.727750127
 30
0.0
 10
7.5258546735
 20
4.7267660716
 30
0.0
 10
7.5201538936
 20
4.7264777379
 30
0.0
 10
7.5144595251
 20
4.7268867123
 30
0.0
 10
7.5088505399
 20
4.7279901986
 30
0.0
 10
7.5034073842
 20
4.7297844699
 30
0.0
 10
7.4982116755
 20
4.7322605059
 30
0.0
 10
7.493349698
 20
4.7354075388
 30
0.0
 10
7.4889125119
 20
4.7392100165
 30
0.0
 10
7.4849978154
 20
4.7436471118
 30
0.0
 10
7.4817257311
 20
4.7486925026
 30
0.0
 10
7.4800753011
 20
4.7523901078
 30
0.0
 10
7.4793972139
 20
4.7543082985
 30
0.0
  0
SPLINE
  5
27F
100
AcDbEntity
  8
0
100
AcDbSpline
 62
7
  6
CONTINUOUS
 70
0
 71
3
 72
21
 73
17
 74
0
 42
0.0000001
 43
0.0000001
 44
0.0000000001
 40
0.0
 40
0.0
 40
0.0
 40
0.0
 40
0.0626754854
 40
0.1251498702
 40
0.1874436073
 40
0.2496025416
 40
0.3116685922
 40
0.3736904936
 40
0.4357154452
 40
0.4977896152
 40
0.5599624907
 40
0.622273924
 40
0.684771408
 40
0.7474687502
 40
0.8732908778
 40
1.0
 40
1.0
 40
1.0
 40
1.0
 10
7.4904088911
 20
4.7380425484
 30
0.0
 10
7.4891384162
 20
4.736815516
 30
0.0
 10
7.4864372854
 20
4.7345293064
 30
0.0
 10
7.4819845996
 20
4.7316610184
 30
0.0
 10
7.4772109773
 20
4.7293986053
 30
0.0
 10
7.4721988423
 20
4.727768182
 30
0.0
 10
7.4670271586
 20
4.7267925848
 30
0.0
 10
7.4617774093
 20
4.7264798624
 30
0.0
 10
7.4565303177
 20
4.7268376884
 30
0.0
 10
7.4513664792
 20
4.7278576521
 30
0.0
 10
7.4463675749
 20
4.7295320225
 30
0.0
 10
7.4416125523
 20
4.7318361198
 30
0.0
 10
7.4371831702
 20
4.7347459096
 30
0.0
 10
7.4318101814
 20
4.7393733708
 30
0.0
 10
7.4262825976
 20
4.746467144
 30
0.0
 10
7.4235241186
 20
4.7531373209
 30
0.0
 10
7.422617751
 20
4.7565911932
 30
0.0
  0
SPLINE
  5
280
100
AcDbEntity
  8
0
100
AcDbSpline
 62
7
  6
CONTINUOUS
 70
0
 71
3
 72
18
 73
14
 74
0
 42
0.0000001
 43
0.0000001
 44
0.0000000001
 40
0.0
 40
0.0
 40
0.0
 40
0.0
 40
0.1230283019
 40
0.245861509
 40
0.368850919
 40
0.4923640649
 40
0.5545212952
 40
0.6169681197
 40
0.6797410867
 40
0.7429094796
 40
0.8065204209
 40
0.8706429306
 40
1.0
 40
1.0
 40
1.0
 40
1.0
 10
7.4072306904
 20
4.7285382769
 30
0.0
 10
7.4046071899
 20
4.7277221924
 30
0.0
 10
7.3991933384
 20
4.7265933164
 30
0.0
 10
7.3909094785
 20
4.7264690844
 30
0.0
 10
7.3827385039
 20
4.7279133174
 30
0.0
 10
7.3762612483
 20
4.7304058971
 30
0.0
 10
7.3714303879
 20
4.7331351863
 30
0.0
 10
7.3680035699
 20
4.7355493801
 30
0.0
 10
7.3648202016
 20
4.7383111426
 30
0.0
 10
7.3619201787
 20
4.7414050785
 30
0.0
 10
7.3593412061
 20
4.7448108571
 30
0.0
 10
7.3563826681
 20
4.7497399118
 30
0.0
 10
7.3547779785
 20
4.7538022814
 30
0.0
 10
7.3540248186
 20
4.7565912084
 30
0.0
  0
SPLINE
  5
281
100
AcDbEntity
  8
0
100
AcDbSpline
 62
7
  6
CONTINUOUS
 70
0
 71
3
 72
18
 73
14
 74
0
 42
0.0000001
 43
0.0000001
 44
0.0000000001
 40
0.0
 40
0.0
 40
0.0
 40
0.0
 40
0.1227663339
 40
0.2455555819
 40
0.3684281877
 40
0.4915297679
 40
0.6152113172
 40
0.6774805771
 40
0.7401509625
 40
0.8034437574
 40
0.8677106889
 40
0.9332930854
 40
1.0
 40
1.0
 40
1.0
 40
1.0
 10
7.3908749998
 20
4.7267129764
 30
0.0
 10
7.388408724
 20
4.7265413524
 30
0.0
 10
7.383442796
 20
4.7265617346
 30
0.0
 10
7.3760825129
 20
4.7276805894
 30
0.0
 10
7.3689596557
 20
4.7298798533
 30
0.0
 10
7.3622376588
 20
4.7331451058
 30
0.0
 10
7.3571163583
 20
4.7367349598
 30
0.0
 10
7.3534064386
 20
4.740104596
 30
0.0
 10
7.3508274787
 20
4.7428896521
 30
0.0
 10
7.348489425
 20
4.7459313668
 30
0.0
 10
7.3464275934
 20
4.7492370979
 30
0.0
 10
7.3446812909
 20
4.7527966757
 30
0.0
 10
7.3437660274
 20
4.7553053445
 30
0.0
 10
7.3433776548
 20
4.7565913064
 30
0.0
  0
SPLINE
  5
282
100
AcDbEntity
  8
0
100
AcDbSpline
 62
7
  6
CONTINUOUS
 70
0
 71
3
 72
11
 73
7
 74
0
 42
0.0000001
 43
0.0000001
 44
0.0000000001
 40
0.0
 40
0.0
 40
0.0
 40
0.0
 40
0.2484687711
 40
0.4984245113
 40
0.7491561053
 40
1.0
 40
1.0
 40
1.0
 40
1.0
 10
7.5011190353
 20
4.7309258854
 30
0.0
 10
7.498398896
 20
4.730023548
 30
0.0
 10
7.4928451339
 20
4.7284934914
 30
0.0
 10
7.4843118581
 20
4.7270475963
 30
0.0
 10
7.4756494236
 20
4.7264595443
 30
0.0
 10
7.4698558198
 20
4.7266483708
 30
0.0
 10
7.4669723477
 20
4.7268865603
 30
0.0
  0
SPLINE
  5
283
100
AcDbEntity
  8
0
100
AcDbSpline
 62
7
  6
CONTINUOUS
 70
0
 71
3
 72
11
 73
7
 74
0
 42
0.0000001
 43
0.0000001
 44
0.0000000001
 40
0.0
 40
0.0
 40
0.0
 40
0.0
 40
0.2486417488
 40
0.4986043164
 40
0.7492504239
 40
1.0
 40
1.0
 40
1.0
 40
1.0
 10
7.5695193428
 20
4.7323272112
 30
0.0
 10
7.5661729801
 20
4.7311281045
 30
0.0
 10
7.5593240918
 20
4.729091576
 30
0.0
 10
7.5487641688
 20
4.7271771497
 30
0.0
 10
7.5380294249
 20
4.7264104248
 30
0.0
 10
7.5308496419
 20
4.7266790566
 30
0.0
 10
7.5272797515
 20
4.7270062121
 30
0.0
  0
LINE
  5
284
100
AcDbEntity
  8
0
100
AcDbLine
 62
7
  6
CONTINUOUS
 10
7.4793959072
 20
4.7543078803
 11
7.478730244
 21
4.7565911911
  0
SPLINE
  5
285
100
AcDbEntity
  8
0
100
AcDbSpline
 62
7
  6
CONTINUOUS
 70
0
 71
3
 72
11
 73
7
 74
0
 42
0.0000001
 43
0.0000001
 44
0.0000000001
 40
0.0
 40
0.0
 40
0.0
 40
0.0
 40
0.2015865338
 40
0.4355046182
 40
0.7017123429
 40
1.0
 40
1.0
 40
1.0
 40
1.0
 10
7.8295308742
 20
4.7481944086
 30
0.0
 10
7.8300104823
 20
4.748699627
 30
0.0
 10
7.8309889802
 20
4.749845728
 30
0.0
 10
7.832443943
 20
4.7517865949
 30
0.0
 10
7.8340011242
 20
4.7540650246
 30
0.0
 10
7.8350472794
 20
4.7557119569
 30
0.0
 10
7.8355852863
 20
4.7565911911
 30
0.0
  0
SPLINE
  5
286
100
AcDbEntity
  8
0
100
AcDbSpline
 62
7
  6
CONTINUOUS
 70
0
 71
3
 72
13
 73
9
 74
0
 42
0.0000001
 43
0.0000001
 44
0.0000000001
 40
0.0
 40
0.0
 40
0.0
 40
0.0
 40
0.0683448348
 40
0.1524179595
 40
0.2527169324
 40
0.3694305051
 40
0.6521502575
 40
1.0
 40
1.0
 40
1.0
 40
1.0
 10
7.7257802152
 20
4.7459496766
 30
0.0
 10
7.7258477032
 20
4.7460256174
 30
0.0
 10
7.725984102
 20
4.7462073854
 30
0.0
 10
7.7261820516
 20
4.7465268895
 30
0.0
 10
7.7263956225
 20
4.7469204373
 30
0.0
 10
7.7267246741
 20
4.7475865548
 30
0.0
 10
7.7271772652
 20
4.748601351
 30
0.0
 10
7.7275411393
 20
4.7494651675
 30
0.0
 10
7.7277400867
 20
4.749942446
 30
0.0
  0
LINE
  5
287
100
AcDbEntity
  8
0
100
AcDbLine
 62
7
  6
CONTINUOUS
 10
7.7277400867
 20
4.749942446
 11
7.7304798559
 21
4.7565911911
  0
SPLINE
  5
288
100
AcDbEntity
  8
0
100
AcDbSpline
 62
7
  6
CONTINUOUS
 70
0
 71
3
 72
16
 73
12
 74
0
 42
0.0000001
 43
0.0000001
 44
0.0000000001
 40
0.0
 40
0.0
 40
0.0
 40
0.0
 40
0.0222116418
 40
0.0491982846
 40
0.0813608537
 40
0.1189094983
 40
0.2104982459
 40
0.3243139361
 40
0.4602775676
 40
0.6182149636
 40
1.0
 40
1.0
 40
1.0
 40
1.0
 10
7.6340710767
 20
4.7458795304
 30
0.0
 10
7.6340175401
 20
4.7459397803
 30
0.0
 10
7.6339165087
 20
4.7460887545
 30
0.0
 10
7.6337919988
 20
4.7463572069
 30
0.0
 10
7.6336816759
 20
4.7466909652
 30
0.0
 10
7.6335470605
 20
4.747261126
 30
0.0
 10
7.6334363726
 20
4.7481379705
 30
0.0
 10
7.6333924172
 20
4.7493769129
 30
0.0
 10
7.633444155
 20
4.7508565719
 30
0.0
 10
7.6336706574
 20
4.753298948
 30
0.0
 10
7.6340013086
 20
4.7552324636
 30
0.0
 10
7.6342717443
 20
4.7565911911
 30
0.0
  0
SPLINE
  5
289
100
AcDbEntity
  8
0
100
AcDbSpline
 62
7
  6
CONTINUOUS
 70
0
 71
3
 72
11
 73
7
 74
0
 42
0.0000001
 43
0.0000001
 44
0.0000000001
 40
0.0
 40
0.0
 40
0.0
 40
0.0
 40
0.1977321716
 40
0.4286298657
 40
0.69517774
 40
1.0
 40
1.0
 40
1.0
 40
1.0
 10
7.5516620115
 20
4.7478523489
 30
0.0
 10
7.551331522
 20
4.748351801
 30
0.0
 10
7.5507416017
 20
4.7495191395
 30
0.0
 10
7.5501147041
 20
4.7515361805
 30
0.0
 10
7.5497055276
 20
4.753937438
 30
0.0
 10
7.5496022273
 20
4.7556680957
 30
0.0
 10
7.5495852114
 20
4.7565911911
 30
0.0
  0
SPLINE
  5
28A
100
AcDbEntity
  8
0
100
AcDbSpline
 62
7
  6
CONTINUOUS
 70
0
 71
3
 72
11
 73
7
 74
0
 42
0.0000001
 43
0.0000001
 44
0.0000000001
 40
0.0
 40
0.0
 40
0.0
 40
0.0
 40
0.2503825259
 40
0.5007360101
 40
0.7507028531
 40
1.0
 40
1.0
 40
1.0
 40
1.0
 10
2.5114041006
 20
4.7271678059
 30
0.0
 10
2.5141571904
 20
4.7267676517
 30
0.0
 10
2.5197323921
 20
4.7263824249
 30
0.0
 10
2.528076182
 20
4.7270633892
 30
0.0
 10
2.5362115275
 20
4.7289887266
 30
0.0
 10
2.5413732704
 20
4.7310939928
 30
0.0
 10
2.5438459505
 20
4.7323424017
 30
0.0
  0
SPLINE
  5
28B
100
AcDbEntity
  8
0
100
AcDbSpline
 62
7
  6
CONTINUOUS
 70
0
 71
3
 72
11
 73
7
 74
0
 42
0.0000001
 43
0.0000001
 44
0.0000000001
 40
0.0
 40
0.0
 40
0.0
 40
0.0
 40
0.2495836511
 40
0.4991913849
 40
0.7491895733
 40
1.0
 40
1.0
 40
1.0
 40
1.0
 10
2.5860459018
 20
4.7270683928
 30
0.0
 10
2.5882550971
 20
4.7267494029
 30
0.0
 10
2.5927263638
 20
4.7264302216
 30
0.0
 10
2.5994311972
 20
4.7269181761
 30
0.0
 10
2.6060073579
 20
4.7283672706
 30
0.0
 10
2.6102115036
 20
4.7299673091
 30
0.0
 10
2.6122423688
 20
4.7309196665
 30
0.0
  0
SPLINE
  5
28C
100
AcDbEntity
  8
0
100
AcDbSpline
 62
7
  6
CONTINUOUS
 70
0
 71
3
 72
18
 73
14
 74
0
 42
0.0000001
 43
0.0000001
 44
0.0000000001
 40
0.0
 40
0.0
 40
0.0
 40
0.0
 40
0.122828257
 40
0.2456739455
 40
0.368588562
 40
0.4917062495
 40
0.6153674344
 40
0.6776171995
 40
0.7402567803
 40
0.8035032012
 40
0.8677160687
 40
0.9332728485
 40
1.0
 40
1.0
 40
1.0
 40
1.0
 10
2.7206412735
 20
4.7268720282
 30
0.0
 10
2.7231749719
 20
4.7266036408
 30
0.0
 10
2.7282918798
 20
4.7264516529
 30
0.0
 10
2.7359088185
 20
4.727382433
 30
0.0
 10
2.7433047046
 20
4.7294622454
 30
0.0
 10
2.7503014456
 20
4.7326775153
 30
0.0
 10
2.7556415972
 20
4.7362829613
 30
0.0
 10
2.7595117369
 20
4.7396978158
 30
0.0
 10
2.762201731
 20
4.7425328363
 30
0.0
 10
2.7646404231
 20
4.7456393573
 30
0.0
 10
2.7667890828
 20
4.7490262485
 30
0.0
 10
2.7686049629
 20
4.7526835183
 30
0.0
 10
2.7695522948
 20
4.7552662721
 30
0.0
 10
2.7699524781
 20
4.7565913064
 30
0.0
  0
SPLINE
  5
28D
100
AcDbEntity
  8
0
100
AcDbSpline
 62
7
  6
CONTINUOUS
 70
0
 71
3
 72
18
 73
14
 74
0
 42
0.0000001
 43
0.0000001
 44
0.0000000001
 40
0.0
 40
0.0
 40
0.0
 40
0.0
 40
0.1264871789
 40
0.2531840326
 40
0.3796350884
 40
0.5054056146
 40
0.6300893623
 40
0.7533686133
 40
0.8146237114
 40
0.875713287
 40
0.9370101541
 40
0.9681830841
 40
1.0
 40
1.0
 40
1.0
 40
1.0
 10
2.7008654421
 20
4.7281918062
 30
0.0
 10
2.7039532424
 20
4.7274664042
 30
0.0
 10
2.7102605695
 20
4.7265056961
 30
0.0
 10
2.7198171354
 20
4.7265544831
 30
0.0
 10
2.7292346958
 20
4.7280880841
 30
0.0
 10
2.7382445465
 20
4.731077361
 30
0.0
 10
2.7465748162
 20
4.7354639341
 30
0.0
 10
2.7527450271
 20
4.7402380598
 30
0.0
 10
2.7570306329
 20
4.7446745469
 30
0.0
 10
2.7598798827
 20
4.7483029798
 30
0.0
 10
2.7619152796
 20
4.7515837773
 30
0.0
 10
2.7632955535
 20
4.7543802564
 30
0.0
 10
2.7638989197
 20
4.7558417544
 30
0.0
 10
2.7641762422
 20
4.756589866
 30
0.0
  0
SPLINE
  5
28E
100
AcDbEntity
  8
0
100
AcDbSpline
 62
7
  6
CONTINUOUS
 70
0
 71
3
 72
20
 73
16
 74
0
 42
0.0000001
 43
0.0000001
 44
0.0000000001
 40
0.0
 40
0.0
 40
0.0
 40
0.0
 40
0.129049592
 40
0.1939678051
 40
0.2589762936
 40
0.38876256
 40
0.5176869651
 40
0.5816002011
 40
0.6449293816
 40
0.768996517
 40
0.8293949145
 40
0.8882818686
 40
0.9453103818
 40
0.9729856427
 40
1.0
 40
1.0
 40
1.0
 40
1.0
 10
2.6632869239
 20
4.7300631402
 30
0.0
 10
2.6669446761
 20
4.7288851789
 30
0.0
 10
2.6725999858
 20
4.7275600913
 30
0.0
 10
2.6802695869
 20
4.7267043078
 30
0.0
 10
2.6880064792
 20
4.7264541205
 30
0.0
 10
2.6976526354
 20
4.7272859601
 30
0.0
 10
2.7070157623
 20
4.7296251695
 30
0.0
 10
2.7141427995
 20
4.7323662287
 30
0.0
 10
2.7208868286
 20
4.7356237581
 30
0.0
 10
2.7271121916
 20
4.7396691741
 30
0.0
 10
2.7325938161
 20
4.7444219537
 30
0.0
 10
2.7362171095
 20
4.7482334882
 30
0.0
 10
2.7388295193
 20
4.7516304995
 30
0.0
 10
2.7406194806
 20
4.7544364552
 30
0.0
 10
2.7414098401
 20
4.7558619453
 30
0.0
 10
2.7417748477
 20
4.7565787811
 30
0.0
  0
SPLINE
  5
28F
100
AcDbEntity
  8
0
100
AcDbSpline
 62
7
  6
CONTINUOUS
 70
0
 71
3
 72
19
 73
15
 74
0
 42
0.0000001
 43
0.0000001
 44
0.0000000001
 40
0.0
 40
0.0
 40
0.0
 40
0.0
 40
0.06402207
 40
0.1284363512
 40
0.2578773401
 40
0.387561725
 40
0.4522971299
 40
0.5167938547
 40
0.644458841
 40
0.7074243526
 40
0.7694359551
 40
0.8301969348
 40
0.889312389
 40
1.0
 40
1.0
 40
1.0
 40
1.0
 10
2.6091348141
 20
4.7320097752
 30
0.0
 10
2.611199335
 20
4.731234296
 30
0.0
 10
2.615405083
 20
4.7298428389
 30
0.0
 10
2.6240391599
 20
4.7277241362
 30
0.0
 10
2.635146079
 20
4.7263390863
 30
0.0
 10
2.6463437489
 20
4.7266840229
 30
0.0
 10
2.6551750492
 20
4.727987684
 30
0.0
 10
2.6638086541
 20
4.7299604865
 30
0.0
 10
2.672131379
 20
4.7329184293
 30
0.0
 10
2.6799228358
 20
4.7368123105
 30
0.0
 10
2.6854012933
 20
4.7401314507
 30
0.0
 10
2.69047451
 20
4.7438229451
 30
0.0
 10
2.6964708955
 20
4.7490390099
 30
0.0
 10
2.7003603958
 20
4.7534727232
 30
0.0
 10
2.7025509186
 20
4.7565935209
 30
0.0
  0
SPLINE
  5
290
100
AcDbEntity
  8
0
100
AcDbSpline
 62
7
  6
CONTINUOUS
 70
0
 71
3
 72
20
 73
16
 74
0
 42
0.0000001
 43
0.0000001
 44
0.0000000001
 40
0.0
 40
0.0
 40
0.0
 40
0.0
 40
0.1266794634
 40
0.1904732624
 40
0.2544230962
 40
0.3184557859
 40
0.3825016363
 40
0.5102651005
 40
0.5739262057
 40
0.6372671271
 40
0.7001602594
 40
0.7624652621
 40
0.8843462523
 40
0.9433731015
 40
1.0
 40
1.0
 40
1.0
 40
1.0
 10
2.5397335134
 20
4.7338880717
 30
0.0
 10
2.5442768855
 20
4.7320243437
 30
0.0
 10
2.5513384656
 20
4.7297415063
 30
0.0
 10
2.5610126758
 20
4.7277902336
 30
0.0
 10
2.5683972293
 20
4.7268694978
 30
0.0
 10
2.57583967
 20
4.726504329
 30
0.0
 10
2.585760984
 20
4.7267642027
 30
0.0
 10
2.5956144734
 20
4.7281343004
 30
0.0
 10
2.6051853146
 20
4.7305999408
 30
0.0
 10
2.612161988
 20
4.7329712351
 30
0.0
 10
2.618889892
 20
4.7358464695
 30
0.0
 10
2.6273849476
 20
4.7402850837
 30
0.0
 10
2.6352201425
 20
4.745616984
 30
0.0
 10
2.6421348672
 20
4.7517093802
 30
0.0
 10
2.6452496494
 20
4.7549433784
 30
0.0
 10
2.6466993034
 20
4.7565917838
 30
0.0
  0
SPLINE
  5
291
100
AcDbEntity
  8
0
100
AcDbSpline
 62
7
  6
CONTINUOUS
 70
0
 71
3
 72
20
 73
16
 74
0
 42
0.0000001
 43
0.0000001
 44
0.0000000001
 40
0.0
 40
0.0
 40
0.0
 40
0.0
 40
0.1255318388
 40
0.1886098375
 40
0.2517881281
 40
0.3150271009
 40
0.3782880184
 40
0.5046454149
 40
0.6306239014
 40
0.6933682873
 40
0.7558266621
 40
0.8179034978
 40
0.8794968679
 40
0.9403528929
 40
1.0
 40
1.0
 40
1.0
 40
1.0
 10
2.4570247539
 20
4.7356268878
 30
0.0
 10
2.4619073736
 20
4.733499502
 30
0.0
 10
2.4694976687
 20
4.7308462285
 30
0.0
 10
2.4799146907
 20
4.7284500672
 30
0.0
 10
2.4878689773
 20
4.7272285242
 30
0.0
 10
2.4958985953
 20
4.726591422
 30
0.0
 10
2.5066344911
 20
4.7265302524
 30
0.0
 10
2.5200029472
 20
4.7279262582
 30
0.0
 10
2.533000744
 20
4.7312644329
 30
0.0
 10
2.542974666
 20
4.7350412497
 30
0.0
 10
2.5501824107
 20
4.738403539
 30
0.0
 10
2.5570769933
 20
4.7422688983
 30
0.0
 10
2.563603028
 20
4.7466075154
 30
0.0
 10
2.5696983875
 20
4.7513660243
 30
0.0
 10
2.573482102
 20
4.7548133629
 30
0.0
 10
2.5752830394
 20
4.7565912349
 30
0.0
  0
SPLINE
  5
292
100
AcDbEntity
  8
0
100
AcDbSpline
 62
7
  6
CONTINUOUS
 70
0
 71
3
 72
21
 73
17
 74
0
 42
0.0000001
 43
0.0000001
 44
0.0000000001
 40
0.0
 40
0.0
 40
0.0
 40
0.0
 40
0.0625119701
 40
0.125107398
 40
0.1877696963
 40
0.250476525
 40
0.3132065897
 40
0.3759472195
 40
0.4386876702
 40
0.5014175687
 40
0.6266946083
 40
0.7517013296
 40
0.8141064647
 40
0.8763871428
 40
0.9384120314
 40
1.0
 40
1.0
 40
1.0
 40
1.0
 10
2.3632640773
 20
4.7372479423
 30
0.0
 10
2.3658346997
 20
4.7360661183
 30
0.0
 10
2.3710678346
 20
4.7338880781
 30
0.0
 10
2.3791382767
 20
4.7312022827
 30
0.0
 10
2.3873919336
 20
4.7291095775
 30
0.0
 10
2.3957815108
 20
4.7276199153
 30
0.0
 10
2.4042610315
 20
4.7267455884
 30
0.0
 10
2.4127830168
 20
4.7264908589
 30
0.0
 10
2.4213014977
 20
4.7268549563
 30
0.0
 10
2.4325826416
 20
4.7281666087
 30
0.0
 10
2.4464456133
 20
4.7313344842
 30
0.0
 10
2.459686419
 20
4.7364814948
 30
0.0
 10
2.4697156645
 20
4.7417082862
 30
0.0
 10
2.4769081305
 20
4.7461597577
 30
0.0
 10
2.4837247941
 20
4.7511032703
 30
0.0
 10
2.4880054514
 20
4.7547149898
 30
0.0
 10
2.4900669497
 20
4.7565911932
 30
0.0
  0
SPLINE
  5
293
100
AcDbEntity
  8
0
100
AcDbSpline
 62
7
  6
CONTINUOUS
 70
0
 71
3
 72
19
 73
15
 74
0
 42
0.0000001
 43
0.0000001
 44
0.0000000001
 40
0.0
 40
0.0
 40
0.0
 40
0.0
 40
0.1244535304
 40
0.186915597
 40
0.2494072756
 40
0.3119283431
 40
0.374481586
 40
0.4995705431
 40
0.5621740312
 40
0.6247806444
 40
0.6873864953
 40
0.7499881432
 40
0.8750487158
 40
1.0
 40
1.0
 40
1.0
 40
1.0
 10
2.2875917992
 20
4.7565911913
 30
0.0
 10
2.2831310059
 20
4.7526217766
 30
0.0
 10
2.2759597001
 20
4.7471614637
 30
0.0
 10
2.2656743458
 20
4.7410304929
 30
0.0
 10
2.2576122717
 20
4.7370208478
 30
0.0
 10
2.2492666827
 20
4.7336298317
 30
0.0
 10
2.2378286481
 20
4.7299635055
 30
0.0
 10
2.2260004304
 20
4.7276032896
 30
0.0
 10
2.2140243737
 20
4.7266027213
 30
0.0
 10
2.2050043906
 20
4.7265312365
 30
0.0
 10
2.1960050253
 20
4.7271406841
 30
0.0
 10
2.1841109502
 20
4.7288579852
 30
0.0
 10
2.1695447787
 20
4.7326763856
 30
0.0
 10
2.1584853493
 20
4.7374570046
 30
0.0
 10
2.1531780316
 20
4.7402450298
 30
0.0
  0
SPLINE
  5
294
100
AcDbEntity
  8
0
100
AcDbSpline
 62
7
  6
CONTINUOUS
 70
0
 71
3
 72
21
 73
17
 74
0
 42
0.0000001
 43
0.0000001
 44
0.0000000001
 40
0.0
 40
0.0
 40
0.0
 40
0.0
 40
0.0608206019
 40
0.1224435314
 40
0.1845226834
 40
0.2468726568
 40
0.309438501
 40
0.3721697146
 40
0.4978476241
 40
0.560810413
 40
0.6237856027
 40
0.6867486217
 40
0.7496704501
 40
0.8125089917
 40
0.875221389
 40
1.0
 40
1.0
 40
1.0
 40
1.0
 10
2.1758374757
 20
4.7565912019
 30
0.0
 10
2.17371891
 20
4.7545980496
 30
0.0
 10
2.1692837447
 20
4.7507624592
 30
0.0
 10
2.162157962
 20
4.7455412055
 30
0.0
 10
2.154570851
 20
4.7408734925
 30
0.0
 10
2.1465919952
 20
4.7368132346
 30
0.0
 10
2.1382851869
 20
4.7333900538
 30
0.0
 10
2.1268487678
 20
4.7297145858
 30
0.0
 10
2.1149880949
 20
4.7274092762
 30
0.0
 10
2.1029767085
 20
4.7265352882
 30
0.0
 10
2.0939325654
 20
4.7265928901
 30
0.0
 10
2.0849240686
 20
4.7273678851
 30
0.0
 10
2.0760121967
 20
4.7288546873
 30
0.0
 10
2.0672562532
 20
4.7310383219
 30
0.0
 10
2.0558992798
 20
4.7348529545
 30
0.0
 10
2.0477538036
 20
4.738722022
 30
0.0
 10
2.0425885557
 20
4.741710744
 30
0.0
  0
SPLINE
  5
295
100
AcDbEntity
  8
0
100
AcDbSpline
 62
7
  6
CONTINUOUS
 70
0
 71
3
 72
22
 73
18
 74
0
 42
0.0000001
 43
0.0000001
 44
0.0000000001
 40
0.0
 40
0.0
 40
0.0
 40
0.0
 40
0.0584658681
 40
0.1187836952
 40
0.1801763513
 40
0.2423435646
 40
0.3050648513
 40
0.3681853931
 40
0.4315695005
 40
0.4951184667
 40
0.5587579162
 40
0.6224169893
 40
0.6860276586
 40
0.7495208315
 40
0.8128050274
 40
0.8757626989
 40
1.0
 40
1.0
 40
1.0
 40
1.0
 10
2.0611313785
 20
4.7565913339
 30
0.0
 10
2.0592491802
 20
4.7546172895
 30
0.0
 10
2.0552295675
 20
4.7507893003
 30
0.0
 10
2.0486387286
 20
4.7455552261
 30
0.0
 10
2.0414582553
 20
4.7408408608
 30
0.0
 10
2.0337947794
 20
4.7367196228
 30
0.0
 10
2.0257277704
 20
4.7332488909
 30
0.0
 10
2.0173395817
 20
4.7304636
 30
0.0
 10
2.008706264
 20
4.7283969898
 30
0.0
 10
1.9999045056
 20
4.7270697721
 30
0.0
 10
1.9910091719
 20
4.7264910634
 30
0.0
 10
1.9820940208
 20
4.726670956
 30
0.0
 10
1.9732326327
 20
4.7276025306
 30
0.0
 10
1.9645001794
 20
4.7292821947
 30
0.0
 10
1.9559708691
 20
4.7316923135
 30
0.0
 10
1.9450290796
 20
4.7358202884
 30
0.0
 10
1.9372712271
 20
4.7399569936
 30
0.0
 10
1.9324210732
 20
4.7431301077
 30
0.0
  0
SPLINE
  5
296
100
AcDbEntity
  8
0
100
AcDbSpline
 62
7
  6
CONTINUOUS
 70
0
 71
3
 72
19
 73
15
 74
0
 42
0.0000001
 43
0.0000001
 44
0.0000000001
 40
0.0
 40
0.0
 40
0.0
 40
0.0
 40
0.1120043578
 40
0.1634044319
 40
0.2130369246
 40
0.2620613792
 40
0.3116515495
 40
0.4165596678
 40
0.4737903112
 40
0.5349700952
 40
0.6005130741
 40
0.670695895
 40
0.825524174
 40
1.0
 40
1.0
 40
1.0
 40
1.0
 10
1.9257644749
 20
4.7479031327
 30
0.0
 10
1.9264687135
 20
4.747351144
 30
0.0
 10
1.9275794602
 20
4.7466354888
 30
0.0
 10
1.9291704259
 20
4.7460179867
 30
0.0
 10
1.9303428712
 20
4.7457474582
 30
0.0
 10
1.9315281962
 20
4.7456563808
 30
0.0
 10
1.9331551987
 20
4.7457728139
 30
0.0
 10
1.9347984966
 20
4.7462545986
 30
0.0
 10
1.9364103168
 20
4.7470221785
 30
0.0
 10
1.9376754689
 20
4.7477740496
 30
0.0
 10
1.9389622755
 20
4.7486809295
 30
0.0
 10
1.9407696146
 20
4.7501396384
 30
0.0
 10
1.9430805769
 20
4.7523481652
 30
0.0
 10
1.9448359305
 20
4.7543107446
 30
0.0
 10
1.9457311504
 20
4.7553791238
 30
0.0
  0
SPLINE
  5
297
100
AcDbEntity
  8
0
100
AcDbSpline
 62
7
  6
CONTINUOUS
 70
0
 71
3
 72
23
 73
19
 74
0
 42
0.0000001
 43
0.0000001
 44
0.0000000001
 40
0.0
 40
0.0
 40
0.0
 40
0.0
 40
0.027652217
 40
0.0562193473
 40
0.1151417076
 40
0.1758786165
 40
0.2379112617
 40
0.3008714726
 40
0.364445465
 40
0.428445891
 40
0.4927154707
 40
0.6214139492
 40
0.6857335611
 40
0.7498174547
 40
0.8135285333
 40
0.8766522557
 40
0.9389211489
 40
1.0
 40
1.0
 40
1.0
 40
1.0
 10
1.9457286841
 20
4.7553804666
 30
0.0
 10
1.9449514512
 20
4.754453855
 30
0.0
 10
1.9433182372
 20
4.7526138235
 30
0.0
 10
1.9397800237
 20
4.749027602
 30
0.0
 10
1.9348618037
 20
4.7447844234
 30
0.0
 10
1.9283488573
 20
4.7402099374
 30
0.0
 10
1.9212705829
 20
4.7361991724
 30
0.0
 10
1.9137349857
 20
4.7328180369
 30
0.0
 10
1.9058356606
 20
4.730127006
 30
0.0
 10
1.8976669681
 20
4.7281561696
 30
0.0
 10
1.8865352816
 20
4.726524643
 30
0.0
 10
1.8752089269
 20
4.7264136087
 30
0.0
 10
1.8640423678
 20
4.7278330024
 30
0.0
 10
1.8558246653
 20
4.7296442973
 30
0.0
 10
1.8478593124
 20
4.7321886385
 30
0.0
 10
1.8402352606
 20
4.7354259823
 30
0.0
 10
1.8330494735
 20
4.7393079129
 30
0.0
 10
1.8285633247
 20
4.7423227104
 30
0.0
 10
1.8264233623
 20
4.7439217498
 30
0.0
  0
SPLINE
  5
298
100
AcDbEntity
  8
0
100
AcDbSpline
 62
7
  6
CONTINUOUS
 70
0
 71
3
 72
21
 73
17
 74
0
 42
0.0000001
 43
0.0000001
 44
0.0000000001
 40
0.0
 40
0.0
 40
0.0
 40
0.0
 40
0.0596889861
 40
0.1207182033
 40
0.1827098597
 40
0.2454396835
 40
0.3722461563
 40
0.4361534534
 40
0.5001849667
 40
0.5642148156
 40
0.628118511
 40
0.6917717497
 40
0.755051744
 40
0.8178294377
 40
0.8798294561
 40
1.0
 40
1.0
 40
1.0
 40
1.0
 10
1.8250374556
 20
4.7439394574
 30
0.0
 10
1.8234274714
 20
4.7425621045
 30
0.0
 10
1.8200323237
 20
4.7399348739
 30
0.0
 10
1.8145425372
 20
4.7364649645
 30
0.0
 10
1.8086601683
 20
4.733465045
 30
0.0
 10
1.8003696064
 20
4.7301273011
 30
0.0
 10
1.7916041996
 20
4.7278749892
 30
0.0
 10
1.782622474
 20
4.7267602123
 30
0.0
 10
1.7758045747
 20
4.7264974033
 30
0.0
 10
1.7689896115
 20
4.7268102187
 30
0.0
 10
1.762239073
 20
4.7277006599
 30
0.0
 10
1.7556152002
 20
4.7291585899
 30
0.0
 10
1.7491799102
 20
4.7311706047
 30
0.0
 10
1.7430014782
 20
4.7337241003
 30
0.0
 10
1.7352858927
 20
4.7377466131
 30
0.0
 10
1.7299580465
 20
4.7415002187
 30
0.0
 10
1.7267396689
 20
4.7442998386
 30
0.0
  0
SPLINE
  5
299
100
AcDbEntity
  8
0
100
AcDbSpline
 62
7
  6
CONTINUOUS
 70
0
 71
3
 72
19
 73
15
 74
0
 42
0.0000001
 43
0.0000001
 44
0.0000000001
 40
0.0
 40
0.0
 40
0.0
 40
0.0
 40
0.1216458852
 40
0.1838175071
 40
0.2465972193
 40
0.3732613336
 40
0.5007691162
 40
0.5646108682
 40
0.6283117575
 40
0.6917509923
 40
0.7548050327
 40
0.8790240819
 40
0.9400170083
 40
1.0
 40
1.0
 40
1.0
 40
1.0
 10
1.723522232
 20
4.7435724493
 30
0.0
 10
1.7206793766
 20
4.7407719388
 30
0.0
 10
1.7158676824
 20
4.7370337396
 30
0.0
 10
1.7087873857
 20
4.7331039491
 30
0.0
 10
1.701195585
 20
4.729831261
 30
0.0
 10
1.6910852186
 20
4.7271312548
 30
0.0
 10
1.6806159816
 20
4.7263673574
 30
0.0
 10
1.672257587
 20
4.7269276998
 30
0.0
 10
1.6660639543
 20
4.7279323042
 30
0.0
 10
1.6600171971
 20
4.7295110934
 30
0.0
 10
1.6522871908
 20
4.7323457781
 30
0.0
 10
1.6450716728
 20
4.7362668501
 30
0.0
 10
1.6386922887
 20
4.741185416
 30
0.0
 10
1.6358305077
 20
4.7439510077
 30
0.0
 10
1.6345017703
 20
4.745402362
 30
0.0
  0
SPLINE
  5
29A
100
AcDbEntity
  8
0
100
AcDbSpline
 62
7
  6
CONTINUOUS
 70
0
 71
3
 72
22
 73
18
 74
0
 42
0.0000001
 43
0.0000001
 44
0.0000000001
 40
0.0
 40
0.0
 40
0.0
 40
0.0
 40
0.0623791164
 40
0.1246428242
 40
0.1869507458
 40
0.2493827232
 40
0.311947208
 40
0.3746100752
 40
0.4373351018
 40
0.5000781413
 40
0.562793142
 40
0.6254384775
 40
0.7502097589
 40
0.8124981326
 40
0.8747580897
 40
0.9371635243
 40
1.0
 40
1.0
 40
1.0
 40
1.0
 10
1.6322536186
 20
4.7427308484
 30
0.0
 10
1.6309644269
 20
4.7413192142
 30
0.0
 10
1.6282011206
 20
4.7386642245
 30
0.0
 10
1.6236056928
 20
4.7352211229
 30
0.0
 10
1.618640924
 20
4.7323331556
 30
0.0
 10
1.6133788177
 20
4.7300110466
 30
0.0
 10
1.6078873335
 20
4.7282657015
 30
0.0
 10
1.6022334863
 20
4.7271098508
 30
0.0
 10
1.5964847205
 20
4.7265487453
 30
0.0
 10
1.59070742
 20
4.7265862251
 30
0.0
 10
1.5849666417
 20
4.7272232779
 30
0.0
 10
1.5774671679
 20
4.7288594206
 30
0.0
 10
1.5702757129
 20
4.7316803441
 30
0.0
 10
1.5637156992
 20
4.7356234715
 30
0.0
 10
1.5591705651
 20
4.739136113
 30
0.0
 10
1.5550813544
 20
4.7431935008
 30
0.0
 10
1.5527254597
 20
4.7462423323
 30
0.0
 10
1.5516619815
 20
4.7478478009
 30
0.0
  0
SPLINE
  5
29B
100
AcDbEntity
  8
0
100
AcDbSpline
 62
7
  6
CONTINUOUS
 70
0
 71
3
 72
23
 73
19
 74
0
 42
0.0000001
 43
0.0000001
 44
0.0000000001
 40
0.0
 40
0.0
 40
0.0
 40
0.0
 40
0.063341614
 40
0.126000286
 40
0.1881622597
 40
0.2499834494
 40
0.3115857563
 40
0.3730603178
 40
0.4344824756
 40
0.4959146199
 40
0.5574213086
 40
0.619076996
 40
0.6809713385
 40
0.7432409364
 40
0.8060275892
 40
0.8695659278
 40
0.9341359771
 40
1.0
 40
1.0
 40
1.0
 40
1.0
 10
1.5555209041
 20
4.7428912449
 30
0.0
 10
1.5542973456
 20
4.7413644217
 30
0.0
 10
1.5516405314
 20
4.7384990078
 30
0.0
 10
1.5471256279
 20
4.7348120124
 30
0.0
 10
1.5422012276
 20
4.7317817728
 30
0.0
 10
1.5369587645
 20
4.7294243961
 30
0.0
 10
1.5314827629
 20
4.727750127
 30
0.0
 10
1.5258546735
 20
4.7267660716
 30
0.0
 10
1.5201538936
 20
4.7264777379
 30
0.0
 10
1.5144595251
 20
4.7268867123
 30
0.0
 10
1.5088505399
 20
4.7279901986
 30
0.0
 10
1.5034073842
 20
4.7297844699
 30
0.0
 10
1.4982116755
 20
4.7322605059
 30
0.0
 10
1.493349698
 20
4.7354075388
 30
0.0
 10
1.4889125119
 20
4.7392100165
 30
0.0
 10
1.4849978154
 20
4.7436471118
 30
0.0
 10
1.4817257311
 20
4.7486925026
 30
0.0
 10
1.4800753011
 20
4.7523901078
 30
0.0
 10
1.4793972139
 20
4.7543082985
 30
0.0
  0
SPLINE
  5
29C
100
AcDbEntity
  8
0
100
AcDbSpline
 62
7
  6
CONTINUOUS
 70
0
 71
3
 72
21
 73
17
 74
0
 42
0.0000001
 43
0.0000001
 44
0.0000000001
 40
0.0
 40
0.0
 40
0.0
 40
0.0
 40
0.0626754854
 40
0.1251498702
 40
0.1874436073
 40
0.2496025416
 40
0.3116685922
 40
0.3736904936
 40
0.4357154452
 40
0.4977896152
 40
0.5599624907
 40
0.622273924
 40
0.684771408
 40
0.7474687502
 40
0.8732908778
 40
1.0
 40
1.0
 40
1.0
 40
1.0
 10
1.4904088911
 20
4.7380425484
 30
0.0
 10
1.4891384162
 20
4.736815516
 30
0.0
 10
1.4864372854
 20
4.7345293064
 30
0.0
 10
1.4819845996
 20
4.7316610184
 30
0.0
 10
1.4772109773
 20
4.7293986053
 30
0.0
 10
1.4721988423
 20
4.727768182
 30
0.0
 10
1.4670271586
 20
4.7267925848
 30
0.0
 10
1.4617774093
 20
4.7264798624
 30
0.0
 10
1.4565303177
 20
4.7268376884
 30
0.0
 10
1.4513664792
 20
4.7278576521
 30
0.0
 10
1.4463675749
 20
4.7295320225
 30
0.0
 10
1.4416125523
 20
4.7318361198
 30
0.0
 10
1.4371831702
 20
4.7347459096
 30
0.0
 10
1.4318101814
 20
4.7393733708
 30
0.0
 10
1.4262825976
 20
4.746467144
 30
0.0
 10
1.4235241186
 20
4.7531373209
 30
0.0
 10
1.422617751
 20
4.7565911932
 30
0.0
  0
SPLINE
  5
29D
100
AcDbEntity
  8
0
100
AcDbSpline
 62
7
  6
CONTINUOUS
 70
0
 71
3
 72
18
 73
14
 74
0
 42
0.0000001
 43
0.0000001
 44
0.0000000001
 40
0.0
 40
0.0
 40
0.0
 40
0.0
 40
0.1230283019
 40
0.245861509
 40
0.368850919
 40
0.4923640649
 40
0.5545212952
 40
0.6169681197
 40
0.6797410867
 40
0.7429094796
 40
0.8065204209
 40
0.8706429306
 40
1.0
 40
1.0
 40
1.0
 40
1.0
 10
1.4072306904
 20
4.7285382769
 30
0.0
 10
1.4046071899
 20
4.7277221924
 30
0.0
 10
1.3991933384
 20
4.7265933164
 30
0.0
 10
1.3909094785
 20
4.7264690844
 30
0.0
 10
1.3827385039
 20
4.7279133174
 30
0.0
 10
1.3762612483
 20
4.7304058971
 30
0.0
 10
1.3714303879
 20
4.7331351863
 30
0.0
 10
1.3680035699
 20
4.7355493801
 30
0.0
 10
1.3648202016
 20
4.7383111426
 30
0.0
 10
1.3619201787
 20
4.7414050785
 30
0.0
 10
1.3593412061
 20
4.7448108571
 30
0.0
 10
1.3563826681
 20
4.7497399118
 30
0.0
 10
1.3547779785
 20
4.7538022814
 30
0.0
 10
1.3540248186
 20
4.7565912084
 30
0.0
  0
SPLINE
  5
29E
100
AcDbEntity
  8
0
100
AcDbSpline
 62
7
  6
CONTINUOUS
 70
0
 71
3
 72
18
 73
14
 74
0
 42
0.0000001
 43
0.0000001
 44
0.0000000001
 40
0.0
 40
0.0
 40
0.0
 40
0.0
 40
0.1227663339
 40
0.2455555819
 40
0.3684281877
 40
0.4915297679
 40
0.6152113172
 40
0.6774805771
 40
0.7401509625
 40
0.8034437574
 40
0.8677106889
 40
0.9332930854
 40
1.0
 40
1.0
 40
1.0
 40
1.0
 10
1.3908749998
 20
4.7267129764
 30
0.0
 10
1.388408724
 20
4.7265413524
 30
0.0
 10
1.383442796
 20
4.7265617346
 30
0.0
 10
1.3760825129
 20
4.7276805894
 30
0.0
 10
1.3689596557
 20
4.7298798533
 30
0.0
 10
1.3622376588
 20
4.7331451058
 30
0.0
 10
1.3571163583
 20
4.7367349598
 30
0.0
 10
1.3534064386
 20
4.740104596
 30
0.0
 10
1.3508274787
 20
4.7428896521
 30
0.0
 10
1.348489425
 20
4.7459313668
 30
0.0
 10
1.3464275934
 20
4.7492370979
 30
0.0
 10
1.3446812909
 20
4.7527966757
 30
0.0
 10
1.3437660274
 20
4.7553053445
 30
0.0
 10
1.3433776548
 20
4.7565913064
 30
0.0
  0
SPLINE
  5
29F
100
AcDbEntity
  8
0
100
AcDbSpline
 62
7
  6
CONTINUOUS
 70
0
 71
3
 72
11
 73
7
 74
0
 42
0.0000001
 43
0.0000001
 44
0.0000000001
 40
0.0
 40
0.0
 40
0.0
 40
0.0
 40
0.2484687711
 40
0.4984245113
 40
0.7491561053
 40
1.0
 40
1.0
 40
1.0
 40
1.0
 10
1.5011190353
 20
4.7309258854
 30
0.0
 10
1.498398896
 20
4.730023548
 30
0.0
 10
1.4928451339
 20
4.7284934914
 30
0.0
 10
1.4843118581
 20
4.7270475963
 30
0.0
 10
1.4756494236
 20
4.7264595443
 30
0.0
 10
1.4698558198
 20
4.7266483708
 30
0.0
 10
1.4669723477
 20
4.7268865603
 30
0.0
  0
SPLINE
  5
2A0
100
AcDbEntity
  8
0
100
AcDbSpline
 62
7
  6
CONTINUOUS
 70
0
 71
3
 72
11
 73
7
 74
0
 42
0.0000001
 43
0.0000001
 44
0.0000000001
 40
0.0
 40
0.0
 40
0.0
 40
0.0
 40
0.2486417488
 40
0.4986043164
 40
0.7492504239
 40
1.0
 40
1.0
 40
1.0
 40
1.0
 10
1.5695193428
 20
4.7323272112
 30
0.0
 10
1.5661729801
 20
4.7311281045
 30
0.0
 10
1.5593240918
 20
4.729091576
 30
0.0
 10
1.5487641688
 20
4.7271771497
 30
0.0
 10
1.5380294249
 20
4.7264104248
 30
0.0
 10
1.5308496419
 20
4.7266790566
 30
0.0
 10
1.5272797515
 20
4.7270062121
 30
0.0
  0
LINE
  5
2A1
100
AcDbEntity
  8
0
100
AcDbLine
 62
7
  6
CONTINUOUS
 10
1.4793959072
 20
4.7543078803
 11
1.478730244
 21
4.7565911911
  0
SPLINE
  5
2A2
100
AcDbEntity
  8
0
100
AcDbSpline
 62
7
  6
CONTINUOUS
 70
0
 71
3
 72
11
 73
7
 74
0
 42
0.0000001
 43
0.0000001
 44
0.0000000001
 40
0.0
 40
0.0
 40
0.0
 40
0.0
 40
0.2015865338
 40
0.4355046182
 40
0.7017123429
 40
1.0
 40
1.0
 40
1.0
 40
1.0
 10
1.8295308742
 20
4.7481944086
 30
0.0
 10
1.8300104823
 20
4.748699627
 30
0.0
 10
1.8309889802
 20
4.749845728
 30
0.0
 10
1.832443943
 20
4.7517865949
 30
0.0
 10
1.8340011242
 20
4.7540650246
 30
0.0
 10
1.8350472794
 20
4.7557119569
 30
0.0
 10
1.8355852863
 20
4.7565911911
 30
0.0
  0
SPLINE
  5
2A3
100
AcDbEntity
  8
0
100
AcDbSpline
 62
7
  6
CONTINUOUS
 70
0
 71
3
 72
13
 73
9
 74
0
 42
0.0000001
 43
0.0000001
 44
0.0000000001
 40
0.0
 40
0.0
 40
0.0
 40
0.0
 40
0.0683448348
 40
0.1524179595
 40
0.2527169324
 40
0.3694305051
 40
0.6521502575
 40
1.0
 40
1.0
 40
1.0
 40
1.0
 10
1.7257802152
 20
4.7459496766
 30
0.0
 10
1.7258477032
 20
4.7460256174
 30
0.0
 10
1.725984102
 20
4.7462073854
 30
0.0
 10
1.7261820516
 20
4.7465268895
 30
0.0
 10
1.7263956225
 20
4.7469204373
 30
0.0
 10
1.7267246741
 20
4.7475865548
 30
0.0
 10
1.7271772652
 20
4.748601351
 30
0.0
 10
1.7275411393
 20
4.7494651675
 30
0.0
 10
1.7277400867
 20
4.749942446
 30
0.0
  0
LINE
  5
2A4
100
AcDbEntity
  8
0
100
AcDbLine
 62
7
  6
CONTINUOUS
 10
1.7277400867
 20
4.749942446
 11
1.7304798559
 21
4.7565911911
  0
SPLINE
  5
2A5
100
AcDbEntity
  8
0
100
AcDbSpline
 62
7
  6
CONTINUOUS
 70
0
 71
3
 72
16
 73
12
 74
0
 42
0.0000001
 43
0.0000001
 44
0.0000000001
 40
0.0
 40
0.0
 40
0.0
 40
0.0
 40
0.0222116418
 40
0.0491982846
 40
0.0813608537
 40
0.1189094983
 40
0.2104982459
 40
0.3243139361
 40
0.4602775676
 40
0.6182149636
 40
1.0
 40
1.0
 40
1.0
 40
1.0
 10
1.6340710767
 20
4.7458795304
 30
0.0
 10
1.6340175401
 20
4.7459397803
 30
0.0
 10
1.6339165087
 20
4.7460887545
 30
0.0
 10
1.6337919988
 20
4.7463572069
 30
0.0
 10
1.6336816759
 20
4.7466909652
 30
0.0
 10
1.6335470605
 20
4.747261126
 30
0.0
 10
1.6334363726
 20
4.7481379705
 30
0.0
 10
1.6333924172
 20
4.7493769129
 30
0.0
 10
1.633444155
 20
4.7508565719
 30
0.0
 10
1.6336706574
 20
4.753298948
 30
0.0
 10
1.6340013086
 20
4.7552324636
 30
0.0
 10
1.6342717443
 20
4.7565911911
 30
0.0
  0
SPLINE
  5
2A6
100
AcDbEntity
  8
0
100
AcDbSpline
 62
7
  6
CONTINUOUS
 70
0
 71
3
 72
11
 73
7
 74
0
 42
0.0000001
 43
0.0000001
 44
0.0000000001
 40
0.0
 40
0.0
 40
0.0
 40
0.0
 40
0.1977321716
 40
0.4286298657
 40
0.69517774
 40
1.0
 40
1.0
 40
1.0
 40
1.0
 10
1.5516620115
 20
4.7478523489
 30
0.0
 10
1.551331522
 20
4.748351801
 30
0.0
 10
1.5507416017
 20
4.7495191395
 30
0.0
 10
1.5501147041
 20
4.7515361805
 30
0.0
 10
1.5497055276
 20
4.753937438
 30
0.0
 10
1.5496022273
 20
4.7556680957
 30
0.0
 10
1.5495852114
 20
4.7565911911
 30
0.0
  0
ENDSEC
  0
SECTION
  2
OBJECTS
  0
DICTIONARY
  5
C
100
AcDbDictionary
280
0
281
1
  3
ACAD_GROUP
350
D
  3
ACAD_MLINESTYLE
350
17
  3
ACAD_LAYOUT
350
1A
  3
ACAD_PLOTSETTINGS
350
19
  3
ACAD_PLOTSTYLENAME
350
E
  0
DICTIONARY
  5
D
102
{ACAD_REACTORS
330
C
102
}
100
AcDbDictionary
280
0
281
1
  0
ACDBDICTIONARYWDFLT
  5
E
102
{ACAD_REACTORS
330
C
102
}
100
AcDbDictionary
281
1
  3
Normal
350
F
100
AcDbDictionaryWithDefault
340
F
  0
DICTIONARY
  5
17
102
{ACAD_REACTORS
330
C
102
}
100
AcDbDictionary
280
0
281
1
  3
Standard
350
18
  0
DICTIONARY
  5
19
102
{ACAD_REACTORS
330
C
102
}
100
AcDbDictionary
281
1
  0
DICTIONARY
  5
1A
102
{ACAD_REACTORS
330
C
102
}
100
AcDbDictionary
281
1
  3
Model
350
2A7
  3
Layout1
350
2A8
  0
ACDBPLACEHOLDER
  5
F
102
{ACAD_REACTORS
330
E
102
}
  0
MLINESTYLE
  5
18
102
{ACAD_REACTORS
330
17
102
}
100
AcDbMlineStyle
  2
STANDARD
 70
0
  3

 62
256
 51
90.0
 52
90.0
 71
2
 49
0.5
 62
256
  6
BYLAYER
 49
-0.5
 62
256
  6
BYLAYER
  0
LAYOUT
  5
2A7
102
{ACAD_REACTORS
330
1A
102
}
100
AcDbPlotSettings
  1

  2
none_device
  4
ANSI_A_(11.00_x_8.50_Inches)
  6

 40
0.0
 41
0.0
 42
0.0
 43
0.0
 44
279.4
 45
215.9
 46
0.0
 47
0.0
 48
0.0
 49
0.0
140
0.0
141
0.0
142
1.0
143
1.0
 70
1024
 72
0
 73
0
 74
0
  7

 75
0
147
1.0
148
0.0
149
0.0
100
AcDbLayout
  1
Model
 70
0
 71
0
 10
0.0
 20
0.0
 11
11.0
 21
8.5
 12
0.0
 22
0.0
 32
0.0
 14
0.0
 24
0.0
 34
0.0
 15
0.0
 25
0.0
 35
0.0
146
0.0
 13
0.0
 23
0.0
 33
0.0
 16
1.0
 26
0.0
 36
0.0
 17
0.0
 27
1.0
 37
0.0
 76
0
330
216
345
0
346
0
  0
LAYOUT
  5
2A8
102
{ACAD_REACTORS
330
1A
102
}
100
AcDbPlotSettings
  1

  2
none_device
  4
ANSI_A_(11.00_x_8.50_Inches)
  6

 40
0.0
 41
0.0
 42
0.0
 43
0.0
 44
279.4
 45
215.9
 46
0.0
 47
0.0
 48
0.0
 49
0.0
140
0.0
141
0.0
142
1.0
143
1.0
 70
0
 72
0
 73
0
 74
0
  7

 75
0
147
1.0
148
0.0
149
0.0
100
AcDbLayout
  1
Layout1
 70
0
 71
1
 10
0.0
 20
0.0
 11
11.0
 21
8.5
 12
0.0
 22
0.0
 32
0.0
 14
0.0
 24
0.0
 34
0.0
 15
0.0
 25
0.0
 35
0.0
146
0.0
 13
0.0
 23
0.0
 33
0.0
 16
1.0
 26
0.0
 36
0.0
 17
0.0
 27
1.0
 37
0.0
 76
0
330
217
345
0
346
0
  0
ENDSEC
  0
EOF
