999
DXF file: E:\BT Custom\CADOUTPUT\_RIGHT.dxf
999
Pro/ENGINEER 2018400 by Parametric Technology Corporation
  0
SECTION
  2
HEADER
  9
$ACADVER
  1
AC1018
  9
$DWGCODEPAGE
  3
ANSI_1252
  9
$EXTMAX
 10
22.0
 20
17.0
 30
0.0
  9
$EXTMIN
 10
0.0
 20
0.0
 30
0.0
  9
$LIMMIN
 10
0.0
 20
0.0
  9
$LIMMAX
 10
22.0
 20
17.0
  9
$VIEWCTR
 10
11.0
 20
8.5
  9
$VIEWSIZE
 40
17.0
  9
$CLAYER
  8
0
  9
$LTSCALE
 40
1.21
  9
$CELTYPE
  6
BYLAYER
  9
$DIMSCALE
 40
1.0
  9
$DIMASZ
 40
0.1
  9
$DIMEXO
 40
0.0625
  9
$DIMDLI
 40
0.836
  9
$DIMEXE
 40
0.125
  9
$DIMCEN
 40
0.198
  9
$DIMLFAC
 40
1.0
  9
$DIMBLK
  1
_FILLED
  9
$DIMALT
 70
1
  9
$DIMALTD
 70
2
  9
$DIMALTTD
 70
2
  9
$DIMALTF
 40
25.4
  9
$DIMTXT
 40
0.08
  9
$DIMTOL
 70
1
  9
$DIMLIM
 70
0
  9
$DIMTFAC
 40
1.0
  9
$DIMTP
 40
0.001
  9
$DIMTM
 40
0.001
  9
$DIMGAP
 40
0.09
  9
$DIMDSEP
 70
46
  9
$AUNITS
 70
0
  9
$PDMODE
 70
3
  9
$PDSIZE
 40
0.06
  9
$HANDSEED
  5
248
  9
$TILEMODE
 70
1
  9
$MEASUREMENT
 70
0
  9
$INSUNITS
 70
1
  0
ENDSEC
  0
SECTION
  2
CLASSES
  0
CLASS
  1
ACDBDICTIONARYWDFLT
  2
AcDbDictionaryWithDefault
  3
AutoCAD 2000
 90
0
 91
1
280
0
281
0
  0
CLASS
  1
ACDBPLACEHOLDER
  2
AcDbPlaceHolder
  3
AutoCAD 2000
 90
0
 91
1
280
0
281
0
  0
CLASS
  1
LAYOUT
  2
AcDbLayout
  3
AutoCAD 2000
 90
0
 91
0
280
0
281
0
  0
ENDSEC
  0
SECTION
  2
TABLES
  0
TABLE
  2
VPORT
  5
8
100
AcDbSymbolTable
 70
2
  0
VPORT
  5
1F4
100
AcDbSymbolTableRecord
100
AcDbViewportTableRecord
  2
*ACTIVE
 70
0
 10
0.0
 20
0.0
 11
1.0
 21
1.0
 12
11.0
 22
8.5
 13
0.0
 23
0.0
 14
1.0
 24
1.0
 15
0.0
 25
0.0
 16
0.0
 26
0.0
 36
1.0
 17
0.0
 27
0.0
 37
0.0
 40
17.0
 41
1.2941176471
 42
50.0
 43
0.0
 44
0.0
 50
0.0
 51
0.0
 71
0
 72
100
 73
1
 74
1
 75
0
 76
0
 77
0
 78
0
  0
ENDTAB
  0
TABLE
  2
LTYPE
  5
5
100
AcDbSymbolTable
 70
6
  0
LTYPE
  5
14
100
AcDbSymbolTableRecord
100
AcDbLinetypeTableRecord
  2
BYBLOCK
 70
0
  3

 72
65
 73
0
 40
0.0
  0
LTYPE
  5
15
100
AcDbSymbolTableRecord
100
AcDbLinetypeTableRecord
  2
BYLAYER
 70
0
  3

 72
65
 73
0
 40
0.0
  0
LTYPE
  5
16
100
AcDbSymbolTableRecord
100
AcDbLinetypeTableRecord
  2
CONTINUOUS
 70
64
  3
Solid line
 72
65
 73
0
 40
0.0
  0
LTYPE
  5
1F5
100
AcDbSymbolTableRecord
100
AcDbLinetypeTableRecord
  2
CENTER
 70
64
  3
____ _ ____ _ ____ _ ____ _ ____ _ ____ _ ____
 72
65
 73
4
 40
0.6
 49
0.375
 74
0
 49
-0.075
 74
0
 49
0.075
 74
0
 49
-0.075
 74
0
  0
LTYPE
  5
1F6
100
AcDbSymbolTableRecord
100
AcDbLinetypeTableRecord
  2
HIDDEN
 70
64
  3
- - - - - - - - - - - - - - - - - - - -
 72
65
 73
2
 40
0.2
 49
0.1
 74
0
 49
-0.1
 74
0
  0
LTYPE
  5
1F7
100
AcDbSymbolTableRecord
100
AcDbLinetypeTableRecord
  2
PHANTOM
 70
64
  3
_____ _ _ _____ _ _ _____ _ _ _____
 72
65
 73
6
 40
0.8
 49
0.45
 74
0
 49
-0.05
 74
0
 49
0.1
 74
0
 49
-0.05
 74
0
 49
0.1
 74
0
 49
-0.05
 74
0
  0
LTYPE
  5
1F8
100
AcDbSymbolTableRecord
100
AcDbLinetypeTableRecord
  2
DOT
 70
64
  3
. . . . . . . . . . . . . . . . . . . .
 72
65
 73
2
 40
0.2
 49
0.1
 74
0
 49
-0.1
 74
0
  0
LTYPE
  5
1F9
100
AcDbSymbolTableRecord
100
AcDbLinetypeTableRecord
  2
DASHED
 70
64
  3
- - - - - - - - - - - - - - - - - - - -
 72
65
 73
2
 40
0.2
 49
0.1
 74
0
 49
-0.1
 74
0
  0
ENDTAB
  0
TABLE
  2
LAYER
  5
2
100
AcDbSymbolTable
 70
36
  0
LAYER
  5
10
100
AcDbSymbolTableRecord
100
AcDbLayerTableRecord
  2
0
 70
0
 62
7
  6
CONTINUOUS
370
-3
390
F
  0
LAYER
  5
1FA
100
AcDbSymbolTableRecord
100
AcDbLayerTableRecord
  2
DEFAULT_1
 70
0
 62
7
  6
CENTER
370
-3
390
F
  0
LAYER
  5
1FB
100
AcDbSymbolTableRecord
100
AcDbLayerTableRecord
  2
DEFAULT_2
 70
0
 62
8
  6
HIDDEN
370
-3
390
F
  0
LAYER
  5
1FC
100
AcDbSymbolTableRecord
100
AcDbLayerTableRecord
  2
DEFAULT_3
 70
0
 62
7
  6
PHANTOM
370
-3
390
F
  0
LAYER
  5
1FD
100
AcDbSymbolTableRecord
100
AcDbLayerTableRecord
  2
ALL_FEATURES
 70
0
 62
7
  6
CONTINUOUS
370
-3
390
F
  0
LAYER
  5
1FE
100
AcDbSymbolTableRecord
100
AcDbLayerTableRecord
  2
AXES_FEATURES
 70
0
 62
7
  6
CONTINUOUS
370
-3
390
F
  0
LAYER
  5
1FF
100
AcDbSymbolTableRecord
100
AcDbLayerTableRecord
  2
DEFAULT_COORDINATE_SYSTEM
 70
0
 62
7
  6
CONTINUOUS
370
-3
390
F
  0
LAYER
  5
200
100
AcDbSymbolTableRecord
100
AcDbLayerTableRecord
  2
DEFAULT_DATUM_AXES
 70
0
 62
7
  6
CONTINUOUS
370
-3
390
F
  0
LAYER
  5
201
100
AcDbSymbolTableRecord
100
AcDbLayerTableRecord
  2
DEFAULT_DATUM_PLANES
 70
0
 62
7
  6
CONTINUOUS
370
-3
390
F
  0
LAYER
  5
202
100
AcDbSymbolTableRecord
100
AcDbLayerTableRecord
  2
DIMENSIONS
 70
0
 62
7
  6
CONTINUOUS
370
-3
390
F
  0
ENDTAB
  0
TABLE
  2
STYLE
  5
3
100
AcDbSymbolTable
 70
1
  0
STYLE
  5
11
100
AcDbSymbolTableRecord
100
AcDbTextStyleTableRecord
  2
STANDARD
 70
0
 40
0.0
 41
0.8
 50
0.0
 71
0
 42
0.2
  3
txt
  4

  0
STYLE
  5
203
100
AcDbSymbolTableRecord
100
AcDbTextStyleTableRecord
  2
TEXTSTYLE_1
 70
0
 40
0.0
 41
0.8
 50
0.0
 71
0
 42
0.2
  3
gdt
  4

  0
ENDTAB
  0
TABLE
  2
VIEW
  5
6
100
AcDbSymbolTable
 70
0
  0
ENDTAB
  0
TABLE
  2
UCS
  5
7
100
AcDbSymbolTable
 70
0
  0
ENDTAB
  0
TABLE
  2
APPID
  5
9
100
AcDbSymbolTable
 70
1
  0
APPID
  5
204
100
AcDbSymbolTableRecord
100
AcDbRegAppTableRecord
  2
ACAD
 70
0
  0
ENDTAB
  0
TABLE
  2
BLOCK_RECORD
  5
1
100
AcDbSymbolTable
 70
0
  0
BLOCK_RECORD
  5
205
100
AcDbSymbolTableRecord
100
AcDbBlockTableRecord
  2
*Model_Space
  0
BLOCK_RECORD
  5
206
100
AcDbSymbolTableRecord
100
AcDbBlockTableRecord
  2
*Paper_Space
  0
BLOCK_RECORD
  5
207
100
AcDbSymbolTableRecord
100
AcDbBlockTableRecord
  2
_FILLED
  0
ENDTAB
  0
TABLE
  2
DIMSTYLE
  5
A
100
AcDbSymbolTable
 70
1
100
AcDbDimStyleTable
 71
0
  0
DIMSTYLE
105
208
100
AcDbSymbolTableRecord
100
AcDbDimStyleTableRecord
  2
STANDARD
 70
0
  3

  4

 40
1.0
 41
0.1
 42
0.0625
 43
0.38
 44
0.125
 45
0.0
 46
0.0
 47
0.001
 48
0.001
140
0.08
141
0.09
142
0.0
143
25.4
144
1.0
145
0.0
146
1.0
147
0.09
 71
1.0
 72
0.0
 73
1
 74
1
 75
0
 76
0
 77
0
 78
4
 79
1
170
1
171
2
172
0
173
0
174
0
175
0
176
0
177
0
178
0
270
2
179
3
271
3
272
3
273
2
274
2
275
0
280
0
281
0
282
0
283
1
284
4
285
0
286
0
287
3
288
0
340
11
278
46
341
207
342
207
343
207
344
207
  0
ENDTAB
  0
ENDSEC
  0
SECTION
  2
BLOCKS
  0
BLOCK
  5
20
100
AcDbEntity
  8
0
100
AcDbBlockBegin
  2
*Model_Space
 70
0
 10
0.0
 20
0.0
 30
0.0
  3
*Model_Space
  1

  0
ENDBLK
  5
21
100
AcDbEntity
  8
0
100
AcDbBlockEnd
  0
BLOCK
  5
1C
100
AcDbEntity
  8
0
100
AcDbBlockBegin
  2
*Paper_Space
 70
0
 10
0.0
 20
0.0
 30
0.0
  3
*Paper_Space
  1

  0
ENDBLK
  5
1D
100
AcDbEntity
  8
0
100
AcDbBlockEnd
  0
BLOCK
  5
209
100
AcDbEntity
  8
0
100
AcDbBlockBegin
  2
_FILLED
 70
64
 10
0.0
 20
0.0
  3
_FILLED
  1

  0
SOLID
  5
20A
100
AcDbEntity
  8
0
  6
BYBLOCK
 62
0
100
AcDbTrace
 10
0.0
 20
0.0
 11
-1.0
 21
0.2
 12
-1.0
 22
-0.2
 13
-1.0
 23
-0.2
  0
ENDBLK
  5
20B
100
AcDbEntity
  8
0
  6
BYBLOCK
 62
0
100
AcDbBlockEnd
  0
ENDSEC
  0
SECTION
  2
ENTITIES
  0
LINE
  5
20C
100
AcDbEntity
  8
0
100
AcDbLine
 62
7
  6
CONTINUOUS
 10
11.6049834891
 20
7.509891804
 11
12.0849834891
 21
7.509891804
  0
LINE
  5
20D
100
AcDbEntity
  8
0
100
AcDbLine
 62
7
  6
CONTINUOUS
 10
9.9599834891
 20
8.384891804
 11
11.4849834891
 21
8.384891804
  0
LINE
  5
20E
100
AcDbEntity
  8
0
100
AcDbLine
 62
7
  6
CONTINUOUS
 10
9.9599834891
 20
9.634891804
 11
11.4849834891
 21
9.634891804
  0
LINE
  5
20F
100
AcDbEntity
  8
0
100
AcDbLine
 62
7
  6
CONTINUOUS
 10
11.4849834891
 20
9.824891804
 11
11.4849834891
 21
8.194891804
  0
LINE
  5
210
100
AcDbEntity
  8
0
100
AcDbLine
 62
9
  6
CONTINUOUS
 10
11.5449834891
 20
8.4896040699
 11
11.5449834891
 21
8.5046156975
  0
LINE
  5
211
100
AcDbEntity
  8
0
100
AcDbLine
 62
9
  6
CONTINUOUS
 10
11.5449834891
 20
8.6943021699
 11
11.5449834891
 21
8.7213874134
  0
LINE
  5
212
100
AcDbEntity
  8
0
100
AcDbLine
 62
9
  6
CONTINUOUS
 10
11.5449834891
 20
8.9081533753
 11
11.5449834891
 21
8.944450405
  0
LINE
  5
213
100
AcDbEntity
  8
0
100
AcDbLine
 62
9
  6
CONTINUOUS
 10
11.5449834891
 20
9.1257740669
 11
11.5449834891
 21
9.169776049
  0
LINE
  5
214
100
AcDbEntity
  8
0
100
AcDbLine
 62
9
  6
CONTINUOUS
 10
11.5449834891
 20
9.3418347059
 11
11.5449834891
 21
9.3888500489
  0
LINE
  5
215
100
AcDbEntity
  8
0
100
AcDbLine
 62
9
  6
CONTINUOUS
 10
11.5449834891
 20
9.5478494003
 11
11.5449834891
 21
9.5963863967
  0
LINE
  5
216
100
AcDbEntity
  8
0
100
AcDbLine
 62
9
  6
CONTINUOUS
 10
11.5449834891
 20
9.7424840114
 11
11.5449834891
 21
9.7864536791
  0
LINE
  5
217
100
AcDbEntity
  8
0
100
AcDbLine
 62
7
  6
CONTINUOUS
 10
11.5849834891
 20
10.489891804
 11
11.5849834891
 21
7.529891804
  0
LINE
  5
218
100
AcDbEntity
  8
0
100
AcDbLine
 62
9
  6
CONTINUOUS
 10
11.6049834891
 20
7.509891804
 11
11.6049834891
 21
10.509891804
  0
LINE
  5
219
100
AcDbEntity
  8
0
100
AcDbLine
 62
7
  6
CONTINUOUS
 10
12.0849834891
 20
7.509891804
 11
12.0849834891
 21
10.509891804
  0
LINE
  5
21A
100
AcDbEntity
  8
0
100
AcDbLine
 62
7
  6
CONTINUOUS
 10
11.6049834891
 20
10.509891804
 11
12.0849834891
 21
10.509891804
  0
ARC
  5
21B
100
AcDbEntity
  8
0
100
AcDbCircle
 62
7
  6
CONTINUOUS
 10
9.9599834891
 20
9.009891804
 40
0.625
100
AcDbArc
 50
90.0
 51
270.0
  0
ARC
  5
21C
100
AcDbEntity
  8
0
100
AcDbCircle
 62
7
  6
CONTINUOUS
 10
11.7656491901
 20
8.5994236859
 40
0.2406666625
100
AcDbArc
 50
153.2297037661
 51
221.3494319546
  0
ARC
  5
21D
100
AcDbEntity
  8
0
100
AcDbCircle
 62
7
  6
CONTINUOUS
 10
11.7338127844
 20
9.9773607089
 40
0.2088334752
100
AcDbArc
 50
174.694284139
 51
199.9987177213
  0
ARC
  5
21E
100
AcDbEntity
  8
0
100
AcDbCircle
 62
7
  6
CONTINUOUS
 10
11.6585624866
 20
10.3012277457
 40
0.1335803826
100
AcDbArc
 50
176.7958873485
 51
193.4917086945
  0
ARC
  5
21F
100
AcDbEntity
  8
0
100
AcDbCircle
 62
7
  6
CONTINUOUS
 10
11.6413062987
 20
8.166115222
 40
0.1161446954
100
AcDbArc
 50
194.3685463103
 51
206.93133638
  0
ARC
  5
220
100
AcDbEntity
  8
0
100
AcDbCircle
 62
7
  6
CONTINUOUS
 10
11.6357817672
 20
10.3417942553
 40
0.1107981348
100
AcDbArc
 50
179.4994131919
 51
187.8505204279
  0
ARC
  5
221
100
AcDbEntity
  8
0
100
AcDbCircle
 62
7
  6
CONTINUOUS
 10
11.6386990719
 20
9.6496287952
 40
0.1076549221
100
AcDbArc
 50
222.4240895009
 51
227.0598773531
  0
ARC
  5
222
100
AcDbEntity
  8
0
100
AcDbCircle
 62
7
  6
CONTINUOUS
 10
11.6115301231
 20
7.8752759255
 40
0.0865488107
100
AcDbArc
 50
171.5065533031
 51
203.5428073568
  0
ARC
  5
223
100
AcDbEntity
  8
0
100
AcDbCircle
 62
7
  6
CONTINUOUS
 10
11.6073835674
 20
7.7059831426
 40
0.0824000537
100
AcDbArc
 50
176.4348850473
 51
189.050005762
  0
ARC
  5
224
100
AcDbEntity
  8
0
100
AcDbCircle
 62
7
  6
CONTINUOUS
 10
11.6052604174
 20
7.773772082
 40
0.0802769522
100
AcDbArc
 50
173.0861860704
 51
197.5532057257
  0
ARC
  5
225
100
AcDbEntity
  8
0
100
AcDbCircle
 62
7
  6
CONTINUOUS
 10
11.6066144218
 20
10.3692351267
 40
0.069065073
100
AcDbArc
 50
108.2523033795
 51
111.1138572643
  0
ARC
  5
226
100
AcDbEntity
  8
0
100
AcDbCircle
 62
7
  6
CONTINUOUS
 10
11.5449834891
 20
9.824891804
 40
0.06
100
AcDbArc
 50
105.5330452845
 51
180.0
  0
ARC
  5
227
100
AcDbEntity
  8
0
100
AcDbCircle
 62
7
  6
CONTINUOUS
 10
11.5449834891
 20
8.194891804
 40
0.06
100
AcDbArc
 50
180.0
 51
262.3290081717
  0
ARC
  5
228
100
AcDbEntity
  8
0
100
AcDbCircle
 62
7
  6
CONTINUOUS
 10
11.6049834891
 20
10.489891804
 40
0.02
100
AcDbArc
 50
90.0
 51
180.0
  0
ARC
  5
229
100
AcDbEntity
  8
0
100
AcDbCircle
 62
7
  6
CONTINUOUS
 10
11.6049834891
 20
7.529891804
 40
0.02
100
AcDbArc
 50
180.0
 51
270.0
  0
SPLINE
  5
22A
100
AcDbEntity
  8
0
100
AcDbSpline
 62
7
  6
CONTINUOUS
 70
0
 71
3
 72
17
 73
13
 74
0
 42
0.0000001
 43
0.0000001
 44
0.0000000001
 40
0.0
 40
0.0
 40
0.0
 40
0.0
 40
0.1223539207
 40
0.2446939643
 40
0.3672613069
 40
0.4903608744
 40
0.6144309214
 40
0.7401062691
 40
0.8038914509
 40
0.8684302522
 40
0.9337864483
 40
1.0
 40
1.0
 40
1.0
 40
1.0
 10
11.5265162995
 20
10.3292124338
 30
0.0
 10
11.5255756683
 20
10.3343210819
 30
0.0
 10
11.5245554783
 20
10.3447174937
 30
0.0
 10
11.5256488393
 20
10.3603410096
 30
0.0
 10
11.5293541048
 20
10.3755970373
 30
0.0
 10
11.5356419242
 20
10.3900667504
 30
0.0
 10
11.5444572647
 20
10.4033151428
 30
0.0
 10
11.5538155451
 20
10.4129064047
 30
0.0
 10
11.5624111506
 20
10.4194432118
 30
0.0
 10
11.5694434001
 20
10.4237347837
 30
0.0
 10
11.5769836578
 20
10.4273008784
 30
0.0
 10
11.5822782525
 20
10.4291239582
 30
0.0
 10
11.5849835379
 20
10.4298879317
 30
0.0
  0
SPLINE
  5
22B
100
AcDbEntity
  8
0
100
AcDbSpline
 62
7
  6
CONTINUOUS
 70
0
 71
3
 72
23
 73
19
 74
0
 42
0.0000001
 43
0.0000001
 44
0.0000000001
 40
0.0
 40
0.0
 40
0.0
 40
0.0
 40
0.0621879267
 40
0.1242807339
 40
0.1863094874
 40
0.2483066198
 40
0.3103043283
 40
0.3723349211
 40
0.4344309332
 40
0.4966224584
 40
0.5589385655
 40
0.621404007
 40
0.6840416996
 40
0.7468660792
 40
0.809878992
 40
0.8730806576
 40
0.9364817535
 40
1.0
 40
1.0
 40
1.0
 40
1.0
 10
11.5323441716
 20
10.2797678104
 30
0.0
 10
11.5311312628
 20
10.2824362965
 30
0.0
 10
11.5289922054
 20
10.2879040242
 30
0.0
 10
11.526681773
 20
10.2963927592
 30
0.0
 10
11.525289315
 20
10.305071238
 30
0.0
 10
11.5248280847
 20
10.3138437858
 30
0.0
 10
11.5253004612
 20
10.3226158808
 30
0.0
 10
11.52670356
 20
10.3312927089
 30
0.0
 10
11.529025514
 20
10.3397795637
 30
0.0
 10
11.5322459822
 20
10.3479824434
 30
0.0
 10
11.536338006
 20
10.3558070945
 30
0.0
 10
11.541263275
 20
10.3631615267
 30
0.0
 10
11.5469756579
 20
10.3699545812
 30
0.0
 10
11.553418127
 20
10.3760975374
 30
0.0
 10
11.5605211515
 20
10.3815074229
 30
0.0
 10
11.5682071222
 20
10.3861057841
 30
0.0
 10
11.5763821232
 20
10.3898205006
 30
0.0
 10
11.5820875045
 20
10.3916694778
 30
0.0
 10
11.5849834908
 20
10.3924289242
 30
0.0
  0
SPLINE
  5
22C
100
AcDbEntity
  8
0
100
AcDbSpline
 62
7
  6
CONTINUOUS
 70
0
 71
3
 72
23
 73
19
 74
0
 42
0.0000001
 43
0.0000001
 44
0.0000000001
 40
0.0
 40
0.0
 40
0.0
 40
0.0
 40
0.0625015439
 40
0.1249792571
 40
0.1874367394
 40
0.2498787343
 40
0.3123115341
 40
0.3747419102
 40
0.4371761514
 40
0.4996207004
 40
0.5620817675
 40
0.6245641456
 40
0.6870709257
 40
0.7496057794
 40
0.8121682192
 40
0.8747510729
 40
0.9373791283
 40
1.0
 40
1.0
 40
1.0
 40
1.0
 10
11.5423928441
 20
10.1960837718
 30
0.0
 10
11.5403277323
 20
10.1986825613
 30
0.0
 10
11.5365178973
 20
10.2041425161
 30
0.0
 10
11.5318656369
 20
10.2129706595
 30
0.0
 10
11.528343161
 20
10.2223055178
 30
0.0
 10
11.5260037854
 20
10.2320017853
 30
0.0
 10
11.5248813986
 20
10.2419115496
 30
0.0
 10
11.5249930463
 20
10.2518836294
 30
0.0
 10
11.5263374491
 20
10.2617659365
 30
0.0
 10
11.5288940421
 20
10.2714077066
 30
0.0
 10
11.5326249989
 20
10.2806614783
 30
0.0
 10
11.5374754369
 20
10.2893845901
 30
0.0
 10
11.5433720508
 20
10.2974423877
 30
0.0
 10
11.5502259215
 20
10.3047094388
 30
0.0
 10
11.5579327844
 20
10.3110709865
 30
0.0
 10
11.5663753895
 20
10.3164279197
 30
0.0
 10
11.5754211119
 20
10.3206917736
 30
0.0
 10
11.5817637276
 20
10.3227632588
 30
0.0
 10
11.5849834892
 20
10.3235961104
 30
0.0
  0
SPLINE
  5
22D
100
AcDbEntity
  8
0
100
AcDbSpline
 62
7
  6
CONTINUOUS
 70
0
 71
3
 72
24
 73
20
 74
0
 42
0.0000001
 43
0.0000001
 44
0.0000000001
 40
0.0
 40
0.0
 40
0.0
 40
0.0
 40
0.0629966174
 40
0.1255023575
 40
0.1876178477
 40
0.2494454361
 40
0.3110728442
 40
0.3725879485
 40
0.4340719114
 40
0.4956023991
 40
0.5572621729
 40
0.6191360709
 40
0.6813173908
 40
0.7439087602
 40
0.8070060751
 40
0.8706915957
 40
0.9027959965
 40
0.9350653604
 40
1.0
 40
1.0
 40
1.0
 40
1.0
 10
11.5531367765
 20
10.0809625504
 30
0.0
 10
11.5503176687
 20
10.0834674375
 30
0.0
 10
11.5450430233
 20
10.0888573617
 30
0.0
 10
11.5383338908
 20
10.0979049635
 30
0.0
 10
11.5329211228
 20
10.1077037298
 30
0.0
 10
11.5288537662
 20
10.1180746675
 30
0.0
 10
11.5261639502
 20
10.1288473205
 30
0.0
 10
11.5248721338
 20
10.1398540549
 30
0.0
 10
11.5249874302
 20
10.1509298128
 30
0.0
 10
11.5265096602
 20
10.1619100282
 30
0.0
 10
11.5294275307
 20
10.1726290703
 30
0.0
 10
11.5337186322
 20
10.1829191537
 30
0.0
 10
11.5393486579
 20
10.192608124
 30
0.0
 10
11.546268065
 20
10.2015180052
 30
0.0
 10
11.5544051592
 20
10.2094624212
 30
0.0
 10
11.5621042449
 20
10.2151070763
 30
0.0
 10
11.5687457037
 20
10.2189482292
 30
0.0
 10
11.5757164819
 20
10.222325332
 30
0.0
 10
11.5812308136
 20
10.2242717664
 30
0.0
 10
11.5849835062
 20
10.2252854841
 30
0.0
  0
SPLINE
  5
22E
100
AcDbEntity
  8
0
100
AcDbSpline
 62
7
  6
CONTINUOUS
 70
0
 71
3
 72
21
 73
17
 74
0
 42
0.0000001
 43
0.0000001
 44
0.0000000001
 40
0.0
 40
0.0
 40
0.0
 40
0.0
 40
0.0634014435
 40
0.1261318075
 40
0.1884751897
 40
0.2506231898
 40
0.3126723172
 40
0.374671396
 40
0.4984370946
 40
0.6222353793
 40
0.6843023845
 40
0.7464836482
 40
0.8088867255
 40
0.8716947182
 40
0.935222746
 40
1.0
 40
1.0
 40
1.0
 40
1.0
 10
11.5608296388
 20
9.9364034819
 30
0.0
 10
11.557692825
 20
9.9387969347
 30
0.0
 10
11.5517898232
 20
9.9440178098
 30
0.0
 10
11.5441198007
 20
9.9529342144
 30
0.0
 10
11.5377007127
 20
9.9626953526
 30
0.0
 10
11.5325516899
 20
9.9731311959
 30
0.0
 10
11.5286896138
 20
9.9840858113
 30
0.0
 10
11.5252825973
 20
9.9991567183
 30
0.0
 10
11.5243063081
 20
10.0185759347
 30
0.0
 10
11.5277600068
 20
10.0377187403
 30
0.0
 10
11.5331145598
 20
10.0522295717
 30
0.0
 10
11.5384224551
 20
10.0625952217
 30
0.0
 10
11.5449976676
 20
10.0722640009
 30
0.0
 10
11.5528265786
 20
10.0810675203
 30
0.0
 10
11.5618991127
 20
10.0888159257
 30
0.0
 10
11.5687006986
 20
10.0930703752
 30
0.0
 10
11.5722769597
 20
10.0949309031
 30
0.0
  0
SPLINE
  5
22F
100
AcDbEntity
  8
0
100
AcDbSpline
 62
7
  6
CONTINUOUS
 70
0
 71
3
 72
17
 73
13
 74
0
 42
0.0000001
 43
0.0000001
 44
0.0000000001
 40
0.0
 40
0.0
 40
0.0
 40
0.0
 40
0.1227131999
 40
0.1848699851
 40
0.2474726888
 40
0.3734870509
 40
0.5002324042
 40
0.6269378635
 40
0.7528440154
 40
0.8153660301
 40
0.8774328747
 40
1.0
 40
1.0
 40
1.0
 40
1.0
 10
11.5631736279
 20
9.7659979109
 30
0.0
 10
11.5569729553
 20
9.7711121953
 30
0.0
 10
11.5486493699
 20
9.7801350651
 30
0.0
 10
11.5398783752
 20
9.7937898333
 30
0.0
 10
11.5325733306
 20
9.8085370982
 30
0.0
 10
11.5264517447
 20
9.8284377386
 30
0.0
 10
11.5241410663
 20
9.8533551758
 30
0.0
 10
11.5269064268
 20
9.8782193578
 30
0.0
 10
11.5333959341
 20
9.8979885309
 30
0.0
 10
11.5409811453
 20
9.9125736772
 30
0.0
 10
11.5500183102
 20
9.9260287315
 30
0.0
 10
11.5585329456
 20
9.9348566034
 30
0.0
 10
11.5648508665
 20
9.9398098254
 30
0.0
  0
SPLINE
  5
230
100
AcDbEntity
  8
0
100
AcDbSpline
 62
7
  6
CONTINUOUS
 70
0
 71
3
 72
19
 73
15
 74
0
 42
0.0000001
 43
0.0000001
 44
0.0000000001
 40
0.0
 40
0.0
 40
0.0
 40
0.0
 40
0.1209835487
 40
0.1831519156
 40
0.2460430783
 40
0.3094626119
 40
0.373254281
 40
0.4372752952
 40
0.5013917748
 40
0.6292746359
 40
0.7559618546
 40
0.8185371818
 40
0.8802865814
 40
1.0
 40
1.0
 40
1.0
 40
1.0
 10
11.5592312474
 20
9.5770034063
 30
0.0
 10
11.5535912399
 20
9.5831654919
 30
0.0
 10
11.5460636945
 20
9.593473367
 30
0.0
 10
11.5381354116
 20
9.6085151422
 30
0.0
 10
11.5331810428
 20
9.620572369
 30
0.0
 10
11.5293391466
 20
9.6331423973
 30
0.0
 10
11.5266485488
 20
9.6460879275
 30
0.0
 10
11.5251359872
 20
9.6592723128
 30
0.0
 10
11.524710163
 20
9.676964432
 30
0.0
 10
11.5271553857
 20
9.6989604287
 30
0.0
 10
11.5335092334
 20
9.7200544349
 30
0.0
 10
11.5408082329
 20
9.7358022531
 30
0.0
 10
11.5493415035
 20
9.7503498786
 30
0.0
 10
11.5572819888
 20
9.7601996434
 30
0.0
 10
11.5631706074
 20
9.7660003048
 30
0.0
  0
SPLINE
  5
231
100
AcDbEntity
  8
0
100
AcDbSpline
 62
7
  6
CONTINUOUS
 70
0
 71
3
 72
18
 73
14
 74
0
 42
0.0000001
 43
0.0000001
 44
0.0000000001
 40
0.0
 40
0.0
 40
0.0
 40
0.0
 40
0.0576065935
 40
0.1174273961
 40
0.2410340673
 40
0.3678294994
 40
0.4961075331
 40
0.5604918119
 40
0.624825937
 40
0.6889732127
 40
0.7527836335
 40
0.8785155008
 40
1.0
 40
1.0
 40
1.0
 40
1.0
 10
11.5726213364
 20
9.3519572901
 30
0.0
 10
11.5692259045
 20
9.3551504521
 30
0.0
 10
11.5626658338
 20
9.3620537754
 30
0.0
 10
11.5507309267
 20
9.3775111045
 30
0.0
 10
11.5384313914
 20
9.3995881123
 30
0.0
 10
11.5286705929
 20
9.428802176
 30
0.0
 10
11.5250141926
 20
9.4545458301
 30
0.0
 10
11.5248770368
 20
9.4753620243
 30
0.0
 10
11.5261770393
 20
9.4909347801
 30
0.0
 10
11.5288648157
 20
9.5062817043
 30
0.0
 10
11.5342322363
 20
9.526118732
 30
0.0
 10
11.5441069437
 20
9.5494270448
 30
0.0
 10
11.5553277241
 20
9.5661677777
 30
0.0
 10
11.5616187544
 20
9.5737203806
 30
0.0
  0
SPLINE
  5
232
100
AcDbEntity
  8
0
100
AcDbSpline
 62
7
  6
CONTINUOUS
 70
0
 71
3
 72
19
 73
15
 74
0
 42
0.0000001
 43
0.0000001
 44
0.0000000001
 40
0.0
 40
0.0
 40
0.0
 40
0.0
 40
0.1163409514
 40
0.1773794917
 40
0.2395125259
 40
0.3656778403
 40
0.4933103606
 40
0.5574197445
 40
0.6215484638
 40
0.6855996949
 40
0.749470901
 40
0.8130399466
 40
0.8761558354
 40
1.0
 40
1.0
 40
1.0
 40
1.0
 10
11.5849837069
 20
9.1158406546
 30
0.0
 10
11.5769979636
 20
9.1228713813
 30
0.0
 10
11.5659389753
 20
9.1349276016
 30
0.0
 10
11.5535132208
 20
9.1529896039
 30
0.0
 10
11.5423707671
 20
9.1729200662
 30
0.0
 10
11.5318038573
 20
9.199990534
 30
0.0
 10
11.5261808612
 20
9.22868109
 30
0.0
 10
11.5247525761
 20
9.252062957
 30
0.0
 10
11.5252344194
 20
9.2696656646
 30
0.0
 10
11.527267499
 20
9.287134271
 30
0.0
 10
11.5308312077
 20
9.3043033129
 30
0.0
 10
11.5358865296
 20
9.3210076275
 30
0.0
 10
11.5444713983
 20
9.3422711219
 30
0.0
 10
11.5530165074
 20
9.3572291547
 30
0.0
 10
11.5595494664
 20
9.366480977
 30
0.0
  0
SPLINE
  5
233
100
AcDbEntity
  8
0
100
AcDbSpline
 62
7
  6
CONTINUOUS
 70
0
 71
3
 72
15
 73
11
 74
0
 42
0.0000001
 43
0.0000001
 44
0.0000000001
 40
0.0
 40
0.0
 40
0.0
 40
0.0
 40
0.1207854927
 40
0.2447738925
 40
0.3703068918
 40
0.4965778718
 40
0.6231071331
 40
0.7495121734
 40
0.8753638783
 40
1.0
 40
1.0
 40
1.0
 40
1.0
 10
11.5849835215
 20
8.8858947575
 30
0.0
 10
11.5769501369
 20
8.8940411329
 30
0.0
 10
11.5621121881
 20
8.9120324794
 30
0.0
 10
11.5445730918
 20
8.9425877146
 30
0.0
 10
11.532133278
 20
8.9761147174
 30
0.0
 10
11.5253072221
 20
9.0114589413
 30
0.0
 10
11.5243308025
 20
9.0475252882
 30
0.0
 10
11.5292396603
 20
9.0832319633
 30
0.0
 10
11.5398590929
 20
9.1174770887
 30
0.0
 10
11.550581811
 20
9.1387887769
 30
0.0
 10
11.5567596749
 20
9.1488491848
 30
0.0
  0
SPLINE
  5
234
100
AcDbEntity
  8
0
100
AcDbSpline
 62
7
  6
CONTINUOUS
 70
0
 71
3
 72
15
 73
11
 74
0
 42
0.0000001
 43
0.0000001
 44
0.0000000001
 40
0.0
 40
0.0
 40
0.0
 40
0.0
 40
0.1236997717
 40
0.2483575646
 40
0.3734981359
 40
0.4988709985
 40
0.6243322049
 40
0.7497670516
 40
0.875051586
 40
1.0
 40
1.0
 40
1.0
 40
1.0
 10
11.5849834907
 20
8.6586404398
 30
0.0
 10
11.5769925077
 20
8.6674259702
 30
0.0
 10
11.5623198088
 20
8.68636722
 30
0.0
 10
11.5449602356
 20
8.7179006569
 30
0.0
 10
11.5326167005
 20
8.7518941164
 30
0.0
 10
11.5256431184
 20
8.7874567411
 30
0.0
 10
11.5242202638
 20
8.8236968407
 30
0.0
 10
11.5283874422
 20
8.8597183147
 30
0.0
 10
11.538031008
 20
8.8946142603
 30
0.0
 10
11.5479728762
 20
8.9166101349
 30
0.0
 10
11.5537487059
 20
8.9271240732
 30
0.0
  0
SPLINE
  5
235
100
AcDbEntity
  8
0
100
AcDbSpline
 62
7
  6
CONTINUOUS
 70
0
 71
3
 72
15
 73
11
 74
0
 42
0.0000001
 43
0.0000001
 44
0.0000000001
 40
0.0
 40
0.0
 40
0.0
 40
0.0
 40
0.1250253986
 40
0.2501443999
 40
0.3753054566
 40
0.5004684998
 40
0.6255937332
 40
0.7506307602
 40
0.8754868562
 40
1.0
 40
1.0
 40
1.0
 40
1.0
 10
11.5479035914
 20
8.4972492461
 30
0.0
 10
11.5429450831
 20
8.4867816346
 30
0.0
 10
11.5345448066
 20
8.4650789551
 30
0.0
 10
11.5268265001
 20
8.4310563157
 30
0.0
 10
11.5241368011
 20
8.3962528848
 30
0.0
 10
11.5265398897
 20
8.3614296829
 30
0.0
 10
11.5339809709
 20
8.3273377179
 30
0.0
 10
11.5462978603
 20
8.2947175743
 30
0.0
 10
11.5632032835
 20
8.2642951885
 30
0.0
 10
11.5773136905
 20
8.245879087
 30
0.0
 10
11.5849834893
 20
8.2372631256
 30
0.0
  0
SPLINE
  5
236
100
AcDbEntity
  8
0
100
AcDbSpline
 62
7
  6
CONTINUOUS
 70
0
 71
3
 72
17
 73
13
 74
0
 42
0.0000001
 43
0.0000001
 44
0.0000000001
 40
0.0
 40
0.0
 40
0.0
 40
0.0
 40
0.0626027635
 40
0.1253501522
 40
0.1882018563
 40
0.2511245149
 40
0.3769907494
 40
0.5028361251
 40
0.6284556938
 40
0.7535767834
 40
0.8777252419
 40
1.0
 40
1.0
 40
1.0
 40
1.0
 10
11.5447711977
 20
8.3006169224
 30
0.0
 10
11.5425183781
 20
8.2955935399
 30
0.0
 10
11.5383762695
 20
8.2853650615
 30
0.0
 10
11.5333028155
 20
8.2695963708
 30
0.0
 10
11.5293884481
 20
8.2534699814
 30
0.0
 10
11.5257505167
 20
8.2316249587
 30
0.0
 10
11.5242084821
 20
8.2038909505
 30
0.0
 10
11.5272152032
 20
8.1707284126
 30
0.0
 10
11.5349989972
 20
8.1384164122
 30
0.0
 10
11.5473627767
 20
8.1077244407
 30
0.0
 10
11.5639422634
 20
8.0794373704
 30
0.0
 10
11.577611378
 20
8.0624968995
 30
0.0
 10
11.5849834996
 20
8.0546686996
 30
0.0
  0
SPLINE
  5
237
100
AcDbEntity
  8
0
100
AcDbSpline
 62
7
  6
CONTINUOUS
 70
0
 71
3
 72
18
 73
14
 74
0
 42
0.0000001
 43
0.0000001
 44
0.0000000001
 40
0.0
 40
0.0
 40
0.0
 40
0.0
 40
0.0629188345
 40
0.1261254259
 40
0.1895360962
 40
0.2530808688
 40
0.3802552301
 40
0.5073016437
 40
0.6337440883
 40
0.7589304298
 40
0.820771166
 40
0.8818140672
 40
1.0
 40
1.0
 40
1.0
 40
1.0
 10
11.5414374266
 20
8.1235989716
 30
0.0
 10
11.5394332504
 20
8.1188828706
 30
0.0
 10
11.5357718114
 20
8.1092732452
 30
0.0
 10
11.5313688511
 20
8.0944640558
 30
0.0
 10
11.5280701469
 20
8.079316557
 30
0.0
 10
11.5251789224
 20
8.0588067077
 30
0.0
 10
11.5244303035
 20
8.032834382
 30
0.0
 10
11.528137101
 20
8.0019417942
 30
0.0
 10
11.5363329273
 20
7.9720934589
 30
0.0
 10
11.5467401528
 20
7.9486655621
 30
0.0
 10
11.5570112954
 20
7.9312461938
 30
0.0
 10
11.568265436
 20
7.9151427965
 30
0.0
 10
11.5780110963
 20
7.904165852
 30
0.0
 10
11.5849836553
 20
7.8975302134
 30
0.0
  0
SPLINE
  5
238
100
AcDbEntity
  8
0
100
AcDbSpline
 62
7
  6
CONTINUOUS
 70
0
 71
3
 72
18
 73
14
 74
0
 42
0.0000001
 43
0.0000001
 44
0.0000000001
 40
0.0
 40
0.0
 40
0.0
 40
0.0
 40
0.0636113695
 40
0.1276090872
 40
0.1918741711
 40
0.2563073699
 40
0.3852321497
 40
0.5137835281
 40
0.641167721
 40
0.7662653265
 40
0.8274519318
 40
0.8872312128
 40
1.0
 40
1.0
 40
1.0
 40
1.0
 10
11.5378334936
 20
7.9710223657
 30
0.0
 10
11.5361117745
 20
7.9666803799
 30
0.0
 10
11.5329984209
 20
7.9578306612
 30
0.0
 10
11.5293625542
 20
7.9442052893
 30
0.0
 10
11.5267724101
 20
7.9302800525
 30
0.0
 10
11.524742826
 20
7.9114572561
 30
0.0
 10
11.524906367
 20
7.8877207561
 30
0.0
 10
11.5294080219
 20
7.8597120716
 30
0.0
 10
11.5380548346
 20
7.8329874552
 30
0.0
 10
11.5485236527
 20
7.8123532958
 30
0.0
 10
11.5586129066
 20
7.7973408295
 30
0.0
 10
11.569344038
 20
7.7839318399
 30
0.0
 10
11.5785011133
 20
7.7750457804
 30
0.0
 10
11.584984705
 20
7.7698951813
 30
0.0
  0
SPLINE
  5
239
100
AcDbEntity
  8
0
100
AcDbSpline
 62
7
  6
CONTINUOUS
 70
0
 71
3
 72
20
 73
16
 74
0
 42
0.0000001
 43
0.0000001
 44
0.0000000001
 40
0.0
 40
0.0
 40
0.0
 40
0.0
 40
0.1289347103
 40
0.1938857838
 40
0.2589752316
 40
0.3890475649
 40
0.5184083084
 40
0.582581003
 40
0.6461752706
 40
0.7090113251
 40
0.7708615668
 40
0.8314435836
 40
0.8901953233
 40
0.9465212654
 40
1.0
 40
1.0
 40
1.0
 40
1.0
 10
11.5339959292
 20
7.8471107295
 30
0.0
 10
11.5312211216
 20
7.8392852646
 30
0.0
 10
11.5279996721
 20
7.8271502323
 30
0.0
 10
11.5256509907
 20
7.8106275106
 30
0.0
 10
11.5246005024
 20
7.7938943861
 30
0.0
 10
11.5257513011
 20
7.7729375838
 30
0.0
 10
11.5301604611
 20
7.752474285
 30
0.0
 10
11.5355749413
 20
7.736810542
 30
0.0
 10
11.5405172101
 20
7.7255598576
 30
0.0
 10
11.5463048871
 20
7.7148899076
 30
0.0
 10
11.5528730322
 20
7.704911976
 30
0.0
 10
11.5601383377
 20
7.6957626041
 30
0.0
 10
11.5679588529
 20
7.6875667415
 30
0.0
 10
11.5761884443
 20
7.680462602
 30
0.0
 10
11.5820260095
 20
7.6764387516
 30
0.0
 10
11.5849794671
 20
7.6746676219
 30
0.0
  0
SPLINE
  5
23A
100
AcDbEntity
  8
0
100
AcDbSpline
 62
7
  6
CONTINUOUS
 70
0
 71
3
 72
17
 73
13
 74
0
 42
0.0000001
 43
0.0000001
 44
0.0000000001
 40
0.0
 40
0.0
 40
0.0
 40
0.0
 40
0.1281345309
 40
0.2567658742
 40
0.3852294553
 40
0.5128494778
 40
0.6388845933
 40
0.762441983
 40
0.8230679956
 40
0.8827643327
 40
0.9415665451
 40
1.0
 40
1.0
 40
1.0
 40
1.0
 10
11.5300990084
 20
7.7551394166
 30
0.0
 10
11.528159142
 20
7.7483729748
 30
0.0
 10
11.5253688724
 20
7.7344735503
 30
0.0
 10
11.5245287375
 20
7.7132440715
 30
0.0
 10
11.5270318389
 20
7.692168528
 30
0.0
 10
11.532815846
 20
7.671893795
 30
0.0
 10
11.5417196518
 20
7.6530783676
 30
0.0
 10
11.551605749
 20
7.6390720499
 30
0.0
 10
11.5608158765
 20
7.6293173973
 30
0.0
 10
11.5682704013
 20
7.6228651383
 30
0.0
 10
11.5762876258
 20
7.6173354194
 30
0.0
 10
11.5820221063
 20
7.6143520614
 30
0.0
 10
11.5849716164
 20
7.6130853278
 30
0.0
  0
SPLINE
  5
23B
100
AcDbEntity
  8
0
100
AcDbSpline
 62
7
  6
CONTINUOUS
 70
0
 71
3
 72
17
 73
13
 74
0
 42
0.0000001
 43
0.0000001
 44
0.0000000001
 40
0.0
 40
0.0
 40
0.0
 40
0.0
 40
0.1245628379
 40
0.2491530559
 40
0.3735835661
 40
0.4977150111
 40
0.6215257811
 40
0.7453234058
 40
0.8075938762
 40
0.8704116356
 40
0.9343397058
 40
1.0
 40
1.0
 40
1.0
 40
1.0
 10
11.5266070652
 20
7.696876841
 30
0.0
 10
11.5256365056
 20
7.6912807208
 30
0.0
 10
11.5245625849
 20
7.6799174779
 30
0.0
 10
11.52557831
 20
7.6628495558
 30
0.0
 10
11.5292033686
 20
7.6461545376
 30
0.0
 10
11.5353946542
 20
7.6302659161
 30
0.0
 10
11.5440811135
 20
7.6156208853
 30
0.0
 10
11.5533442498
 20
7.6048372332
 30
0.0
 10
11.5619042994
 20
7.5973626214
 30
0.0
 10
11.5689526777
 20
7.5923736321
 30
0.0
 10
11.5766441439
 20
7.5881163006
 30
0.0
 10
11.5821395921
 20
7.5858933009
 30
0.0
 10
11.5849831042
 20
7.5849563627
 30
0.0
  0
SPLINE
  5
23C
100
AcDbEntity
  8
0
100
AcDbSpline
 62
7
  6
CONTINUOUS
 70
0
 71
3
 72
11
 73
7
 74
0
 42
0.0000001
 43
0.0000001
 44
0.0000000001
 40
0.0
 40
0.0
 40
0.0
 40
0.0
 40
0.2494499199
 40
0.4990749786
 40
0.749150012
 40
1.0
 40
1.0
 40
1.0
 40
1.0
 10
11.5250411685
 20
7.677033085
 30
0.0
 10
11.5249108869
 20
7.6733332753
 30
0.0
 10
11.5250928423
 20
7.665907937
 30
0.0
 10
11.5266939091
 20
7.6548795803
 30
0.0
 10
11.52961489
 20
7.644103193
 30
0.0
 10
11.5324295877
 20
7.6371981874
 30
0.0
 10
11.5340469412
 20
7.633844978
 30
0.0
  0
SPLINE
  5
23D
100
AcDbEntity
  8
0
100
AcDbSpline
 62
7
  6
CONTINUOUS
 70
0
 71
3
 72
11
 73
7
 74
0
 42
0.0000001
 43
0.0000001
 44
0.0000000001
 40
0.0
 40
0.0
 40
0.0
 40
0.0
 40
0.249865662
 40
0.4997432971
 40
0.7497179867
 40
1.0
 40
1.0
 40
1.0
 40
1.0
 10
11.5261592224
 20
8.023120375
 30
0.0
 10
11.5253838603
 20
8.0180817057
 30
0.0
 10
11.5245975535
 20
8.0078698843
 30
0.0
 10
11.5257347617
 20
7.9925594182
 30
0.0
 10
11.5291745565
 20
7.9775872181
 30
0.0
 10
11.5329864886
 20
7.9680652838
 30
0.0
 10
11.535256967
 20
7.9634913372
 30
0.0
  0
SPLINE
  5
23E
100
AcDbEntity
  8
0
100
AcDbSpline
 62
7
  6
CONTINUOUS
 70
0
 71
3
 72
9
 73
5
 74
0
 42
0.0000001
 43
0.0000001
 44
0.0000000001
 40
0.0
 40
0.0
 40
0.0
 40
0.0
 40
0.4984256329
 40
1.0
 40
1.0
 40
1.0
 40
1.0
 10
11.5351618877
 20
10.0559219934
 30
0.0
 10
11.5309655821
 20
10.0679849096
 30
0.0
 10
11.5251056567
 20
10.0931475261
 30
0.0
 10
11.5245567402
 20
10.1189723224
 30
0.0
 10
11.5256101534
 20
10.1317817241
 30
0.0
  0
SPLINE
  5
23F
100
AcDbEntity
  8
0
100
AcDbSpline
 62
7
  6
CONTINUOUS
 70
0
 71
3
 72
9
 73
5
 74
0
 42
0.0000001
 43
0.0000001
 44
0.0000000001
 40
0.0
 40
0.0
 40
0.0
 40
0.0
 40
0.4985968154
 40
1.0
 40
1.0
 40
1.0
 40
1.0
 10
11.5319290196
 20
10.1789081263
 30
0.0
 10
11.5290947451
 20
10.1881374014
 30
0.0
 10
11.5251324259
 20
10.2072173804
 30
0.0
 10
11.5246949781
 20
10.2266959876
 30
0.0
 10
11.5253567716
 20
10.236382417
 30
0.0
  0
SPLINE
  5
240
100
AcDbEntity
  8
0
100
AcDbSpline
 62
7
  6
CONTINUOUS
 70
0
 71
3
 72
13
 73
9
 74
0
 42
0.0000001
 43
0.0000001
 44
0.0000000001
 40
0.0
 40
0.0
 40
0.0
 40
0.0
 40
0.247435276
 40
0.4946054025
 40
0.6187289185
 40
0.7436658132
 40
0.8703385668
 40
1.0
 40
1.0
 40
1.0
 40
1.0
 10
11.534211111
 20
10.3858670183
 30
0.0
 10
11.5365180376
 20
10.3910761495
 30
0.0
 10
11.541991234
 20
10.4011317117
 30
0.0
 10
11.5509080299
 20
10.4123471864
 30
0.0
 10
11.5592181613
 20
10.4202112764
 30
0.0
 10
11.5660768285
 20
10.4255103315
 30
0.0
 10
11.5735752555
 20
10.4301080127
 30
0.0
 10
11.5789505479
 20
10.4325884698
 30
0.0
 10
11.5817356329
 20
10.4336636155
 30
0.0
  0
SPLINE
  5
241
100
AcDbEntity
  8
0
100
AcDbSpline
 62
7
  6
CONTINUOUS
 70
0
 71
3
 72
9
 73
5
 74
0
 42
0.0000001
 43
0.0000001
 44
0.0000000001
 40
0.0
 40
0.0
 40
0.0
 40
0.0
 40
0.4631647744
 40
1.0
 40
1.0
 40
1.0
 40
1.0
 10
11.5722826432
 20
10.0949337031
 30
0.0
 10
11.5741010185
 20
10.0958787172
 30
0.0
 10
11.5782654218
 20
10.0974681345
 30
0.0
 10
11.5826272801
 20
10.0983125669
 30
0.0
 10
11.5849834891
 20
10.0986125911
 30
0.0
  0
SPLINE
  5
242
100
AcDbEntity
  8
0
100
AcDbSpline
 62
7
  6
CONTINUOUS
 70
0
 71
3
 72
14
 73
10
 74
0
 42
0.0000001
 43
0.0000001
 44
0.0000000001
 40
0.0
 40
0.0
 40
0.0
 40
0.0
 40
0.0753350932
 40
0.1637110824
 40
0.266052569
 40
0.3828591492
 40
0.5144150957
 40
0.6609234438
 40
1.0
 40
1.0
 40
1.0
 40
1.0
 10
11.5648499953
 20
9.9398090829
 30
0.0
 10
11.5652587161
 20
9.9401295563
 30
0.0
 10
11.5662254005
 20
9.9407265824
 30
0.0
 10
11.5679197486
 20
9.9414412247
 30
0.0
 10
11.5699611433
 20
9.9420290246
 30
0.0
 10
11.5723406631
 20
9.9424739096
 30
0.0
 10
11.5750502726
 20
9.9427613742
 30
0.0
 10
11.5793043496
 20
9.9429239638
 30
0.0
 10
11.5826553465
 20
9.9427466854
 30
0.0
 10
11.5849834891
 20
9.9425356878
 30
0.0
  0
SPLINE
  5
243
100
AcDbEntity
  8
0
100
AcDbSpline
 62
7
  6
CONTINUOUS
 70
0
 71
3
 72
27
 73
23
 74
0
 42
0.0000001
 43
0.0000001
 44
0.0000000001
 40
0.0
 40
0.0
 40
0.0
 40
0.0
 40
0.0005225828
 40
0.001521436
 40
0.0030155704
 40
0.0050092737
 40
0.0104988552
 40
0.0179889456
 40
0.0274719721
 40
0.0389393434
 40
0.0523822527
 40
0.0677919562
 40
0.1044733223
 40
0.1488966298
 40
0.2009734796
 40
0.2606129234
 40
0.3277189805
 40
0.4021988663
 40
0.4839627684
 40
0.5729277118
 40
0.7722163288
 40
1.0
 40
1.0
 40
1.0
 40
1.0
 10
11.5631735764
 20
9.7660032151
 30
0.0
 10
11.5631763808
 20
9.7660059324
 30
0.0
 10
11.5631882057
 20
9.7660086796
 30
0.0
 10
11.5632100131
 20
9.7660117767
 30
0.0
 10
11.5632437825
 20
9.7660134802
 30
0.0
 10
11.5633107131
 20
9.7660145008
 30
0.0
 10
11.5634227044
 20
9.7660113637
 30
0.0
 10
11.5635902597
 20
9.7660022653
 30
0.0
 10
11.5638022214
 20
9.7659864376
 30
0.0
 10
11.56405818
 20
9.7659633379
 30
0.0
 10
11.5643578709
 20
9.76593228
 30
0.0
 10
11.5648443357
 20
9.7658760723
 30
0.0
 10
11.5655593143
 20
9.7657812054
 30
0.0
 10
11.5665432945
 20
9.7656319981
 30
0.0
 10
11.567693669
 20
9.7654369803
 30
0.0
 10
11.5690072763
 20
9.765191861
 30
0.0
 10
11.5704808866
 20
9.7648926083
 30
0.0
 10
11.5721111905
 20
9.7645352419
 30
0.0
 10
11.5738950243
 20
9.7641163702
 30
0.0
 10
11.5765773882
 20
9.7634454991
 30
0.0
 10
11.5802978322
 20
9.7624301803
 30
0.0
 10
11.5833559593
 20
9.7615173607
 30
0.0
 10
11.5849834891
 20
9.7610191418
 30
0.0
  0
SPLINE
  5
244
100
AcDbEntity
  8
0
100
AcDbSpline
 62
7
  6
CONTINUOUS
 70
0
 71
3
 72
14
 73
10
 74
0
 42
0.0000001
 43
0.0000001
 44
0.0000000001
 40
0.0
 40
0.0
 40
0.0
 40
0.0
 40
0.0788269717
 40
0.1707378551
 40
0.2759582824
 40
0.3945135189
 40
0.5263145036
 40
0.6712222102
 40
1.0
 40
1.0
 40
1.0
 40
1.0
 10
11.5653583513
 20
9.5708205796
 30
0.0
 10
11.5657999688
 20
9.5704099581
 30
0.0
 10
11.5668061419
 20
9.5695739918
 30
0.0
 10
11.5685190032
 20
9.5683385959
 30
0.0
 10
11.5705424254
 20
9.5670190478
 30
0.0
 10
11.5728683746
 20
9.5656081051
 30
0.0
 10
11.5754891431
 20
9.5640995091
 30
0.0
 10
11.5795418591
 20
9.5618564393
 30
0.0
 10
11.5827458791
 20
9.5601626396
 30
0.0
 10
11.5849834891
 20
9.5590141635
 30
0.0
  0
SPLINE
  5
245
100
AcDbEntity
  8
0
100
AcDbSpline
 62
7
  6
CONTINUOUS
 70
0
 71
3
 72
11
 73
7
 74
0
 42
0.0000001
 43
0.0000001
 44
0.0000000001
 40
0.0
 40
0.0
 40
0.0
 40
0.0
 40
0.2242974928
 40
0.4657555351
 40
0.7243333934
 40
1.0
 40
1.0
 40
1.0
 40
1.0
 10
11.5726201392
 20
9.3519592548
 30
0.0
 10
11.5734845194
 20
9.3511466615
 30
0.0
 10
11.5753198336
 20
9.3495020558
 30
0.0
 10
11.5782684564
 20
9.3470548255
 30
0.0
 10
11.5815094791
 20
9.3445379728
 30
0.0
 10
11.5837925849
 20
9.3428720797
 30
0.0
 10
11.5849834891
 20
9.3420308244
 30
0.0
  0
ENDSEC
  0
SECTION
  2
OBJECTS
  0
DICTIONARY
  5
C
100
AcDbDictionary
280
0
281
1
  3
ACAD_GROUP
350
D
  3
ACAD_MLINESTYLE
350
17
  3
ACAD_LAYOUT
350
1A
  3
ACAD_PLOTSETTINGS
350
19
  3
ACAD_PLOTSTYLENAME
350
E
  0
DICTIONARY
  5
D
102
{ACAD_REACTORS
330
C
102
}
100
AcDbDictionary
280
0
281
1
  0
ACDBDICTIONARYWDFLT
  5
E
102
{ACAD_REACTORS
330
C
102
}
100
AcDbDictionary
281
1
  3
Normal
350
F
100
AcDbDictionaryWithDefault
340
F
  0
DICTIONARY
  5
17
102
{ACAD_REACTORS
330
C
102
}
100
AcDbDictionary
280
0
281
1
  3
Standard
350
18
  0
DICTIONARY
  5
19
102
{ACAD_REACTORS
330
C
102
}
100
AcDbDictionary
281
1
  0
DICTIONARY
  5
1A
102
{ACAD_REACTORS
330
C
102
}
100
AcDbDictionary
281
1
  3
Model
350
246
  3
Layout1
350
247
  0
ACDBPLACEHOLDER
  5
F
102
{ACAD_REACTORS
330
E
102
}
  0
MLINESTYLE
  5
18
102
{ACAD_REACTORS
330
17
102
}
100
AcDbMlineStyle
  2
STANDARD
 70
0
  3

 62
256
 51
90.0
 52
90.0
 71
2
 49
0.5
 62
256
  6
BYLAYER
 49
-0.5
 62
256
  6
BYLAYER
  0
LAYOUT
  5
246
102
{ACAD_REACTORS
330
1A
102
}
100
AcDbPlotSettings
  1

  2
none_device
  4
ANSI_C_(22.00_x_17.00_Inches)
  6

 40
0.0
 41
0.0
 42
0.0
 43
0.0
 44
558.8
 45
431.8
 46
0.0
 47
0.0
 48
0.0
 49
0.0
140
0.0
141
0.0
142
1.0
143
1.0
 70
1024
 72
0
 73
0
 74
0
  7

 75
0
147
1.0
148
0.0
149
0.0
100
AcDbLayout
  1
Model
 70
0
 71
0
 10
0.0
 20
0.0
 11
22.0
 21
17.0
 12
0.0
 22
0.0
 32
0.0
 14
0.0
 24
0.0
 34
0.0
 15
0.0
 25
0.0
 35
0.0
146
0.0
 13
0.0
 23
0.0
 33
0.0
 16
1.0
 26
0.0
 36
0.0
 17
0.0
 27
1.0
 37
0.0
 76
0
330
205
345
0
346
0
  0
LAYOUT
  5
247
102
{ACAD_REACTORS
330
1A
102
}
100
AcDbPlotSettings
  1

  2
none_device
  4
ANSI_C_(22.00_x_17.00_Inches)
  6

 40
0.0
 41
0.0
 42
0.0
 43
0.0
 44
558.8
 45
431.8
 46
0.0
 47
0.0
 48
0.0
 49
0.0
140
0.0
141
0.0
142
1.0
143
1.0
 70
0
 72
0
 73
0
 74
0
  7

 75
0
147
1.0
148
0.0
149
0.0
100
AcDbLayout
  1
Layout1
 70
0
 71
1
 10
0.0
 20
0.0
 11
22.0
 21
17.0
 12
0.0
 22
0.0
 32
0.0
 14
0.0
 24
0.0
 34
0.0
 15
0.0
 25
0.0
 35
0.0
146
0.0
 13
0.0
 23
0.0
 33
0.0
 16
1.0
 26
0.0
 36
0.0
 17
0.0
 27
1.0
 37
0.0
 76
0
330
206
345
0
346
0
  0
ENDSEC
  0
EOF
