999
DXF file: E:\BT Custom\CADOUTPUT\_RIGHT.dxf
999
Pro/ENGINEER 2018400 by Parametric Technology Corporation
  0
SECTION
  2
HEADER
  9
$ACADVER
  1
AC1018
  9
$DWGCODEPAGE
  3
ANSI_1252
  9
$EXTMAX
 10
22.0
 20
17.0
 30
0.0
  9
$EXTMIN
 10
0.0
 20
0.0
 30
0.0
  9
$LIMMIN
 10
0.0
 20
0.0
  9
$LIMMAX
 10
22.0
 20
17.0
  9
$VIEWCTR
 10
11.0
 20
8.5
  9
$VIEWSIZE
 40
17.0
  9
$CLAYER
  8
0
  9
$LTSCALE
 40
1.21
  9
$CELTYPE
  6
BYLAYER
  9
$DIMSCALE
 40
1.0
  9
$DIMASZ
 40
0.1
  9
$DIMEXO
 40
0.0625
  9
$DIMDLI
 40
0.836
  9
$DIMEXE
 40
0.125
  9
$DIMCEN
 40
0.198
  9
$DIMLFAC
 40
1.0
  9
$DIMBLK
  1
_FILLED
  9
$DIMALT
 70
1
  9
$DIMALTD
 70
2
  9
$DIMALTTD
 70
2
  9
$DIMALTF
 40
25.4
  9
$DIMTXT
 40
0.08
  9
$DIMTOL
 70
1
  9
$DIMLIM
 70
0
  9
$DIMTFAC
 40
1.0
  9
$DIMTP
 40
0.001
  9
$DIMTM
 40
0.001
  9
$DIMGAP
 40
0.09
  9
$DIMDSEP
 70
46
  9
$AUNITS
 70
0
  9
$PDMODE
 70
3
  9
$PDSIZE
 40
0.06
  9
$HANDSEED
  5
24A
  9
$TILEMODE
 70
1
  9
$MEASUREMENT
 70
0
  9
$INSUNITS
 70
1
  0
ENDSEC
  0
SECTION
  2
CLASSES
  0
CLASS
  1
ACDBDICTIONARYWDFLT
  2
AcDbDictionaryWithDefault
  3
AutoCAD 2000
 90
0
 91
1
280
0
281
0
  0
CLASS
  1
ACDBPLACEHOLDER
  2
AcDbPlaceHolder
  3
AutoCAD 2000
 90
0
 91
1
280
0
281
0
  0
CLASS
  1
LAYOUT
  2
AcDbLayout
  3
AutoCAD 2000
 90
0
 91
0
280
0
281
0
  0
ENDSEC
  0
SECTION
  2
TABLES
  0
TABLE
  2
VPORT
  5
8
100
AcDbSymbolTable
 70
2
  0
VPORT
  5
1F4
100
AcDbSymbolTableRecord
100
AcDbViewportTableRecord
  2
*ACTIVE
 70
0
 10
0.0
 20
0.0
 11
1.0
 21
1.0
 12
11.0
 22
8.5
 13
0.0
 23
0.0
 14
1.0
 24
1.0
 15
0.0
 25
0.0
 16
0.0
 26
0.0
 36
1.0
 17
0.0
 27
0.0
 37
0.0
 40
17.0
 41
1.2941176471
 42
50.0
 43
0.0
 44
0.0
 50
0.0
 51
0.0
 71
0
 72
100
 73
1
 74
1
 75
0
 76
0
 77
0
 78
0
  0
ENDTAB
  0
TABLE
  2
LTYPE
  5
5
100
AcDbSymbolTable
 70
6
  0
LTYPE
  5
14
100
AcDbSymbolTableRecord
100
AcDbLinetypeTableRecord
  2
BYBLOCK
 70
0
  3

 72
65
 73
0
 40
0.0
  0
LTYPE
  5
15
100
AcDbSymbolTableRecord
100
AcDbLinetypeTableRecord
  2
BYLAYER
 70
0
  3

 72
65
 73
0
 40
0.0
  0
LTYPE
  5
16
100
AcDbSymbolTableRecord
100
AcDbLinetypeTableRecord
  2
CONTINUOUS
 70
64
  3
Solid line
 72
65
 73
0
 40
0.0
  0
LTYPE
  5
1F5
100
AcDbSymbolTableRecord
100
AcDbLinetypeTableRecord
  2
CENTER
 70
64
  3
____ _ ____ _ ____ _ ____ _ ____ _ ____ _ ____
 72
65
 73
4
 40
0.6
 49
0.375
 74
0
 49
-0.075
 74
0
 49
0.075
 74
0
 49
-0.075
 74
0
  0
LTYPE
  5
1F6
100
AcDbSymbolTableRecord
100
AcDbLinetypeTableRecord
  2
HIDDEN
 70
64
  3
- - - - - - - - - - - - - - - - - - - -
 72
65
 73
2
 40
0.2
 49
0.1
 74
0
 49
-0.1
 74
0
  0
LTYPE
  5
1F7
100
AcDbSymbolTableRecord
100
AcDbLinetypeTableRecord
  2
PHANTOM
 70
64
  3
_____ _ _ _____ _ _ _____ _ _ _____
 72
65
 73
6
 40
0.8
 49
0.45
 74
0
 49
-0.05
 74
0
 49
0.1
 74
0
 49
-0.05
 74
0
 49
0.1
 74
0
 49
-0.05
 74
0
  0
LTYPE
  5
1F8
100
AcDbSymbolTableRecord
100
AcDbLinetypeTableRecord
  2
DOT
 70
64
  3
. . . . . . . . . . . . . . . . . . . .
 72
65
 73
2
 40
0.2
 49
0.1
 74
0
 49
-0.1
 74
0
  0
LTYPE
  5
1F9
100
AcDbSymbolTableRecord
100
AcDbLinetypeTableRecord
  2
DASHED
 70
64
  3
- - - - - - - - - - - - - - - - - - - -
 72
65
 73
2
 40
0.2
 49
0.1
 74
0
 49
-0.1
 74
0
  0
ENDTAB
  0
TABLE
  2
LAYER
  5
2
100
AcDbSymbolTable
 70
36
  0
LAYER
  5
10
100
AcDbSymbolTableRecord
100
AcDbLayerTableRecord
  2
0
 70
0
 62
7
  6
CONTINUOUS
370
-3
390
F
  0
LAYER
  5
1FA
100
AcDbSymbolTableRecord
100
AcDbLayerTableRecord
  2
DEFAULT_1
 70
0
 62
7
  6
CENTER
370
-3
390
F
  0
LAYER
  5
1FB
100
AcDbSymbolTableRecord
100
AcDbLayerTableRecord
  2
DEFAULT_2
 70
0
 62
8
  6
HIDDEN
370
-3
390
F
  0
LAYER
  5
1FC
100
AcDbSymbolTableRecord
100
AcDbLayerTableRecord
  2
DEFAULT_3
 70
0
 62
7
  6
PHANTOM
370
-3
390
F
  0
LAYER
  5
1FD
100
AcDbSymbolTableRecord
100
AcDbLayerTableRecord
  2
ALL_FEATURES
 70
0
 62
7
  6
CONTINUOUS
370
-3
390
F
  0
LAYER
  5
1FE
100
AcDbSymbolTableRecord
100
AcDbLayerTableRecord
  2
AXES_FEATURES
 70
0
 62
7
  6
CONTINUOUS
370
-3
390
F
  0
LAYER
  5
1FF
100
AcDbSymbolTableRecord
100
AcDbLayerTableRecord
  2
DEFAULT_COORDINATE_SYSTEM
 70
0
 62
7
  6
CONTINUOUS
370
-3
390
F
  0
LAYER
  5
200
100
AcDbSymbolTableRecord
100
AcDbLayerTableRecord
  2
DEFAULT_DATUM_AXES
 70
0
 62
7
  6
CONTINUOUS
370
-3
390
F
  0
LAYER
  5
201
100
AcDbSymbolTableRecord
100
AcDbLayerTableRecord
  2
DEFAULT_DATUM_PLANES
 70
0
 62
7
  6
CONTINUOUS
370
-3
390
F
  0
LAYER
  5
202
100
AcDbSymbolTableRecord
100
AcDbLayerTableRecord
  2
DIMENSIONS
 70
0
 62
7
  6
CONTINUOUS
370
-3
390
F
  0
ENDTAB
  0
TABLE
  2
STYLE
  5
3
100
AcDbSymbolTable
 70
1
  0
STYLE
  5
11
100
AcDbSymbolTableRecord
100
AcDbTextStyleTableRecord
  2
STANDARD
 70
0
 40
0.0
 41
0.8
 50
0.0
 71
0
 42
0.2
  3
txt
  4

  0
STYLE
  5
203
100
AcDbSymbolTableRecord
100
AcDbTextStyleTableRecord
  2
TEXTSTYLE_1
 70
0
 40
0.0
 41
0.8
 50
0.0
 71
0
 42
0.2
  3
gdt
  4

  0
ENDTAB
  0
TABLE
  2
VIEW
  5
6
100
AcDbSymbolTable
 70
0
  0
ENDTAB
  0
TABLE
  2
UCS
  5
7
100
AcDbSymbolTable
 70
0
  0
ENDTAB
  0
TABLE
  2
APPID
  5
9
100
AcDbSymbolTable
 70
1
  0
APPID
  5
204
100
AcDbSymbolTableRecord
100
AcDbRegAppTableRecord
  2
ACAD
 70
0
  0
ENDTAB
  0
TABLE
  2
BLOCK_RECORD
  5
1
100
AcDbSymbolTable
 70
0
  0
BLOCK_RECORD
  5
205
100
AcDbSymbolTableRecord
100
AcDbBlockTableRecord
  2
*Model_Space
  0
BLOCK_RECORD
  5
206
100
AcDbSymbolTableRecord
100
AcDbBlockTableRecord
  2
*Paper_Space
  0
BLOCK_RECORD
  5
207
100
AcDbSymbolTableRecord
100
AcDbBlockTableRecord
  2
_FILLED
  0
ENDTAB
  0
TABLE
  2
DIMSTYLE
  5
A
100
AcDbSymbolTable
 70
1
100
AcDbDimStyleTable
 71
0
  0
DIMSTYLE
105
208
100
AcDbSymbolTableRecord
100
AcDbDimStyleTableRecord
  2
STANDARD
 70
0
  3

  4

 40
1.0
 41
0.1
 42
0.0625
 43
0.38
 44
0.125
 45
0.0
 46
0.0
 47
0.001
 48
0.001
140
0.08
141
0.09
142
0.0
143
25.4
144
1.0
145
0.0
146
1.0
147
0.09
 71
1.0
 72
0.0
 73
1
 74
1
 75
0
 76
0
 77
0
 78
4
 79
1
170
1
171
2
172
0
173
0
174
0
175
0
176
0
177
0
178
0
270
2
179
3
271
3
272
3
273
2
274
2
275
0
280
0
281
0
282
0
283
1
284
4
285
0
286
0
287
3
288
0
340
11
278
46
341
207
342
207
343
207
344
207
  0
ENDTAB
  0
ENDSEC
  0
SECTION
  2
BLOCKS
  0
BLOCK
  5
20
100
AcDbEntity
  8
0
100
AcDbBlockBegin
  2
*Model_Space
 70
0
 10
0.0
 20
0.0
 30
0.0
  3
*Model_Space
  1

  0
ENDBLK
  5
21
100
AcDbEntity
  8
0
100
AcDbBlockEnd
  0
BLOCK
  5
1C
100
AcDbEntity
  8
0
100
AcDbBlockBegin
  2
*Paper_Space
 70
0
 10
0.0
 20
0.0
 30
0.0
  3
*Paper_Space
  1

  0
ENDBLK
  5
1D
100
AcDbEntity
  8
0
100
AcDbBlockEnd
  0
BLOCK
  5
209
100
AcDbEntity
  8
0
100
AcDbBlockBegin
  2
_FILLED
 70
64
 10
0.0
 20
0.0
  3
_FILLED
  1

  0
SOLID
  5
20A
100
AcDbEntity
  8
0
  6
BYBLOCK
 62
0
100
AcDbTrace
 10
0.0
 20
0.0
 11
-1.0
 21
0.2
 12
-1.0
 22
-0.2
 13
-1.0
 23
-0.2
  0
ENDBLK
  5
20B
100
AcDbEntity
  8
0
  6
BYBLOCK
 62
0
100
AcDbBlockEnd
  0
ENDSEC
  0
SECTION
  2
ENTITIES
  0
LINE
  5
20C
100
AcDbEntity
  8
0
100
AcDbLine
 62
7
  6
CONTINUOUS
 10
11.6049834891
 20
7.509891804
 11
12.0849834891
 21
7.509891804
  0
LINE
  5
20D
100
AcDbEntity
  8
0
100
AcDbLine
 62
7
  6
CONTINUOUS
 10
9.9599834891
 20
8.384891804
 11
11.4849834891
 21
8.384891804
  0
LINE
  5
20E
100
AcDbEntity
  8
0
100
AcDbLine
 62
7
  6
CONTINUOUS
 10
9.9599834891
 20
9.634891804
 11
11.4849834891
 21
9.634891804
  0
LINE
  5
20F
100
AcDbEntity
  8
0
100
AcDbLine
 62
7
  6
CONTINUOUS
 10
11.4849834891
 20
8.194891804
 11
11.4849834891
 21
9.8248822389
  0
LINE
  5
210
100
AcDbEntity
  8
0
100
AcDbLine
 62
9
  6
CONTINUOUS
 10
11.5449834891
 20
8.4898621467
 11
11.5449834891
 21
8.5042983692
  0
LINE
  5
211
100
AcDbEntity
  8
0
100
AcDbLine
 62
9
  6
CONTINUOUS
 10
11.5449834891
 20
8.6943758722
 11
11.5449834891
 21
8.7209621212
  0
LINE
  5
212
100
AcDbEntity
  8
0
100
AcDbLine
 62
9
  6
CONTINUOUS
 10
11.5449834891
 20
8.9083200022
 11
11.5449834891
 21
8.9444508196
  0
LINE
  5
213
100
AcDbEntity
  8
0
100
AcDbLine
 62
9
  6
CONTINUOUS
 10
11.5449834891
 20
9.1263463992
 11
11.5449834891
 21
9.1695353398
  0
LINE
  5
214
100
AcDbEntity
  8
0
100
AcDbLine
 62
9
  6
CONTINUOUS
 10
11.5449834891
 20
9.3412964985
 11
11.5449834891
 21
9.3891096741
  0
LINE
  5
215
100
AcDbEntity
  8
0
100
AcDbLine
 62
9
  6
CONTINUOUS
 10
11.5449834891
 20
9.5480560595
 11
11.5449834891
 21
9.5964123002
  0
LINE
  5
216
100
AcDbEntity
  8
0
100
AcDbLine
 62
9
  6
CONTINUOUS
 10
11.5449834891
 20
9.7423946612
 11
11.5449834891
 21
9.7863355662
  0
LINE
  5
217
100
AcDbEntity
  8
0
100
AcDbLine
 62
7
  6
CONTINUOUS
 10
11.5849834891
 20
10.489891804
 11
11.5849834891
 21
7.529891804
  0
LINE
  5
218
100
AcDbEntity
  8
0
100
AcDbLine
 62
9
  6
CONTINUOUS
 10
11.6049834891
 20
7.509891804
 11
11.6049834891
 21
10.509891804
  0
LINE
  5
219
100
AcDbEntity
  8
0
100
AcDbLine
 62
7
  6
CONTINUOUS
 10
12.0849834891
 20
7.5098933115
 11
12.0849834891
 21
10.5098902966
  0
LINE
  5
21A
100
AcDbEntity
  8
0
100
AcDbLine
 62
7
  6
CONTINUOUS
 10
11.6049834891
 20
10.509891804
 11
12.0849834891
 21
10.509891804
  0
ARC
  5
21B
100
AcDbEntity
  8
0
100
AcDbCircle
 62
7
  6
CONTINUOUS
 10
9.9599834891
 20
9.009891804
 40
0.625
100
AcDbArc
 50
90.0
 51
270.0
  0
ARC
  5
21C
100
AcDbEntity
  8
0
100
AcDbCircle
 62
7
  6
CONTINUOUS
 10
11.7656482209
 20
8.5994235
 40
0.2406657595
100
AcDbArc
 50
153.1248375014
 51
221.3495511731
  0
ARC
  5
21D
100
AcDbEntity
  8
0
100
AcDbCircle
 62
7
  6
CONTINUOUS
 10
11.7337988052
 20
9.9773584791
 40
0.2088194298
100
AcDbArc
 50
174.7723622261
 51
200.0911288962
  0
ARC
  5
21E
100
AcDbEntity
  8
0
100
AcDbCircle
 62
7
  6
CONTINUOUS
 10
11.6691633466
 20
9.4841292449
 40
0.1399727236
100
AcDbArc
 50
139.9596484438
 51
140.1840814781
  0
ARC
  5
21F
100
AcDbEntity
  8
0
100
AcDbCircle
 62
7
  6
CONTINUOUS
 10
11.6585464185
 20
10.3012237909
 40
0.1335640514
100
AcDbArc
 50
177.3099049907
 51
193.3896989149
  0
ARC
  5
220
100
AcDbEntity
  8
0
100
AcDbCircle
 62
7
  6
CONTINUOUS
 10
11.6413706141
 20
8.1661370972
 40
0.116212517
100
AcDbArc
 50
194.3549483751
 51
206.6852945971
  0
ARC
  5
221
100
AcDbEntity
  8
0
100
AcDbCircle
 62
7
  6
CONTINUOUS
 10
11.635760886
 20
10.3417932278
 40
0.1107773761
100
AcDbArc
 50
179.7402368273
 51
187.4505998684
  0
ARC
  5
222
100
AcDbEntity
  8
0
100
AcDbCircle
 62
7
  6
CONTINUOUS
 10
11.637878953
 20
9.6487740962
 40
0.1064704983
100
AcDbArc
 50
223.95178144
 51
227.0601955268
  0
ARC
  5
223
100
AcDbEntity
  8
0
100
AcDbCircle
 62
7
  6
CONTINUOUS
 10
11.61151124
 20
7.8752706404
 40
0.086529693
100
AcDbArc
 50
173.1895469445
 51
203.1677567648
  0
ARC
  5
224
100
AcDbEntity
  8
0
100
AcDbCircle
 62
7
  6
CONTINUOUS
 10
11.6073984847
 20
7.7059832234
 40
0.0824149067
100
AcDbArc
 50
175.5891611994
 51
189.5585108502
  0
ARC
  5
225
100
AcDbEntity
  8
0
100
AcDbCircle
 62
7
  6
CONTINUOUS
 10
11.6106605133
 20
10.0017031785
 40
0.0821409624
100
AcDbArc
 50
231.6669448668
 51
232.7740267092
  0
ARC
  5
226
100
AcDbEntity
  8
0
100
AcDbCircle
 62
7
  6
CONTINUOUS
 10
11.6052646671
 20
7.7737720487
 40
0.0802810721
100
AcDbArc
 50
174.8041013403
 51
197.7034486575
  0
ARC
  5
227
100
AcDbEntity
  8
0
100
AcDbCircle
 62
7
  6
CONTINUOUS
 10
11.6065545325
 20
10.3694009665
 40
0.0688886525
100
AcDbArc
 50
108.2479282697
 51
110.576100255
  0
ARC
  5
228
100
AcDbEntity
  8
0
100
AcDbCircle
 62
7
  6
CONTINUOUS
 10
11.5449834891
 20
9.824891804
 40
0.06
100
AcDbArc
 50
105.6638240456
 51
180.0
  0
ARC
  5
229
100
AcDbEntity
  8
0
100
AcDbCircle
 62
7
  6
CONTINUOUS
 10
11.5449834891
 20
8.194891804
 40
0.06
100
AcDbArc
 50
180.0
 51
262.5945208743
  0
ARC
  5
22A
100
AcDbEntity
  8
0
100
AcDbCircle
 62
7
  6
CONTINUOUS
 10
11.6049834891
 20
10.489891804
 40
0.02
100
AcDbArc
 50
90.0
 51
180.0
  0
ARC
  5
22B
100
AcDbEntity
  8
0
100
AcDbCircle
 62
7
  6
CONTINUOUS
 10
11.6049834891
 20
7.529891804
 40
0.02
100
AcDbArc
 50
180.0
 51
270.0
  0
SPLINE
  5
22C
100
AcDbEntity
  8
0
100
AcDbSpline
 62
7
  6
CONTINUOUS
 70
0
 71
3
 72
17
 73
13
 74
0
 42
0.0000001
 43
0.0000001
 44
0.0000000001
 40
0.0
 40
0.0
 40
0.0
 40
0.0
 40
0.1223507219
 40
0.2446891189
 40
0.3672574584
 40
0.490361415
 40
0.6144322647
 40
0.7401164851
 40
0.8039002448
 40
0.8684403306
 40
0.9337942293
 40
1.0
 40
1.0
 40
1.0
 40
1.0
 10
11.5264675358
 20
10.329479684
 30
0.0
 10
11.5255440001
 20
10.334580088
 30
0.0
 10
11.5245542597
 20
10.3449566452
 30
0.0
 10
11.5256823597
 20
10.3605438716
 30
0.0
 10
11.5294108276
 20
10.3757597305
 30
0.0
 10
11.5357100324
 20
10.3901878624
 30
0.0
 10
11.5445253151
 20
10.4033960061
 30
0.0
 10
11.5538738988
 20
10.4129568867
 30
0.0
 10
11.5624563295
 20
10.4194736266
 30
0.0
 10
11.569476245
 20
10.4237514518
 30
0.0
 10
11.5770011307
 20
10.4273075042
 30
0.0
 10
11.5822842905
 20
10.4291257856
 30
0.0
 10
11.5849835275
 20
10.4298879702
 30
0.0
  0
SPLINE
  5
22D
100
AcDbEntity
  8
0
100
AcDbSpline
 62
7
  6
CONTINUOUS
 70
0
 71
3
 72
23
 73
19
 74
0
 42
0.0000001
 43
0.0000001
 44
0.0000000001
 40
0.0
 40
0.0
 40
0.0
 40
0.0
 40
0.0621914733
 40
0.1242861966
 40
0.186316451
 40
0.2483147366
 40
0.3103130399
 40
0.372343307
 40
0.434438074
 40
0.4966297916
 40
0.5589445644
 40
0.6214083088
 40
0.6840452362
 40
0.7468680536
 40
0.8098816744
 40
0.8730823563
 40
0.9364778748
 40
1.0
 40
1.0
 40
1.0
 40
1.0
 10
11.5324249249
 20
10.2795909518
 30
0.0
 10
11.5312038666
 20
10.2822603298
 30
0.0
 10
11.5290490825
 20
10.2877308656
 30
0.0
 10
11.526717173
 20
10.2962266661
 30
0.0
 10
11.5253059487
 20
10.3049145885
 30
0.0
 10
11.5248273685
 20
10.3136984877
 30
0.0
 10
11.5252860319
 20
10.3224835274
 30
0.0
 10
11.526677629
 20
10.3311743945
 30
0.0
 10
11.5289904987
 20
10.3396762585
 30
0.0
 10
11.532205636
 20
10.3478941494
 30
0.0
 10
11.5362940795
 20
10.3557342225
 30
0.0
 10
11.5412189489
 20
10.3631034266
 30
0.0
 10
11.5469337041
 20
10.3699101862
 30
0.0
 10
11.5533804243
 20
10.3760663572
 30
0.0
 10
11.5604905598
 20
10.3814871151
 30
0.0
 10
11.5681850895
 20
10.3860946233
 30
0.0
 10
11.5763702308
 20
10.3898166746
 30
0.0
 10
11.5820833475
 20
10.3916684008
 30
0.0
 10
11.5849834906
 20
10.392428925
 30
0.0
  0
SPLINE
  5
22E
100
AcDbEntity
  8
0
100
AcDbSpline
 62
7
  6
CONTINUOUS
 70
0
 71
3
 72
23
 73
19
 74
0
 42
0.0000001
 43
0.0000001
 44
0.0000000001
 40
0.0
 40
0.0
 40
0.0
 40
0.0
 40
0.0625013064
 40
0.1249785199
 40
0.1874355872
 40
0.2498775582
 40
0.3123104575
 40
0.3747406975
 40
0.437174973
 40
0.4996198533
 40
0.5620812272
 40
0.6245636073
 40
0.6870706526
 40
0.7496053653
 40
0.8121684488
 40
0.8747521981
 40
0.9373756753
 40
1.0
 40
1.0
 40
1.0
 40
1.0
 10
11.542258538
 20
10.1962530689
 30
0.0
 10
11.5402032844
 20
10.1988539224
 30
0.0
 10
11.5364128176
 20
10.2043162683
 30
0.0
 10
11.5317888002
 20
10.2131438533
 30
0.0
 10
11.5282921116
 20
10.2224738247
 30
0.0
 10
11.5259759828
 20
10.2321617227
 30
0.0
 10
11.5248745701
 20
10.242060203
 30
0.0
 10
11.5250038398
 20
10.2520184795
 30
0.0
 10
11.5263617932
 20
10.2618852412
 30
0.0
 10
11.5289286008
 20
10.2715103216
 30
0.0
 10
11.5326665541
 20
10.2807466614
 30
0.0
 10
11.5375198002
 20
10.289452683
 30
0.0
 10
11.5434157224
 20
10.2974941676
 30
0.0
 10
11.5502658164
 20
10.3047461694
 30
0.0
 10
11.5579661708
 20
10.3110943609
 30
0.0
 10
11.5663993653
 20
10.3164403971
 30
0.0
 10
11.5754337418
 20
10.3206964194
 30
0.0
 10
11.5817679076
 20
10.322764341
 30
0.0
 10
11.5849834892
 20
10.3235961104
 30
0.0
  0
SPLINE
  5
22F
100
AcDbEntity
  8
0
100
AcDbSpline
 62
7
  6
CONTINUOUS
 70
0
 71
3
 72
24
 73
20
 74
0
 42
0.0000001
 43
0.0000001
 44
0.0000000001
 40
0.0
 40
0.0
 40
0.0
 40
0.0
 40
0.0630101938
 40
0.1255242457
 40
0.1876474366
 40
0.2494792729
 40
0.3111090473
 40
0.3726252162
 40
0.4341086144
 40
0.4956369261
 40
0.5572927325
 40
0.6191643475
 40
0.6813405817
 40
0.7439265106
 40
0.8070190522
 40
0.8707000546
 40
0.9028028498
 40
0.9350685214
 40
1.0
 40
1.0
 40
1.0
 40
1.0
 10
11.553355531
 20
10.0807687796
 30
0.0
 10
11.5505222838
 20
10.0832681623
 30
0.0
 10
11.5452194261
 20
10.0886495616
 30
0.0
 10
11.5384699051
 20
10.097692322
 30
0.0
 10
11.5330197318
 20
10.1074926779
 30
0.0
 10
11.5289183377
 20
10.1178707078
 30
0.0
 10
11.526198478
 20
10.1286549948
 30
0.0
 10
11.5248808036
 20
10.1396770767
 30
0.0
 10
11.5249751907
 20
10.1507710168
 30
0.0
 10
11.5264806893
 20
10.1617713757
 30
0.0
 10
11.5293865377
 20
10.172511954
 30
0.0
 10
11.533670615
 20
10.182823935
 30
0.0
 10
11.5392982022
 20
10.1925345788
 30
0.0
 10
11.5462198188
 20
10.2014648815
 30
0.0
 10
11.5543632161
 20
10.2094281378
 30
0.0
 10
11.5620712226
 20
10.2150859576
 30
0.0
 10
11.568721555
 20
10.2189354959
 30
0.0
 10
11.5757020802
 20
10.2223201878
 30
0.0
 10
11.5812248871
 20
10.2242702317
 30
0.0
 10
11.5849835049
 20
10.2252854934
 30
0.0
  0
SPLINE
  5
230
100
AcDbEntity
  8
0
100
AcDbSpline
 62
7
  6
CONTINUOUS
 70
0
 71
3
 72
21
 73
17
 74
0
 42
0.0000001
 43
0.0000001
 44
0.0000000001
 40
0.0
 40
0.0
 40
0.0
 40
0.0
 40
0.0633171006
 40
0.1260006345
 40
0.1883305525
 40
0.2504757016
 40
0.3125277269
 40
0.3745351884
 40
0.4983207947
 40
0.6221364984
 40
0.6842187035
 40
0.7464132965
 40
0.8088249073
 40
0.871660982
 40
0.9352058655
 40
1.0
 40
1.0
 40
1.0
 40
1.0
 10
11.559714086
 20
9.9372702734
 30
0.0
 10
11.5566463938
 20
9.9396957871
 30
0.0
 10
11.5508784669
 20
9.9449645746
 30
0.0
 10
11.5433981776
 20
9.9539129445
 30
0.0
 10
11.5371520706
 20
9.9636759106
 30
0.0
 10
11.5321586471
 20
9.9740884394
 30
0.0
 10
11.5284351015
 20
9.9849985462
 30
0.0
 10
11.5251882166
 20
9.9999871922
 30
0.0
 10
11.5243662318
 20
10.0192670749
 30
0.0
 10
11.5279069781
 20
10.0382458781
 30
0.0
 10
11.5332921994
 20
10.0526236679
 30
0.0
 10
11.5386026074
 20
10.0628915435
 30
0.0
 10
11.5451616526
 20
10.0724680669
 30
0.0
 10
11.55295528
 20
10.0811879624
 30
0.0
 10
11.5619738795
 20
10.0888664037
 30
0.0
 10
11.5687287871
 20
10.0930845391
 30
0.0
 10
11.5722791243
 20
10.0949313788
 30
0.0
  0
SPLINE
  5
231
100
AcDbEntity
  8
0
100
AcDbSpline
 62
7
  6
CONTINUOUS
 70
0
 71
3
 72
17
 73
13
 74
0
 42
0.0000001
 43
0.0000001
 44
0.0000000001
 40
0.0
 40
0.0
 40
0.0
 40
0.0
 40
0.1227163429
 40
0.1848746554
 40
0.2474741342
 40
0.3734854285
 40
0.5002224418
 40
0.6269253396
 40
0.7528324711
 40
0.8153575411
 40
0.8774286348
 40
1.0
 40
1.0
 40
1.0
 40
1.0
 10
11.5631742893
 20
9.7659974383
 30
0.0
 10
11.5569732444
 20
9.7711116952
 30
0.0
 10
11.5486495479
 20
9.7801350434
 30
0.0
 10
11.5398781737
 20
9.7937898307
 30
0.0
 10
11.5325735747
 20
9.8085371152
 30
0.0
 10
11.5264517846
 20
9.8284368229
 30
0.0
 10
11.5241411058
 20
9.8533535337
 30
0.0
 10
11.5269058092
 20
9.8782173378
 30
0.0
 10
11.5333953856
 20
9.8979867534
 30
0.0
 10
11.5409804283
 20
9.9125727414
 30
0.0
 10
11.5500181231
 20
9.9260285459
 30
0.0
 10
11.5585333757
 20
9.934856687
 30
0.0
 10
11.5648514741
 20
9.9398102358
 30
0.0
  0
SPLINE
  5
232
100
AcDbEntity
  8
0
100
AcDbSpline
 62
7
  6
CONTINUOUS
 70
0
 71
3
 72
18
 73
14
 74
0
 42
0.0000001
 43
0.0000001
 44
0.0000000001
 40
0.0
 40
0.0
 40
0.0
 40
0.0
 40
0.1205044796
 40
0.182561895
 40
0.2453920091
 40
0.3724581498
 40
0.500551135
 40
0.6285813518
 40
0.7554494052
 40
0.8181221677
 40
0.879965041
 40
0.9407051721
 40
1.0
 40
1.0
 40
1.0
 40
1.0
 10
11.5612282699
 20
9.5748779543
 30
0.0
 10
11.5553708813
 20
9.5809494622
 30
0.0
 10
11.5475256177
 20
9.5911973792
 30
0.0
 10
11.5392124972
 20
9.6062505008
 30
0.0
 10
11.532212341
 20
9.6224692405
 30
0.0
 10
11.5263497553
 20
9.6440906666
 30
0.0
 10
11.5241712303
 20
9.6709761879
 30
0.0
 10
11.5268991408
 20
9.697797114
 30
0.0
 10
11.5332044562
 20
9.7192656098
 30
0.0
 10
11.5405346356
 20
9.7352907112
 30
0.0
 10
11.5470677045
 20
9.7465208163
 30
0.0
 10
11.5545652554
 20
9.7568386929
 30
0.0
 10
11.5602139921
 20
9.7630880049
 30
0.0
 10
11.5631713472
 20
9.7660011013
 30
0.0
  0
SPLINE
  5
233
100
AcDbEntity
  8
0
100
AcDbSpline
 62
7
  6
CONTINUOUS
 70
0
 71
3
 72
17
 73
13
 74
0
 42
0.0000001
 43
0.0000001
 44
0.0000000001
 40
0.0
 40
0.0
 40
0.0
 40
0.0
 40
0.0576298198
 40
0.1174526336
 40
0.1787938893
 40
0.241228095
 40
0.3680365458
 40
0.4963313919
 40
0.6249313066
 40
0.7527717087
 40
0.8785098393
 40
1.0
 40
1.0
 40
1.0
 40
1.0
 10
11.5726125738
 20
9.3519660616
 30
0.0
 10
11.5692159274
 20
9.3551608483
 30
0.0
 10
11.562654532
 20
9.3620651911
 30
0.0
 10
11.5538017169
 20
9.3735358194
 30
0.0
 10
11.5459169998
 20
9.3861553783
 30
0.0
 10
11.5368494497
 20
9.4043186844
 30
0.0
 10
11.5286620094
 20
9.4288404281
 30
0.0
 10
11.5242774969
 20
9.4597413273
 30
0.0
 10
11.5254782045
 20
9.4910166323
 30
0.0
 10
11.5322144173
 20
9.521373731
 30
0.0
 10
11.5441282826
 20
9.5494642184
 30
0.0
 10
11.5553549946
 20
9.5662063941
 30
0.0
 10
11.5616495065
 20
9.5737570171
 30
0.0
  0
SPLINE
  5
234
100
AcDbEntity
  8
0
100
AcDbSpline
 62
7
  6
CONTINUOUS
 70
0
 71
3
 72
17
 73
13
 74
0
 42
0.0000001
 43
0.0000001
 44
0.0000000001
 40
0.0
 40
0.0
 40
0.0
 40
0.0
 40
0.1163630216
 40
0.1774185334
 40
0.2395633215
 40
0.3657584352
 40
0.4934194509
 40
0.6215629976
 40
0.7493923708
 40
0.812978747
 40
0.8761137114
 40
1.0
 40
1.0
 40
1.0
 40
1.0
 10
11.5849836357
 20
9.1158406302
 30
0.0
 10
11.5770021754
 20
9.1228671706
 30
0.0
 10
11.5659490997
 20
9.1349167551
 30
0.0
 10
11.5535269788
 20
9.1529669836
 30
0.0
 10
11.5423878144
 20
9.1728852574
 30
0.0
 10
11.5318193124
 20
9.1999420823
 30
0.0
 10
11.5250584919
 20
9.2343735073
 30
0.0
 10
11.5244497392
 20
9.2696059506
 30
0.0
 10
11.5291134671
 20
9.2986019433
 30
0.0
 10
11.5358480652
 20
9.3208974937
 30
0.0
 10
11.5444164806
 20
9.3421582389
 30
0.0
 10
11.5529475157
 20
9.3571150223
 30
0.0
 10
11.559470052
 20
9.3663684899
 30
0.0
  0
SPLINE
  5
235
100
AcDbEntity
  8
0
100
AcDbSpline
 62
7
  6
CONTINUOUS
 70
0
 71
3
 72
15
 73
11
 74
0
 42
0.0000001
 43
0.0000001
 44
0.0000000001
 40
0.0
 40
0.0
 40
0.0
 40
0.0
 40
0.1207837637
 40
0.2447744685
 40
0.3703078883
 40
0.4965795858
 40
0.6231090267
 40
0.7495142165
 40
0.875364167
 40
1.0
 40
1.0
 40
1.0
 40
1.0
 10
11.5849835153
 20
8.8858947531
 30
0.0
 10
11.5769496966
 20
8.8940414343
 30
0.0
 10
11.5621111203
 20
8.9120341489
 30
0.0
 10
11.5445708655
 20
8.9425913043
 30
0.0
 10
11.5321316508
 20
8.9761212016
 30
0.0
 10
11.5253059559
 20
9.0114677951
 30
0.0
 10
11.5243310399
 20
9.0475365216
 30
0.0
 10
11.5292426434
 20
9.0832448701
 30
0.0
 10
11.5398646675
 20
9.1174912535
 30
0.0
 10
11.5505895818
 20
9.1388032499
 30
0.0
 10
11.5567685824
 20
9.1488637588
 30
0.0
  0
SPLINE
  5
236
100
AcDbEntity
  8
0
100
AcDbSpline
 62
7
  6
CONTINUOUS
 70
0
 71
3
 72
15
 73
11
 74
0
 42
0.0000001
 43
0.0000001
 44
0.0000000001
 40
0.0
 40
0.0
 40
0.0
 40
0.0
 40
0.1236996133
 40
0.2483598033
 40
0.3735009772
 40
0.4988747293
 40
0.624336068
 40
0.7497704974
 40
0.8750528189
 40
1.0
 40
1.0
 40
1.0
 40
1.0
 10
11.5849834904
 20
8.6586404395
 30
0.0
 10
11.5769857726
 20
8.6674333449
 30
0.0
 10
11.5623018577
 20
8.6863919419
 30
0.0
 10
11.544933386
 20
8.7179556565
 30
0.0
 10
11.5325903977
 20
8.7519823924
 30
0.0
 10
11.5256271694
 20
8.7875785595
 30
0.0
 10
11.5242246992
 20
8.8238503358
 30
0.0
 10
11.5284213812
 20
8.8598991017
 30
0.0
 10
11.5381021928
 20
8.8948162484
 30
0.0
 10
11.5480742626
 20
8.9168206399
 30
0.0
 10
11.553865956
 20
8.9273372484
 30
0.0
  0
SPLINE
  5
237
100
AcDbEntity
  8
0
100
AcDbSpline
 62
7
  6
CONTINUOUS
 70
0
 71
3
 72
16
 73
12
 74
0
 42
0.0000001
 43
0.0000001
 44
0.0000000001
 40
0.0
 40
0.0
 40
0.0
 40
0.0
 40
0.0625335814
 40
0.1250989182
 40
0.2502079757
 40
0.3753587648
 40
0.500511414
 40
0.6256262651
 40
0.7506525237
 40
0.8754974942
 40
1.0
 40
1.0
 40
1.0
 40
1.0
 10
11.5479112722
 20
8.4972653075
 30
0.0
 10
11.5454303528
 20
8.4920292034
 30
0.0
 10
11.5408482864
 20
8.4813681789
 30
0.0
 10
11.5332690251
 20
8.459441965
 30
0.0
 10
11.5268266353
 20
8.4310659126
 30
0.0
 10
11.5241369537
 20
8.3962646922
 30
0.0
 10
11.5265382972
 20
8.3614379323
 30
0.0
 10
11.5339791139
 20
8.3273439067
 30
0.0
 10
11.5462960237
 20
8.2947213973
 30
0.0
 10
11.5632020459
 20
8.2642969276
 30
0.0
 10
11.5773132085
 20
8.2458796188
 30
0.0
 10
11.5849834893
 20
8.2372631255
 30
0.0
  0
SPLINE
  5
238
100
AcDbEntity
  8
0
100
AcDbSpline
 62
7
  6
CONTINUOUS
 70
0
 71
3
 72
15
 73
11
 74
0
 42
0.0000001
 43
0.0000001
 44
0.0000000001
 40
0.0
 40
0.0
 40
0.0
 40
0.0
 40
0.1252859286
 40
0.2509981787
 40
0.3768862911
 40
0.5027534067
 40
0.6283951522
 40
0.7535370989
 40
0.8777059432
 40
1.0
 40
1.0
 40
1.0
 40
1.0
 10
11.5447947389
 20
8.3006698956
 30
0.0
 10
11.5402831185
 20
8.2906174516
 30
0.0
 10
11.5327218204
 20
8.2697784601
 30
0.0
 10
11.5260616426
 20
8.2371938683
 30
0.0
 10
11.5242078376
 20
8.2039290364
 30
0.0
 10
11.5272100587
 20
8.170756106
 30
0.0
 10
11.5349923453
 20
8.1384366985
 30
0.0
 10
11.5473563954
 20
8.1077367776
 30
0.0
 10
11.5639381589
 20
8.0794429178
 30
0.0
 10
11.5776097982
 20
8.0624984922
 30
0.0
 10
11.5849834979
 20
8.0546686974
 30
0.0
  0
SPLINE
  5
239
100
AcDbEntity
  8
0
100
AcDbSpline
 62
7
  6
CONTINUOUS
 70
0
 71
3
 72
18
 73
14
 74
0
 42
0.0000001
 43
0.0000001
 44
0.0000000001
 40
0.0
 40
0.0
 40
0.0
 40
0.0
 40
0.0629316908
 40
0.1261472757
 40
0.1895639006
 40
0.2531129941
 40
0.3802910174
 40
0.507335238
 40
0.6337738561
 40
0.7589503497
 40
0.8207871834
 40
0.8818262422
 40
1.0
 40
1.0
 40
1.0
 40
1.0
 10
11.5412265731
 20
8.1231008078
 30
0.0
 10
11.5392388298
 20
8.1183889071
 30
0.0
 10
11.5356096195
 20
8.1087895046
 30
0.0
 10
11.5312508564
 20
8.094000525
 30
0.0
 10
11.5279931695
 20
8.0788776551
 30
0.0
 10
11.5251493847
 20
8.0584063056
 30
0.0
 10
11.5244494308
 20
8.0324899859
 30
0.0
 10
11.5281933133
 20
8.0016717978
 30
0.0
 10
11.5364055456
 20
7.9719007355
 30
0.0
 10
11.546808371
 20
7.9485349364
 30
0.0
 10
11.5570666529
 20
7.9311615744
 30
0.0
 10
11.5683023995
 20
7.9151003445
 30
0.0
 10
11.5780270309
 20
7.9041503093
 30
0.0
 10
11.5849836346
 20
7.8975301838
 30
0.0
  0
SPLINE
  5
23A
100
AcDbEntity
  8
0
100
AcDbSpline
 62
7
  6
CONTINUOUS
 70
0
 71
3
 72
18
 73
14
 74
0
 42
0.0000001
 43
0.0000001
 44
0.0000000001
 40
0.0
 40
0.0
 40
0.0
 40
0.0
 40
0.0636188173
 40
0.1276200287
 40
0.1918894678
 40
0.256326914
 40
0.3852538526
 40
0.51380609
 40
0.6411899871
 40
0.7662785593
 40
0.8274670017
 40
0.887244594
 40
1.0
 40
1.0
 40
1.0
 40
1.0
 10
11.5377736357
 20
7.9708709939
 30
0.0
 10
11.5360567241
 20
7.9665302152
 30
0.0
 10
11.5329531152
 20
7.9576835477
 30
0.0
 10
11.529330874
 20
7.9440641433
 30
0.0
 10
11.5267533438
 20
7.9301463035
 30
0.0
 10
11.524737679
 20
7.9113352602
 30
0.0
 10
11.5249159614
 20
7.8876159328
 30
0.0
 10
11.5294282995
 20
7.8596300414
 30
0.0
 10
11.5380799132
 20
7.832929614
 30
0.0
 10
11.5485457518
 20
7.8123137366
 30
0.0
 10
11.558631937
 20
7.797316042
 30
0.0
 10
11.569356488
 20
7.7839193495
 30
0.0
 10
11.5785061029
 20
7.7750407284
 30
0.0
 10
11.5849845198
 20
7.7698949948
 30
0.0
  0
SPLINE
  5
23B
100
AcDbEntity
  8
0
100
AcDbSpline
 62
7
  6
CONTINUOUS
 70
0
 71
3
 72
19
 73
15
 74
0
 42
0.0000001
 43
0.0000001
 44
0.0000000001
 40
0.0
 40
0.0
 40
0.0
 40
0.0
 40
0.1289743486
 40
0.2589518141
 40
0.3240922481
 40
0.3891644859
 40
0.45405912
 40
0.5186604336
 40
0.6463677084
 40
0.770954137
 40
0.8315149183
 40
0.8903425116
 40
0.9467241681
 40
1.0
 40
1.0
 40
1.0
 40
1.0
 10
11.5340312415
 20
7.8472099463
 30
0.0
 10
11.531248779
 20
7.8393804198
 30
0.0
 10
11.5269358049
 20
7.8231792106
 30
0.0
 10
11.5247997051
 20
7.8023192646
 30
0.0
 10
11.5250584586
 20
7.7855436548
 30
0.0
 10
11.52623985
 20
7.7730160055
 30
0.0
 10
11.5283977819
 20
7.7606542345
 30
0.0
 10
11.5325364455
 20
7.7445938603
 30
0.0
 10
11.5399929422
 20
7.7254870117
 30
0.0
 10
11.5503610077
 20
7.7080786988
 30
0.0
 10
11.5601412375
 20
7.6957500273
 30
0.0
 10
11.5679778805
 20
7.6875511982
 30
0.0
 10
11.5762126063
 20
7.6804533784
 30
0.0
 10
11.5820405129
 20
7.6764269334
 30
0.0
 10
11.5849830039
 20
7.6746598426
 30
0.0
  0
SPLINE
  5
23C
100
AcDbEntity
  8
0
100
AcDbSpline
 62
7
  6
CONTINUOUS
 70
0
 71
3
 72
17
 73
13
 74
0
 42
0.0000001
 43
0.0000001
 44
0.0000000001
 40
0.0
 40
0.0
 40
0.0
 40
0.0
 40
0.1281581855
 40
0.2567993694
 40
0.3852636121
 40
0.5128748865
 40
0.6389041248
 40
0.762452425
 40
0.8230771054
 40
0.8827697237
 40
0.9415767607
 40
1.0
 40
1.0
 40
1.0
 40
1.0
 10
11.5299753682
 20
7.7547049304
 30
0.0
 10
11.5280638584
 20
7.7479486739
 30
0.0
 10
11.5253253448
 20
7.734076246
 30
0.0
 10
11.524545741
 20
7.7128999757
 30
0.0
 10
11.5270917298
 20
7.6918872017
 30
0.0
 10
11.5328996516
 20
7.6716793095
 30
0.0
 10
11.5418093901
 20
7.6529302905
 30
0.0
 10
11.5516860199
 20
7.6389750957
 30
0.0
 10
11.560880765
 20
7.6292565519
 30
0.0
 10
11.5683201781
 20
7.6228273022
 30
0.0
 10
11.5763191386
 20
7.6173180752
 30
0.0
 10
11.5820386539
 20
7.6143444345
 30
0.0
 10
11.5849798767
 20
7.6130816165
 30
0.0
  0
SPLINE
  5
23D
100
AcDbEntity
  8
0
100
AcDbSpline
 62
7
  6
CONTINUOUS
 70
0
 71
3
 72
17
 73
13
 74
0
 42
0.0000001
 43
0.0000001
 44
0.0000000001
 40
0.0
 40
0.0
 40
0.0
 40
0.0
 40
0.1245532917
 40
0.249147518
 40
0.3735888494
 40
0.49774047
 40
0.6215633144
 40
0.7453604873
 40
0.8076240798
 40
0.8704310406
 40
0.9343346545
 40
1.0
 40
1.0
 40
1.0
 40
1.0
 10
11.5268069386
 20
7.697995551
 30
0.0
 10
11.5257700748
 20
7.6923639108
 30
0.0
 10
11.5245768433
 20
7.6809167451
 30
0.0
 10
11.5254578288
 20
7.663698156
 30
0.0
 10
11.5289930241
 20
7.6468364744
 30
0.0
 10
11.5351400229
 20
7.6307760178
 30
0.0
 10
11.5438267487
 20
7.6159643947
 30
0.0
 10
11.553126122
 20
7.6050549336
 30
0.0
 10
11.5617346614
 20
7.5974936929
 30
0.0
 10
11.568828828
 20
7.5924484902
 30
0.0
 10
11.5765769057
 20
7.5881453338
 30
0.0
 10
11.5821161745
 20
7.585901223
 30
0.0
 10
11.5849834654
 20
7.5849564196
 30
0.0
  0
SPLINE
  5
23E
100
AcDbEntity
  8
0
100
AcDbSpline
 62
7
  6
CONTINUOUS
 70
0
 71
3
 72
11
 73
7
 74
0
 42
0.0000001
 43
0.0000001
 44
0.0000000001
 40
0.0
 40
0.0
 40
0.0
 40
0.0
 40
0.2493259986
 40
0.4988598548
 40
0.7489482485
 40
1.0
 40
1.0
 40
1.0
 40
1.0
 10
11.5250583454
 20
7.677491519
 30
0.0
 10
11.5248947177
 20
7.6734141922
 30
0.0
 10
11.5251049537
 20
7.6652244642
 30
0.0
 10
11.5270347145
 20
7.6530845587
 30
0.0
 10
11.5305665596
 20
7.6412802164
 30
0.0
 10
11.5339709177
 20
7.6337846847
 30
0.0
 10
11.5359251343
 20
7.6301703088
 30
0.0
  0
SPLINE
  5
23F
100
AcDbEntity
  8
0
100
AcDbSpline
 62
7
  6
CONTINUOUS
 70
0
 71
3
 72
11
 73
7
 74
0
 42
0.0000001
 43
0.0000001
 44
0.0000000001
 40
0.0
 40
0.0
 40
0.0
 40
0.0
 40
0.2498709049
 40
0.4997500477
 40
0.7497122809
 40
1.0
 40
1.0
 40
1.0
 40
1.0
 10
11.5262072758
 20
8.0234294262
 30
0.0
 10
11.5254169534
 20
8.0183979165
 30
0.0
 10
11.5245991893
 20
8.0081983279
 30
0.0
 10
11.5256848957
 20
7.9928991282
 30
0.0
 10
11.5290688861
 20
7.9779295516
 30
0.0
 10
11.5328419321
 20
7.9684030366
 30
0.0
 10
11.5350925454
 20
7.9638246027
 30
0.0
  0
SPLINE
  5
240
100
AcDbEntity
  8
0
100
AcDbSpline
 62
7
  6
CONTINUOUS
 70
0
 71
3
 72
11
 73
7
 74
0
 42
0.0000001
 43
0.0000001
 44
0.0000000001
 40
0.0
 40
0.0
 40
0.0
 40
0.0
 40
0.2484687201
 40
0.4984536981
 40
0.7491896841
 40
1.0
 40
1.0
 40
1.0
 40
1.0
 10
11.5352309827
 20
10.0557228224
 30
0.0
 10
11.5330551182
 20
10.0619535437
 30
0.0
 10
11.5293753461
 20
10.0747037528
 30
0.0
 10
11.525947177
 20
10.0943435102
 30
0.0
 10
11.5246391694
 20
10.1142994842
 30
0.0
 10
11.5251963086
 20
10.127639847
 30
0.0
 10
11.5258313929
 20
10.1342714206
 30
0.0
  0
SPLINE
  5
241
100
AcDbEntity
  8
0
100
AcDbSpline
 62
7
  6
CONTINUOUS
 70
0
 71
3
 72
9
 73
5
 74
0
 42
0.0000001
 43
0.0000001
 44
0.0000000001
 40
0.0
 40
0.0
 40
0.0
 40
0.0
 40
0.4986078875
 40
1.0
 40
1.0
 40
1.0
 40
1.0
 10
11.5320971586
 20
10.1783640574
 30
0.0
 10
11.5290837176
 20
10.1880494184
 30
0.0
 10
11.5249404511
 20
10.2081123605
 30
0.0
 10
11.5246893641
 20
10.2285931832
 30
0.0
 10
11.5255367231
 20
10.2387578907
 30
0.0
  0
SPLINE
  5
242
100
AcDbEntity
  8
0
100
AcDbSpline
 62
7
  6
CONTINUOUS
 70
0
 71
3
 72
13
 73
9
 74
0
 42
0.0000001
 43
0.0000001
 44
0.0000000001
 40
0.0
 40
0.0
 40
0.0
 40
0.0
 40
0.2470548676
 40
0.494052683
 40
0.6181873078
 40
0.7432407588
 40
0.8701115732
 40
1.0
 40
1.0
 40
1.0
 40
1.0
 10
11.5359537372
 20
10.3896004892
 30
0.0
 10
11.5383357455
 20
10.3944502888
 30
0.0
 10
11.5438700864
 20
10.4037921003
 30
0.0
 10
11.5526421647
 20
10.4141748483
 30
0.0
 10
11.5607152466
 20
10.4214472523
 30
0.0
 10
11.5673386232
 20
10.4263471258
 30
0.0
 10
11.5745427896
 20
10.4305993025
 30
0.0
 10
11.5796839787
 20
10.4328967429
 30
0.0
 10
11.5823435357
 20
10.4338949513
 30
0.0
  0
SPLINE
  5
243
100
AcDbEntity
  8
0
100
AcDbSpline
 62
7
  6
CONTINUOUS
 70
0
 71
3
 72
9
 73
5
 74
0
 42
0.0000001
 43
0.0000001
 44
0.0000000001
 40
0.0
 40
0.0
 40
0.0
 40
0.0
 40
0.4631824167
 40
1.0
 40
1.0
 40
1.0
 40
1.0
 10
11.572286923
 20
10.094935927
 30
0.0
 10
11.574104884
 20
10.0958803006
 30
0.0
 10
11.5782679229
 20
10.0974686681
 30
0.0
 10
11.5826282095
 20
10.0983126852
 30
0.0
 10
11.5849834891
 20
10.0986125911
 30
0.0
  0
SPLINE
  5
244
100
AcDbEntity
  8
0
100
AcDbSpline
 62
7
  6
CONTINUOUS
 70
0
 71
3
 72
14
 73
10
 74
0
 42
0.0000001
 43
0.0000001
 44
0.0000000001
 40
0.0
 40
0.0
 40
0.0
 40
0.0
 40
0.0753315929
 40
0.163704714
 40
0.2660444496
 40
0.3828503268
 40
0.5144069426
 40
0.6609173472
 40
1.0
 40
1.0
 40
1.0
 40
1.0
 10
11.5648492804
 20
9.9398085233
 30
0.0
 10
11.5652579555
 20
9.9401290526
 30
0.0
 10
11.5662245941
 20
9.9407261715
 30
0.0
 10
11.5679189136
 20
9.9414409466
 30
0.0
 10
11.5699603429
 20
9.9420288375
 30
0.0
 10
11.5723399415
 20
9.9424738104
 30
0.0
 10
11.5750496789
 20
9.9427613398
 30
0.0
 10
11.5793040016
 20
9.9429239809
 30
0.0
 10
11.5826552029
 20
9.9427466984
 30
0.0
 10
11.5849834891
 20
9.9425356878
 30
0.0
  0
SPLINE
  5
245
100
AcDbEntity
  8
0
100
AcDbSpline
 62
7
  6
CONTINUOUS
 70
0
 71
3
 72
27
 73
23
 74
0
 42
0.0000001
 43
0.0000001
 44
0.0000000001
 40
0.0
 40
0.0
 40
0.0
 40
0.0
 40
0.0005215097
 40
0.0015192411
 40
0.003012309
 40
0.005005028
 40
0.010492925
 40
0.0179816593
 40
0.0274635915
 40
0.0389300626
 40
0.0523721975
 40
0.067781183
 40
0.1044616313
 40
0.148884759
 40
0.2009615479
 40
0.2606014791
 40
0.3277084027
 40
0.4021892355
 40
0.48395445
 40
0.5729207427
 40
0.7722127628
 40
1.0
 40
1.0
 40
1.0
 40
1.0
 10
11.5631735765
 20
9.7660032011
 30
0.0
 10
11.5631763667
 20
9.7660059214
 30
0.0
 10
11.5631881806
 20
9.7660086712
 30
0.0
 10
11.5632099582
 20
9.766011771
 30
0.0
 10
11.5632437063
 20
9.7660134773
 30
0.0
 10
11.5633106075
 20
9.7660145024
 30
0.0
 10
11.56342257
 20
9.766011369
 30
0.0
 10
11.563590094
 20
9.7660022751
 30
0.0
 10
11.5638020312
 20
9.7659864514
 30
0.0
 10
11.5640579694
 20
9.7659633562
 30
0.0
 10
11.5643576429
 20
9.7659323031
 30
0.0
 10
11.5648440906
 20
9.765876104
 30
0.0
 10
11.5655590566
 20
9.7657812429
 30
0.0
 10
11.5665430283
 20
9.7656320367
 30
0.0
 10
11.5676934071
 20
9.7654370319
 30
0.0
 10
11.5690070234
 20
9.7651919061
 30
0.0
 10
11.570480653
 20
9.764892661
 30
0.0
 10
11.5721109796
 20
9.7645352876
 30
0.0
 10
11.5738948416
 20
9.7641164167
 30
0.0
 10
11.57657725
 20
9.7634455344
 30
0.0
 10
11.5802977546
 20
9.7624301988
 30
0.0
 10
11.5833559335
 20
9.7615173686
 30
0.0
 10
11.5849834891
 20
9.7610191418
 30
0.0
  0
SPLINE
  5
246
100
AcDbEntity
  8
0
100
AcDbSpline
 62
7
  6
CONTINUOUS
 70
0
 71
3
 72
14
 73
10
 74
0
 42
0.0000001
 43
0.0000001
 44
0.0000000001
 40
0.0
 40
0.0
 40
0.0
 40
0.0
 40
0.0787919545
 40
0.1706764238
 40
0.275880953
 40
0.3944307933
 40
0.5262370316
 40
0.6711609038
 40
1.0
 40
1.0
 40
1.0
 40
1.0
 10
11.5653527673
 20
9.5708257739
 30
0.0
 10
11.5657941347
 20
9.5704149832
 30
0.0
 10
11.5667999978
 20
9.5695786861
 30
0.0
 10
11.5685126975
 20
9.5683428746
 30
0.0
 10
11.5705363352
 20
9.5670228525
 30
0.0
 10
11.572862852
 20
9.5656113389
 30
0.0
 10
11.5754845462
 20
9.5641020913
 30
0.0
 10
11.5795391218
 20
9.5618578971
 30
0.0
 10
11.5827447187
 20
9.5601632352
 30
0.0
 10
11.5849834891
 20
9.5590141635
 30
0.0
  0
SPLINE
  5
247
100
AcDbEntity
  8
0
100
AcDbSpline
 62
7
  6
CONTINUOUS
 70
0
 71
3
 72
11
 73
7
 74
0
 42
0.0000001
 43
0.0000001
 44
0.0000000001
 40
0.0
 40
0.0
 40
0.0
 40
0.0
 40
0.2242768178
 40
0.4657286756
 40
0.7243126361
 40
1.0
 40
1.0
 40
1.0
 40
1.0
 10
11.5726128362
 20
9.351966117
 30
0.0
 10
11.5734775708
 20
9.3511529669
 30
0.0
 10
11.5753137749
 20
9.3495072323
 30
0.0
 10
11.578264027
 20
9.3470583471
 30
0.0
 10
11.5815071014
 20
9.344539732
 30
0.0
 10
11.5837917432
 20
9.3428726743
 30
0.0
 10
11.5849834891
 20
9.3420308244
 30
0.0
  0
ENDSEC
  0
SECTION
  2
OBJECTS
  0
DICTIONARY
  5
C
100
AcDbDictionary
280
0
281
1
  3
ACAD_GROUP
350
D
  3
ACAD_MLINESTYLE
350
17
  3
ACAD_LAYOUT
350
1A
  3
ACAD_PLOTSETTINGS
350
19
  3
ACAD_PLOTSTYLENAME
350
E
  0
DICTIONARY
  5
D
102
{ACAD_REACTORS
330
C
102
}
100
AcDbDictionary
280
0
281
1
  0
ACDBDICTIONARYWDFLT
  5
E
102
{ACAD_REACTORS
330
C
102
}
100
AcDbDictionary
281
1
  3
Normal
350
F
100
AcDbDictionaryWithDefault
340
F
  0
DICTIONARY
  5
17
102
{ACAD_REACTORS
330
C
102
}
100
AcDbDictionary
280
0
281
1
  3
Standard
350
18
  0
DICTIONARY
  5
19
102
{ACAD_REACTORS
330
C
102
}
100
AcDbDictionary
281
1
  0
DICTIONARY
  5
1A
102
{ACAD_REACTORS
330
C
102
}
100
AcDbDictionary
281
1
  3
Model
350
248
  3
Layout1
350
249
  0
ACDBPLACEHOLDER
  5
F
102
{ACAD_REACTORS
330
E
102
}
  0
MLINESTYLE
  5
18
102
{ACAD_REACTORS
330
17
102
}
100
AcDbMlineStyle
  2
STANDARD
 70
0
  3

 62
256
 51
90.0
 52
90.0
 71
2
 49
0.5
 62
256
  6
BYLAYER
 49
-0.5
 62
256
  6
BYLAYER
  0
LAYOUT
  5
248
102
{ACAD_REACTORS
330
1A
102
}
100
AcDbPlotSettings
  1

  2
none_device
  4
ANSI_C_(22.00_x_17.00_Inches)
  6

 40
0.0
 41
0.0
 42
0.0
 43
0.0
 44
558.8
 45
431.8
 46
0.0
 47
0.0
 48
0.0
 49
0.0
140
0.0
141
0.0
142
1.0
143
1.0
 70
1024
 72
0
 73
0
 74
0
  7

 75
0
147
1.0
148
0.0
149
0.0
100
AcDbLayout
  1
Model
 70
0
 71
0
 10
0.0
 20
0.0
 11
22.0
 21
17.0
 12
0.0
 22
0.0
 32
0.0
 14
0.0
 24
0.0
 34
0.0
 15
0.0
 25
0.0
 35
0.0
146
0.0
 13
0.0
 23
0.0
 33
0.0
 16
1.0
 26
0.0
 36
0.0
 17
0.0
 27
1.0
 37
0.0
 76
0
330
205
345
0
346
0
  0
LAYOUT
  5
249
102
{ACAD_REACTORS
330
1A
102
}
100
AcDbPlotSettings
  1

  2
none_device
  4
ANSI_C_(22.00_x_17.00_Inches)
  6

 40
0.0
 41
0.0
 42
0.0
 43
0.0
 44
558.8
 45
431.8
 46
0.0
 47
0.0
 48
0.0
 49
0.0
140
0.0
141
0.0
142
1.0
143
1.0
 70
0
 72
0
 73
0
 74
0
  7

 75
0
147
1.0
148
0.0
149
0.0
100
AcDbLayout
  1
Layout1
 70
0
 71
1
 10
0.0
 20
0.0
 11
22.0
 21
17.0
 12
0.0
 22
0.0
 32
0.0
 14
0.0
 24
0.0
 34
0.0
 15
0.0
 25
0.0
 35
0.0
146
0.0
 13
0.0
 23
0.0
 33
0.0
 16
1.0
 26
0.0
 36
0.0
 17
0.0
 27
1.0
 37
0.0
 76
0
330
206
345
0
346
0
  0
ENDSEC
  0
EOF
