999
DXF file: E:\BT Custom\CADOUTPUT\_TOP.dxf
999
Pro/ENGINEER 2018400 by Parametric Technology Corporation
  0
SECTION
  2
HEADER
  9
$ACADVER
  1
AC1018
  9
$DWGCODEPAGE
  3
ANSI_1252
  9
$EXTMAX
 10
22.0
 20
17.0
 30
0.0
  9
$EXTMIN
 10
0.0
 20
0.0
 30
0.0
  9
$LIMMIN
 10
0.0
 20
0.0
  9
$LIMMAX
 10
22.0
 20
17.0
  9
$VIEWCTR
 10
11.0
 20
8.5
  9
$VIEWSIZE
 40
17.0
  9
$CLAYER
  8
0
  9
$LTSCALE
 40
1.21
  9
$CELTYPE
  6
BYLAYER
  9
$DIMSCALE
 40
1.0
  9
$DIMASZ
 40
0.1
  9
$DIMEXO
 40
0.0625
  9
$DIMDLI
 40
0.836
  9
$DIMEXE
 40
0.125
  9
$DIMCEN
 40
0.198
  9
$DIMLFAC
 40
1.0
  9
$DIMBLK
  1
_FILLED
  9
$DIMALT
 70
1
  9
$DIMALTD
 70
2
  9
$DIMALTTD
 70
2
  9
$DIMALTF
 40
25.4
  9
$DIMTXT
 40
0.08
  9
$DIMTOL
 70
1
  9
$DIMLIM
 70
0
  9
$DIMTFAC
 40
1.0
  9
$DIMTP
 40
0.001
  9
$DIMTM
 40
0.001
  9
$DIMGAP
 40
0.09
  9
$DIMDSEP
 70
46
  9
$AUNITS
 70
0
  9
$PDMODE
 70
3
  9
$PDSIZE
 40
0.06
  9
$HANDSEED
  5
28C
  9
$TILEMODE
 70
1
  9
$MEASUREMENT
 70
0
  9
$INSUNITS
 70
1
  0
ENDSEC
  0
SECTION
  2
CLASSES
  0
CLASS
  1
ACDBDICTIONARYWDFLT
  2
AcDbDictionaryWithDefault
  3
AutoCAD 2000
 90
0
 91
1
280
0
281
0
  0
CLASS
  1
ACDBPLACEHOLDER
  2
AcDbPlaceHolder
  3
AutoCAD 2000
 90
0
 91
1
280
0
281
0
  0
CLASS
  1
LAYOUT
  2
AcDbLayout
  3
AutoCAD 2000
 90
0
 91
0
280
0
281
0
  0
ENDSEC
  0
SECTION
  2
TABLES
  0
TABLE
  2
VPORT
  5
8
100
AcDbSymbolTable
 70
2
  0
VPORT
  5
1F4
100
AcDbSymbolTableRecord
100
AcDbViewportTableRecord
  2
*ACTIVE
 70
0
 10
0.0
 20
0.0
 11
1.0
 21
1.0
 12
11.0
 22
8.5
 13
0.0
 23
0.0
 14
1.0
 24
1.0
 15
0.0
 25
0.0
 16
0.0
 26
0.0
 36
1.0
 17
0.0
 27
0.0
 37
0.0
 40
17.0
 41
1.2941176471
 42
50.0
 43
0.0
 44
0.0
 50
0.0
 51
0.0
 71
0
 72
100
 73
1
 74
1
 75
0
 76
0
 77
0
 78
0
  0
ENDTAB
  0
TABLE
  2
LTYPE
  5
5
100
AcDbSymbolTable
 70
6
  0
LTYPE
  5
14
100
AcDbSymbolTableRecord
100
AcDbLinetypeTableRecord
  2
BYBLOCK
 70
0
  3

 72
65
 73
0
 40
0.0
  0
LTYPE
  5
15
100
AcDbSymbolTableRecord
100
AcDbLinetypeTableRecord
  2
BYLAYER
 70
0
  3

 72
65
 73
0
 40
0.0
  0
LTYPE
  5
16
100
AcDbSymbolTableRecord
100
AcDbLinetypeTableRecord
  2
CONTINUOUS
 70
64
  3
Solid line
 72
65
 73
0
 40
0.0
  0
LTYPE
  5
1F5
100
AcDbSymbolTableRecord
100
AcDbLinetypeTableRecord
  2
CENTER
 70
64
  3
____ _ ____ _ ____ _ ____ _ ____ _ ____ _ ____
 72
65
 73
4
 40
0.6
 49
0.375
 74
0
 49
-0.075
 74
0
 49
0.075
 74
0
 49
-0.075
 74
0
  0
LTYPE
  5
1F6
100
AcDbSymbolTableRecord
100
AcDbLinetypeTableRecord
  2
HIDDEN
 70
64
  3
- - - - - - - - - - - - - - - - - - - -
 72
65
 73
2
 40
0.2
 49
0.1
 74
0
 49
-0.1
 74
0
  0
LTYPE
  5
1F7
100
AcDbSymbolTableRecord
100
AcDbLinetypeTableRecord
  2
PHANTOM
 70
64
  3
_____ _ _ _____ _ _ _____ _ _ _____
 72
65
 73
6
 40
0.8
 49
0.45
 74
0
 49
-0.05
 74
0
 49
0.1
 74
0
 49
-0.05
 74
0
 49
0.1
 74
0
 49
-0.05
 74
0
  0
LTYPE
  5
1F8
100
AcDbSymbolTableRecord
100
AcDbLinetypeTableRecord
  2
DOT
 70
64
  3
. . . . . . . . . . . . . . . . . . . .
 72
65
 73
2
 40
0.2
 49
0.1
 74
0
 49
-0.1
 74
0
  0
LTYPE
  5
1F9
100
AcDbSymbolTableRecord
100
AcDbLinetypeTableRecord
  2
DASHED
 70
64
  3
- - - - - - - - - - - - - - - - - - - -
 72
65
 73
2
 40
0.2
 49
0.1
 74
0
 49
-0.1
 74
0
  0
ENDTAB
  0
TABLE
  2
LAYER
  5
2
100
AcDbSymbolTable
 70
36
  0
LAYER
  5
10
100
AcDbSymbolTableRecord
100
AcDbLayerTableRecord
  2
0
 70
0
 62
7
  6
CONTINUOUS
370
-3
390
F
  0
LAYER
  5
1FA
100
AcDbSymbolTableRecord
100
AcDbLayerTableRecord
  2
DEFAULT_1
 70
0
 62
7
  6
CENTER
370
-3
390
F
  0
LAYER
  5
1FB
100
AcDbSymbolTableRecord
100
AcDbLayerTableRecord
  2
DEFAULT_2
 70
0
 62
8
  6
HIDDEN
370
-3
390
F
  0
LAYER
  5
1FC
100
AcDbSymbolTableRecord
100
AcDbLayerTableRecord
  2
DEFAULT_3
 70
0
 62
7
  6
PHANTOM
370
-3
390
F
  0
LAYER
  5
1FD
100
AcDbSymbolTableRecord
100
AcDbLayerTableRecord
  2
ALL_FEATURES
 70
0
 62
7
  6
CONTINUOUS
370
-3
390
F
  0
LAYER
  5
1FE
100
AcDbSymbolTableRecord
100
AcDbLayerTableRecord
  2
AXES_FEATURES
 70
0
 62
7
  6
CONTINUOUS
370
-3
390
F
  0
LAYER
  5
1FF
100
AcDbSymbolTableRecord
100
AcDbLayerTableRecord
  2
DEFAULT_COORDINATE_SYSTEM
 70
0
 62
7
  6
CONTINUOUS
370
-3
390
F
  0
LAYER
  5
200
100
AcDbSymbolTableRecord
100
AcDbLayerTableRecord
  2
DEFAULT_DATUM_AXES
 70
0
 62
7
  6
CONTINUOUS
370
-3
390
F
  0
LAYER
  5
201
100
AcDbSymbolTableRecord
100
AcDbLayerTableRecord
  2
DEFAULT_DATUM_PLANES
 70
0
 62
7
  6
CONTINUOUS
370
-3
390
F
  0
LAYER
  5
202
100
AcDbSymbolTableRecord
100
AcDbLayerTableRecord
  2
DIMENSIONS
 70
0
 62
7
  6
CONTINUOUS
370
-3
390
F
  0
ENDTAB
  0
TABLE
  2
STYLE
  5
3
100
AcDbSymbolTable
 70
1
  0
STYLE
  5
11
100
AcDbSymbolTableRecord
100
AcDbTextStyleTableRecord
  2
STANDARD
 70
0
 40
0.0
 41
0.8
 50
0.0
 71
0
 42
0.2
  3
txt
  4

  0
STYLE
  5
203
100
AcDbSymbolTableRecord
100
AcDbTextStyleTableRecord
  2
TEXTSTYLE_1
 70
0
 40
0.0
 41
0.8
 50
0.0
 71
0
 42
0.2
  3
gdt
  4

  0
ENDTAB
  0
TABLE
  2
VIEW
  5
6
100
AcDbSymbolTable
 70
0
  0
ENDTAB
  0
TABLE
  2
UCS
  5
7
100
AcDbSymbolTable
 70
0
  0
ENDTAB
  0
TABLE
  2
APPID
  5
9
100
AcDbSymbolTable
 70
1
  0
APPID
  5
204
100
AcDbSymbolTableRecord
100
AcDbRegAppTableRecord
  2
ACAD
 70
0
  0
ENDTAB
  0
TABLE
  2
BLOCK_RECORD
  5
1
100
AcDbSymbolTable
 70
0
  0
BLOCK_RECORD
  5
205
100
AcDbSymbolTableRecord
100
AcDbBlockTableRecord
  2
*Model_Space
  0
BLOCK_RECORD
  5
206
100
AcDbSymbolTableRecord
100
AcDbBlockTableRecord
  2
*Paper_Space
  0
BLOCK_RECORD
  5
207
100
AcDbSymbolTableRecord
100
AcDbBlockTableRecord
  2
_FILLED
  0
ENDTAB
  0
TABLE
  2
DIMSTYLE
  5
A
100
AcDbSymbolTable
 70
1
100
AcDbDimStyleTable
 71
0
  0
DIMSTYLE
105
208
100
AcDbSymbolTableRecord
100
AcDbDimStyleTableRecord
  2
STANDARD
 70
0
  3

  4

 40
1.0
 41
0.1
 42
0.0625
 43
0.38
 44
0.125
 45
0.0
 46
0.0
 47
0.001
 48
0.001
140
0.08
141
0.09
142
0.0
143
25.4
144
1.0
145
0.0
146
1.0
147
0.09
 71
1.0
 72
0.0
 73
1
 74
1
 75
0
 76
0
 77
0
 78
4
 79
1
170
1
171
2
172
0
173
0
174
0
175
0
176
0
177
0
178
0
270
2
179
3
271
3
272
3
273
2
274
2
275
0
280
0
281
0
282
0
283
1
284
4
285
0
286
0
287
3
288
0
340
11
278
46
341
207
342
207
343
207
344
207
  0
ENDTAB
  0
ENDSEC
  0
SECTION
  2
BLOCKS
  0
BLOCK
  5
20
100
AcDbEntity
  8
0
100
AcDbBlockBegin
  2
*Model_Space
 70
0
 10
0.0
 20
0.0
 30
0.0
  3
*Model_Space
  1

  0
ENDBLK
  5
21
100
AcDbEntity
  8
0
100
AcDbBlockEnd
  0
BLOCK
  5
1C
100
AcDbEntity
  8
0
100
AcDbBlockBegin
  2
*Paper_Space
 70
0
 10
0.0
 20
0.0
 30
0.0
  3
*Paper_Space
  1

  0
ENDBLK
  5
1D
100
AcDbEntity
  8
0
100
AcDbBlockEnd
  0
BLOCK
  5
209
100
AcDbEntity
  8
0
100
AcDbBlockBegin
  2
_FILLED
 70
64
 10
0.0
 20
0.0
  3
_FILLED
  1

  0
SOLID
  5
20A
100
AcDbEntity
  8
0
  6
BYBLOCK
 62
0
100
AcDbTrace
 10
0.0
 20
0.0
 11
-1.0
 21
0.2
 12
-1.0
 22
-0.2
 13
-1.0
 23
-0.2
  0
ENDBLK
  5
20B
100
AcDbEntity
  8
0
  6
BYBLOCK
 62
0
100
AcDbBlockEnd
  0
ENDSEC
  0
SECTION
  2
ENTITIES
  0
LINE
  5
20C
100
AcDbEntity
  8
0
100
AcDbLine
 62
7
  6
CONTINUOUS
 10
-2.4526816617
 20
8.8573318604
 11
-2.4526816617
 21
8.3773318604
  0
LINE
  5
20D
100
AcDbEntity
  8
0
100
AcDbLine
 62
7
  6
CONTINUOUS
 10
0.5473183383
 20
8.8573318604
 11
0.5473183383
 21
8.3773318604
  0
LINE
  5
20E
100
AcDbEntity
  8
0
100
AcDbLine
 62
9
  6
CONTINUOUS
 10
0.6723183383
 20
7.3573318604
 11
0.6723183383
 21
6.1073318604
  0
LINE
  5
20F
100
AcDbEntity
  8
0
100
AcDbLine
 62
7
  6
CONTINUOUS
 10
-1.1744301197
 20
8.3550955929
 11
-1.1726074282
 21
8.3573318604
  0
LINE
  5
210
100
AcDbEntity
  8
0
100
AcDbLine
 62
7
  6
CONTINUOUS
 10
0.6723183383
 20
6.1073318604
 11
21.4223183383
 21
6.1073318604
  0
LINE
  5
211
100
AcDbEntity
  8
0
100
AcDbLine
 62
7
  6
CONTINUOUS
 10
0.6723183383
 20
7.3573318604
 11
21.4223183383
 21
7.3573318604
  0
LINE
  5
212
100
AcDbEntity
  8
0
100
AcDbLine
 62
7
  6
CONTINUOUS
 10
23.8623183383
 20
8.2573318604
 11
22.2323183383
 21
8.2573318604
  0
LINE
  5
213
100
AcDbEntity
  8
0
100
AcDbLine
 62
7
  6
CONTINUOUS
 10
-0.1376816617
 20
8.2573318604
 11
-1.7676816617
 21
8.2573318604
  0
LINE
  5
214
100
AcDbEntity
  8
0
100
AcDbLine
 62
9
  6
CONTINUOUS
 10
23.6643794863
 20
8.3173318604
 11
23.6566166353
 21
8.3173318604
  0
LINE
  5
215
100
AcDbEntity
  8
0
100
AcDbLine
 62
9
  6
CONTINUOUS
 10
23.466580166
 20
8.3173318604
 11
23.4458469765
 21
8.3173318604
  0
LINE
  5
216
100
AcDbEntity
  8
0
100
AcDbLine
 62
9
  6
CONTINUOUS
 10
23.2566824022
 20
8.3173318604
 11
23.2249841761
 21
8.3173318604
  0
LINE
  5
217
100
AcDbEntity
  8
0
100
AcDbLine
 62
9
  6
CONTINUOUS
 10
23.0402585355
 20
8.3173318604
 11
22.9996960221
 21
8.3173318604
  0
LINE
  5
218
100
AcDbEntity
  8
0
100
AcDbLine
 62
9
  6
CONTINUOUS
 10
22.8224630385
 20
8.3173318604
 11
22.7771972538
 21
8.3173318604
  0
LINE
  5
219
100
AcDbEntity
  8
0
100
AcDbLine
 62
9
  6
CONTINUOUS
 10
22.611183486
 20
8.3173318604
 11
22.5625384226
 21
8.3173318604
  0
LINE
  5
21A
100
AcDbEntity
  8
0
100
AcDbLine
 62
9
  6
CONTINUOUS
 10
22.4092672177
 20
8.3173318604
 11
22.3631518747
 21
8.3173318604
  0
LINE
  5
21B
100
AcDbEntity
  8
0
100
AcDbLine
 62
9
  6
CONTINUOUS
 10
22.2243828003
 20
8.3173318604
 11
22.1847178984
 21
8.3173318604
  0
LINE
  5
21C
100
AcDbEntity
  8
0
100
AcDbLine
 62
9
  6
CONTINUOUS
 10
-0.3356203956
 20
8.3173318604
 11
-0.3433832531
 21
8.3173318604
  0
LINE
  5
21D
100
AcDbEntity
  8
0
100
AcDbLine
 62
9
  6
CONTINUOUS
 10
-0.5334197437
 20
8.3173318604
 11
-0.5541527541
 21
8.3173318604
  0
LINE
  5
21E
100
AcDbEntity
  8
0
100
AcDbLine
 62
9
  6
CONTINUOUS
 10
-0.7433175201
 20
8.3173318604
 11
-0.7750158191
 21
8.3173318604
  0
LINE
  5
21F
100
AcDbEntity
  8
0
100
AcDbLine
 62
9
  6
CONTINUOUS
 10
-0.9597414633
 20
8.3173318604
 11
-1.0003039835
 21
8.3173318604
  0
LINE
  5
220
100
AcDbEntity
  8
0
100
AcDbLine
 62
9
  6
CONTINUOUS
 10
-1.1775369584
 20
8.3173318604
 11
-1.2228019798
 21
8.3173318604
  0
LINE
  5
221
100
AcDbEntity
  8
0
100
AcDbLine
 62
9
  6
CONTINUOUS
 10
-1.3888166572
 20
8.3173318604
 11
-1.437461341
 21
8.3173318604
  0
LINE
  5
222
100
AcDbEntity
  8
0
100
AcDbLine
 62
9
  6
CONTINUOUS
 10
-1.5907321259
 20
8.3173318604
 11
-1.6368477399
 21
8.3173318604
  0
LINE
  5
223
100
AcDbEntity
  8
0
100
AcDbLine
 62
9
  6
CONTINUOUS
 10
-1.7756173591
 20
8.3173318604
 11
-1.8152823524
 21
8.3173318604
  0
LINE
  5
224
100
AcDbEntity
  8
0
100
AcDbLine
 62
7
  6
CONTINUOUS
 10
24.5273183383
 20
8.3573318604
 11
21.5673183383
 21
8.3573318604
  0
LINE
  5
225
100
AcDbEntity
  8
0
100
AcDbLine
 62
7
  6
CONTINUOUS
 10
0.5273183383
 20
8.3573318604
 11
-2.4326816617
 21
8.3573318604
  0
LINE
  5
226
100
AcDbEntity
  8
0
100
AcDbLine
 62
9
  6
CONTINUOUS
 10
24.5473183383
 20
8.3773318604
 11
21.5473183383
 21
8.3773318604
  0
LINE
  5
227
100
AcDbEntity
  8
0
100
AcDbLine
 62
9
  6
CONTINUOUS
 10
0.5473183383
 20
8.3773318604
 11
-2.4526816617
 21
8.3773318604
  0
LINE
  5
228
100
AcDbEntity
  8
0
100
AcDbLine
 62
7
  6
CONTINUOUS
 10
-2.4526816617
 20
8.8573318604
 11
0.5473183383
 21
8.8573318604
  0
LINE
  5
229
100
AcDbEntity
  8
0
100
AcDbLine
 62
7
  6
CONTINUOUS
 10
21.5473183383
 20
8.8573318604
 11
24.5473183383
 21
8.8573318604
  0
LINE
  5
22A
100
AcDbEntity
  8
0
100
AcDbLine
 62
7
  6
CONTINUOUS
 10
22.8255698127
 20
8.3550955186
 11
22.8273925718
 21
8.3573318604
  0
LINE
  5
22B
100
AcDbEntity
  8
0
100
AcDbLine
 62
9
  6
CONTINUOUS
 10
21.4223183383
 20
7.3573318604
 11
21.4223183383
 21
6.1073318604
  0
LINE
  5
22C
100
AcDbEntity
  8
0
100
AcDbLine
 62
7
  6
CONTINUOUS
 10
21.5473183383
 20
8.8573318604
 11
21.5473183383
 21
8.3773318604
  0
LINE
  5
22D
100
AcDbEntity
  8
0
100
AcDbLine
 62
7
  6
CONTINUOUS
 10
24.5473183383
 20
8.8573318604
 11
24.5473183383
 21
8.3773318604
  0
ARC
  5
22E
100
AcDbEntity
  8
0
100
AcDbCircle
 62
7
  6
CONTINUOUS
 10
21.4223183383
 20
8.3573318604
 40
2.25
100
AcDbArc
 50
270.0
 51
357.4526818174
  0
ARC
  5
22F
100
AcDbEntity
  8
0
100
AcDbCircle
 62
7
  6
CONTINUOUS
 10
0.6723183383
 20
8.3573318604
 40
2.25
100
AcDbArc
 50
182.5473181826
 51
270.0
  0
ARC
  5
230
100
AcDbEntity
  8
0
100
AcDbCircle
 62
7
  6
CONTINUOUS
 10
21.4223183383
 20
8.3573318604
 40
1.0
100
AcDbArc
 50
270.0
 51
354.2608295227
  0
ARC
  5
231
100
AcDbEntity
  8
0
100
AcDbCircle
 62
7
  6
CONTINUOUS
 10
0.6723183383
 20
8.3573318604
 40
1.0
100
AcDbArc
 50
185.7391704773
 51
270.0
  0
ARC
  5
232
100
AcDbEntity
  8
0
100
AcDbCircle
 62
7
  6
CONTINUOUS
 10
23.561636954
 20
8.5379669596
 40
0.2406362251
100
AcDbArc
 50
243.94564837
 51
311.35219199
  0
ARC
  5
233
100
AcDbEntity
  8
0
100
AcDbCircle
 62
7
  6
CONTINUOUS
 10
-0.438363046
 20
8.5379669594
 40
0.2406362249
100
AcDbArc
 50
243.9455907923
 51
311.352192022
  0
ARC
  5
234
100
AcDbEntity
  8
0
100
AcDbCircle
 62
7
  6
CONTINUOUS
 10
22.1595354785
 20
8.5168944785
 40
0.2195625334
100
AcDbArc
 50
264.4686043853
 51
274.2867566144
  0
ARC
  5
235
100
AcDbEntity
  8
0
100
AcDbCircle
 62
7
  6
CONTINUOUS
 10
-1.8404645141
 20
8.516893821
 40
0.2195618797
100
AcDbArc
 50
264.4688326129
 51
274.2031949816
  0
ARC
  5
236
100
AcDbEntity
  8
0
100
AcDbCircle
 62
7
  6
CONTINUOUS
 10
22.6818371172
 20
8.4591602504
 40
0.15875361
100
AcDbArc
 50
232.5035852358
 51
233.3595706219
  0
ARC
  5
237
100
AcDbEntity
  8
0
100
AcDbCircle
 62
7
  6
CONTINUOUS
 10
-1.3181629226
 20
8.459160193
 40
0.1587535403
100
AcDbArc
 50
232.5037399528
 51
233.3596261463
  0
ARC
  5
238
100
AcDbEntity
  8
0
100
AcDbCircle
 62
7
  6
CONTINUOUS
 10
21.7895796067
 20
8.4434957381
 40
0.1461664486
100
AcDbArc
 50
266.4278912807
 51
285.548166049
  0
ARC
  5
239
100
AcDbEntity
  8
0
100
AcDbCircle
 62
7
  6
CONTINUOUS
 10
-2.2104203744
 20
8.4434956071
 40
0.1461663172
100
AcDbArc
 50
266.4291003391
 51
285.5483365236
  0
ARC
  5
23A
100
AcDbEntity
  8
0
100
AcDbCircle
 62
7
  6
CONTINUOUS
 10
22.5019607789
 20
8.4278730061
 40
0.1261862533
100
AcDbArc
 50
310.0759270891
 51
310.91231177
  0
ARC
  5
23B
100
AcDbEntity
  8
0
100
AcDbCircle
 62
7
  6
CONTINUOUS
 10
-1.4980362114
 20
8.4278695111
 40
0.1261816412
100
AcDbArc
 50
310.0803046883
 51
310.9123761719
  0
ARC
  5
23C
100
AcDbEntity
  8
0
100
AcDbCircle
 62
7
  6
CONTINUOUS
 10
-2.2687921362
 20
8.4189397041
 40
0.1216081106
100
AcDbArc
 50
268.6976776331
 51
281.1108549575
  0
ARC
  5
23D
100
AcDbEntity
  8
0
100
AcDbCircle
 62
7
  6
CONTINUOUS
 10
21.7312078664
 20
8.4189396846
 40
0.1216080911
100
AcDbArc
 50
268.6978920967
 51
281.1103546363
  0
ARC
  5
23E
100
AcDbEntity
  8
0
100
AcDbCircle
 62
7
  6
CONTINUOUS
 10
-1.4932096856
 20
8.4225103387
 40
0.1189708185
100
AcDbArc
 50
310.8460509403
 51
316.4354772822
  0
ARC
  5
23F
100
AcDbEntity
  8
0
100
AcDbCircle
 62
7
  6
CONTINUOUS
 10
22.5067906002
 20
8.4225100334
 40
0.1189704006
100
AcDbArc
 50
310.8459816279
 51
316.435511871
  0
ARC
  5
240
100
AcDbEntity
  8
0
100
AcDbCircle
 62
7
  6
CONTINUOUS
 10
-1.6863863827
 20
8.3998850062
 40
0.096151364
100
AcDbArc
 50
317.1386398742
 51
318.3987932591
  0
ARC
  5
241
100
AcDbEntity
  8
0
100
AcDbCircle
 62
7
  6
CONTINUOUS
 10
22.3136147482
 20
8.3998839854
 40
0.0961498403
100
AcDbArc
 50
317.1407937345
 51
318.3988086994
  0
ARC
  5
242
100
AcDbEntity
  8
0
100
AcDbCircle
 62
7
  6
CONTINUOUS
 10
24.3718591788
 20
8.3840170952
 40
0.0866852427
100
AcDbArc
 50
266.2355555024
 51
274.6773954945
  0
ARC
  5
243
100
AcDbEntity
  8
0
100
AcDbCircle
 62
7
  6
CONTINUOUS
 10
0.3718591788
 20
8.3840170724
 40
0.0866852199
100
AcDbArc
 50
266.235852124
 51
274.6770138631
  0
ARC
  5
244
100
AcDbEntity
  8
0
100
AcDbCircle
 62
7
  6
CONTINUOUS
 10
0.2367390389
 20
8.3797463117
 40
0.0824149233
100
AcDbArc
 50
262.2996274116
 51
290.8153298629
  0
ARC
  5
245
100
AcDbEntity
  8
0
100
AcDbCircle
 62
7
  6
CONTINUOUS
 10
24.2367390402
 20
8.3797462988
 40
0.0824149104
100
AcDbArc
 50
262.3002245877
 51
290.8157988552
  0
ARC
  5
246
100
AcDbEntity
  8
0
100
AcDbCircle
 62
7
  6
CONTINUOUS
 10
0.3216791894
 20
8.3775906575
 40
0.0802586628
100
AcDbArc
 50
264.5870754266
 51
283.2484275934
  0
ARC
  5
247
100
AcDbEntity
  8
0
100
AcDbCircle
 62
7
  6
CONTINUOUS
 10
24.3216791894
 20
8.3775906564
 40
0.0802586617
100
AcDbArc
 50
264.5893220327
 51
283.2492853157
  0
ARC
  5
248
100
AcDbEntity
  8
0
100
AcDbCircle
 62
7
  6
CONTINUOUS
 10
-2.2270587189
 20
8.3774987698
 40
0.0801729458
100
AcDbArc
 50
194.5711368065
 51
301.8566277987
  0
ARC
  5
249
100
AcDbEntity
  8
0
100
AcDbCircle
 62
7
  6
CONTINUOUS
 10
21.7729412811
 20
8.3774987698
 40
0.0801729458
100
AcDbArc
 50
194.5711367937
 51
301.8566891603
  0
ARC
  5
24A
100
AcDbEntity
  8
0
100
AcDbCircle
 62
7
  6
CONTINUOUS
 10
22.2323183383
 20
8.3173318604
 40
0.06
100
AcDbArc
 50
186.875640258
 51
270.0
  0
ARC
  5
24B
100
AcDbEntity
  8
0
100
AcDbCircle
 62
7
  6
CONTINUOUS
 10
23.8623183383
 20
8.3173318604
 40
0.06
100
AcDbArc
 50
270.0
 51
341.055597018
  0
ARC
  5
24C
100
AcDbEntity
  8
0
100
AcDbCircle
 62
7
  6
CONTINUOUS
 10
-1.7676816617
 20
8.3173318604
 40
0.06
100
AcDbArc
 50
187.0094184113
 51
270.0
  0
ARC
  5
24D
100
AcDbEntity
  8
0
100
AcDbCircle
 62
7
  6
CONTINUOUS
 10
-0.1376816617
 20
8.3173318604
 40
0.06
100
AcDbArc
 50
270.0
 51
341.1691592977
  0
ARC
  5
24E
100
AcDbEntity
  8
0
100
AcDbCircle
 62
7
  6
CONTINUOUS
 10
21.5673183383
 20
8.3773318604
 40
0.02
100
AcDbArc
 50
180.0
 51
270.0
  0
ARC
  5
24F
100
AcDbEntity
  8
0
100
AcDbCircle
 62
7
  6
CONTINUOUS
 10
24.5273183383
 20
8.3773318604
 40
0.02
100
AcDbArc
 50
270.0
 51
360.0
  0
ARC
  5
250
100
AcDbEntity
  8
0
100
AcDbCircle
 62
7
  6
CONTINUOUS
 10
0.5273183383
 20
8.3773318604
 40
0.02
100
AcDbArc
 50
270.0
 51
360.0
  0
ARC
  5
251
100
AcDbEntity
  8
0
100
AcDbCircle
 62
7
  6
CONTINUOUS
 10
-2.4326816617
 20
8.3773318604
 40
0.02
100
AcDbArc
 50
180.0
 51
270.0
  0
SPLINE
  5
252
100
AcDbEntity
  8
0
100
AcDbSpline
 62
7
  6
CONTINUOUS
 70
0
 71
3
 72
15
 73
11
 74
0
 42
0.0000001
 43
0.0000001
 44
0.0000000001
 40
0.0
 40
0.0
 40
0.0
 40
0.0
 40
0.122448435
 40
0.2468095016
 40
0.3721098076
 40
0.4978620015
 40
0.6237781688
 40
0.7496299021
 40
0.8751640616
 40
1.0
 40
1.0
 40
1.0
 40
1.0
 10
-0.7142979836
 20
8.3573318676
 30
0.0
 10
-0.7228291147
 20
8.3493051963
 30
0.0
 10
-0.7414061529
 20
8.3345333806
 30
0.0
 10
-0.7725945667
 20
8.3170754608
 30
0.0
 10
-0.8064692005
 20
8.3046921329
 30
0.0
 10
-0.8420215059
 20
8.2978064845
 30
0.0
 10
-0.87826765
 20
8.2966229698
 30
0.0
 10
-0.9142271778
 20
8.3011786919
 30
0.0
 10
-0.9489059085
 20
8.3113327174
 30
0.0
 10
-0.970638985
 20
8.3216838879
 30
0.0
 10
-0.980971069
 20
8.3276720772
 30
0.0
  0
SPLINE
  5
253
100
AcDbEntity
  8
0
100
AcDbSpline
 62
7
  6
CONTINUOUS
 70
0
 71
3
 72
15
 73
11
 74
0
 42
0.0000001
 43
0.0000001
 44
0.0000000001
 40
0.0
 40
0.0
 40
0.0
 40
0.0
 40
0.1245340779
 40
0.2494051131
 40
0.3744510154
 40
0.499581156
 40
0.6247444533
 40
0.749900751
 40
0.8750064819
 40
1.0
 40
1.0
 40
1.0
 40
1.0
 10
-0.4907908814
 20
8.3573318605
 30
0.0
 10
-0.4997223822
 20
8.3493841941
 30
0.0
 10
-0.518856274
 20
8.3348091696
 30
0.0
 10
-0.5505339832
 20
8.3175387776
 30
0.0
 10
-0.5845155054
 20
8.3052211432
 30
0.0
 10
-0.6199914505
 20
8.2981638019
 30
0.0
 10
-0.6561362755
 20
8.2965319466
 30
0.0
 10
-0.6921138558
 20
8.3003658432
 30
0.0
 10
-0.7270796202
 20
8.3095696874
 30
0.0
 10
-0.7492104211
 20
8.3191589732
 30
0.0
 10
-0.7598281119
 20
8.3247498912
 30
0.0
  0
SPLINE
  5
254
100
AcDbEntity
  8
0
100
AcDbSpline
 62
7
  6
CONTINUOUS
 70
0
 71
3
 72
15
 73
11
 74
0
 42
0.0000001
 43
0.0000001
 44
0.0000000001
 40
0.0
 40
0.0
 40
0.0
 40
0.0
 40
0.1251092856
 40
0.2504575154
 40
0.3759079289
 40
0.5013551273
 40
0.6266922007
 40
0.7517781938
 40
0.8763668582
 40
1.0
 40
1.0
 40
1.0
 40
1.0
 10
-0.3395996361
 20
8.3187143674
 30
0.0
 10
-0.3293126109
 20
8.3139757583
 30
0.0
 10
-0.3079905029
 20
8.3059882354
 30
0.0
 10
-0.2746127993
 20
8.2987887661
 30
0.0
 10
-0.2405059497
 20
8.2965068277
 30
0.0
 10
-0.206431833
 20
8.2991993022
 30
0.0
 10
-0.1731415323
 20
8.3068023303
 30
0.0
 10
-0.1413816733
 20
8.3191392136
 30
0.0
 10
-0.1118989463
 20
8.3358928145
 30
0.0
 10
-0.0941238677
 20
8.3497982724
 30
0.0
 10
-0.0858466009
 20
8.3573318619
 30
0.0
  0
SPLINE
  5
255
100
AcDbEntity
  8
0
100
AcDbSpline
 62
7
  6
CONTINUOUS
 70
0
 71
3
 72
18
 73
14
 74
0
 42
0.0000001
 43
0.0000001
 44
0.0000000001
 40
0.0
 40
0.0
 40
0.0
 40
0.0
 40
0.1255661639
 40
0.2517634287
 40
0.315017372
 40
0.3782934852
 40
0.4415546713
 40
0.5047624552
 40
0.6307571636
 40
0.7559141033
 40
0.8180019039
 40
0.879551989
 40
1.0
 40
1.0
 40
1.0
 40
1.0
 10
-0.1520377065
 20
8.3154488888
 30
0.0
 10
-0.1422696407
 20
8.311186218
 30
0.0
 10
-0.1220171771
 20
8.3040915712
 30
0.0
 10
-0.0956592802
 20
8.299038544
 30
0.0
 10
-0.0742598437
 20
8.2973356443
 30
0.0
 10
-0.0581363987
 20
8.2972377211
 30
0.0
 10
-0.0420530468
 20
8.2983228324
 30
0.0
 10
-0.0208206827
 20
8.3013306289
 30
0.0
 10
0.0051257234
 20
8.3079800717
 30
0.0
 10
0.029721829
 20
8.3183444749
 30
0.0
 10
0.0481566023
 20
8.3286820703
 30
0.0
 10
0.0654244694
 20
8.3401525824
 30
0.0
 10
0.0773066596
 20
8.3501490157
 30
0.0
 10
0.0845813272
 20
8.3573318962
 30
0.0
  0
SPLINE
  5
256
100
AcDbEntity
  8
0
100
AcDbSpline
 62
7
  6
CONTINUOUS
 70
0
 71
3
 72
17
 73
13
 74
0
 42
0.0000001
 43
0.0000001
 44
0.0000000001
 40
0.0
 40
0.0
 40
0.0
 40
0.0
 40
0.1267084651
 40
0.1905264884
 40
0.2545022216
 40
0.382541391
 40
0.5103476901
 40
0.6372877986
 40
0.7624704054
 40
0.8240168021
 40
0.8844638248
 40
1.0
 40
1.0
 40
1.0
 40
1.0
 10
0.0131976184
 20
8.3120387152
 30
0.0
 10
0.0222893613
 20
8.3082911545
 30
0.0
 10
0.0364258672
 20
8.3037042553
 30
0.0
 10
0.0557948792
 20
8.299767726
 30
0.0
 10
0.0755114484
 20
8.2972860237
 30
0.0
 10
0.1004317103
 20
8.2969744451
 30
0.0
 10
0.1299681022
 20
8.3010662466
 30
0.0
 10
0.1583422592
 20
8.3094876578
 30
0.0
 10
0.1804478579
 20
8.319933545
 30
0.0
 10
0.1967213561
 20
8.3301267834
 30
0.0
 10
0.2115243859
 20
8.3411339095
 30
0.0
 10
0.2214914533
 20
8.3505959225
 30
0.0
 10
0.2274095419
 20
8.3573322904
 30
0.0
  0
SPLINE
  5
257
100
AcDbEntity
  8
0
100
AcDbSpline
 62
7
  6
CONTINUOUS
 70
0
 71
3
 72
22
 73
18
 74
0
 42
0.0000001
 43
0.0000001
 44
0.0000000001
 40
0.0
 40
0.0
 40
0.0
 40
0.0
 40
0.0640229883
 40
0.1284404427
 40
0.1931271988
 40
0.257969217
 40
0.3228693979
 40
0.3877330732
 40
0.452464813
 40
0.5169558285
 40
0.6446002528
 40
0.7075396493
 40
0.7695635624
 40
0.8303762089
 40
0.8895099442
 40
0.9463515096
 40
1.0
 40
1.0
 40
1.0
 40
1.0
 10
0.152328846
 20
8.3081495014
 30
0.0
 10
0.1564586571
 20
8.3065997443
 30
0.0
 10
0.1648715192
 20
8.3038201419
 30
0.0
 10
0.1778073397
 20
8.3006489592
 30
0.0
 10
0.1910069785
 20
8.2984838395
 30
0.0
 10
0.2043675792
 20
8.2973457954
 30
0.0
 10
0.2177884353
 20
8.2972421858
 30
0.0
 10
0.2311693576
 20
8.2981744528
 30
0.0
 10
0.2444113455
 20
8.3001361335
 30
0.0
 10
0.2616760552
 20
8.304084498
 30
0.0
 10
0.278316026
 20
8.3100081841
 30
0.0
 10
0.2938982594
 20
8.3177934304
 30
0.0
 10
0.3048550131
 20
8.3244400528
 30
0.0
 10
0.3149982827
 20
8.3318343329
 30
0.0
 10
0.3241938949
 20
8.3398466604
 30
0.0
 10
0.3322810957
 20
8.3483054442
 30
0.0
 10
0.3369924305
 20
8.3543048122
 30
0.0
 10
0.3391124707
 20
8.3573326232
 30
0.0
  0
SPLINE
  5
258
100
AcDbEntity
  8
0
100
AcDbSpline
 62
7
  6
CONTINUOUS
 70
0
 71
3
 72
19
 73
15
 74
0
 42
0.0000001
 43
0.0000001
 44
0.0000000001
 40
0.0
 40
0.0
 40
0.0
 40
0.0
 40
0.1290416925
 40
0.1939550337
 40
0.2589572473
 40
0.388733092
 40
0.5176555994
 40
0.5815674534
 40
0.6448970954
 40
0.7689713762
 40
0.8293747317
 40
0.8882685191
 40
0.9452690155
 40
1.0
 40
1.0
 40
1.0
 40
1.0
 10
0.2605228822
 20
8.3042928408
 30
0.0
 10
0.2678397506
 20
8.3019330594
 30
0.0
 10
0.2791531827
 20
8.2992785734
 30
0.0
 10
0.294496504
 20
8.2975605931
 30
0.0
 10
0.309974858
 20
8.2970565707
 30
0.0
 10
0.3292739546
 20
8.2987152607
 30
0.0
 10
0.3480075196
 20
8.3033920145
 30
0.0
 10
0.3622678691
 20
8.3088736975
 30
0.0
 10
0.3757622322
 20
8.3153898186
 30
0.0
 10
0.3882188287
 20
8.3234837631
 30
0.0
 10
0.3991876344
 20
8.3329926389
 30
0.0
 10
0.4064354627
 20
8.3406204678
 30
0.0
 10
0.4126450939
 20
8.3486918963
 30
0.0
 10
0.4160783127
 20
8.3544195475
 30
0.0
 10
0.4175566138
 20
8.3573259255
 30
0.0
  0
SPLINE
  5
259
100
AcDbEntity
  8
0
100
AcDbSpline
 62
7
  6
CONTINUOUS
 70
0
 71
3
 72
17
 73
13
 74
0
 42
0.0000001
 43
0.0000001
 44
0.0000000001
 40
0.0
 40
0.0
 40
0.0
 40
0.0
 40
0.1264837656
 40
0.2531810662
 40
0.379649882
 40
0.5054501369
 40
0.6301773027
 40
0.7535096166
 40
0.8147634727
 40
0.875881402
 40
0.9372751432
 40
1.0
 40
1.0
 40
1.0
 40
1.0
 10
0.3353864543
 20
8.3006135902
 30
0.0
 10
0.3415715911
 20
8.2991414674
 30
0.0
 10
0.3542095367
 20
8.2971802903
 30
0.0
 10
0.3733672565
 20
8.2972343128
 30
0.0
 10
0.3922537502
 20
8.3002717197
 30
0.0
 10
0.4103285047
 20
8.3062360165
 30
0.0
 10
0.4270450349
 20
8.3150090851
 30
0.0
 10
0.4394243821
 20
8.3245733879
 30
0.0
 10
0.4480255516
 20
8.3334611068
 30
0.0
 10
0.4537453557
 20
8.3407379678
 30
0.0
 10
0.4586555695
 20
8.3486726222
 30
0.0
 10
0.4612506042
 20
8.3543720618
 30
0.0
 10
0.4623461041
 20
8.3573285943
 30
0.0
  0
SPLINE
  5
25A
100
AcDbEntity
  8
0
100
AcDbSpline
 62
7
  6
CONTINUOUS
 70
0
 71
3
 72
17
 73
13
 74
0
 42
0.0000001
 43
0.0000001
 44
0.0000000001
 40
0.0
 40
0.0
 40
0.0
 40
0.0
 40
0.1228527351
 40
0.2457211524
 40
0.3686695948
 40
0.4918514129
 40
0.615561993
 40
0.7404941478
 40
0.8038281807
 40
0.8680465766
 40
0.9333804449
 40
1.0
 40
1.0
 40
1.0
 40
1.0
 10
0.3761678632
 20
8.2978022987
 30
0.0
 10
0.3812035853
 20
8.2973147266
 30
0.0
 10
0.3913654323
 20
8.2970973436
 30
0.0
 10
0.4064763384
 20
8.299055185
 30
0.0
 10
0.4211358525
 20
8.3032799667
 30
0.0
 10
0.4349982903
 20
8.309742108
 30
0.0
 10
0.4477093674
 20
8.3184020634
 30
0.0
 10
0.4569864693
 20
8.3273984905
 30
0.0
 10
0.4633857466
 20
8.3356107759
 30
0.0
 10
0.4676373964
 20
8.3423372244
 30
0.0
 10
0.4712326271
 20
8.3495876732
 30
0.0
 10
0.4731032387
 20
8.3547044502
 30
0.0
 10
0.473894542
 20
8.3573313547
 30
0.0
  0
SPLINE
  5
25B
100
AcDbEntity
  8
0
100
AcDbSpline
 62
7
  6
CONTINUOUS
 70
0
 71
3
 72
11
 73
7
 74
0
 42
0.0000001
 43
0.0000001
 44
0.0000000001
 40
0.0
 40
0.0
 40
0.0
 40
0.0
 40
0.2495760585
 40
0.4991909168
 40
0.7491889509
 40
1.0
 40
1.0
 40
1.0
 40
1.0
 10
0.1077029324
 20
8.2980635062
 30
0.0
 10
0.1120169881
 20
8.297519284
 30
0.0
 10
0.1207344007
 20
8.2970366859
 30
0.0
 10
0.1337814404
 20
8.2981457182
 30
0.0
 10
0.1465657362
 20
8.3010783782
 30
0.0
 10
0.1547388909
 20
8.3042342999
 30
0.0
 10
0.1586898113
 20
8.3061011326
 30
0.0
  0
SPLINE
  5
25C
100
AcDbEntity
  8
0
100
AcDbSpline
 62
7
  6
CONTINUOUS
 70
0
 71
3
 72
11
 73
7
 74
0
 42
0.0000001
 43
0.0000001
 44
0.0000000001
 40
0.0
 40
0.0
 40
0.0
 40
0.0
 40
0.2503369701
 40
0.5006804271
 40
0.7506527347
 40
1.0
 40
1.0
 40
1.0
 40
1.0
 10
-0.0438251411
 20
8.2985727366
 30
0.0
 10
-0.0382459051
 20
8.2977305748
 30
0.0
 10
-0.0269395696
 20
8.2969011603
 30
0.0
 10
-0.0100100545
 20
8.2982436758
 30
0.0
 10
0.0064958361
 20
8.3021492202
 30
0.0
 10
0.0169604686
 20
8.3064429074
 30
0.0
 10
0.0219685516
 20
8.3089933933
 30
0.0
  0
SPLINE
  5
25D
100
AcDbEntity
  8
0
100
AcDbSpline
 62
7
  6
CONTINUOUS
 70
0
 71
3
 72
11
 73
7
 74
0
 42
0.0000001
 43
0.0000001
 44
0.0000000001
 40
0.0
 40
0.0
 40
0.0
 40
0.0
 40
0.2486335146
 40
0.4986265039
 40
0.7492832907
 40
1.0
 40
1.0
 40
1.0
 40
1.0
 10
-1.9271429368
 20
8.3087312888
 30
0.0
 10
-1.9339536044
 20
8.3062996596
 30
0.0
 10
-1.9478987402
 20
8.3021884993
 30
0.0
 10
-1.9693989936
 20
8.2983716093
 30
0.0
 10
-1.9912490616
 20
8.2969402867
 30
0.0
 10
-2.0058521728
 20
8.2975941221
 30
0.0
 10
-2.0131081177
 20
8.2983216613
 30
0.0
  0
SPLINE
  5
25E
100
AcDbEntity
  8
0
100
AcDbSpline
 62
7
  6
CONTINUOUS
 70
0
 71
3
 72
9
 73
5
 74
0
 42
0.0000001
 43
0.0000001
 44
0.0000000001
 40
0.0
 40
0.0
 40
0.0
 40
0.0
 40
0.4984462787
 40
1.0
 40
1.0
 40
1.0
 40
1.0
 10
-2.0638770941
 20
8.3059603651
 30
0.0
 10
-2.0746152401
 20
8.3024078462
 30
0.0
 10
-2.0969329905
 20
8.297452627
 30
0.0
 10
-2.1197843095
 20
8.2969708117
 30
0.0
 10
-2.1311315061
 20
8.2978479359
 30
0.0
  0
SPLINE
  5
25F
100
AcDbEntity
  8
0
100
AcDbSpline
 62
7
  6
CONTINUOUS
 70
0
 71
3
 72
15
 73
11
 74
0
 42
0.0000001
 43
0.0000001
 44
0.0000000001
 40
0.0
 40
0.0
 40
0.0
 40
0.0
 40
0.1228477809
 40
0.2457161904
 40
0.3686784361
 40
0.4918892208
 40
0.6156597536
 40
0.7406817602
 40
0.8681919234
 40
1.0
 40
1.0
 40
1.0
 40
1.0
 10
-2.2842507824
 20
8.2975759675
 30
0.0
 10
-2.2891847777
 20
8.2972325237
 30
0.0
 10
-2.2991194057
 20
8.2972711511
 30
0.0
 10
-2.3138448641
 20
8.2995095467
 30
0.0
 10
-2.3280950711
 20
8.3039112682
 30
0.0
 10
-2.3415458777
 20
8.3104458539
 30
0.0
 10
-2.3538652222
 20
8.3190791708
 30
0.0
 10
-2.3646920769
 20
8.3297889453
 30
0.0
 10
-2.3735809093
 20
8.3425632267
 30
0.0
 10
-2.3777280681
 20
8.3522502101
 30
0.0
 10
-2.3792587025
 20
8.3573313544
 30
0.0
  0
SPLINE
  5
260
100
AcDbEntity
  8
0
100
AcDbSpline
 62
7
  6
CONTINUOUS
 70
0
 71
3
 72
18
 73
14
 74
0
 42
0.0000001
 43
0.0000001
 44
0.0000000001
 40
0.0
 40
0.0
 40
0.0
 40
0.0
 40
0.1230359097
 40
0.2458803817
 40
0.3688784185
 40
0.4923998192
 40
0.6168365122
 40
0.679620026
 40
0.7427944253
 40
0.8064026121
 40
0.8704794553
 40
0.9350327432
 40
1.0
 40
1.0
 40
1.0
 40
1.0
 10
-2.2519052196
 20
8.3011180147
 30
0.0
 10
-2.2571454585
 20
8.2995125103
 30
0.0
 10
-2.2679535989
 20
8.2973035082
 30
0.0
 10
-2.2844779125
 20
8.2971122672
 30
0.0
 10
-2.3007709902
 20
8.3000444235
 30
0.0
 10
-2.3162724299
 20
8.3060515058
 30
0.0
 10
-2.3280430828
 20
8.3135232823
 30
0.0
 10
-2.3364663631
 20
8.3208592265
 30
0.0
 10
-2.3422432877
 20
8.3270398411
 30
0.0
 10
-2.3473766775
 20
8.3338366804
 30
0.0
 10
-2.3517874205
 20
8.341196441
 30
0.0
 10
-2.3553960298
 20
8.3490472157
 30
0.0
 10
-2.3572141044
 20
8.3545378588
 30
0.0
 10
-2.3579681742
 20
8.3573318756
 30
0.0
  0
SPLINE
  5
261
100
AcDbEntity
  8
0
100
AcDbSpline
 62
7
  6
CONTINUOUS
 70
0
 71
3
 72
23
 73
19
 74
0
 42
0.0000001
 43
0.0000001
 44
0.0000000001
 40
0.0
 40
0.0
 40
0.0
 40
0.0
 40
0.0626503714
 40
0.1250910994
 40
0.1873571837
 40
0.2494862811
 40
0.3115225687
 40
0.3735134084
 40
0.4355056094
 40
0.4975460301
 40
0.5596823167
 40
0.6219573479
 40
0.6844091777
 40
0.7470727666
 40
0.8099669937
 40
0.8730932389
 40
0.936455395
 40
1.0
 40
1.0
 40
1.0
 40
1.0
 10
-2.0850411838
 20
8.320398903
 30
0.0
 10
-2.0875785094
 20
8.3179331641
 30
0.0
 10
-2.0929754036
 20
8.3133377591
 30
0.0
 10
-2.1018805147
 20
8.3075713893
 30
0.0
 10
-2.1114302291
 20
8.3030152642
 30
0.0
 10
-2.1214628583
 20
8.2997289481
 30
0.0
 10
-2.1318173074
 20
8.2977522615
 30
0.0
 10
-2.1423311683
 20
8.2971087037
 30
0.0
 10
-2.1528418426
 20
8.2978061289
 30
0.0
 10
-2.1631866729
 20
8.2998362371
 30
0.0
 10
-2.1732033212
 20
8.3031749089
 30
0.0
 10
-2.1827303273
 20
8.3077810526
 30
0.0
 10
-2.1916076756
 20
8.3135962043
 30
0.0
 10
-2.1996785154
 20
8.3205419299
 30
0.0
 10
-2.2067910787
 20
8.3285179935
 30
0.0
 10
-2.2128041121
 20
8.3374017763
 30
0.0
 10
-2.2175867523
 20
8.3470436928
 30
0.0
 10
-2.2198818161
 20
8.3538607777
 30
0.0
 10
-2.2207925077
 20
8.357331862
 30
0.0
  0
SPLINE
  5
262
100
AcDbEntity
  8
0
100
AcDbSpline
 62
7
  6
CONTINUOUS
 70
0
 71
3
 72
23
 73
19
 74
0
 42
0.0000001
 43
0.0000001
 44
0.0000000001
 40
0.0
 40
0.0
 40
0.0
 40
0.0
 40
0.0633895746
 40
0.1260664412
 40
0.1882409251
 40
0.2500800668
 40
0.311697555
 40
0.3731866364
 40
0.4346201489
 40
0.4960593811
 40
0.5575674513
 40
0.6192225237
 40
0.6811137391
 40
0.7433670866
 40
0.8061591593
 40
0.8696951364
 40
0.9342452743
 40
1.0
 40
1.0
 40
1.0
 40
1.0
 10
-1.9548613926
 20
8.3300993658
 30
0.0
 10
-1.9573040089
 20
8.3270329738
 30
0.0
 10
-1.9626108058
 20
8.3212784799
 30
0.0
 10
-1.9716390456
 20
8.3138748407
 30
0.0
 10
-1.9814898703
 20
8.3077882546
 30
0.0
 10
-1.9919804302
 20
8.3030490748
 30
0.0
 10
-2.0029418269
 20
8.2996789286
 30
0.0
 10
-2.0142101205
 20
8.297693842
 30
0.0
 10
-2.0256252572
 20
8.2971033099
 30
0.0
 10
-2.0370283575
 20
8.2979101323
 30
0.0
 10
-2.0482605947
 20
8.3001107937
 30
0.0
 10
-2.0591611023
 20
8.3036949904
 30
0.0
 10
-2.0695656495
 20
8.3086453735
 30
0.0
 10
-2.0793028229
 20
8.3149401784
 30
0.0
 10
-2.0881894509
 20
8.3225491923
 30
0.0
 10
-2.0960252788
 20
8.3314332774
 30
0.0
 10
-2.1025754294
 20
8.3415251342
 30
0.0
 10
-2.1058820386
 20
8.3489188635
 30
0.0
 10
-2.1072363848
 20
8.3527533339
 30
0.0
  0
SPLINE
  5
263
100
AcDbEntity
  8
0
100
AcDbSpline
 62
7
  6
CONTINUOUS
 70
0
 71
3
 72
21
 73
17
 74
0
 42
0.0000001
 43
0.0000001
 44
0.0000000001
 40
0.0
 40
0.0
 40
0.0
 40
0.0
 40
0.0625808096
 40
0.1248790375
 40
0.1871616608
 40
0.2495420871
 40
0.3120455913
 40
0.3746562398
 40
0.499896754
 40
0.6250986241
 40
0.6876687253
 40
0.7501200028
 40
0.812450395
 40
0.874721975
 40
0.937111987
 40
1.0
 40
1.0
 40
1.0
 40
1.0
 10
-1.7969419776
 20
8.3350735223
 30
0.0
 10
-1.7993738299
 20
8.3319179875
 30
0.0
 10
-1.8046841748
 20
8.3259616611
 30
0.0
 10
-1.8137391418
 20
8.3181714058
 30
0.0
 10
-1.8236745348
 20
8.3115651022
 30
0.0
 10
-1.8343264922
 20
8.306168252
 30
0.0
 10
-1.8455412907
 20
8.3020072076
 30
0.0
 10
-1.8610307873
 20
8.2981415823
 30
0.0
 10
-1.881058308
 20
8.29650629
 30
0.0
 10
-1.9009713315
 20
8.2991904595
 30
0.0
 10
-1.9162234691
 20
8.3038799736
 30
0.0
 10
-1.9271848983
 20
8.3086477753
 30
0.0
 10
-1.9375074847
 20
8.3146382303
 30
0.0
 10
-1.9470355127
 20
8.3218254247
 30
0.0
 10
-1.9555994542
 20
8.3301908492
 30
0.0
 10
-1.9605070416
 20
8.3365191535
 30
0.0
 10
-1.9627158516
 20
8.3398581156
 30
0.0
  0
SPLINE
  5
264
100
AcDbEntity
  8
0
100
AcDbSpline
 62
7
  6
CONTINUOUS
 70
0
 71
3
 72
19
 73
15
 74
0
 42
0.0000001
 43
0.0000001
 44
0.0000000001
 40
0.0
 40
0.0
 40
0.0
 40
0.0
 40
0.1211395201
 40
0.2457395885
 40
0.3089758732
 40
0.3725801454
 40
0.4364212912
 40
0.5003737963
 40
0.5643151772
 40
0.6281249206
 40
0.6916742354
 40
0.754832536
 40
0.8792030494
 40
1.0
 40
1.0
 40
1.0
 40
1.0
 10
-1.6159072593
 20
8.3344802819
 30
0.0
 10
-1.62146953
 20
8.3284859655
 30
0.0
 10
-1.6343098719
 20
8.3177132152
 30
0.0
 10
-1.6529164127
 20
8.3079632466
 30
0.0
 10
-1.6689802971
 20
8.3024097594
 30
0.0
 10
-1.6815216707
 20
8.2994175675
 30
0.0
 10
-1.6943407915
 20
8.297651841
 30
0.0
 10
-1.7072932163
 20
8.2971279691
 30
0.0
 10
-1.7202339575
 20
8.2978513537
 30
0.0
 10
-1.7330175451
 20
8.2998155557
 30
0.0
 10
-1.7454998373
 20
8.3030010656
 30
0.0
 10
-1.7614500045
 20
8.3088023828
 30
0.0
 10
-1.7798549263
 20
8.3188382857
 30
0.0
 10
-1.7924712023
 20
8.3298193827
 30
0.0
 10
-1.7978967822
 20
8.3359067546
 30
0.0
  0
SPLINE
  5
265
100
AcDbEntity
  8
0
100
AcDbSpline
 62
7
  6
CONTINUOUS
 70
0
 71
3
 72
19
 73
15
 74
0
 42
0.0000001
 43
0.0000001
 44
0.0000000001
 40
0.0
 40
0.0
 40
0.0
 40
0.0
 40
0.1209288742
 40
0.24587511
 40
0.309290766
 40
0.3730682296
 40
0.4370691123
 40
0.5011646061
 40
0.6290365378
 40
0.7557650249
 40
0.8183852164
 40
0.8801618352
 40
0.9408152871
 40
1.0
 40
1.0
 40
1.0
 40
1.0
 10
-1.4167928177
 20
8.3313225404
 30
0.0
 10
-1.423437687
 20
8.3257307959
 30
0.0
 10
-1.4381356612
 20
8.3157194918
 30
0.0
 10
-1.4585783938
 20
8.3067270438
 30
0.0
 10
-1.4759847255
 20
8.3016664419
 30
0.0
 10
-1.4894706804
 20
8.2989923766
 30
0.0
 10
-1.503185437
 20
8.2974868064
 30
0.0
 10
-1.5215819227
 20
8.2970580753
 30
0.0
 10
-1.5444618184
 20
8.2994761878
 30
0.0
 10
-1.5664863354
 20
8.3057733068
 30
0.0
 10
-1.5830276222
 20
8.3130108246
 30
0.0
 10
-1.5946875163
 20
8.3194281519
 30
0.0
 10
-1.6054913663
 20
8.326768248
 30
0.0
 10
-1.61211676
 20
8.3322879261
 30
0.0
 10
-1.6152371774
 20
8.3351738863
 30
0.0
  0
SPLINE
  5
266
100
AcDbEntity
  8
0
100
AcDbSpline
 62
7
  6
CONTINUOUS
 70
0
 71
3
 72
19
 73
15
 74
0
 42
0.0000001
 43
0.0000001
 44
0.0000000001
 40
0.0
 40
0.0
 40
0.0
 40
0.0
 40
0.0560914839
 40
0.1149673434
 40
0.1757498101
 40
0.2378210649
 40
0.3642621519
 40
0.4924656436
 40
0.6212334404
 40
0.7495797223
 40
0.8133190301
 40
0.8764875314
 40
0.9388330689
 40
1.0
 40
1.0
 40
1.0
 40
1.0
 10
-1.1744325628
 20
8.3550950941
 30
0.0
 10
-1.1775732923
 20
8.3513311853
 30
0.0
 10
-1.1844575508
 20
8.3439805572
 30
0.0
 10
-1.1960865941
 20
8.3339085109
 30
0.0
 10
-1.2090861984
 20
8.324737116
 30
0.0
 10
-1.2280428137
 20
8.3139412425
 30
0.0
 10
-1.2539565098
 20
8.3037255461
 30
0.0
 10
-1.2870249467
 20
8.2972859188
 30
0.0
 10
-1.3208782455
 20
8.2968929505
 30
0.0
 10
-1.3486850055
 20
8.3016475284
 30
0.0
 10
-1.3699761748
 20
8.3083932024
 30
0.0
 10
-1.3852375414
 20
8.3148353656
 30
0.0
 10
-1.3996267544
 20
8.322573864
 30
0.0
 10
-1.4086161386
 20
8.3285864908
 30
0.0
 10
-1.4129055174
 20
8.331776806
 30
0.0
  0
SPLINE
  5
267
100
AcDbEntity
  8
0
100
AcDbSpline
 62
7
  6
CONTINUOUS
 70
0
 71
3
 72
18
 73
14
 74
0
 42
0.0000001
 43
0.0000001
 44
0.0000000001
 40
0.0
 40
0.0
 40
0.0
 40
0.0
 40
0.1186956792
 40
0.1801160673
 40
0.242333038
 40
0.368134817
 40
0.495018655
 40
0.5586914262
 40
0.6223826135
 40
0.6860227615
 40
0.7495385954
 40
0.8757154591
 40
1.0
 40
1.0
 40
1.0
 40
1.0
 10
-0.9437873493
 20
8.357331959
 30
0.0
 10
-0.951430372
 20
8.3493130164
 30
0.0
 10
-0.9642394133
 20
8.3382375455
 30
0.0
 10
-0.9831615089
 20
8.3258143988
 30
0.0
 10
-1.0036917686
 20
8.3147788321
 30
0.0
 10
-1.0313160546
 20
8.3043016104
 30
0.0
 10
-1.0604516899
 20
8.2986537208
 30
0.0
 10
-1.0841554999
 20
8.2971297467
 30
0.0
 10
-1.1020002705
 20
8.2974977947
 30
0.0
 10
-1.1197348243
 20
8.2993774443
 30
0.0
 10
-1.1429737219
 20
8.3038631145
 30
0.0
 10
-1.170946845
 20
8.3130791127
 30
0.0
 10
-1.1916826493
 20
8.3241664904
 30
0.0
 10
-1.2013824603
 20
8.3305274342
 30
0.0
  0
SPLINE
  5
268
100
AcDbEntity
  8
0
100
AcDbSpline
 62
7
  6
CONTINUOUS
 70
0
 71
3
 72
15
 73
11
 74
0
 42
0.0000001
 43
0.0000001
 44
0.0000000001
 40
0.0
 40
0.0
 40
0.0
 40
0.0
 40
0.1224484348
 40
0.2468095014
 40
0.3721098074
 40
0.4978620013
 40
0.6237781687
 40
0.749629902
 40
0.8751640615
 40
1.0
 40
1.0
 40
1.0
 40
1.0
 10
23.2857020164
 20
8.3573318676
 30
0.0
 10
23.2771708854
 20
8.3493051964
 30
0.0
 10
23.2585938472
 20
8.3345333808
 30
0.0
 10
23.2274054336
 20
8.317075461
 30
0.0
 10
23.1935308001
 20
8.3046921331
 30
0.0
 10
23.1579784948
 20
8.2978064846
 30
0.0
 10
23.1217323509
 20
8.2966229698
 30
0.0
 10
23.0857728232
 20
8.3011786917
 30
0.0
 10
23.0510940927
 20
8.311332717
 30
0.0
 10
23.0293610161
 20
8.3216838873
 30
0.0
 10
23.0190289322
 20
8.3276720765
 30
0.0
  0
SPLINE
  5
269
100
AcDbEntity
  8
0
100
AcDbSpline
 62
7
  6
CONTINUOUS
 70
0
 71
3
 72
15
 73
11
 74
0
 42
0.0000001
 43
0.0000001
 44
0.0000000001
 40
0.0
 40
0.0
 40
0.0
 40
0.0
 40
0.1245340636
 40
0.2494051013
 40
0.374451006
 40
0.4995811485
 40
0.6247444478
 40
0.7499007474
 40
0.87500648
 40
1.0
 40
1.0
 40
1.0
 40
1.0
 10
23.5092091186
 20
8.3573318605
 30
0.0
 10
23.5002776181
 20
8.349384193
 30
0.0
 10
23.4811437231
 20
8.3348091679
 30
0.0
 10
23.4494660095
 20
8.3175387739
 30
0.0
 10
23.4154844804
 20
8.305221139
 30
0.0
 10
23.3800085285
 20
8.298163799
 30
0.0
 10
23.343863697
 20
8.2965319471
 30
0.0
 10
23.3078861107
 20
8.300365849
 30
0.0
 10
23.2729203416
 20
8.3095697002
 30
0.0
 10
23.2507895385
 20
8.3191589919
 30
0.0
 10
23.2401718469
 20
8.3247499128
 30
0.0
  0
SPLINE
  5
26A
100
AcDbEntity
  8
0
100
AcDbSpline
 62
7
  6
CONTINUOUS
 70
0
 71
3
 72
15
 73
11
 74
0
 42
0.0000001
 43
0.0000001
 44
0.0000000001
 40
0.0
 40
0.0
 40
0.0
 40
0.0
 40
0.1251092888
 40
0.2504575216
 40
0.3759079379
 40
0.5013551389
 40
0.6266922147
 40
0.7517782099
 40
0.8763668782
 40
1.0
 40
1.0
 40
1.0
 40
1.0
 10
23.6604004143
 20
8.3187143442
 30
0.0
 10
23.6706874388
 20
8.3139757383
 30
0.0
 10
23.6920095447
 20
8.3059882217
 30
0.0
 10
23.7253872437
 20
8.2987887603
 30
0.0
 10
23.7594940875
 20
8.2965068282
 30
0.0
 10
23.7935681976
 20
8.2991993072
 30
0.0
 10
23.8268584911
 20
8.3068023379
 30
0.0
 10
23.8586183434
 20
8.3191392215
 30
0.0
 10
23.8881010615
 20
8.3358928211
 30
0.0
 10
23.9058761363
 20
8.3497982741
 30
0.0
 10
23.9141533991
 20
8.3573318619
 30
0.0
  0
SPLINE
  5
26B
100
AcDbEntity
  8
0
100
AcDbSpline
 62
7
  6
CONTINUOUS
 70
0
 71
3
 72
18
 73
14
 74
0
 42
0.0000001
 43
0.0000001
 44
0.0000000001
 40
0.0
 40
0.0
 40
0.0
 40
0.0
 40
0.1255661619
 40
0.2517634276
 40
0.3150173722
 40
0.378293487
 40
0.4415546751
 40
0.5047624611
 40
0.6307571737
 40
0.7559141184
 40
0.8180019194
 40
0.8795520074
 40
1.0
 40
1.0
 40
1.0
 40
1.0
 10
23.8479621014
 20
8.3154489727
 30
0.0
 10
23.8577301709
 20
8.3111862889
 30
0.0
 10
23.8779826447
 20
8.3040916178
 30
0.0
 10
23.9043405595
 20
8.2990385657
 30
0.0
 10
23.9257400128
 20
8.2973356502
 30
0.0
 10
23.9418634715
 20
8.2972377166
 30
0.0
 10
23.9579468377
 20
8.29832282
 30
0.0
 10
23.9791792214
 20
8.3013306086
 30
0.0
 10
24.0051256527
 20
8.3079800466
 30
0.0
 10
24.0297217823
 20
8.3183444517
 30
0.0
 10
24.0481565735
 20
8.3286820522
 30
0.0
 10
24.065424455
 20
8.3401525709
 30
0.0
 10
24.0773066561
 20
8.3501490095
 30
0.0
 10
24.0845813275
 20
8.357331896
 30
0.0
  0
SPLINE
  5
26C
100
AcDbEntity
  8
0
100
AcDbSpline
 62
7
  6
CONTINUOUS
 70
0
 71
3
 72
17
 73
13
 74
0
 42
0.0000001
 43
0.0000001
 44
0.0000000001
 40
0.0
 40
0.0
 40
0.0
 40
0.0
 40
0.1267084784
 40
0.1905265062
 40
0.2545022423
 40
0.3825414148
 40
0.5103477146
 40
0.637287822
 40
0.7624704276
 40
0.8240168163
 40
0.8844638366
 40
1.0
 40
1.0
 40
1.0
 40
1.0
 10
24.0131978165
 20
8.3120386336
 30
0.0
 10
24.0222895563
 20
8.3082910862
 30
0.0
 10
24.0364260551
 20
8.3037042055
 30
0.0
 10
24.0557950545
 20
8.2997676975
 30
0.0
 10
24.0755116084
 20
8.2972860144
 30
0.0
 10
24.100431848
 20
8.2969744549
 30
0.0
 10
24.1299682101
 20
8.3010662713
 30
0.0
 10
24.1583423367
 20
8.3094876886
 30
0.0
 10
24.1804479096
 20
8.3199335751
 30
0.0
 10
24.1967213904
 20
8.3301268062
 30
0.0
 10
24.2115244022
 20
8.3411339252
 30
0.0
 10
24.2214914598
 20
8.3505959283
 30
0.0
 10
24.2274095423
 20
8.3573322894
 30
0.0
  0
SPLINE
  5
26D
100
AcDbEntity
  8
0
100
AcDbSpline
 62
7
  6
CONTINUOUS
 70
0
 71
3
 72
22
 73
18
 74
0
 42
0.0000001
 43
0.0000001
 44
0.0000000001
 40
0.0
 40
0.0
 40
0.0
 40
0.0
 40
0.0640230061
 40
0.1284404747
 40
0.1931272374
 40
0.2579692576
 40
0.3228694388
 40
0.3877331134
 40
0.4524648509
 40
0.5169558566
 40
0.6446002625
 40
0.7075396561
 40
0.7695635595
 40
0.8303761988
 40
0.8895099136
 40
0.9463514874
 40
1.0
 40
1.0
 40
1.0
 40
1.0
 10
24.1523293061
 20
8.3081493288
 30
0.0
 10
24.1564591132
 20
8.3065995871
 30
0.0
 10
24.1648719654
 20
8.3038200148
 30
0.0
 10
24.1778077661
 20
8.3006488727
 30
0.0
 10
24.1910073805
 20
8.2984837907
 30
0.0
 10
24.2043679528
 20
8.2973457784
 30
0.0
 10
24.2177887773
 20
8.2972421978
 30
0.0
 10
24.2311696661
 20
8.2981744865
 30
0.0
 10
24.2444116182
 20
8.3001361863
 30
0.0
 10
24.2616762792
 20
8.3040845657
 30
0.0
 10
24.2783162008
 20
8.3100082584
 30
0.0
 10
24.2938983869
 20
8.3177935022
 30
0.0
 10
24.3048551082
 20
8.3244401167
 30
0.0
 10
24.3149983463
 20
8.3318343851
 30
0.0
 10
24.3241939322
 20
8.3398466965
 30
0.0
 10
24.3322811127
 20
8.3483054629
 30
0.0
 10
24.3369924332
 20
8.3543048215
 30
0.0
 10
24.3391124717
 20
8.3573326248
 30
0.0
  0
SPLINE
  5
26E
100
AcDbEntity
  8
0
100
AcDbSpline
 62
7
  6
CONTINUOUS
 70
0
 71
3
 72
19
 73
15
 74
0
 42
0.0000001
 43
0.0000001
 44
0.0000000001
 40
0.0
 40
0.0
 40
0.0
 40
0.0
 40
0.1290416726
 40
0.1939550071
 40
0.2589572159
 40
0.3887330577
 40
0.5176555711
 40
0.5815674356
 40
0.6448970796
 40
0.7689713739
 40
0.8293747369
 40
0.8882685329
 40
0.945269033
 40
1.0
 40
1.0
 40
1.0
 40
1.0
 10
24.2605226806
 20
8.3042929058
 30
0.0
 10
24.2678395539
 20
8.3019331116
 30
0.0
 10
24.2791529952
 20
8.2992786074
 30
0.0
 10
24.2944963318
 20
8.2975606041
 30
0.0
 10
24.3099747042
 20
8.2970565662
 30
0.0
 10
24.3292738269
 20
8.2987152381
 30
0.0
 10
24.3480074205
 20
8.3033919827
 30
0.0
 10
24.3622677925
 20
8.3088736643
 30
0.0
 10
24.3757621781
 20
8.3153897863
 30
0.0
 10
24.3882187951
 20
8.3234837367
 30
0.0
 10
24.3991876182
 20
8.3329926232
 30
0.0
 10
24.4064354585
 20
8.340620461
 30
0.0
 10
24.4126450953
 20
8.3486919008
 30
0.0
 10
24.4160783211
 20
8.354419557
 30
0.0
 10
24.4175566214
 20
8.3573259389
 30
0.0
  0
SPLINE
  5
26F
100
AcDbEntity
  8
0
100
AcDbSpline
 62
7
  6
CONTINUOUS
 70
0
 71
3
 72
17
 73
13
 74
0
 42
0.0000001
 43
0.0000001
 44
0.0000000001
 40
0.0
 40
0.0
 40
0.0
 40
0.0
 40
0.1264837774
 40
0.2531810783
 40
0.3796498881
 40
0.5054501395
 40
0.6301772992
 40
0.7535096097
 40
0.8147634713
 40
0.8758814013
 40
0.9372751545
 40
1.0
 40
1.0
 40
1.0
 40
1.0
 10
24.3353869053
 20
8.3006134827
 30
0.0
 10
24.3415720298
 20
8.2991413884
 30
0.0
 10
24.3542099445
 20
8.2971802622
 30
0.0
 10
24.3733676063
 20
8.2972343441
 30
0.0
 10
24.3922540343
 20
8.3002717916
 30
0.0
 10
24.4103287197
 20
8.3062361111
 30
0.0
 10
24.4270451825
 20
8.3150091833
 30
0.0
 10
24.4394244783
 20
8.3245734747
 30
0.0
 10
24.4480256114
 20
8.333461177
 30
0.0
 10
24.4537453923
 20
8.3407380217
 30
0.0
 10
24.4586555858
 20
8.3486726559
 30
0.0
 10
24.4612506101
 20
8.3543720793
 30
0.0
 10
24.4623461069
 20
8.3573286021
 30
0.0
  0
SPLINE
  5
270
100
AcDbEntity
  8
0
100
AcDbSpline
 62
7
  6
CONTINUOUS
 70
0
 71
3
 72
17
 73
13
 74
0
 42
0.0000001
 43
0.0000001
 44
0.0000000001
 40
0.0
 40
0.0
 40
0.0
 40
0.0
 40
0.1228527782
 40
0.2457212319
 40
0.368669705
 40
0.491851531
 40
0.6155621029
 40
0.740494208
 40
0.8038282169
 40
0.8680466185
 40
0.9333804261
 40
1.0
 40
1.0
 40
1.0
 40
1.0
 10
24.37616552
 20
8.2978025257
 30
0.0
 10
24.3812013282
 20
8.2973148266
 30
0.0
 10
24.3913633686
 20
8.297097218
 30
0.0
 10
24.4064746056
 20
8.2990548108
 30
0.0
 10
24.4211344722
 20
8.3032794347
 30
0.0
 10
24.4349972659
 20
8.3097415084
 30
0.0
 10
24.447708682
 20
8.3184014855
 30
0.0
 10
24.4569860381
 20
8.3273980017
 30
0.0
 10
24.463385488
 20
8.3356104006
 30
0.0
 10
24.4676372496
 20
8.342336954
 30
0.0
 10
24.4712325715
 20
8.349587528
 30
0.0
 10
24.4731032236
 20
8.3547043993
 30
0.0
 10
24.4738945418
 20
8.3573313546
 30
0.0
  0
SPLINE
  5
271
100
AcDbEntity
  8
0
100
AcDbSpline
 62
7
  6
CONTINUOUS
 70
0
 71
3
 72
11
 73
7
 74
0
 42
0.0000001
 43
0.0000001
 44
0.0000000001
 40
0.0
 40
0.0
 40
0.0
 40
0.0
 40
0.2495760769
 40
0.4991909301
 40
0.7491889558
 40
1.0
 40
1.0
 40
1.0
 40
1.0
 10
24.1077017256
 20
8.2980636585
 30
0.0
 10
24.1120158793
 20
8.2975193665
 30
0.0
 10
24.1207335002
 20
8.2970366577
 30
0.0
 10
24.1337808678
 20
8.2981456137
 30
0.0
 10
24.1465654894
 20
8.3010782869
 30
0.0
 10
24.1547388477
 20
8.3042342764
 30
0.0
 10
24.1586898629
 20
8.3061011569
 30
0.0
  0
SPLINE
  5
272
100
AcDbEntity
  8
0
100
AcDbSpline
 62
7
  6
CONTINUOUS
 70
0
 71
3
 72
11
 73
7
 74
0
 42
0.0000001
 43
0.0000001
 44
0.0000000001
 40
0.0
 40
0.0
 40
0.0
 40
0.0
 40
0.2503369951
 40
0.5006804468
 40
0.750652748
 40
1.0
 40
1.0
 40
1.0
 40
1.0
 10
23.9561757691
 20
8.2985725993
 30
0.0
 10
23.9617549718
 20
8.2977304901
 30
0.0
 10
23.9730612303
 20
8.2969011691
 30
0.0
 10
23.9899906117
 20
8.2982437865
 30
0.0
 10
24.006496358
 20
8.3021493943
 30
0.0
 10
24.0169608929
 20
8.3064430974
 30
0.0
 10
24.0219689284
 20
8.308993585
 30
0.0
  0
SPLINE
  5
273
100
AcDbEntity
  8
0
100
AcDbSpline
 62
7
  6
CONTINUOUS
 70
0
 71
3
 72
11
 73
7
 74
0
 42
0.0000001
 43
0.0000001
 44
0.0000000001
 40
0.0
 40
0.0
 40
0.0
 40
0.0
 40
0.2486335416
 40
0.4986265216
 40
0.7492832907
 40
1.0
 40
1.0
 40
1.0
 40
1.0
 10
22.0728564436
 20
8.3087310675
 30
0.0
 10
22.0660459099
 20
8.3062995123
 30
0.0
 10
22.0521010585
 20
8.3021884695
 30
0.0
 10
22.0306012587
 20
8.2983716568
 30
0.0
 10
22.0087516553
 20
8.2969403113
 30
0.0
 10
21.9941488494
 20
8.297594063
 30
0.0
 10
21.9868930524
 20
8.298321544
 30
0.0
  0
SPLINE
  5
274
100
AcDbEntity
  8
0
100
AcDbSpline
 62
7
  6
CONTINUOUS
 70
0
 71
3
 72
9
 73
5
 74
0
 42
0.0000001
 43
0.0000001
 44
0.0000000001
 40
0.0
 40
0.0
 40
0.0
 40
0.0
 40
0.4984463112
 40
1.0
 40
1.0
 40
1.0
 40
1.0
 10
21.9361227079
 20
8.3059602995
 30
0.0
 10
21.9253844539
 20
8.3024077596
 30
0.0
 10
21.9030664755
 20
8.2974525412
 30
0.0
 10
21.8802149324
 20
8.2969708138
 30
0.0
 10
21.8688676321
 20
8.2978480025
 30
0.0
  0
SPLINE
  5
275
100
AcDbEntity
  8
0
100
AcDbSpline
 62
7
  6
CONTINUOUS
 70
0
 71
3
 72
15
 73
11
 74
0
 42
0.0000001
 43
0.0000001
 44
0.0000000001
 40
0.0
 40
0.0
 40
0.0
 40
0.0
 40
0.1228477731
 40
0.245716174
 40
0.36867842
 40
0.4918891973
 40
0.6156597422
 40
0.7406817477
 40
0.8681919631
 40
1.0
 40
1.0
 40
1.0
 40
1.0
 10
21.7157486348
 20
8.2975759269
 30
0.0
 10
21.7108146616
 20
8.2972325133
 30
0.0
 10
21.7008800828
 20
8.2972711943
 30
0.0
 10
21.6861547071
 20
8.2995096484
 30
0.0
 10
21.6719045879
 20
8.3039114067
 30
0.0
 10
21.6584538687
 20
8.3104460067
 30
0.0
 10
21.6461346088
 20
8.3190793172
 30
0.0
 10
21.6353078271
 20
8.329789064
 30
0.0
 10
21.6264190582
 20
8.3425632978
 30
0.0
 10
21.6222719234
 20
8.3522502358
 30
0.0
 10
21.6207412977
 20
8.3573313543
 30
0.0
  0
SPLINE
  5
276
100
AcDbEntity
  8
0
100
AcDbSpline
 62
7
  6
CONTINUOUS
 70
0
 71
3
 72
18
 73
14
 74
0
 42
0.0000001
 43
0.0000001
 44
0.0000000001
 40
0.0
 40
0.0
 40
0.0
 40
0.0
 40
0.1230358996
 40
0.2458803692
 40
0.3688784098
 40
0.4923998183
 40
0.6168365234
 40
0.6796200405
 40
0.7427944439
 40
0.8064026317
 40
0.8704794799
 40
0.935032777
 40
1.0
 40
1.0
 40
1.0
 40
1.0
 10
21.7480943809
 20
8.3011178923
 30
0.0
 10
21.742854151
 20
8.2995124185
 30
0.0
 10
21.7320460353
 20
8.2973034725
 30
0.0
 10
21.7155217735
 20
8.2971122966
 30
0.0
 10
21.6992287565
 20
8.300044498
 30
0.0
 10
21.6837273812
 20
8.3060516046
 30
0.0
 10
21.6719567815
 20
8.3135233846
 30
0.0
 10
21.6635335396
 20
8.3208593212
 30
0.0
 10
21.6577566425
 20
8.3270399258
 30
0.0
 10
21.6526232765
 20
8.3338367502
 30
0.0
 10
21.6482125531
 20
8.3411964922
 30
0.0
 10
21.6446039612
 20
8.349047244
 30
0.0
 10
21.6427858922
 20
8.3545378687
 30
0.0
 10
21.6420318256
 20
8.3573318755
 30
0.0
  0
SPLINE
  5
277
100
AcDbEntity
  8
0
100
AcDbSpline
 62
7
  6
CONTINUOUS
 70
0
 71
3
 72
23
 73
19
 74
0
 42
0.0000001
 43
0.0000001
 44
0.0000000001
 40
0.0
 40
0.0
 40
0.0
 40
0.0
 40
0.062650372
 40
0.1250911013
 40
0.1873571872
 40
0.2494862858
 40
0.311522575
 40
0.3735134166
 40
0.4355056193
 40
0.4975460419
 40
0.5596823309
 40
0.6219573636
 40
0.6844091953
 40
0.7470727865
 40
0.8099670153
 40
0.873093261
 40
0.9364554299
 40
1.0
 40
1.0
 40
1.0
 40
1.0
 10
21.9149587842
 20
8.3203988719
 30
0.0
 10
21.9124214579
 20
8.317933135
 30
0.0
 10
21.9070245626
 20
8.3133377341
 30
0.0
 10
21.8981194508
 20
8.3075713701
 30
0.0
 10
21.8885697366
 20
8.3030152506
 30
0.0
 10
21.8785371084
 20
8.2997289396
 30
0.0
 10
21.868182661
 20
8.2977522576
 30
0.0
 10
21.8576688023
 20
8.297108704
 30
0.0
 10
21.8471581308
 20
8.2978061324
 30
0.0
 10
21.8368133034
 20
8.2998362434
 30
0.0
 10
21.8267966585
 20
8.3031749173
 30
0.0
 10
21.8172696558
 20
8.3077810625
 30
0.0
 10
21.8083923108
 20
8.3135962146
 30
0.0
 10
21.8003214741
 20
8.3205419401
 30
0.0
 10
21.793208914
 20
8.3285180031
 30
0.0
 10
21.7871958827
 20
8.337401785
 30
0.0
 10
21.7824132466
 20
8.3470436989
 30
0.0
 10
21.7801181823
 20
8.3538607803
 30
0.0
 10
21.7792074922
 20
8.357331862
 30
0.0
  0
SPLINE
  5
278
100
AcDbEntity
  8
0
100
AcDbSpline
 62
7
  6
CONTINUOUS
 70
0
 71
3
 72
23
 73
19
 74
0
 42
0.0000001
 43
0.0000001
 44
0.0000000001
 40
0.0
 40
0.0
 40
0.0
 40
0.0
 40
0.0633895841
 40
0.1260664563
 40
0.1882409448
 40
0.2500800888
 40
0.3116975782
 40
0.3731866606
 40
0.4346201732
 40
0.4960594045
 40
0.557567474
 40
0.6192225455
 40
0.6811137582
 40
0.7433671052
 40
0.8061591735
 40
0.8696951461
 40
0.9342452874
 40
1.0
 40
1.0
 40
1.0
 40
1.0
 10
22.0451386907
 20
8.3300994705
 30
0.0
 10
22.0426960774
 20
8.3270330719
 30
0.0
 10
22.0373892851
 20
8.321278565
 30
0.0
 10
22.0283610485
 20
8.3138749073
 30
0.0
 10
22.0185102239
 20
8.3077883043
 30
0.0
 10
22.0080196617
 20
8.3030491091
 30
0.0
 10
21.9970582607
 20
8.2996789494
 30
0.0
 10
21.985789961
 20
8.2976938509
 30
0.0
 10
21.9743748169
 20
8.2971033089
 30
0.0
 10
21.9629717083
 20
8.2979101232
 30
0.0
 10
21.951739462
 20
8.3001107785
 30
0.0
 10
21.940838945
 20
8.3036949711
 30
0.0
 10
21.9304343883
 20
8.308645352
 30
0.0
 10
21.9206972058
 20
8.3149401567
 30
0.0
 10
21.9118105691
 20
8.322549172
 30
0.0
 10
21.9039747336
 20
8.3314332607
 30
0.0
 10
21.8974245764
 20
8.3415251221
 30
0.0
 10
21.8941179648
 20
8.3489188557
 30
0.0
 10
21.8927636173
 20
8.3527533278
 30
0.0
  0
SPLINE
  5
279
100
AcDbEntity
  8
0
100
AcDbSpline
 62
7
  6
CONTINUOUS
 70
0
 71
3
 72
21
 73
17
 74
0
 42
0.0000001
 43
0.0000001
 44
0.0000000001
 40
0.0
 40
0.0
 40
0.0
 40
0.0
 40
0.0625808112
 40
0.1248790387
 40
0.1871616628
 40
0.2495420898
 40
0.312045593
 40
0.3746562413
 40
0.4998967562
 40
0.6250986221
 40
0.6876687249
 40
0.7501199998
 40
0.8124503927
 40
0.8747219751
 40
0.9371119912
 40
1.0
 40
1.0
 40
1.0
 40
1.0
 10
22.2030580285
 20
8.3350735303
 30
0.0
 10
22.2006261767
 20
8.3319179948
 30
0.0
 10
22.1953158318
 20
8.3259616675
 30
0.0
 10
22.1862608648
 20
8.318171411
 30
0.0
 10
22.1763254718
 20
8.311565106
 30
0.0
 10
22.165673514
 20
8.3061682546
 30
0.0
 10
22.1544587151
 20
8.3020072094
 30
0.0
 10
22.1389692178
 20
8.298141583
 30
0.0
 10
22.1189416961
 20
8.29650629
 30
0.0
 10
22.0990286714
 20
8.2991904587
 30
0.0
 10
22.0837765332
 20
8.303879973
 30
0.0
 10
22.0728151031
 20
8.3086477743
 30
0.0
 10
22.0624925162
 20
8.31463823
 30
0.0
 10
22.052964487
 20
8.3218254248
 30
0.0
 10
22.0444005453
 20
8.3301908503
 30
0.0
 10
22.0394929566
 20
8.3365191542
 30
0.0
 10
22.0372841473
 20
8.3398581168
 30
0.0
  0
SPLINE
  5
27A
100
AcDbEntity
  8
0
100
AcDbSpline
 62
7
  6
CONTINUOUS
 70
0
 71
3
 72
19
 73
15
 74
0
 42
0.0000001
 43
0.0000001
 44
0.0000000001
 40
0.0
 40
0.0
 40
0.0
 40
0.0
 40
0.1211390339
 40
0.2457388708
 40
0.3089751152
 40
0.3725793824
 40
0.4364205542
 40
0.5003731077
 40
0.5643145566
 40
0.628124382
 40
0.6916737903
 40
0.7548321977
 40
0.879202898
 40
1.0
 40
1.0
 40
1.0
 40
1.0
 10
22.3840952134
 20
8.334482947
 30
0.0
 10
22.3785330902
 20
8.3284883392
 30
0.0
 10
22.3656928874
 20
8.3177150126
 30
0.0
 10
22.3470862983
 20
8.3079644233
 30
0.0
 10
22.3310222633
 20
8.3024104966
 30
0.0
 10
22.3184807239
 20
8.299418009
 30
0.0
 10
22.3056613993
 20
8.2976520271
 30
0.0
 10
22.2927087408
 20
8.2971279469
 30
0.0
 10
22.2797677444
 20
8.2978511678
 30
0.0
 10
22.2669838881
 20
8.2998152554
 30
0.0
 10
22.2545013213
 20
8.3030007002
 30
0.0
 10
22.2385507944
 20
8.3088019945
 30
0.0
 10
22.2201454522
 20
8.3188379823
 30
0.0
 10
22.2075289034
 20
8.3298192654
 30
0.0
 10
22.202103219
 20
8.335906753
 30
0.0
  0
SPLINE
  5
27B
100
AcDbEntity
  8
0
100
AcDbSpline
 62
7
  6
CONTINUOUS
 70
0
 71
3
 72
19
 73
15
 74
0
 42
0.0000001
 43
0.0000001
 44
0.0000000001
 40
0.0
 40
0.0
 40
0.0
 40
0.0
 40
0.120930478
 40
0.2458773062
 40
0.3092930342
 40
0.3730704714
 40
0.4370712536
 40
0.5011665908
 40
0.6290380992
 40
0.7557660512
 40
0.8183859588
 40
0.8801623031
 40
0.9408154979
 40
1.0
 40
1.0
 40
1.0
 40
1.0
 10
22.5831997651
 20
8.3313162992
 30
0.0
 10
22.576554679
 20
8.325725238
 30
0.0
 10
22.5618565777
 20
8.3157152886
 30
0.0
 10
22.541414128
 20
8.3067243103
 30
0.0
 10
22.5240082914
 20
8.3016647584
 30
0.0
 10
22.5105228307
 20
8.2989913987
 30
0.0
 10
22.496808652
 20
8.2974864329
 30
0.0
 10
22.4784130265
 20
8.2970583626
 30
0.0
 10
22.4555343169
 20
8.2994770149
 30
0.0
 10
22.4335110152
 20
8.3057742837
 30
0.0
 10
22.416970653
 20
8.3130116956
 30
0.0
 10
22.4053114057
 20
8.3194288357
 30
0.0
 10
22.3945081365
 20
8.3267686471
 30
0.0
 10
22.3878830801
 20
8.3322880714
 30
0.0
 10
22.3847628144
 20
8.3351738927
 30
0.0
  0
SPLINE
  5
27C
100
AcDbEntity
  8
0
100
AcDbSpline
 62
7
  6
CONTINUOUS
 70
0
 71
3
 72
19
 73
15
 74
0
 42
0.0000001
 43
0.0000001
 44
0.0000000001
 40
0.0
 40
0.0
 40
0.0
 40
0.0
 40
0.0560915423
 40
0.1149674124
 40
0.1757498855
 40
0.237821144
 40
0.3642622341
 40
0.4924657212
 40
0.621233509
 40
0.7495797762
 40
0.8133190752
 40
0.8764875647
 40
0.9388330858
 40
1.0
 40
1.0
 40
1.0
 40
1.0
 10
22.8255673728
 20
8.3550950172
 30
0.0
 10
22.8224266345
 20
8.3513311077
 30
0.0
 10
22.8155423678
 20
8.3439804764
 30
0.0
 10
22.8039133077
 20
8.3339084339
 30
0.0
 10
22.7909136921
 20
8.3247370462
 30
0.0
 10
22.7719570632
 20
8.313941185
 30
0.0
 10
22.7460433538
 20
8.3037255057
 30
0.0
 10
22.7129749055
 20
8.2972859037
 30
0.0
 10
22.6791216017
 20
8.2968929623
 30
0.0
 10
22.6513148424
 20
8.3016475635
 30
0.0
 10
22.6300236774
 20
8.308393257
 30
0.0
 10
22.6147623163
 20
8.3148354338
 30
0.0
 10
22.6003731104
 20
8.3225739445
 30
0.0
 10
22.5913837328
 20
8.3285865801
 30
0.0
 10
22.5870943574
 20
8.3317768993
 30
0.0
  0
SPLINE
  5
27D
100
AcDbEntity
  8
0
100
AcDbSpline
 62
7
  6
CONTINUOUS
 70
0
 71
3
 72
18
 73
14
 74
0
 42
0.0000001
 43
0.0000001
 44
0.0000000001
 40
0.0
 40
0.0
 40
0.0
 40
0.0
 40
0.1186956825
 40
0.1801160729
 40
0.242333046
 40
0.3681348291
 40
0.4950186701
 40
0.5586914425
 40
0.6223826305
 40
0.6860227787
 40
0.7495386121
 40
0.8757154715
 40
1.0
 40
1.0
 40
1.0
 40
1.0
 10
23.0562126507
 20
8.357331959
 30
0.0
 10
23.0485696227
 20
8.3493130107
 30
0.0
 10
23.0357605714
 20
8.3382375329
 30
0.0
 10
23.0168384605
 20
8.3258143802
 30
0.0
 10
22.9963081839
 20
8.31477881
 30
0.0
 10
22.9686838752
 20
8.304301589
 30
0.0
 10
22.9395482169
 20
8.2986537073
 30
0.0
 10
22.9158443897
 20
8.2971297439
 30
0.0
 10
22.8979996071
 20
8.2974978021
 30
0.0
 10
22.8802650424
 20
8.2993774638
 30
0.0
 10
22.8570261325
 20
8.3038631526
 30
0.0
 10
22.8290529989
 20
8.313079178
 30
0.0
 10
22.8083171918
 20
8.3241665811
 30
0.0
 10
22.7986173814
 20
8.330527538
 30
0.0
  0
SPLINE
  5
27E
100
AcDbEntity
  8
0
100
AcDbSpline
 62
7
  6
CONTINUOUS
 70
0
 71
3
 72
16
 73
12
 74
0
 42
0.0000001
 43
0.0000001
 44
0.0000000001
 40
0.0
 40
0.0
 40
0.0
 40
0.0
 40
0.0221999054
 40
0.0491735737
 40
0.0813252251
 40
0.1188655223
 40
0.2104441375
 40
0.3242612233
 40
0.4602352197
 40
0.6181879355
 40
1.0
 40
1.0
 40
1.0
 40
1.0
 10
22.2021032107
 20
8.335906803
 30
0.0
 10
22.2019960162
 20
8.3360271052
 30
0.0
 10
22.2017936735
 20
8.3363247059
 30
0.0
 10
22.2015442821
 20
8.3368612345
 30
0.0
 10
22.2013233311
 20
8.3375284921
 30
0.0
 10
22.2010536695
 20
8.3386686296
 30
0.0
 10
22.2008317999
 20
8.3404223409
 30
0.0
 10
22.2007434495
 20
8.3429005041
 30
0.0
 10
22.2008466014
 20
8.3458603653
 30
0.0
 10
22.2012992965
 20
8.3507460852
 30
0.0
 10
22.2019605465
 20
8.3546138893
 30
0.0
 10
22.2025014216
 20
8.3573318604
 30
0.0
  0
SPLINE
  5
27F
100
AcDbEntity
  8
0
100
AcDbSpline
 62
7
  6
CONTINUOUS
 70
0
 71
3
 72
13
 73
9
 74
0
 42
0.0000001
 43
0.0000001
 44
0.0000000001
 40
0.0
 40
0.0
 40
0.0
 40
0.0
 40
0.0714375575
 40
0.1576997448
 40
0.2592668042
 40
0.3763434104
 40
0.6571974663
 40
1.0
 40
1.0
 40
1.0
 40
1.0
 10
22.3855166566
 20
8.3360491443
 30
0.0
 10
22.3856360827
 20
8.3361836028
 30
0.0
 10
22.3858776654
 20
8.3364998959
 30
0.0
 10
22.3862286854
 20
8.3370505613
 30
0.0
 10
22.3866040884
 20
8.337720442
 30
0.0
 10
22.3871753905
 20
8.3388408287
 30
0.0
 10
22.3879525972
 20
8.3405365299
 30
0.0
 10
22.3885711948
 20
8.3419795228
 30
0.0
 10
22.3889069697
 20
8.3427744962
 30
0.0
  0
LINE
  5
280
100
AcDbEntity
  8
0
100
AcDbLine
 62
7
  6
CONTINUOUS
 10
22.3889069697
 20
8.3427744962
 11
22.3949141805
 21
8.3573318604
  0
SPLINE
  5
281
100
AcDbEntity
  8
0
100
AcDbSpline
 62
7
  6
CONTINUOUS
 70
0
 71
3
 72
11
 73
7
 74
0
 42
0.0000001
 43
0.0000001
 44
0.0000000001
 40
0.0
 40
0.0
 40
0.0
 40
0.0
 40
0.1977333964
 40
0.4286359648
 40
0.6951866793
 40
1.0
 40
1.0
 40
1.0
 40
1.0
 10
-1.9627103841
 20
8.3398505511
 30
0.0
 10
-1.9633718858
 20
8.3408494798
 30
0.0
 10
-1.9645526656
 20
8.3431844934
 30
0.0
 10
-1.9658074128
 20
8.3472194648
 30
0.0
 10
-1.9666264081
 20
8.352023117
 30
0.0
 10
-1.9668332354
 20
8.3554852603
 30
0.0
 10
-1.9668673427
 20
8.3573318604
 30
0.0
  0
SPLINE
  5
282
100
AcDbEntity
  8
0
100
AcDbSpline
 62
7
  6
CONTINUOUS
 70
0
 71
3
 72
11
 73
7
 74
0
 42
0.0000001
 43
0.0000001
 44
0.0000000001
 40
0.0
 40
0.0
 40
0.0
 40
0.0
 40
0.2015080045
 40
0.4354055125
 40
0.7016431265
 40
1.0
 40
1.0
 40
1.0
 40
1.0
 10
22.5929984185
 20
8.3405213245
 30
0.0
 10
22.5939589022
 20
8.3415319289
 30
0.0
 10
22.5959184189
 20
8.3438254918
 30
0.0
 10
22.5988318333
 20
8.34771071
 30
0.0
 10
22.6019501569
 20
8.3522729073
 30
0.0
 10
22.6040450989
 20
8.3555710172
 30
0.0
 10
22.6051225084
 20
8.3573318604
 30
0.0
  0
SPLINE
  5
283
100
AcDbEntity
  8
0
100
AcDbSpline
 62
7
  6
CONTINUOUS
 70
0
 71
3
 72
16
 73
12
 74
0
 42
0.0000001
 43
0.0000001
 44
0.0000000001
 40
0.0
 40
0.0
 40
0.0
 40
0.0
 40
0.0221999156
 40
0.0491735958
 40
0.0813252569
 40
0.1188655683
 40
0.2104442063
 40
0.3242613115
 40
0.4602353102
 40
0.618188015
 40
1.0
 40
1.0
 40
1.0
 40
1.0
 10
-1.797896789
 20
8.3359068027
 30
0.0
 10
-1.7980039836
 20
8.3360271048
 30
0.0
 10
-1.7982063263
 20
8.3363247057
 30
0.0
 10
-1.7984557178
 20
8.3368612345
 30
0.0
 10
-1.7986766691
 20
8.3375284924
 30
0.0
 10
-1.7989463305
 20
8.3386686303
 30
0.0
 10
-1.7991682004
 20
8.340422342
 30
0.0
 10
-1.7992565504
 20
8.3429005055
 30
0.0
 10
-1.7991533985
 20
8.3458603669
 30
0.0
 10
-1.7987007033
 20
8.3507460862
 30
0.0
 10
-1.7980394534
 20
8.3546138898
 30
0.0
 10
-1.7974985784
 20
8.3573318604
 30
0.0
  0
SPLINE
  5
284
100
AcDbEntity
  8
0
100
AcDbSpline
 62
7
  6
CONTINUOUS
 70
0
 71
3
 72
13
 73
9
 74
0
 42
0.0000001
 43
0.0000001
 44
0.0000000001
 40
0.0
 40
0.0
 40
0.0
 40
0.0
 40
0.0714289076
 40
0.1576849447
 40
0.2592484318
 40
0.376324011
 40
0.657183266
 40
1.0
 40
1.0
 40
1.0
 40
1.0
 10
-1.6144833454
 20
8.3360491419
 30
0.0
 10
-1.6143638788
 20
8.3361836458
 30
0.0
 10
-1.6141222146
 20
8.3365000604
 30
0.0
 10
-1.6137710776
 20
8.3370509521
 30
0.0
 10
-1.6133955408
 20
8.3377211314
 30
0.0
 10
-1.6128240161
 20
8.338842055
 30
0.0
 10
-1.6120464844
 20
8.3405386008
 30
0.0
 10
-1.6114276119
 20
8.3419823139
 30
0.0
 10
-1.6110916811
 20
8.3427776908
 30
0.0
  0
LINE
  5
285
100
AcDbEntity
  8
0
100
AcDbLine
 62
7
  6
CONTINUOUS
 10
-1.6110916811
 20
8.3427776908
 11
-1.6050858195
 21
8.3573318604
  0
SPLINE
  5
286
100
AcDbEntity
  8
0
100
AcDbSpline
 62
7
  6
CONTINUOUS
 70
0
 71
3
 72
11
 73
7
 74
0
 42
0.0000001
 43
0.0000001
 44
0.0000000001
 40
0.0
 40
0.0
 40
0.0
 40
0.0
 40
0.2015079291
 40
0.4354054123
 40
0.7016430598
 40
1.0
 40
1.0
 40
1.0
 40
1.0
 10
-1.4070016006
 20
8.3405213044
 30
0.0
 10
-1.4060411152
 20
8.341531909
 30
0.0
 10
-1.4040815954
 20
8.3438254736
 30
0.0
 10
-1.4011681765
 20
8.3477106961
 30
0.0
 10
-1.398049848
 20
8.3522728995
 30
0.0
 10
-1.3959549028
 20
8.3555710145
 30
0.0
 10
-1.3948774916
 20
8.3573318604
 30
0.0
  0
LINE
  5
287
100
AcDbEntity
  8
0
100
AcDbLine
 62
7
  6
CONTINUOUS
 10
21.8927636026
 20
8.3527529078
 11
21.8914277438
 21
8.3573318604
  0
LINE
  5
288
100
AcDbEntity
  8
0
100
AcDbLine
 62
7
  6
CONTINUOUS
 10
-2.1072363994
 20
8.3527529134
 11
-2.1085722562
 21
8.3573318604
  0
SPLINE
  5
289
100
AcDbEntity
  8
0
100
AcDbSpline
 62
7
  6
CONTINUOUS
 70
0
 71
3
 72
11
 73
7
 74
0
 42
0.0000001
 43
0.0000001
 44
0.0000000001
 40
0.0
 40
0.0
 40
0.0
 40
0.0
 40
0.1977333288
 40
0.4286358685
 40
0.6951865983
 40
1.0
 40
1.0
 40
1.0
 40
1.0
 10
22.0372896199
 20
8.3398505451
 30
0.0
 10
22.0366281178
 20
8.3408494737
 30
0.0
 10
22.0354473367
 20
8.3431844871
 30
0.0
 10
22.0341925885
 20
8.3472194595
 30
0.0
 10
22.0333735921
 20
8.3520231138
 30
0.0
 10
22.0331667646
 20
8.3554852591
 30
0.0
 10
22.0331326573
 20
8.3573318604
 30
0.0
  0
ENDSEC
  0
SECTION
  2
OBJECTS
  0
DICTIONARY
  5
C
100
AcDbDictionary
280
0
281
1
  3
ACAD_GROUP
350
D
  3
ACAD_MLINESTYLE
350
17
  3
ACAD_LAYOUT
350
1A
  3
ACAD_PLOTSETTINGS
350
19
  3
ACAD_PLOTSTYLENAME
350
E
  0
DICTIONARY
  5
D
102
{ACAD_REACTORS
330
C
102
}
100
AcDbDictionary
280
0
281
1
  0
ACDBDICTIONARYWDFLT
  5
E
102
{ACAD_REACTORS
330
C
102
}
100
AcDbDictionary
281
1
  3
Normal
350
F
100
AcDbDictionaryWithDefault
340
F
  0
DICTIONARY
  5
17
102
{ACAD_REACTORS
330
C
102
}
100
AcDbDictionary
280
0
281
1
  3
Standard
350
18
  0
DICTIONARY
  5
19
102
{ACAD_REACTORS
330
C
102
}
100
AcDbDictionary
281
1
  0
DICTIONARY
  5
1A
102
{ACAD_REACTORS
330
C
102
}
100
AcDbDictionary
281
1
  3
Model
350
28A
  3
Layout1
350
28B
  0
ACDBPLACEHOLDER
  5
F
102
{ACAD_REACTORS
330
E
102
}
  0
MLINESTYLE
  5
18
102
{ACAD_REACTORS
330
17
102
}
100
AcDbMlineStyle
  2
STANDARD
 70
0
  3

 62
256
 51
90.0
 52
90.0
 71
2
 49
0.5
 62
256
  6
BYLAYER
 49
-0.5
 62
256
  6
BYLAYER
  0
LAYOUT
  5
28A
102
{ACAD_REACTORS
330
1A
102
}
100
AcDbPlotSettings
  1

  2
none_device
  4
ANSI_C_(22.00_x_17.00_Inches)
  6

 40
0.0
 41
0.0
 42
0.0
 43
0.0
 44
558.8
 45
431.8
 46
0.0
 47
0.0
 48
0.0
 49
0.0
140
0.0
141
0.0
142
1.0
143
1.0
 70
1024
 72
0
 73
0
 74
0
  7

 75
0
147
1.0
148
0.0
149
0.0
100
AcDbLayout
  1
Model
 70
0
 71
0
 10
0.0
 20
0.0
 11
22.0
 21
17.0
 12
0.0
 22
0.0
 32
0.0
 14
0.0
 24
0.0
 34
0.0
 15
0.0
 25
0.0
 35
0.0
146
0.0
 13
0.0
 23
0.0
 33
0.0
 16
1.0
 26
0.0
 36
0.0
 17
0.0
 27
1.0
 37
0.0
 76
0
330
205
345
0
346
0
  0
LAYOUT
  5
28B
102
{ACAD_REACTORS
330
1A
102
}
100
AcDbPlotSettings
  1

  2
none_device
  4
ANSI_C_(22.00_x_17.00_Inches)
  6

 40
0.0
 41
0.0
 42
0.0
 43
0.0
 44
558.8
 45
431.8
 46
0.0
 47
0.0
 48
0.0
 49
0.0
140
0.0
141
0.0
142
1.0
143
1.0
 70
0
 72
0
 73
0
 74
0
  7

 75
0
147
1.0
148
0.0
149
0.0
100
AcDbLayout
  1
Layout1
 70
0
 71
1
 10
0.0
 20
0.0
 11
22.0
 21
17.0
 12
0.0
 22
0.0
 32
0.0
 14
0.0
 24
0.0
 34
0.0
 15
0.0
 25
0.0
 35
0.0
146
0.0
 13
0.0
 23
0.0
 33
0.0
 16
1.0
 26
0.0
 36
0.0
 17
0.0
 27
1.0
 37
0.0
 76
0
330
206
345
0
346
0
  0
ENDSEC
  0
EOF
