999
DXF file: E:\BT Custom\CADOUTPUT\_FRONT.dxf
999
Pro/ENGINEER 2018400 by Parametric Technology Corporation
  0
SECTION
  2
HEADER
  9
$ACADVER
  1
AC1018
  9
$DWGCODEPAGE
  3
ANSI_1252
  9
$EXTMAX
 10
22.0
 20
17.0
 30
0.0
  9
$EXTMIN
 10
0.0
 20
0.0
 30
0.0
  9
$LIMMIN
 10
0.0
 20
0.0
  9
$LIMMAX
 10
22.0
 20
17.0
  9
$VIEWCTR
 10
11.0
 20
8.5
  9
$VIEWSIZE
 40
17.0
  9
$CLAYER
  8
0
  9
$LTSCALE
 40
1.21
  9
$CELTYPE
  6
BYLAYER
  9
$DIMSCALE
 40
1.0
  9
$DIMASZ
 40
0.1
  9
$DIMEXO
 40
0.0625
  9
$DIMDLI
 40
0.836
  9
$DIMEXE
 40
0.125
  9
$DIMCEN
 40
0.198
  9
$DIMLFAC
 40
1.0
  9
$DIMBLK
  1
_FILLED
  9
$DIMALT
 70
1
  9
$DIMALTD
 70
2
  9
$DIMALTTD
 70
2
  9
$DIMALTF
 40
25.4
  9
$DIMTXT
 40
0.08
  9
$DIMTOL
 70
1
  9
$DIMLIM
 70
0
  9
$DIMTFAC
 40
1.0
  9
$DIMTP
 40
0.001
  9
$DIMTM
 40
0.001
  9
$DIMGAP
 40
0.09
  9
$DIMDSEP
 70
46
  9
$AUNITS
 70
0
  9
$PDMODE
 70
3
  9
$PDSIZE
 40
0.06
  9
$HANDSEED
  5
2E2
  9
$TILEMODE
 70
1
  9
$MEASUREMENT
 70
0
  9
$INSUNITS
 70
1
  0
ENDSEC
  0
SECTION
  2
CLASSES
  0
CLASS
  1
ACDBDICTIONARYWDFLT
  2
AcDbDictionaryWithDefault
  3
AutoCAD 2000
 90
0
 91
1
280
0
281
0
  0
CLASS
  1
ACDBPLACEHOLDER
  2
AcDbPlaceHolder
  3
AutoCAD 2000
 90
0
 91
1
280
0
281
0
  0
CLASS
  1
LAYOUT
  2
AcDbLayout
  3
AutoCAD 2000
 90
0
 91
0
280
0
281
0
  0
ENDSEC
  0
SECTION
  2
TABLES
  0
TABLE
  2
VPORT
  5
8
100
AcDbSymbolTable
 70
2
  0
VPORT
  5
1F4
100
AcDbSymbolTableRecord
100
AcDbViewportTableRecord
  2
*ACTIVE
 70
0
 10
0.0
 20
0.0
 11
1.0
 21
1.0
 12
11.0
 22
8.5
 13
0.0
 23
0.0
 14
1.0
 24
1.0
 15
0.0
 25
0.0
 16
0.0
 26
0.0
 36
1.0
 17
0.0
 27
0.0
 37
0.0
 40
17.0
 41
1.2941176471
 42
50.0
 43
0.0
 44
0.0
 50
0.0
 51
0.0
 71
0
 72
100
 73
1
 74
1
 75
0
 76
0
 77
0
 78
0
  0
ENDTAB
  0
TABLE
  2
LTYPE
  5
5
100
AcDbSymbolTable
 70
6
  0
LTYPE
  5
14
100
AcDbSymbolTableRecord
100
AcDbLinetypeTableRecord
  2
BYBLOCK
 70
0
  3

 72
65
 73
0
 40
0.0
  0
LTYPE
  5
15
100
AcDbSymbolTableRecord
100
AcDbLinetypeTableRecord
  2
BYLAYER
 70
0
  3

 72
65
 73
0
 40
0.0
  0
LTYPE
  5
16
100
AcDbSymbolTableRecord
100
AcDbLinetypeTableRecord
  2
CONTINUOUS
 70
64
  3
Solid line
 72
65
 73
0
 40
0.0
  0
LTYPE
  5
1F5
100
AcDbSymbolTableRecord
100
AcDbLinetypeTableRecord
  2
CENTER
 70
64
  3
____ _ ____ _ ____ _ ____ _ ____ _ ____ _ ____
 72
65
 73
4
 40
0.6
 49
0.375
 74
0
 49
-0.075
 74
0
 49
0.075
 74
0
 49
-0.075
 74
0
  0
LTYPE
  5
1F6
100
AcDbSymbolTableRecord
100
AcDbLinetypeTableRecord
  2
HIDDEN
 70
64
  3
- - - - - - - - - - - - - - - - - - - -
 72
65
 73
2
 40
0.2
 49
0.1
 74
0
 49
-0.1
 74
0
  0
LTYPE
  5
1F7
100
AcDbSymbolTableRecord
100
AcDbLinetypeTableRecord
  2
PHANTOM
 70
64
  3
_____ _ _ _____ _ _ _____ _ _ _____
 72
65
 73
6
 40
0.8
 49
0.45
 74
0
 49
-0.05
 74
0
 49
0.1
 74
0
 49
-0.05
 74
0
 49
0.1
 74
0
 49
-0.05
 74
0
  0
LTYPE
  5
1F8
100
AcDbSymbolTableRecord
100
AcDbLinetypeTableRecord
  2
DOT
 70
64
  3
. . . . . . . . . . . . . . . . . . . .
 72
65
 73
2
 40
0.2
 49
0.1
 74
0
 49
-0.1
 74
0
  0
LTYPE
  5
1F9
100
AcDbSymbolTableRecord
100
AcDbLinetypeTableRecord
  2
DASHED
 70
64
  3
- - - - - - - - - - - - - - - - - - - -
 72
65
 73
2
 40
0.2
 49
0.1
 74
0
 49
-0.1
 74
0
  0
ENDTAB
  0
TABLE
  2
LAYER
  5
2
100
AcDbSymbolTable
 70
36
  0
LAYER
  5
10
100
AcDbSymbolTableRecord
100
AcDbLayerTableRecord
  2
0
 70
0
 62
7
  6
CONTINUOUS
370
-3
390
F
  0
LAYER
  5
1FA
100
AcDbSymbolTableRecord
100
AcDbLayerTableRecord
  2
DEFAULT_1
 70
0
 62
7
  6
CENTER
370
-3
390
F
  0
LAYER
  5
1FB
100
AcDbSymbolTableRecord
100
AcDbLayerTableRecord
  2
DEFAULT_2
 70
0
 62
8
  6
HIDDEN
370
-3
390
F
  0
LAYER
  5
1FC
100
AcDbSymbolTableRecord
100
AcDbLayerTableRecord
  2
DEFAULT_3
 70
0
 62
7
  6
PHANTOM
370
-3
390
F
  0
LAYER
  5
1FD
100
AcDbSymbolTableRecord
100
AcDbLayerTableRecord
  2
ALL_FEATURES
 70
0
 62
7
  6
CONTINUOUS
370
-3
390
F
  0
LAYER
  5
1FE
100
AcDbSymbolTableRecord
100
AcDbLayerTableRecord
  2
AXES_FEATURES
 70
0
 62
7
  6
CONTINUOUS
370
-3
390
F
  0
LAYER
  5
1FF
100
AcDbSymbolTableRecord
100
AcDbLayerTableRecord
  2
DEFAULT_COORDINATE_SYSTEM
 70
0
 62
7
  6
CONTINUOUS
370
-3
390
F
  0
LAYER
  5
200
100
AcDbSymbolTableRecord
100
AcDbLayerTableRecord
  2
DEFAULT_DATUM_AXES
 70
0
 62
7
  6
CONTINUOUS
370
-3
390
F
  0
LAYER
  5
201
100
AcDbSymbolTableRecord
100
AcDbLayerTableRecord
  2
DEFAULT_DATUM_PLANES
 70
0
 62
7
  6
CONTINUOUS
370
-3
390
F
  0
LAYER
  5
202
100
AcDbSymbolTableRecord
100
AcDbLayerTableRecord
  2
DIMENSIONS
 70
0
 62
7
  6
CONTINUOUS
370
-3
390
F
  0
ENDTAB
  0
TABLE
  2
STYLE
  5
3
100
AcDbSymbolTable
 70
1
  0
STYLE
  5
11
100
AcDbSymbolTableRecord
100
AcDbTextStyleTableRecord
  2
STANDARD
 70
0
 40
0.0
 41
0.8
 50
0.0
 71
0
 42
0.2
  3
txt
  4

  0
STYLE
  5
203
100
AcDbSymbolTableRecord
100
AcDbTextStyleTableRecord
  2
TEXTSTYLE_1
 70
0
 40
0.0
 41
0.8
 50
0.0
 71
0
 42
0.2
  3
gdt
  4

  0
ENDTAB
  0
TABLE
  2
VIEW
  5
6
100
AcDbSymbolTable
 70
0
  0
ENDTAB
  0
TABLE
  2
UCS
  5
7
100
AcDbSymbolTable
 70
0
  0
ENDTAB
  0
TABLE
  2
APPID
  5
9
100
AcDbSymbolTable
 70
1
  0
APPID
  5
204
100
AcDbSymbolTableRecord
100
AcDbRegAppTableRecord
  2
ACAD
 70
0
  0
ENDTAB
  0
TABLE
  2
BLOCK_RECORD
  5
1
100
AcDbSymbolTable
 70
0
  0
BLOCK_RECORD
  5
205
100
AcDbSymbolTableRecord
100
AcDbBlockTableRecord
  2
*Model_Space
  0
BLOCK_RECORD
  5
206
100
AcDbSymbolTableRecord
100
AcDbBlockTableRecord
  2
*Paper_Space
  0
BLOCK_RECORD
  5
207
100
AcDbSymbolTableRecord
100
AcDbBlockTableRecord
  2
_FILLED
  0
ENDTAB
  0
TABLE
  2
DIMSTYLE
  5
A
100
AcDbSymbolTable
 70
1
100
AcDbDimStyleTable
 71
0
  0
DIMSTYLE
105
208
100
AcDbSymbolTableRecord
100
AcDbDimStyleTableRecord
  2
STANDARD
 70
0
  3

  4

 40
1.0
 41
0.1
 42
0.0625
 43
0.38
 44
0.125
 45
0.0
 46
0.0
 47
0.001
 48
0.001
140
0.08
141
0.09
142
0.0
143
25.4
144
1.0
145
0.0
146
1.0
147
0.09
 71
1.0
 72
0.0
 73
1
 74
1
 75
0
 76
0
 77
0
 78
4
 79
1
170
1
171
2
172
0
173
0
174
0
175
0
176
0
177
0
178
0
270
2
179
3
271
3
272
3
273
2
274
2
275
0
280
0
281
0
282
0
283
1
284
4
285
0
286
0
287
3
288
0
340
11
278
46
341
207
342
207
343
207
344
207
  0
ENDTAB
  0
ENDSEC
  0
SECTION
  2
BLOCKS
  0
BLOCK
  5
20
100
AcDbEntity
  8
0
100
AcDbBlockBegin
  2
*Model_Space
 70
0
 10
0.0
 20
0.0
 30
0.0
  3
*Model_Space
  1

  0
ENDBLK
  5
21
100
AcDbEntity
  8
0
100
AcDbBlockEnd
  0
BLOCK
  5
1C
100
AcDbEntity
  8
0
100
AcDbBlockBegin
  2
*Paper_Space
 70
0
 10
0.0
 20
0.0
 30
0.0
  3
*Paper_Space
  1

  0
ENDBLK
  5
1D
100
AcDbEntity
  8
0
100
AcDbBlockEnd
  0
BLOCK
  5
209
100
AcDbEntity
  8
0
100
AcDbBlockBegin
  2
_FILLED
 70
64
 10
0.0
 20
0.0
  3
_FILLED
  1

  0
SOLID
  5
20A
100
AcDbEntity
  8
0
  6
BYBLOCK
 62
0
100
AcDbTrace
 10
0.0
 20
0.0
 11
-1.0
 21
0.2
 12
-1.0
 22
-0.2
 13
-1.0
 23
-0.2
  0
ENDBLK
  5
20B
100
AcDbEntity
  8
0
  6
BYBLOCK
 62
0
100
AcDbBlockEnd
  0
ENDSEC
  0
SECTION
  2
ENTITIES
  0
LINE
  5
20C
100
AcDbEntity
  8
0
100
AcDbLine
 62
9
  6
CONTINUOUS
 10
-3.4373076573
 20
9.8926695021
 11
-3.4373076573
 21
8.6426695021
  0
LINE
  5
20D
100
AcDbEntity
  8
0
100
AcDbLine
 62
7
  6
CONTINUOUS
 10
-5.0592278156
 20
8.6426695021
 11
26.9346125011
 21
8.6426695021
  0
LINE
  5
20E
100
AcDbEntity
  8
0
100
AcDbLine
 62
7
  6
CONTINUOUS
 10
-5.0592278156
 20
9.8926695021
 11
26.9346125011
 21
9.8926695021
  0
LINE
  5
20F
100
AcDbEntity
  8
0
100
AcDbLine
 62
9
  6
CONTINUOUS
 10
25.3126923427
 20
9.8926695021
 11
25.3126923427
 21
8.6426695021
  0
ARC
  5
210
100
AcDbEntity
  8
0
100
AcDbCircle
 62
7
  6
CONTINUOUS
 10
26.9376923427
 20
9.2676695021
 40
1.5
100
AcDbArc
 50
204.6377679831
 51
155.3622320185
  0
ARC
  5
211
100
AcDbEntity
  8
0
100
AcDbCircle
 62
7
  6
CONTINUOUS
 10
-5.0623076573
 20
9.2676695021
 40
1.5
100
AcDbArc
 50
24.6377679831
 51
335.3622320185
  0
ARC
  5
212
100
AcDbEntity
  8
0
100
AcDbCircle
 62
9
  6
CONTINUOUS
 10
26.9376923427
 20
9.2676695021
 40
1.48
100
AcDbArc
 50
204.9901160347
 51
155.0098848677
  0
ARC
  5
213
100
AcDbEntity
  8
0
100
AcDbCircle
 62
9
  6
CONTINUOUS
 10
-5.0623076573
 20
9.2676695021
 40
1.48
100
AcDbArc
 50
24.9901160347
 51
335.0098848677
  0
ARC
  5
214
100
AcDbEntity
  8
0
100
AcDbCircle
 62
7
  6
CONTINUOUS
 10
26.9376923427
 20
9.2676695021
 40
0.875
100
AcDbArc
 50
225.7334028339
 51
134.2665971598
  0
ARC
  5
215
100
AcDbEntity
  8
0
100
AcDbCircle
 62
7
  6
CONTINUOUS
 10
-5.0623076573
 20
9.2676695021
 40
0.875
100
AcDbArc
 50
45.6090280797
 51
314.3909719159
  0
ARC
  5
216
100
AcDbEntity
  8
0
100
AcDbCircle
 62
9
  6
CONTINUOUS
 10
-5.0623076573
 20
9.2676695021
 40
0.815
100
AcDbArc
 50
50.0786130909
 51
309.9213869252
  0
ARC
  5
217
100
AcDbEntity
  8
0
100
AcDbCircle
 62
9
  6
CONTINUOUS
 10
26.9376923427
 20
9.2676695021
 40
0.815
100
AcDbArc
 50
230.1691154926
 51
129.8308844891
  0
ARC
  5
218
100
AcDbEntity
  8
0
100
AcDbCircle
 62
7
  6
CONTINUOUS
 10
-3.7192135985
 20
8.6336542366
 40
0.2323481291
100
AcDbArc
 50
177.7745600746
 51
183.6527807045
  0
ARC
  5
219
100
AcDbEntity
  8
0
100
AcDbCircle
 62
7
  6
CONTINUOUS
 10
25.5945814686
 20
9.9016472988
 40
0.2323472394
100
AcDbArc
 50
357.7837932428
 51
3.6543854246
  0
SPLINE
  5
21A
100
AcDbEntity
  8
0
100
AcDbSpline
 62
7
  6
CONTINUOUS
 70
0
 71
3
 72
27
 73
23
 74
0
 42
0.0000001
 43
0.0000001
 44
0.0000000001
 40
0.0
 40
0.0
 40
0.0
 40
0.0
 40
0.0624954051
 40
0.0937524803
 40
0.1250095379
 40
0.1875048989
 40
0.2500002621
 40
0.2812573165
 40
0.3125143759
 40
0.3750096998
 40
0.4375049912
 40
0.5000002765
 40
0.5624955472
 40
0.6249908021
 40
0.6874860553
 40
0.7187431245
 40
0.7500001859
 40
0.8124953694
 40
0.8749907948
 40
0.9062469537
 40
0.9375044609
 40
1.0
 40
1.0
 40
1.0
 40
1.0
 10
-5.0592278156
 20
9.8926695021
 30
0.0
 10
-5.07968738
 20
9.8926694997
 30
0.0
 10
-5.1104075731
 20
9.8911649968
 30
0.0
 10
-5.1510381835
 20
9.8861668365
 30
0.0
 10
-5.1913790242
 20
9.8791870543
 30
0.0
 10
-5.2410900811
 20
9.8667687992
 30
0.0
 10
-5.2893471668
 20
9.8495437498
 30
0.0
 10
-5.3267889165
 20
9.83298567
 30
0.0
 10
-5.3633741164
 20
9.8146130949
 30
0.0
 10
-5.4073513349
 20
9.7883136157
 30
0.0
 10
-5.4567653848
 20
9.7517427345
 30
0.0
 10
-5.5023593036
 20
9.7105031215
 30
0.0
 10
-5.5436894333
 20
9.6649911622
 30
0.0
 10
-5.5803552854
 20
9.61564736
 30
0.0
 10
-5.6067336836
 20
9.5717171187
 30
0.0
 10
-5.6251665586
 20
9.5351622067
 30
0.0
 10
-5.6417821085
 20
9.4977459156
 30
0.0
 10
-5.659072333
 20
9.4495116457
 30
0.0
 10
-5.6715416223
 20
9.3998130773
 30
0.0
 10
-5.6785520816
 20
9.3594775646
 30
0.0
 10
-5.6835725114
 20
9.3188497137
 30
0.0
 10
-5.6850843366
 20
9.2881291104
 30
0.0
 10
-5.6850843366
 20
9.2676695021
 30
0.0
  0
SPLINE
  5
21B
100
AcDbEntity
  8
0
100
AcDbSpline
 62
7
  6
CONTINUOUS
 70
0
 71
3
 72
27
 73
23
 74
0
 42
0.0000001
 43
0.0000001
 44
0.0000000001
 40
0.0
 40
0.0
 40
0.0
 40
0.0
 40
0.0624955338
 40
0.0937530391
 40
0.1250091986
 40
0.187504625
 40
0.2499998075
 40
0.2812568699
 40
0.312513939
 40
0.3750091914
 40
0.4375044468
 40
0.4999997172
 40
0.5624950026
 40
0.6249902939
 40
0.6874856178
 40
0.718742677
 40
0.7499997316
 40
0.8124950956
 40
0.8749904585
 40
0.9062475159
 40
0.9375045912
 40
1.0
 40
1.0
 40
1.0
 40
1.0
 10
-5.6850843366
 20
9.2676695021
 30
0.0
 10
-5.6850843366
 20
9.2472098956
 30
0.0
 10
-5.6835725116
 20
9.2164892947
 30
0.0
 10
-5.6785520825
 20
9.1758614459
 30
0.0
 10
-5.6715416235
 20
9.1355259333
 30
0.0
 10
-5.659072335
 20
9.0858273645
 30
0.0
 10
-5.6417821104
 20
9.0375930942
 30
0.0
 10
-5.6251665611
 20
9.0001768029
 30
0.0
 10
-5.6067336865
 20
8.9636218906
 30
0.0
 10
-5.5803552884
 20
8.9196916495
 30
0.0
 10
-5.5436894374
 20
8.8703478466
 30
0.0
 10
-5.5023593077
 20
8.8248358873
 30
0.0
 10
-5.4567653897
 20
8.7835962735
 30
0.0
 10
-5.4073513399
 20
8.7470253921
 30
0.0
 10
-5.363374122
 20
8.7207259121
 30
0.0
 10
-5.3267889221
 20
8.7023533372
 30
0.0
 10
-5.2893471724
 20
8.6857952565
 30
0.0
 10
-5.241090086
 20
8.6685702064
 30
0.0
 10
-5.1913790282
 20
8.6561519509
 30
0.0
 10
-5.1510381871
 20
8.6491721682
 30
0.0
 10
-5.1104075755
 20
8.6441740076
 30
0.0
 10
-5.0796873812
 20
8.6426695047
 30
0.0
 10
-5.0592278156
 20
8.6426695021
 30
0.0
  0
SPLINE
  5
21C
100
AcDbEntity
  8
0
100
AcDbSpline
 62
7
  6
CONTINUOUS
 70
0
 71
3
 72
27
 73
23
 74
0
 42
0.0000001
 43
0.0000001
 44
0.0000000001
 40
0.0
 40
0.0
 40
0.0
 40
0.0
 40
0.0624955391
 40
0.0937530463
 40
0.1250092052
 40
0.1875046306
 40
0.2499998141
 40
0.2812568755
 40
0.3125139447
 40
0.3750091979
 40
0.4375044528
 40
0.4999997235
 40
0.5624950088
 40
0.6249903002
 40
0.6874856241
 40
0.7187426835
 40
0.7499997379
 40
0.8124951011
 40
0.8749904621
 40
0.9062475197
 40
0.9375045949
 40
1.0
 40
1.0
 40
1.0
 40
1.0
 10
27.560469022
 20
9.2676695021
 30
0.0
 10
27.560469022
 20
9.2881291104
 30
0.0
 10
27.5589571968
 20
9.3188497137
 30
0.0
 10
27.5539367671
 20
9.3594775646
 30
0.0
 10
27.5469263078
 20
9.3998130773
 30
0.0
 10
27.5344570185
 20
9.4495116457
 30
0.0
 10
27.517166794
 20
9.4977459156
 30
0.0
 10
27.5005512441
 20
9.5351622067
 30
0.0
 10
27.482118369
 20
9.5717171187
 30
0.0
 10
27.4557399709
 20
9.61564736
 30
0.0
 10
27.4190741188
 20
9.6649911622
 30
0.0
 10
27.3777439891
 20
9.7105031215
 30
0.0
 10
27.3321500702
 20
9.7517427345
 30
0.0
 10
27.2827360204
 20
9.7883136157
 30
0.0
 10
27.2387588019
 20
9.8146130949
 30
0.0
 10
27.202173602
 20
9.83298567
 30
0.0
 10
27.1647318522
 20
9.8495437498
 30
0.0
 10
27.1164747666
 20
9.8667687992
 30
0.0
 10
27.0667637096
 20
9.8791870543
 30
0.0
 10
27.026422869
 20
9.8861668365
 30
0.0
 10
26.9857922586
 20
9.8911649968
 30
0.0
 10
26.9550720655
 20
9.8926694997
 30
0.0
 10
26.9346125011
 20
9.8926695021
 30
0.0
  0
SPLINE
  5
21D
100
AcDbEntity
  8
0
100
AcDbSpline
 62
7
  6
CONTINUOUS
 70
0
 71
3
 72
25
 73
21
 74
0
 42
0.0000001
 43
0.0000001
 44
0.0000000001
 40
0.0
 40
0.0
 40
0.0
 40
0.0
 40
0.015631046
 40
0.0312730318
 40
0.0469026508
 40
0.0625314473
 40
0.0781613969
 40
0.093789569
 40
0.125041684
 40
0.156294728
 40
0.187548224
 40
0.2500448841
 40
0.3125448779
 40
0.3750472674
 40
0.4375519228
 40
0.5000589448
 40
0.6250229058
 40
0.7500018362
 40
0.874995151
 40
1.0
 40
1.0
 40
1.0
 40
1.0
 10
26.6623915778
 20
10.5246419767
 30
0.0
 10
26.6632193328
 20
10.5238172736
 30
0.0
 10
26.6650020131
 20
10.5222921394
 30
0.0
 10
26.6679108088
 20
10.5203259698
 30
0.0
 10
26.6709757743
 20
10.5186168829
 30
0.0
 10
26.6741420578
 20
10.5171093234
 30
0.0
 10
26.6773815248
 20
10.5157678813
 30
0.0
 10
26.6817711539
 20
10.5141628213
 30
0.0
 10
26.6873597691
 20
10.5124507912
 30
0.0
 10
26.6941661252
 20
10.510767309
 30
0.0
 10
26.7033340869
 20
10.5089465588
 30
0.0
 10
26.7149209285
 20
10.5073772738
 30
0.0
 10
26.728919139
 20
10.5064872058
 30
0.0
 10
26.7429456328
 20
10.5065276502
 30
0.0
 10
26.7569413131
 20
10.5074620322
 30
0.0
 10
26.7754823878
 20
10.5098660374
 30
0.0
 10
26.7983324773
 20
10.514998369
 30
0.0
 10
26.82480148
 20
10.5244159931
 30
0.0
 10
26.8499514398
 20
10.5369389467
 30
0.0
 10
26.8656042913
 20
10.5472461383
 30
0.0
 10
26.8730837239
 20
10.5528476867
 30
0.0
  0
SPLINE
  5
21E
100
AcDbEntity
  8
0
100
AcDbSpline
 62
7
  6
CONTINUOUS
 70
0
 71
3
 72
37
 73
33
 74
0
 42
0.0000001
 43
0.0000001
 44
0.0000000001
 40
0.0
 40
0.0
 40
0.0
 40
0.0
 40
0.0156261459
 40
0.023446453
 40
0.0312679824
 40
0.0390872886
 40
0.0469134253
 40
0.0547364916
 40
0.0625602294
 40
0.0703863974
 40
0.0782074832
 40
0.0938379377
 40
0.1094666895
 40
0.1250924694
 40
0.1407176797
 40
0.1563426335
 40
0.1875851094
 40
0.2188297231
 40
0.2500752608
 40
0.2813213709
 40
0.3125678867
 40
0.3438148399
 40
0.3750623458
 40
0.4375479245
 40
0.50003655
 40
0.5625284374
 40
0.6250238325
 40
0.687523326
 40
0.7500282525
 40
0.812535714
 40
0.8750479349
 40
1.0
 40
1.0
 40
1.0
 40
1.0
 10
27.1741532029
 20
10.6335544215
 30
0.0
 10
27.1745953647
 20
10.6348484319
 30
0.0
 10
27.1751801855
 20
10.6368198515
 30
0.0
 10
27.1757285204
 20
10.6395022122
 30
0.0
 10
27.1760023222
 20
10.6415389513
 30
0.0
 10
27.1761085061
 20
10.6435925607
 30
0.0
 10
27.1760184162
 20
10.6456477611
 30
0.0
 10
27.1757126065
 20
10.6476834747
 30
0.0
 10
27.1751685178
 20
10.6496691876
 30
0.0
 10
27.1744009685
 20
10.6515792356
 30
0.0
 10
27.1730996628
 20
10.6539928698
 30
0.0
 10
27.1710352959
 20
10.6567437736
 30
0.0
 10
27.1681127084
 20
10.6596365948
 30
0.0
 10
27.1649129547
 20
10.6622124708
 30
0.0
 10
27.1615306133
 20
10.6645386935
 30
0.0
 10
27.1568512937
 20
10.6673735291
 30
0.0
 10
27.1507694792
 20
10.6705112267
 30
0.0
 10
27.1432441086
 20
10.6737856219
 30
0.0
 10
27.1355534618
 20
10.67664941
 30
0.0
 10
27.1277367725
 20
10.67914665
 30
0.0
 10
27.1198195202
 20
10.6813031086
 30
0.0
 10
27.1118208175
 20
10.6831345137
 30
0.0
 10
27.1010697099
 20
10.6851558369
 30
0.0
 10
27.0874978223
 20
10.6869128954
 30
0.0
 10
27.0711034688
 20
10.6878203597
 30
0.0
 10
27.0546853387
 20
10.6875456936
 30
0.0
 10
27.0383278096
 20
10.6861037206
 30
0.0
 10
27.0221119057
 20
10.683509413
 30
0.0
 10
27.0061183439
 20
10.6797797345
 30
0.0
 10
26.9904239471
 20
10.6749343938
 30
0.0
 10
26.970015983
 20
10.667024205
 30
0.0
 10
26.9553663939
 20
10.6594800555
 30
0.0
 10
26.9460267541
 20
10.6537932373
 30
0.0
  0
SPLINE
  5
21F
100
AcDbEntity
  8
0
100
AcDbSpline
 62
7
  6
CONTINUOUS
 70
0
 71
3
 72
37
 73
33
 74
0
 42
0.0000001
 43
0.0000001
 44
0.0000000001
 40
0.0
 40
0.0
 40
0.0
 40
0.0
 40
0.1249522575
 40
0.1874645742
 40
0.2499720223
 40
0.3124769089
 40
0.3749763476
 40
0.4374716758
 40
0.499963494
 40
0.5624520461
 40
0.6249375481
 40
0.6561850128
 40
0.6874319249
 40
0.7186784022
 40
0.7499244795
 40
0.7811699833
 40
0.8124145805
 40
0.843657001
 40
0.8592819719
 40
0.8749070714
 40
0.8905327555
 40
0.9061616655
 40
0.9217925202
 40
0.9296136992
 40
0.9374399441
 40
0.9452637366
 40
0.9530867592
 40
0.96091289
 40
0.9687322179
 40
0.9765537505
 40
0.9843740896
 40
1.0
 40
1.0
 40
1.0
 40
1.0
 10
26.7177665763
 20
10.6363140902
 30
0.0
 10
26.7260440878
 20
10.6434561395
 30
0.0
 10
26.7392533873
 20
10.6533020033
 30
0.0
 10
26.7580815366
 20
10.6644548133
 30
0.0
 10
26.7727641754
 20
10.6718110541
 30
0.0
 10
26.7879250049
 20
10.6781163014
 30
0.0
 10
26.8034915318
 20
10.683338508
 30
0.0
 10
26.8193869688
 20
10.6874476806
 30
0.0
 10
26.8355338958
 20
10.6904157318
 30
0.0
 10
26.8518515594
 20
10.6922141547
 30
0.0
 10
26.8655252032
 20
10.6927110536
 30
0.0
 10
26.8764603321
 20
10.6924838768
 30
0.0
 10
26.8846497584
 20
10.6919917736
 30
0.0
 10
26.892812252
 20
10.6911656376
 30
0.0
 10
26.9009315317
 20
10.6899867531
 30
0.0
 10
26.9089866699
 20
10.6884254068
 30
0.0
 10
26.9169461252
 20
10.6864314981
 30
0.0
 10
26.9234592224
 20
10.6843346576
 30
0.0
 10
26.928538988
 20
10.6823054881
 30
0.0
 10
26.9322558598
 20
10.6805646875
 30
0.0
 10
26.9358329002
 20
10.678546626
 30
0.0
 10
26.9391873234
 20
10.6761690603
 30
0.0
 10
26.941670348
 20
10.6737897917
 30
0.0
 10
26.9433446181
 20
10.6716187197
 30
0.0
 10
26.9444103785
 20
10.6698579883
 30
0.0
 10
26.9452677969
 20
10.6679865188
 30
0.0
 10
26.9458984986
 20
10.6660273696
 30
0.0
 10
26.9463200922
 20
10.6640142666
 30
0.0
 10
26.9465486301
 20
10.6619710488
 30
0.0
 10
26.9466097972
 20
10.6599172805
 30
0.0
 10
26.9465059811
 20
10.6571819434
 30
0.0
 10
26.9462512511
 20
10.6551418815
 30
0.0
 10
26.9460267541
 20
10.6537932373
 30
0.0
  0
SPLINE
  5
220
100
AcDbEntity
  8
0
100
AcDbSpline
 62
7
  6
CONTINUOUS
 70
0
 71
3
 72
38
 73
34
 74
0
 42
0.0000001
 43
0.0000001
 44
0.0000000001
 40
0.0
 40
0.0
 40
0.0
 40
0.0
 40
0.1249503743
 40
0.187461215
 40
0.2499672137
 40
0.3124706437
 40
0.3749685154
 40
0.4374624413
 40
0.4999529355
 40
0.562440215
 40
0.6249244997
 40
0.656171374
 40
0.6874177207
 40
0.718663599
 40
0.7499090906
 40
0.7811540562
 40
0.8123981642
 40
0.8436402277
 40
0.8592648816
 40
0.8748900273
 40
0.8905156276
 40
0.9061436673
 40
0.9139656969
 40
0.9217889797
 40
0.9296109047
 40
0.9374385129
 40
0.9452626249
 40
0.9530866374
 40
0.9609136811
 40
0.9687329864
 40
0.9765538983
 40
0.9843736486
 40
1.0
 40
1.0
 40
1.0
 40
1.0
 10
26.4954965128
 20
10.5814496204
 30
0.0
 10
26.5024841687
 20
10.5898549636
 30
0.0
 10
26.5138901887
 20
10.6017383843
 30
0.0
 10
26.5306218606
 20
10.6158357339
 30
0.0
 10
26.5438901391
 20
10.6255069206
 30
0.0
 10
26.5578028416
 20
10.6342206052
 30
0.0
 10
26.5722937997
 20
10.6419332682
 30
0.0
 10
26.5872922646
 20
10.648602713
 30
0.0
 10
26.6027265567
 20
10.6541885227
 30
0.0
 10
26.6185217607
 20
10.6586493072
 30
0.0
 10
26.6319239085
 20
10.6613914383
 30
0.0
 10
26.6427447687
 20
10.6629686765
 30
0.0
 10
26.6509016395
 20
10.6638325361
 30
0.0
 10
26.6590869757
 20
10.664362639
 30
0.0
 10
26.667287808
 20
10.6645379716
 30
0.0
 10
26.675488428
 20
10.6643258944
 30
0.0
 10
26.6836660244
 20
10.6636719373
 30
0.0
 10
26.6904344545
 20
10.6626787545
 30
0.0
 10
26.6957784517
 20
10.6615166873
 30
0.0
 10
26.6997314361
 20
10.6604147397
 30
0.0
 10
26.703591731
 20
10.6590174704
 30
0.0
 10
26.7066789797
 20
10.657526633
 30
0.0
 10
26.7089989587
 20
10.6560716473
 30
0.0
 10
26.7106409629
 20
10.6548345382
 30
0.0
 10
26.7121512872
 20
10.6534375556
 30
0.0
 10
26.7134969838
 20
10.6518806713
 30
0.0
 10
26.7146556986
 20
10.6501793398
 30
0.0
 10
26.7156051086
 20
10.648353453
 30
0.0
 10
26.7163572954
 20
10.6464393764
 30
0.0
 10
26.7169232726
 20
10.6444632064
 30
0.0
 10
26.7173253147
 20
10.6424487409
 30
0.0
 10
26.717677545
 20
10.6397347687
 30
0.0
 10
26.7177645443
 20
10.6376810695
 30
0.0
 10
26.7177665763
 20
10.6363140902
 30
0.0
  0
SPLINE
  5
221
100
AcDbEntity
  8
0
100
AcDbSpline
 62
7
  6
CONTINUOUS
 70
0
 71
3
 72
38
 73
34
 74
0
 42
0.0000001
 43
0.0000001
 44
0.0000000001
 40
0.0
 40
0.0
 40
0.0
 40
0.0
 40
0.1249503743
 40
0.187461215
 40
0.2499672137
 40
0.3124706437
 40
0.3749685154
 40
0.4374624412
 40
0.4999529355
 40
0.562440215
 40
0.6249244997
 40
0.656171374
 40
0.6874177207
 40
0.718663599
 40
0.7499090906
 40
0.7811540562
 40
0.8123981642
 40
0.8436402277
 40
0.8592648815
 40
0.8748900273
 40
0.8905156276
 40
0.9061436673
 40
0.9139656969
 40
0.9217889797
 40
0.9296109047
 40
0.9374385129
 40
0.9452626248
 40
0.9530866374
 40
0.960913681
 40
0.9687329864
 40
0.9765538983
 40
0.9843736486
 40
1.0
 40
1.0
 40
1.0
 40
1.0
 10
26.2852881849
 20
10.4907492894
 30
0.0
 10
26.2907970781
 20
10.500190117
 30
0.0
 10
26.3000916081
 20
10.5137888188
 30
0.0
 10
26.3142747588
 20
10.5304478208
 30
0.0
 10
26.3257702675
 20
10.5421709751
 30
0.0
 10
26.3380590095
 20
10.5530557538
 30
0.0
 10
26.3510828819
 20
10.5630483403
 30
0.0
 10
26.3647790461
 20
10.5720954686
 30
0.0
 10
26.3790834523
 20
10.5801454752
 30
0.0
 10
26.3939290196
 20
10.5871452037
 30
0.0
 10
26.4066970469
 20
10.592055838
 30
0.0
 10
26.4171107246
 20
10.5953926044
 30
0.0
 10
26.425014163
 20
10.5975872473
 30
0.0
 10
26.4330006125
 20
10.5994573706
 30
0.0
 10
26.4410607396
 20
10.6009801127
 30
0.0
 10
26.4491844223
 20
10.6021206937
 30
0.0
 10
26.4573581258
 20
10.6028216318
 30
0.0
 10
26.464197716
 20
10.6029560317
 30
0.0
 10
26.4696600976
 20
10.6026893986
 30
0.0
 10
26.4737405424
 20
10.6022531139
 30
0.0
 10
26.4777781699
 20
10.6015102793
 30
0.0
 10
26.4810686948
 20
10.6005479146
 30
0.0
 10
26.4835965136
 20
10.5994946253
 30
0.0
 10
26.4854197431
 20
10.598544651
 30
0.0
 10
26.4871394026
 20
10.5974153101
 30
0.0
 10
26.4887229985
 20
10.5961011517
 30
0.0
 10
26.4901459377
 20
10.5946137403
 30
0.0
 10
26.4913829277
 20
10.5929690222
 30
0.0
 10
26.4924398997
 20
10.5912048554
 30
0.0
 10
26.4933234219
 20
10.5893487932
 30
0.0
 10
26.494051548
 20
10.5874279753
 30
0.0
 10
26.4948456755
 20
10.5848089922
 30
0.0
 10
26.4952695132
 20
10.5827976218
 30
0.0
 10
26.4954965128
 20
10.5814496204
 30
0.0
  0
SPLINE
  5
222
100
AcDbEntity
  8
0
100
AcDbSpline
 62
7
  6
CONTINUOUS
 70
0
 71
3
 72
38
 73
34
 74
0
 42
0.0000001
 43
0.0000001
 44
0.0000000001
 40
0.0
 40
0.0
 40
0.0
 40
0.0
 40
0.1249503743
 40
0.187461215
 40
0.2499672137
 40
0.3124706437
 40
0.3749685154
 40
0.4374624413
 40
0.4999529355
 40
0.562440215
 40
0.6249244997
 40
0.656171374
 40
0.6874177207
 40
0.718663599
 40
0.7499090906
 40
0.7811540562
 40
0.8123981642
 40
0.8436402277
 40
0.8592648816
 40
0.8748900273
 40
0.8905156276
 40
0.9061436673
 40
0.9139656969
 40
0.9217889797
 40
0.9296109047
 40
0.9374385129
 40
0.9452626249
 40
0.9530866374
 40
0.9609136811
 40
0.9687329864
 40
0.9765538983
 40
0.9843736486
 40
1.0
 40
1.0
 40
1.0
 40
1.0
 10
26.0928754261
 20
10.3666871219
 30
0.0
 10
26.096755291
 20
10.3769059172
 30
0.0
 10
26.103684805
 20
10.3918489696
 30
0.0
 10
26.1149325619
 20
10.4106152179
 30
0.0
 10
26.1243417389
 20
10.4240705683
 30
0.0
 10
26.1346713216
 20
10.4368295382
 30
0.0
 10
26.1458728573
 20
10.4488294813
 30
0.0
 10
26.1578931316
 20
10.4600075154
 30
0.0
 10
26.1706774721
 20
10.4703021395
 30
0.0
 10
26.1841684615
 20
10.4796498811
 30
0.0
 10
26.1959540958
 20
10.4865950716
 30
0.0
 10
26.2056765382
 20
10.4916003496
 30
0.0
 10
26.2131109628
 20
10.4950659126
 30
0.0
 10
26.22068068
 20
10.4982250452
 30
0.0
 10
26.2283802465
 20
10.5010536611
 30
0.0
 10
26.2362054029
 20
10.5035157888
 30
0.0
 10
26.2441522601
 20
10.5055525027
 30
0.0
 10
26.2508764475
 20
10.5068108192
 30
0.0
 10
26.2563082167
 20
10.5074468931
 30
0.0
 10
26.26040482
 20
10.5076881719
 30
0.0
 10
26.2645096459
 20
10.5076200342
 30
0.0
 10
26.2679136919
 20
10.5072123925
 30
0.0
 10
26.2705803992
 20
10.5065895301
 30
0.0
 10
26.2725351219
 20
10.505952603
 30
0.0
 10
26.2744172098
 20
10.5051217088
 30
0.0
 10
26.2761955093
 20
10.5040861225
 30
0.0
 10
26.2778438595
 20
10.5028532031
 30
0.0
 10
26.2793346882
 20
10.5014345164
 30
0.0
 10
26.2806676145
 20
10.4998683805
 30
0.0
 10
26.2818445819
 20
10.4981830538
 30
0.0
 10
26.2828789309
 20
10.4964082775
 30
0.0
 10
26.2840932945
 20
10.4939557212
 30
0.0
 10
26.2848424094
 20
10.4920415436
 30
0.0
 10
26.2852881849
 20
10.4907492894
 30
0.0
  0
SPLINE
  5
223
100
AcDbEntity
  8
0
100
AcDbSpline
 62
7
  6
CONTINUOUS
 70
0
 71
3
 72
38
 73
34
 74
0
 42
0.0000001
 43
0.0000001
 44
0.0000000001
 40
0.0
 40
0.0
 40
0.0
 40
0.0
 40
0.1249503744
 40
0.1874612151
 40
0.2499672137
 40
0.3124706436
 40
0.3749685152
 40
0.4374624409
 40
0.4999529351
 40
0.5624402145
 40
0.624924499
 40
0.6561713734
 40
0.68741772
 40
0.7186635982
 40
0.7499090897
 40
0.7811540553
 40
0.8123981632
 40
0.8436402266
 40
0.8592648803
 40
0.8748900262
 40
0.8905156266
 40
0.9061436656
 40
0.9139656951
 40
0.921788977
 40
0.9296109023
 40
0.9374385107
 40
0.9452626221
 40
0.9530866357
 40
0.96091368
 40
0.9687329855
 40
0.976553898
 40
0.9843736485
 40
1.0
 40
1.0
 40
1.0
 40
1.0
 10
25.9235066617
 20
10.2126471504
 30
0.0
 10
25.9256516677
 20
10.2233651762
 30
0.0
 10
25.9300271499
 20
10.239244979
 30
0.0
 10
25.9380327091
 20
10.2596065883
 30
0.0
 10
25.945098901
 20
10.2744271145
 30
0.0
 10
25.9531875652
 20
10.2887122501
 30
0.0
 10
25.9622612209
 20
10.3023922285
 30
0.0
 10
25.9722777296
 20
10.3153962662
 30
0.0
 10
25.9831932868
 20
10.3276547022
 30
0.0
 10
25.9949617058
 20
10.3390954794
 30
0.0
 10
26.0054434716
 20
10.3478857828
 30
0.0
 10
26.0142094804
 20
10.3544230439
 30
0.0
 10
26.020972103
 20
10.3590649973
 30
0.0
 10
26.0279186094
 20
10.3634269676
 30
0.0
 10
26.0350475949
 20
10.3674843014
 30
0.0
 10
26.0423607789
 20
10.3712008166
 30
0.0
 10
26.0498640241
 20
10.374517751
 30
0.0
 10
26.0562893937
 20
10.3768656612
 30
0.0
 10
26.0615423886
 20
10.378387092
 30
0.0
 10
26.0655434077
 20
10.379299353
 30
0.0
 10
26.0696034651
 20
10.3799077709
 30
0.0
 10
26.07302818
 20
10.3800659711
 30
0.0
 10
26.0757610364
 20
10.3798905256
 30
0.0
 10
26.0777939335
 20
10.3795840195
 30
0.0
 10
26.0797871118
 20
10.3790742355
 30
0.0
 10
26.0817116089
 20
10.3783454697
 30
0.0
 10
26.083540408
 20
10.3774006722
 30
0.0
 10
26.0852444103
 20
10.3762467143
 30
0.0
 10
26.0868169332
 20
10.3749213288
 30
0.0
 10
26.0882552418
 20
10.373452708
 30
0.0
 10
26.0895675999
 20
10.3718723835
 30
0.0
 10
26.0911690754
 20
10.3696531522
 30
0.0
 10
26.0922230341
 20
10.3678883801
 30
0.0
 10
26.0928754261
 20
10.3666871219
 30
0.0
  0
SPLINE
  5
224
100
AcDbEntity
  8
0
100
AcDbSpline
 62
7
  6
CONTINUOUS
 70
0
 71
3
 72
38
 73
34
 74
0
 42
0.0000001
 43
0.0000001
 44
0.0000000001
 40
0.0
 40
0.0
 40
0.0
 40
0.0
 40
0.1249503743
 40
0.187461215
 40
0.2499672137
 40
0.3124706437
 40
0.3749685154
 40
0.4374624413
 40
0.4999529355
 40
0.562440215
 40
0.6249244997
 40
0.656171374
 40
0.6874177207
 40
0.7186635991
 40
0.7499090906
 40
0.7811540562
 40
0.8123981642
 40
0.8436402278
 40
0.8592648816
 40
0.8748900273
 40
0.8905156276
 40
0.9061436673
 40
0.9139656969
 40
0.9217889798
 40
0.9296109047
 40
0.9374385129
 40
0.9452626249
 40
0.9530866374
 40
0.9609136811
 40
0.9687329864
 40
0.9765538983
 40
0.9843736486
 40
1.0
 40
1.0
 40
1.0
 40
1.0
 10
25.7818017483
 20
10.0328311092
 30
0.0
 10
25.7821533862
 20
10.043756011
 30
0.0
 10
25.7838554869
 20
10.0601394121
 30
0.0
 10
25.7884004814
 20
10.0815409807
 30
0.0
 10
25.7929309444
 20
10.0973224245
 30
0.0
 10
25.7985580565
 20
10.1127440717
 30
0.0
 10
25.8052563309
 20
10.1277309378
 30
0.0
 10
25.8129958545
 20
10.1422062692
 30
0.0
 10
25.8217448859
 20
10.1560941449
 30
0.0
 10
25.8314697285
 20
10.1693158886
 30
0.0
 10
25.8403617155
 20
10.1797115326
 30
0.0
 10
25.8479321813
 20
10.1876024605
 30
0.0
 10
25.8538385384
 20
10.1932941861
 30
0.0
 10
25.8599723548
 20
10.1987400133
 30
0.0
 10
25.8663363027
 20
10.2039153934
 30
0.0
 10
25.8729380333
 20
10.208784921
 30
0.0
 10
25.8797930012
 20
10.2132916002
 30
0.0
 10
25.8857442888
 20
10.2166650603
 30
0.0
 10
25.8906752239
 20
10.219030348
 30
0.0
 10
25.8944715234
 20
10.2205887075
 30
0.0
 10
25.8983760665
 20
10.221857085
 30
0.0
 10
25.901728035
 20
10.2225768125
 30
0.0
 10
25.9044524967
 20
10.2228535689
 30
0.0
 10
25.9065081171
 20
10.2228858437
 30
0.0
 10
25.9085580187
 20
10.2227110765
 30
0.0
 10
25.9105762182
 20
10.2223090081
 30
0.0
 10
25.9125355826
 20
10.2216781044
 30
0.0
 10
25.9144062784
 20
10.2208203518
 30
0.0
 10
25.9161755035
 20
10.2197718687
 30
0.0
 10
25.9178359207
 20
10.2185600135
 30
0.0
 10
25.9193904908
 20
10.2172172475
 30
0.0
 10
25.9213353948
 20
10.2152918749
 30
0.0
 10
25.9226654485
 20
10.213724646
 30
0.0
 10
25.9235066617
 20
10.2126471504
 30
0.0
  0
SPLINE
  5
225
100
AcDbEntity
  8
0
100
AcDbSpline
 62
7
  6
CONTINUOUS
 70
0
 71
3
 72
33
 73
29
 74
0
 42
0.0000001
 43
0.0000001
 44
0.0000000001
 40
0.0
 40
0.0
 40
0.0
 40
0.0
 40
0.1249785573
 40
0.2499415922
 40
0.3124421693
 40
0.3749402264
 40
0.4374361291
 40
0.4999300039
 40
0.5624219145
 40
0.624911726
 40
0.6561602387
 40
0.6874083452
 40
0.7186563478
 40
0.7499042769
 40
0.7811518475
 40
0.8123983545
 40
0.8280243372
 40
0.8436528629
 40
0.8592821208
 40
0.8749155377
 40
0.8905539472
 40
0.90618966
 40
0.9218331035
 40
0.9296584361
 40
0.9374842732
 40
0.9531272491
 40
0.9687621709
 40
1.0
 40
1.0
 40
1.0
 40
1.0
 10
25.671499409
 20
9.892698015
 30
0.0
 10
25.6725750486
 20
9.9010325928
 30
0.0
 10
25.6756292422
 20
9.9175975061
 30
0.0
 10
25.6816638412
 20
9.9377661815
 30
0.0
 10
25.6877849834
 20
9.9534273526
 30
0.0
 10
25.6930160293
 20
9.9649055803
 30
0.0
 10
25.6988770766
 20
9.9760745705
 30
0.0
 10
25.7053605583
 20
9.9868941682
 30
0.0
 10
25.7124614998
 20
9.997318591
 30
0.0
 10
25.7188959584
 20
10.005632164
 30
0.0
 10
25.7243606881
 20
10.0120189208
 30
0.0
 10
25.7286241938
 20
10.016663754
 30
0.0
 10
25.7330597509
 20
10.0211447813
 30
0.0
 10
25.7376804618
 20
10.0254354889
 30
0.0
 10
25.7425073635
 20
10.0294934812
 30
0.0
 10
25.7467308506
 20
10.0326254195
 30
0.0
 10
25.7502584975
 20
10.034912184
 30
0.0
 10
25.7529887621
 20
10.0364917049
 30
0.0
 10
25.7558164628
 20
10.0378925513
 30
0.0
 10
25.758750699
 20
10.0390606943
 30
0.0
 10
25.7617969619
 20
10.0399077421
 30
0.0
 10
25.7649355415
 20
10.0403317469
 30
0.0
 10
25.7675783417
 20
10.0402376316
 30
0.0
 10
25.7696548034
 20
10.0398815292
 30
0.0
 10
25.7716906704
 20
10.0393398381
 30
0.0
 10
25.7741398676
 20
10.0383518445
 30
0.0
 10
25.7777890923
 20
10.0362470741
 30
0.0
 10
25.7802542818
 20
10.0342514297
 30
0.0
 10
25.7818017483
 20
10.0328311092
 30
0.0
  0
SPLINE
  5
226
100
AcDbEntity
  8
0
100
AcDbSpline
 62
7
  6
CONTINUOUS
 70
0
 71
3
 72
15
 73
11
 74
0
 42
0.0000001
 43
0.0000001
 44
0.0000000001
 40
0.0
 40
0.0
 40
0.0
 40
0.0
 40
0.1250222955
 40
0.2500606587
 40
0.3750761226
 40
0.5000835789
 40
0.6250773718
 40
0.7500613418
 40
0.8750357932
 40
1.0
 40
1.0
 40
1.0
 40
1.0
 10
25.772654061
 20
8.5165096301
 30
0.0
 10
25.7660422718
 20
8.519667306
 30
0.0
 10
25.7531119094
 20
8.5266206126
 30
0.0
 10
25.7347972645
 20
8.5388331076
 30
0.0
 10
25.7177134806
 20
8.5527169226
 30
0.0
 10
25.7020136798
 20
8.5681440795
 30
0.0
 10
25.6878402689
 20
8.5849822867
 30
0.0
 10
25.6753305847
 20
8.6030900765
 30
0.0
 10
25.6646252042
 20
8.6223161673
 30
0.0
 10
25.6587911616
 20
8.6357856026
 30
0.0
 10
25.6562413177
 20
8.6426511028
 30
0.0
  0
SPLINE
  5
227
100
AcDbEntity
  8
0
100
AcDbSpline
 62
7
  6
CONTINUOUS
 70
0
 71
3
 72
38
 73
34
 74
0
 42
0.0000001
 43
0.0000001
 44
0.0000000001
 40
0.0
 40
0.0
 40
0.0
 40
0.0
 40
0.1249503743
 40
0.187461215
 40
0.2499672137
 40
0.3124706437
 40
0.3749685154
 40
0.4374624413
 40
0.4999529355
 40
0.562440215
 40
0.6249244997
 40
0.6561713741
 40
0.6874177207
 40
0.7186635991
 40
0.7499090906
 40
0.7811540563
 40
0.8123981642
 40
0.8436402278
 40
0.8592648816
 40
0.8748900273
 40
0.8905156277
 40
0.9061436673
 40
0.9139656969
 40
0.9217889798
 40
0.9296109047
 40
0.9374385129
 40
0.9452626249
 40
0.9530866374
 40
0.9609136811
 40
0.9687329864
 40
0.9765538983
 40
0.9843736486
 40
1.0
 40
1.0
 40
1.0
 40
1.0
 10
25.9121791453
 20
8.3349969803
 30
0.0
 10
25.9016749001
 20
8.3380198865
 30
0.0
 10
25.8862107344
 20
8.3436919724
 30
0.0
 10
25.866579892
 20
8.3533518966
 30
0.0
 10
25.8523936162
 20
8.3616180109
 30
0.0
 10
25.8388253503
 20
8.3708588849
 30
0.0
 10
25.8259415271
 20
8.3810314036
 30
0.0
 10
25.8138092077
 20
8.3920877262
 30
0.0
 10
25.8024941973
 20
8.4039784446
 30
0.0
 10
25.7920644922
 20
8.4166515783
 30
0.0
 10
25.7841699373
 20
8.4278235455
 30
0.0
 10
25.7783790182
 20
8.4370995334
 30
0.0
 10
25.7743114666
 20
8.4442224414
 30
0.0
 10
25.7705381289
 20
8.4515054806
 30
0.0
 10
25.7670834583
 20
8.4589452147
 30
0.0
 10
25.7639836553
 20
8.4665403689
 30
0.0
 10
25.7612977655
 20
8.4742919325
 30
0.0
 10
25.7594885648
 20
8.4808892691
 30
0.0
 10
25.7584061902
 20
8.4862499754
 30
0.0
 10
25.7578275004
 20
8.4903126706
 30
0.0
 10
25.7575564917
 20
8.4944091072
 30
0.0
 10
25.7576816876
 20
8.4978351875
 30
0.0
 10
25.7580822475
 20
8.5005442164
 30
0.0
 10
25.7585556088
 20
8.5025448528
 30
0.0
 10
25.7592282721
 20
8.5044891172
 30
0.0
 10
25.7601134979
 20
8.506346848
 30
0.0
 10
25.7612061122
 20
8.5080913658
 30
0.0
 10
25.7624968652
 20
8.5096942378
 30
0.0
 10
25.7639476012
 20
8.5111519206
 30
0.0
 10
25.7655299977
 20
8.512464018
 30
0.0
 10
25.7672133138
 20
8.5136413693
 30
0.0
 10
25.7695572327
 20
8.5150540813
 30
0.0
 10
25.7714030244
 20
8.515958682
 30
0.0
 10
25.772654061
 20
8.5165096301
 30
0.0
  0
SPLINE
  5
228
100
AcDbEntity
  8
0
100
AcDbSpline
 62
7
  6
CONTINUOUS
 70
0
 71
3
 72
38
 73
34
 74
0
 42
0.0000001
 43
0.0000001
 44
0.0000000001
 40
0.0
 40
0.0
 40
0.0
 40
0.0
 40
0.1249503743
 40
0.187461215
 40
0.2499672137
 40
0.3124706437
 40
0.3749685153
 40
0.4374624411
 40
0.4999529353
 40
0.5624402148
 40
0.6249244994
 40
0.6561713738
 40
0.6874177204
 40
0.7186635987
 40
0.7499090903
 40
0.7811540559
 40
0.8123981638
 40
0.8436402273
 40
0.859264881
 40
0.8748900269
 40
0.8905156272
 40
0.9061436666
 40
0.9139656962
 40
0.9217889786
 40
0.9296109038
 40
0.937438512
 40
0.9452626237
 40
0.9530866367
 40
0.9609136806
 40
0.968732986
 40
0.9765538982
 40
0.9843736486
 40
1.0
 40
1.0
 40
1.0
 40
1.0
 10
26.07967706
 20
8.1789247543
 30
0.0
 10
26.0688185269
 20
8.180177506
 30
0.0
 10
26.0526316821
 20
8.1832269379
 30
0.0
 10
26.0316786168
 20
8.1895240136
 30
0.0
 10
26.0163252741
 20
8.1953424272
 30
0.0
 10
26.001421074
 20
8.2022240265
 30
0.0
 10
25.9870386394
 20
8.2101372188
 30
0.0
 10
25.9732519913
 20
8.2190458537
 30
0.0
 10
25.9601341695
 20
8.228912028
 30
0.0
 10
25.9477607986
 20
8.2396956618
 30
0.0
 10
25.938135084
 20
8.249415871
 30
0.0
 10
25.9308963801
 20
8.2576122032
 30
0.0
 10
25.9257119218
 20
8.2639684747
 30
0.0
 10
25.9207913083
 20
8.2705311189
 30
0.0
 10
25.9161592249
 20
8.2773007715
 30
0.0
 10
25.9118515882
 20
8.2842821332
 30
0.0
 10
25.9079264756
 20
8.2914858984
 30
0.0
 10
25.9050560731
 20
8.2976954755
 30
0.0
 10
25.9031061251
 20
8.3028049186
 30
0.0
 10
25.9018666359
 20
8.3067169565
 30
0.0
 10
25.9009250779
 20
8.3107129179
 30
0.0
 10
25.9004846571
 20
8.3141128781
 30
0.0
 10
25.9004338663
 20
8.3168508894
 30
0.0
 10
25.9005714806
 20
8.3189021522
 30
0.0
 10
25.9009149575
 20
8.3209306155
 30
0.0
 10
25.90148234
 20
8.3229087119
 30
0.0
 10
25.9022729172
 20
8.324809274
 30
0.0
 10
25.9032822447
 20
8.3266027344
 30
0.0
 10
25.9044732702
 20
8.3282793181
 30
0.0
 10
25.9058181231
 20
8.3298339721
 30
0.0
 10
25.9072846974
 20
8.3312723285
 30
0.0
 10
25.9093641263
 20
8.3330515662
 30
0.0
 10
25.9110358531
 20
8.3342476342
 30
0.0
 10
25.9121791453
 20
8.3349969803
 30
0.0
  0
SPLINE
  5
229
100
AcDbEntity
  8
0
100
AcDbSpline
 62
7
  6
CONTINUOUS
 70
0
 71
3
 72
38
 73
34
 74
0
 42
0.0000001
 43
0.0000001
 44
0.0000000001
 40
0.0
 40
0.0
 40
0.0
 40
0.0
 40
0.1249503743
 40
0.187461215
 40
0.2499672137
 40
0.3124706437
 40
0.3749685154
 40
0.4374624413
 40
0.4999529355
 40
0.562440215
 40
0.6249244997
 40
0.6561713741
 40
0.6874177207
 40
0.7186635991
 40
0.7499090906
 40
0.7811540563
 40
0.8123981642
 40
0.8436402278
 40
0.8592648816
 40
0.8748900273
 40
0.8905156277
 40
0.9061436673
 40
0.9139656969
 40
0.9217889798
 40
0.9296109048
 40
0.937438513
 40
0.9452626249
 40
0.9530866375
 40
0.9609136811
 40
0.9687329864
 40
0.9765538983
 40
0.9843736486
 40
1.0
 40
1.0
 40
1.0
 40
1.0
 10
26.2705789799
 20
8.0525501202
 30
0.0
 10
26.2596623461
 20
8.0519985462
 30
0.0
 10
26.2431943493
 20
8.0523421449
 30
0.0
 10
26.2214905959
 20
8.0551046075
 30
0.0
 10
26.2053889781
 20
8.058316612
 30
0.0
 10
26.1895553842
 20
8.0626512278
 30
0.0
 10
26.1740666466
 20
8.0680892463
 30
0.0
 10
26.1590017269
 20
8.0746071935
 30
0.0
 10
26.1444389073
 20
8.0821797049
 30
0.0
 10
26.1304593778
 20
8.0907796947
 30
0.0
 10
26.1193650633
 20
8.0987830087
 30
0.0
 10
26.1108760242
 20
8.1056761146
 30
0.0
 10
26.1047160752
 20
8.1110923701
 30
0.0
 10
26.098782405
 20
8.1167556107
 30
0.0
 10
26.0930992577
 20
8.1226705266
 30
0.0
 10
26.0877012862
 20
8.1288476659
 30
0.0
 10
26.0826440157
 20
8.1353071362
 30
0.0
 10
26.0787907074
 20
8.1409595757
 30
0.0
 10
26.0760263743
 20
8.1456783858
 30
0.0
 10
26.0741598952
 20
8.1493330582
 30
0.0
 10
26.0725734709
 20
8.1531195469
 30
0.0
 10
26.0715794465
 20
8.1564006467
 30
0.0
 10
26.0710786906
 20
8.159092956
 30
0.0
 10
26.0708768043
 20
8.1611388931
 30
0.0
 10
26.0708817253
 20
8.1631962253
 30
0.0
 10
26.0711157889
 20
8.1652407307
 30
0.0
 10
26.0715827642
 20
8.1672454957
 30
0.0
 10
26.0722831347
 20
8.1691806245
 30
0.0
 10
26.0731819624
 20
8.1710303766
 30
0.0
 10
26.0742525882
 20
8.1727851811
 30
0.0
 10
26.075462417
 20
8.1744453085
 30
0.0
 10
26.0772206354
 20
8.1765425399
 30
0.0
 10
26.0786726978
 20
8.1779974501
 30
0.0
 10
26.07967706
 20
8.1789247543
 30
0.0
  0
SPLINE
  5
22A
100
AcDbEntity
  8
0
100
AcDbSpline
 62
7
  6
CONTINUOUS
 70
0
 71
3
 72
38
 73
34
 74
0
 42
0.0000001
 43
0.0000001
 44
0.0000000001
 40
0.0
 40
0.0
 40
0.0
 40
0.0
 40
0.1249503743
 40
0.187461215
 40
0.2499672137
 40
0.3124706437
 40
0.3749685154
 40
0.4374624413
 40
0.4999529355
 40
0.562440215
 40
0.6249244997
 40
0.656171374
 40
0.6874177207
 40
0.718663599
 40
0.7499090906
 40
0.7811540562
 40
0.8123981642
 40
0.8436402277
 40
0.8592648816
 40
0.8748900273
 40
0.8905156276
 40
0.9061436673
 40
0.9139656969
 40
0.9217889797
 40
0.9296109047
 40
0.9374385129
 40
0.9452626249
 40
0.9530866374
 40
0.9609136811
 40
0.9687329864
 40
0.9765538983
 40
0.9843736486
 40
1.0
 40
1.0
 40
1.0
 40
1.0
 10
26.4796776905
 20
7.9593201873
 30
0.0
 10
26.469000728
 20
7.9569793329
 30
0.0
 10
26.4527007752
 20
7.9546077261
 30
0.0
 10
26.4308383451
 20
7.953760224
 30
0.0
 10
26.4144276546
 20
7.954278206
 30
0.0
 10
26.3980965585
 20
7.9559476033
 30
0.0
 10
26.3819240028
 20
7.9587621157
 30
0.0
 10
26.3659917359
 20
7.9627115857
 30
0.0
 10
26.3503811472
 20
7.9677838796
 30
0.0
 10
26.3351767776
 20
7.9739656441
 30
0.0
 10
26.3229164818
 20
7.9800337572
 30
0.0
 10
26.3134086621
 20
7.9854356142
 30
0.0
 10
26.3064412468
 20
7.989764115
 30
0.0
 10
26.2996563721
 20
7.9943734764
 30
0.0
 10
26.2930771796
 20
7.9992723148
 30
0.0
 10
26.2867361133
 20
8.0044767384
 30
0.0
 10
26.2806846317
 20
8.0100157195
 30
0.0
 10
26.2759535237
 20
8.0149568404
 30
0.0
 10
26.2724502081
 20
8.019156303
 30
0.0
 10
26.2700076509
 20
8.0224539216
 30
0.0
 10
26.2678196329
 20
8.0259276538
 30
0.0
 10
26.2662991189
 20
8.0290003949
 30
0.0
 10
26.265362057
 20
8.0315735643
 30
0.0
 10
26.2648261768
 20
8.0335583689
 30
0.0
 10
26.264492408
 20
8.0355884522
 30
0.0
 10
26.2643867677
 20
8.037643599
 30
0.0
 10
26.2645174037
 20
8.039697883
 30
0.0
 10
26.2648897133
 20
8.0417218958
 30
0.0
 10
26.2654718258
 20
8.0436943611
 30
0.0
 10
26.2662390211
 20
8.0456014504
 30
0.0
 10
26.2671591042
 20
8.0474380658
 30
0.0
 10
26.2685481532
 20
8.0497960848
 30
0.0
 10
26.2697409436
 20
8.0514701519
 30
0.0
 10
26.2705789799
 20
8.0525501202
 30
0.0
  0
SPLINE
  5
22B
100
AcDbEntity
  8
0
100
AcDbSpline
 62
7
  6
CONTINUOUS
 70
0
 71
3
 72
38
 73
34
 74
0
 42
0.0000001
 43
0.0000001
 44
0.0000000001
 40
0.0
 40
0.0
 40
0.0
 40
0.0
 40
0.1249503729
 40
0.1874612144
 40
0.2499672134
 40
0.3124706426
 40
0.3749685135
 40
0.4374624389
 40
0.4999529327
 40
0.5624402118
 40
0.6249244962
 40
0.6561713704
 40
0.687417717
 40
0.7186635952
 40
0.7499090866
 40
0.7811540521
 40
0.8123981599
 40
0.8436402233
 40
0.8592648769
 40
0.8748900229
 40
0.8905156238
 40
0.906143664
 40
0.9139656951
 40
0.9217889779
 40
0.9296109035
 40
0.9374385119
 40
0.9452626235
 40
0.9530866365
 40
0.9609136799
 40
0.9687329851
 40
0.9765538977
 40
0.9843736481
 40
1.0
 40
1.0
 40
1.0
 40
1.0
 10
26.7012696253
 20
7.9017779801
 30
0.0
 10
26.6911235687
 20
7.8977116966
 30
0.0
 10
26.6754362724
 20
7.8926895745
 30
0.0
 10
26.6540115051
 20
7.8882552249
 30
0.0
 10
26.6377393748
 20
7.8860650553
 30
0.0
 10
26.6213562383
 20
7.8850236982
 30
0.0
 10
26.604941002
 20
7.8851379333
 30
0.0
 10
26.5885759711
 20
7.8864111967
 30
0.0
 10
26.572343422
 20
7.8888449164
 30
0.0
 10
26.5563289406
 20
7.8924398362
 30
0.0
 10
26.5432370865
 20
7.896407229
 30
0.0
 10
26.5329698302
 20
7.900170491
 30
0.0
 10
26.5253849982
 20
7.9032931689
 30
0.0
 10
26.5179339894
 20
7.9067229219
 30
0.0
 10
26.5106382118
 20
7.9104720577
 30
0.0
 10
26.5035270154
 20
7.914561805
 30
0.0
 10
26.4966463884
 20
7.9190292105
 30
0.0
 10
26.4911665308
 20
7.923124234
 30
0.0
 10
26.4870197922
 20
7.9266898008
 30
0.0
 10
26.484067782
 20
7.9295404166
 30
0.0
 10
26.4813378527
 20
7.9326066398
 30
0.0
 10
26.479332324
 20
7.9353872075
 30
0.0
 10
26.4779845159
 20
7.937771049
 30
0.0
 10
26.4771292588
 20
7.9396405818
 30
0.0
 10
26.4764659047
 20
7.941588042
 30
0.0
 10
26.4760234415
 20
7.9435977721
 30
0.0
 10
26.475814175
 20
7.9456455407
 30
0.0
 10
26.4758482682
 20
7.9477032286
 30
0.0
 10
26.4760977871
 20
7.9497446043
 30
0.0
 10
26.4765406255
 20
7.9517519589
 30
0.0
 10
26.4771458657
 20
7.9537149651
 30
0.0
 10
26.4781278563
 20
7.9562694526
 30
0.0
 10
26.4790288391
 20
7.958117013
 30
0.0
 10
26.4796776905
 20
7.9593201873
 30
0.0
  0
SPLINE
  5
22C
100
AcDbEntity
  8
0
100
AcDbSpline
 62
7
  6
CONTINUOUS
 70
0
 71
3
 72
38
 73
34
 74
0
 42
0.0000001
 43
0.0000001
 44
0.0000000001
 40
0.0
 40
0.0
 40
0.0
 40
0.0
 40
0.1249503742
 40
0.1874612149
 40
0.2499672137
 40
0.3124706436
 40
0.3749685152
 40
0.437462441
 40
0.4999529352
 40
0.5624402147
 40
0.6249244993
 40
0.6561713737
 40
0.6874177204
 40
0.7186635987
 40
0.7499090902
 40
0.7811540558
 40
0.8123981638
 40
0.8436402273
 40
0.8592648811
 40
0.8748900269
 40
0.8905156273
 40
0.9061436669
 40
0.9139656967
 40
0.9217889795
 40
0.9296109045
 40
0.9374385128
 40
0.9452626247
 40
0.9530866373
 40
0.9609136809
 40
0.9687329862
 40
0.9765538983
 40
0.9843736486
 40
1.0
 40
1.0
 40
1.0
 40
1.0
 10
26.9293104411
 20
7.8814930722
 30
0.0
 10
26.9199720434
 20
7.8758122751
 30
0.0
 10
26.9053253043
 20
7.8682766256
 30
0.0
 10
26.8849226012
 20
7.860376384
 30
0.0
 10
26.8692328845
 20
7.8555378039
 30
0.0
 10
26.8532445888
 20
7.8518140974
 30
0.0
 10
26.8370344285
 20
7.8492249392
 30
0.0
 10
26.8206830208
 20
7.8477872654
 30
0.0
 10
26.8042712849
 20
7.8475160268
 30
0.0
 10
26.787883517
 20
7.8484260437
 30
0.0
 10
26.77431721
 20
7.8501844981
 30
0.0
 10
26.763570576
 20
7.8522065151
 30
0.0
 10
26.7555752179
 20
7.8540381932
 30
0.0
 10
26.7476613156
 20
7.8561947848
 30
0.0
 10
26.739847959
 20
7.8586919533
 30
0.0
 10
26.7321606041
 20
7.8615554686
 30
0.0
 10
26.7246385138
 20
7.8648294416
 30
0.0
 10
26.7185593802
 20
7.8679666685
 30
0.0
 10
26.7138823289
 20
7.8708010817
 30
0.0
 10
26.710501388
 20
7.8731269391
 30
0.0
 10
26.7073040114
 20
7.8757020161
 30
0.0
 10
26.7048681728
 20
7.8781145647
 30
0.0
 10
26.7031463829
 20
7.8802440542
 30
0.0
 10
26.7019950783
 20
7.88194732
 30
0.0
 10
26.7010202323
 20
7.8837590361
 30
0.0
 10
26.7002530164
 20
7.8856685303
 30
0.0
 10
26.6997095551
 20
7.8876539266
 30
0.0
 10
26.699404502
 20
7.8896891624
 30
0.0
 10
26.6993146217
 20
7.8917437659
 30
0.0
 10
26.6994210234
 20
7.8937966315
 30
0.0
 10
26.6996949118
 20
7.8958324837
 30
0.0
 10
26.7002430586
 20
7.8985137607
 30
0.0
 10
26.7008276574
 20
7.9004844188
 30
0.0
 10
26.7012696253
 20
7.9017779801
 30
0.0
  0
SPLINE
  5
22D
100
AcDbEntity
  8
0
100
AcDbSpline
 62
7
  6
CONTINUOUS
 70
0
 71
3
 72
38
 73
34
 74
0
 42
0.0000001
 43
0.0000001
 44
0.0000000001
 40
0.0
 40
0.0
 40
0.0
 40
0.0
 40
0.1249503743
 40
0.187461215
 40
0.2499672137
 40
0.3124706437
 40
0.3749685154
 40
0.4374624413
 40
0.4999529355
 40
0.562440215
 40
0.6249244997
 40
0.656171374
 40
0.6874177207
 40
0.718663599
 40
0.7499090906
 40
0.7811540562
 40
0.8123981642
 40
0.8436402277
 40
0.8592648816
 40
0.8748900273
 40
0.8905156276
 40
0.9061436673
 40
0.9139656969
 40
0.9217889797
 40
0.9296109047
 40
0.9374385129
 40
0.9452626249
 40
0.9530866374
 40
0.9609136811
 40
0.9687329864
 40
0.9765538983
 40
0.9843736486
 40
1.0
 40
1.0
 40
1.0
 40
1.0
 10
27.1575798893
 20
7.8990187731
 30
0.0
 10
27.1493038731
 20
7.8918784171
 30
0.0
 10
27.1360972091
 20
7.8820347894
 30
0.0
 10
27.1172730929
 20
7.8708841499
 30
0.0
 10
27.1025937569
 20
7.8635291408
 30
0.0
 10
27.0874364133
 20
7.8572246562
 30
0.0
 10
27.0718734922
 20
7.8520027288
 30
0.0
 10
27.0559817236
 20
7.8478933332
 30
0.0
 10
27.0398384625
 20
7.8449245347
 30
0.0
 10
27.0235244159
 20
7.8431248262
 30
0.0
 10
27.0098537028
 20
7.8426263769
 30
0.0
 10
26.9989208261
 20
7.8428519944
 30
0.0
 10
26.9907330308
 20
7.8433427102
 30
0.0
 10
26.9825721017
 20
7.8441673152
 30
0.0
 10
26.9744542904
 20
7.8453444013
 30
0.0
 10
26.9664004641
 20
7.8469035767
 30
0.0
 10
26.95844209
 20
7.8488948134
 30
0.0
 10
26.9519295003
 20
7.8509886697
 30
0.0
 10
26.9468497119
 20
7.8530146153
 30
0.0
 10
26.9431320616
 20
7.854752272
 30
0.0
 10
26.9395544523
 20
7.8567659626
 30
0.0
 10
26.9367547458
 20
7.8587446855
 30
0.0
 10
26.9347059391
 20
7.8605617372
 30
0.0
 10
26.9332899906
 20
7.8620522763
 30
0.0
 10
26.932030244
 20
7.8636788304
 30
0.0
 10
26.9309592021
 20
7.8654360036
 30
0.0
 10
26.9300963701
 20
7.8673048721
 30
0.0
 10
26.9294604917
 20
7.8692621408
 30
0.0
 10
26.9290336636
 20
7.871273929
 30
0.0
 10
26.9288007265
 20
7.8733163096
 30
0.0
 10
26.9287357922
 20
7.8753694761
 30
0.0
 10
26.9288351434
 20
7.8781044058
 30
0.0
 10
26.9290874123
 20
7.8801444082
 30
0.0
 10
26.9293104411
 20
7.8814930722
 30
0.0
  0
SPLINE
  5
22E
100
AcDbEntity
  8
0
100
AcDbSpline
 62
7
  6
CONTINUOUS
 70
0
 71
3
 72
38
 73
34
 74
0
 42
0.0000001
 43
0.0000001
 44
0.0000000001
 40
0.0
 40
0.0
 40
0.0
 40
0.0
 40
0.1249503743
 40
0.187461215
 40
0.2499672137
 40
0.3124706437
 40
0.3749685154
 40
0.4374624413
 40
0.4999529355
 40
0.562440215
 40
0.6249244997
 40
0.656171374
 40
0.6874177207
 40
0.718663599
 40
0.7499090906
 40
0.7811540562
 40
0.8123981642
 40
0.8436402277
 40
0.8592648816
 40
0.8748900273
 40
0.8905156276
 40
0.9061436673
 40
0.9139656969
 40
0.9217889797
 40
0.9296109047
 40
0.9374385129
 40
0.9452626249
 40
0.9530866374
 40
0.9609136811
 40
0.9687329864
 40
0.9765538983
 40
0.9843736486
 40
1.0
 40
1.0
 40
1.0
 40
1.0
 10
27.3798514848
 20
7.9538770359
 30
0.0
 10
27.3728635943
 20
7.9454718879
 30
0.0
 10
27.3614572424
 20
7.9335887857
 30
0.0
 10
27.3447251768
 20
7.9194919033
 30
0.0
 10
27.3314566283
 20
7.9098210871
 30
0.0
 10
27.3175436824
 20
7.9011077911
 30
0.0
 10
27.3030525089
 20
7.8933955328
 30
0.0
 10
27.2880538578
 20
7.8867265068
 30
0.0
 10
27.2726194097
 20
7.8811411281
 30
0.0
 10
27.2568240812
 20
7.8766807847
 30
0.0
 10
27.2434218568
 20
7.8739390278
 30
0.0
 10
27.2326009526
 20
7.8723620918
 30
0.0
 10
27.2244440576
 20
7.8714984601
 30
0.0
 10
27.2162587067
 20
7.8709685857
 30
0.0
 10
27.2080578695
 20
7.8707934821
 30
0.0
 10
27.1998572553
 20
7.8710057883
 30
0.0
 10
27.1916796773
 20
7.8716599738
 30
0.0
 10
27.1849112749
 20
7.8726533455
 30
0.0
 10
27.1795673101
 20
7.873815562
 30
0.0
 10
27.1756143565
 20
7.87491762
 30
0.0
 10
27.1717541006
 20
7.8763149971
 30
0.0
 10
27.1686668936
 20
7.8778059207
 30
0.0
 10
27.1663469552
 20
7.8792609712
 30
0.0
 10
27.1647049856
 20
7.8804981262
 30
0.0
 10
27.1631947003
 20
7.8818951509
 30
0.0
 10
27.1618490471
 20
7.8834520729
 30
0.0
 10
27.1606903799
 20
7.8851534366
 30
0.0
 10
27.1597410208
 20
7.88697935
 30
0.0
 10
27.1589888875
 20
7.8888934476
 30
0.0
 10
27.1584229655
 20
7.8908696334
 30
0.0
 10
27.1580209796
 20
7.8928841101
 30
0.0
 10
27.1576688251
 20
7.8955980921
 30
0.0
 10
27.1575818831
 20
7.8976517938
 30
0.0
 10
27.1575798893
 20
7.8990187731
 30
0.0
  0
SPLINE
  5
22F
100
AcDbEntity
  8
0
100
AcDbSpline
 62
7
  6
CONTINUOUS
 70
0
 71
3
 72
38
 73
34
 74
0
 42
0.0000001
 43
0.0000001
 44
0.0000000001
 40
0.0
 40
0.0
 40
0.0
 40
0.0
 40
0.1249503743
 40
0.187461215
 40
0.2499672137
 40
0.3124706437
 40
0.3749685154
 40
0.4374624412
 40
0.4999529355
 40
0.562440215
 40
0.6249244997
 40
0.656171374
 40
0.6874177207
 40
0.718663599
 40
0.7499090906
 40
0.7811540562
 40
0.8123981642
 40
0.8436402277
 40
0.8592648815
 40
0.8748900273
 40
0.8905156276
 40
0.9061436673
 40
0.9139656969
 40
0.9217889797
 40
0.9296109047
 40
0.9374385129
 40
0.9452626248
 40
0.9530866374
 40
0.960913681
 40
0.9687329864
 40
0.9765538983
 40
0.9843736486
 40
1.0
 40
1.0
 40
1.0
 40
1.0
 10
27.5900623455
 20
8.0445714968
 30
0.0
 10
27.5845531887
 20
8.0351308231
 30
0.0
 10
27.5752582789
 20
8.0215323808
 30
0.0
 10
27.561074663
 20
8.0048737749
 30
0.0
 10
27.549578827
 20
7.9931509416
 30
0.0
 10
27.5372897809
 20
7.9822665061
 30
0.0
 10
27.5242656295
 20
7.9722742832
 30
0.0
 10
27.5105692127
 20
7.9632275374
 30
0.0
 10
27.4962645817
 20
7.9551779303
 30
0.0
 10
27.4814188189
 20
7.9481786164
 30
0.0
 10
27.4686506545
 20
7.9432683386
 30
0.0
 10
27.4582368836
 20
7.939931863
 30
0.0
 10
27.450333384
 20
7.9377374409
 30
0.0
 10
27.4423468822
 20
7.9358675406
 30
0.0
 10
27.4342867126
 20
7.9343450236
 30
0.0
 10
27.426162998
 20
7.9332046694
 30
0.0
 10
27.417989275
 20
7.9325039595
 30
0.0
 10
27.4111496811
 20
7.9323697506
 30
0.0
 10
27.4056873069
 20
7.9326365363
 30
0.0
 10
27.4016068742
 20
7.9330729349
 30
0.0
 10
27.3975692676
 20
7.9338158822
 30
0.0
 10
27.3942787695
 20
7.9347783389
 30
0.0
 10
27.3917509802
 20
7.9358316988
 30
0.0
 10
27.3899277772
 20
7.9367817239
 30
0.0
 10
27.3882081492
 20
7.9379111129
 30
0.0
 10
27.38662459
 20
7.9392253155
 30
0.0
 10
27.3852016924
 20
7.9407127666
 30
0.0
 10
27.3839647483
 20
7.9423575193
 30
0.0
 10
27.3829078255
 20
7.9441217156
 30
0.0
 10
27.3820243552
 20
7.9459778025
 30
0.0
 10
27.3812962827
 20
7.9478986407
 30
0.0
 10
27.3805022283
 20
7.950517646
 30
0.0
 10
27.3800784468
 20
7.9525290282
 30
0.0
 10
27.3798514848
 20
7.9538770359
 30
0.0
  0
SPLINE
  5
230
100
AcDbEntity
  8
0
100
AcDbSpline
 62
7
  6
CONTINUOUS
 70
0
 71
3
 72
38
 73
34
 74
0
 42
0.0000001
 43
0.0000001
 44
0.0000000001
 40
0.0
 40
0.0
 40
0.0
 40
0.0
 40
0.1249503743
 40
0.187461215
 40
0.2499672137
 40
0.3124706437
 40
0.3749685154
 40
0.4374624413
 40
0.4999529355
 40
0.562440215
 40
0.6249244997
 40
0.656171374
 40
0.6874177207
 40
0.718663599
 40
0.7499090906
 40
0.7811540562
 40
0.8123981642
 40
0.8436402277
 40
0.8592648816
 40
0.8748900273
 40
0.8905156276
 40
0.9061436673
 40
0.9139656969
 40
0.9217889797
 40
0.9296109047
 40
0.9374385129
 40
0.9452626249
 40
0.9530866374
 40
0.9609136811
 40
0.9687329864
 40
0.9765538983
 40
0.9843736486
 40
1.0
 40
1.0
 40
1.0
 40
1.0
 10
27.7824785687
 20
8.168628291
 30
0.0
 10
27.7785984184
 20
8.1584096042
 30
0.0
 10
27.7716684872
 20
8.1434667452
 30
0.0
 10
27.7604202062
 20
8.1247008111
 30
0.0
 10
27.7510106535
 20
8.1112457234
 30
0.0
 10
27.7406807145
 20
8.098487042
 30
0.0
 10
27.7294788437
 20
8.0864874117
 30
0.0
 10
27.7174582572
 20
8.0753097132
 30
0.0
 10
27.7046736293
 20
8.0650154462
 30
0.0
 10
27.6911823789
 20
8.0556680813
 30
0.0
 10
27.6793965505
 20
8.0487232199
 30
0.0
 10
27.6696739684
 20
8.0437182134
 30
0.0
 10
27.6622394471
 20
8.040252858
 30
0.0
 10
27.6546696416
 20
8.0370939368
 30
0.0
 10
27.6469699961
 20
8.034265536
 30
0.0
 10
27.6391447709
 20
8.0318036268
 30
0.0
 10
27.6311978569
 20
8.0297671348
 30
0.0
 10
27.6244736343
 20
8.028509006
 30
0.0
 10
27.6190418474
 20
8.0278730839
 30
0.0
 10
27.6149452373
 20
8.0276319194
 30
0.0
 10
27.6108404133
 20
8.0277001717
 30
0.0
 10
27.6074363788
 20
8.0281079085
 30
0.0
 10
27.6047696888
 20
8.0287308454
 30
0.0
 10
27.6028149839
 20
8.029367827
 30
0.0
 10
27.6009329193
 20
8.0301987739
 30
0.0
 10
27.5991546486
 20
8.0312344098
 30
0.0
 10
27.5975063329
 20
8.0324673752
 30
0.0
 10
27.5960155438
 20
8.0338861035
 30
0.0
 10
27.5946826612
 20
8.0354522767
 30
0.0
 10
27.5935057409
 20
8.0371376362
 30
0.0
 10
27.5924714414
 20
8.0389124414
 30
0.0
 10
27.5912571464
 20
8.0413650316
 30
0.0
 10
27.5905080849
 20
8.0432792302
 30
0.0
 10
27.5900623455
 20
8.0445714968
 30
0.0
  0
SPLINE
  5
231
100
AcDbEntity
  8
0
100
AcDbSpline
 62
7
  6
CONTINUOUS
 70
0
 71
3
 72
38
 73
34
 74
0
 42
0.0000001
 43
0.0000001
 44
0.0000000001
 40
0.0
 40
0.0
 40
0.0
 40
0.0
 40
0.1249503744
 40
0.1874612151
 40
0.2499672137
 40
0.3124706436
 40
0.3749685152
 40
0.4374624409
 40
0.4999529351
 40
0.5624402145
 40
0.624924499
 40
0.6561713734
 40
0.68741772
 40
0.7186635982
 40
0.7499090897
 40
0.7811540553
 40
0.8123981632
 40
0.8436402266
 40
0.8592648803
 40
0.8748900262
 40
0.8905156266
 40
0.9061436656
 40
0.9139656951
 40
0.921788977
 40
0.9296109023
 40
0.9374385107
 40
0.9452626221
 40
0.9530866357
 40
0.96091368
 40
0.9687329855
 40
0.976553898
 40
0.9843736485
 40
1.0
 40
1.0
 40
1.0
 40
1.0
 10
27.9518516346
 20
8.3226635328
 30
0.0
 10
27.9497063293
 20
8.3119455669
 30
0.0
 10
27.9453304037
 20
8.2960658863
 30
0.0
 10
27.9373242759
 20
8.2757045006
 30
0.0
 10
27.9302576701
 20
8.2608841717
 30
0.0
 10
27.922168607
 20
8.246599262
 30
0.0
 10
27.9130945693
 20
8.232919537
 30
0.0
 10
27.9030776975
 20
8.219915779
 30
0.0
 10
27.8921617979
 20
8.2076576478
 30
0.0
 10
27.8803930595
 20
8.1962171993
 30
0.0
 10
27.8699110482
 20
8.1874271886
 30
0.0
 10
27.8611448568
 20
8.1808901723
 30
0.0
 10
27.8543821046
 20
8.1762484078
 30
0.0
 10
27.8474354764
 20
8.1718866314
 30
0.0
 10
27.8403063776
 20
8.1678294967
 30
0.0
 10
27.8329930898
 20
8.1641131857
 30
0.0
 10
27.825489752
 20
8.1607964608
 30
0.0
 10
27.8190643168
 20
8.1584487301
 30
0.0
 10
27.8138112795
 20
8.156927446
 30
0.0
 10
27.8098102349
 20
8.1560152967
 30
0.0
 10
27.8057501605
 20
8.1554069923
 30
0.0
 10
27.8023254411
 20
8.1552488876
 30
0.0
 10
27.7995925897
 20
8.1554244095
 30
0.0
 10
27.7975597011
 20
8.1557309723
 30
0.0
 10
27.795566537
 20
8.156240812
 30
0.0
 10
27.7936420604
 20
8.1569696315
 30
0.0
 10
27.7918132876
 20
8.1579144801
 30
0.0
 10
27.7901093176
 20
8.1590684856
 30
0.0
 10
27.7885368317
 20
8.160393915
 30
0.0
 10
27.7870985641
 20
8.161862576
 30
0.0
 10
27.7857862501
 20
8.1634429371
 30
0.0
 10
27.7841848365
 20
8.1656622131
 30
0.0
 10
27.7831309271
 20
8.1674270147
 30
0.0
 10
27.7824785687
 20
8.168628291
 30
0.0
  0
SPLINE
  5
232
100
AcDbEntity
  8
0
100
AcDbSpline
 62
7
  6
CONTINUOUS
 70
0
 71
3
 72
38
 73
34
 74
0
 42
0.0000001
 43
0.0000001
 44
0.0000000001
 40
0.0
 40
0.0
 40
0.0
 40
0.0
 40
0.1249503743
 40
0.187461215
 40
0.2499672137
 40
0.3124706437
 40
0.3749685154
 40
0.4374624413
 40
0.4999529355
 40
0.562440215
 40
0.6249244997
 40
0.656171374
 40
0.6874177207
 40
0.7186635991
 40
0.7499090906
 40
0.7811540562
 40
0.8123981642
 40
0.8436402278
 40
0.8592648816
 40
0.8748900273
 40
0.8905156276
 40
0.9061436673
 40
0.9139656969
 40
0.9217889798
 40
0.9296109047
 40
0.9374385129
 40
0.9452626249
 40
0.9530866374
 40
0.9609136811
 40
0.9687329864
 40
0.9765538983
 40
0.9843736486
 40
1.0
 40
1.0
 40
1.0
 40
1.0
 10
28.0935615694
 20
8.5024756168
 30
0.0
 10
28.0932096264
 20
8.4915507249
 30
0.0
 10
28.0915070682
 20
8.4751673713
 30
0.0
 10
28.086961476
 20
8.4537659297
 30
0.0
 10
28.0824305723
 20
8.4379846123
 30
0.0
 10
28.0768030296
 20
8.4225631223
 30
0.0
 10
28.0701043366
 20
8.4075764432
 30
0.0
 10
28.0623644089
 20
8.393101328
 30
0.0
 10
28.0536149896
 20
8.3792136966
 30
0.0
 10
28.0438897779
 20
8.3659922245
 30
0.0
 10
28.0349975005
 20
8.3555968288
 30
0.0
 10
28.0274268144
 20
8.3477061123
 30
0.0
 10
28.0215202983
 20
8.3420145516
 30
0.0
 10
28.0153863298
 20
8.3365688958
 30
0.0
 10
28.0090222374
 20
8.3313936934
 30
0.0
 10
28.0024203708
 20
8.3265243501
 30
0.0
 10
27.9955652771
 20
8.3220178623
 30
0.0
 10
27.9896138953
 20
8.3186445684
 30
0.0
 10
27.9846828942
 20
8.3162794184
 30
0.0
 10
27.9808865511
 20
8.314721165
 30
0.0
 10
27.9769819726
 20
8.3134528965
 30
0.0
 10
27.973629984
 20
8.3127332626
 30
0.0
 10
27.9709055146
 20
8.3124565823
 30
0.0
 10
27.9688498933
 20
8.3124243648
 30
0.0
 10
27.9667999966
 20
8.3125991893
 30
0.0
 10
27.9647818083
 20
8.3130013141
 30
0.0
 10
27.9628224615
 20
8.3136322725
 30
0.0
 10
27.9609517897
 20
8.3144900773
 30
0.0
 10
27.9591825939
 20
8.3155386098
 30
0.0
 10
27.9575222105
 20
8.3167505114
 30
0.0
 10
27.9559676779
 20
8.3180933208
 30
0.0
 10
27.9540228276
 20
8.3200187477
 30
0.0
 10
27.9526928177
 20
8.3215860137
 30
0.0
 10
27.9518516346
 20
8.3226635328
 30
0.0
  0
SPLINE
  5
233
100
AcDbEntity
  8
0
100
AcDbSpline
 62
7
  6
CONTINUOUS
 70
0
 71
3
 72
38
 73
34
 74
0
 42
0.0000001
 43
0.0000001
 44
0.0000000001
 40
0.0
 40
0.0
 40
0.0
 40
0.0
 40
0.1249503743
 40
0.187461215
 40
0.2499672137
 40
0.3124706437
 40
0.3749685154
 40
0.4374624413
 40
0.4999529355
 40
0.562440215
 40
0.6249244997
 40
0.6561713741
 40
0.6874177207
 40
0.7186635991
 40
0.7499090906
 40
0.7811540563
 40
0.8123981642
 40
0.8436402278
 40
0.8592648816
 40
0.8748900273
 40
0.8905156277
 40
0.9061436673
 40
0.9139656969
 40
0.9217889799
 40
0.9296109048
 40
0.937438513
 40
0.945262625
 40
0.9530866375
 40
0.9609136811
 40
0.9687329864
 40
0.9765538983
 40
0.9843736486
 40
1.0
 40
1.0
 40
1.0
 40
1.0
 10
28.2037429641
 20
8.7031598251
 30
0.0
 10
28.2051939833
 20
8.6923260044
 30
0.0
 10
28.206211233
 20
8.675885865
 30
0.0
 10
28.2052501662
 20
8.6540281327
 30
0.0
 10
28.2033785536
 20
8.6377162924
 30
0.0
 10
28.2003660333
 20
8.6215788728
 30
0.0
 10
28.1962254047
 20
8.6056940299
 30
0.0
 10
28.1909735423
 20
8.5901423939
 30
0.0
 10
28.1846292605
 20
8.5750040739
 30
0.0
 10
28.1772128492
 20
8.5603622191
 30
0.0
 10
28.1701528596
 20
8.5486449927
 30
0.0
 10
28.1639841837
 20
8.5396158104
 30
0.0
 10
28.1590950152
 20
8.5330297018
 30
0.0
 10
28.1539410222
 20
8.5266487071
 30
0.0
 10
28.148515529
 20
8.5204966005
 30
0.0
 10
28.1428051622
 20
8.5146070456
 30
0.0
 10
28.1367852984
 20
8.5090337179
 30
0.0
 10
28.1314703052
 20
8.5047268739
 30
0.0
 10
28.1269958428
 20
8.5015823719
 30
0.0
 10
28.1235077538
 20
8.4994205187
 30
0.0
 10
28.119865176
 20
8.4975268806
 30
0.0
 10
28.1166773501
 20
8.4962653471
 30
0.0
 10
28.1140355779
 20
8.4955440112
 30
0.0
 10
28.1120132949
 20
8.495173892
 30
0.0
 10
28.1099625808
 20
8.4950089332
 30
0.0
 10
28.1079057304
 20
8.4950733937
 30
0.0
 10
28.1058692547
 20
8.4953732518
 30
0.0
 10
28.1038829071
 20
8.4959114577
 30
0.0
 10
28.1019652592
 20
8.4966544923
 30
0.0
 10
28.1001280502
 20
8.4975765777
 30
0.0
 10
28.0983737018
 20
8.4986452079
 30
0.0
 10
28.0961384642
 20
8.5002242659
 30
0.0
 10
28.0945686323
 20
8.5015512464
 30
0.0
 10
28.0935615694
 20
8.5024756168
 30
0.0
  0
SPLINE
  5
234
100
AcDbEntity
  8
0
100
AcDbSpline
 62
7
  6
CONTINUOUS
 70
0
 71
3
 72
38
 73
34
 74
0
 42
0.0000001
 43
0.0000001
 44
0.0000000001
 40
0.0
 40
0.0
 40
0.0
 40
0.0
 40
0.1249503743
 40
0.187461215
 40
0.2499672137
 40
0.3124706437
 40
0.3749685154
 40
0.4374624413
 40
0.4999529355
 40
0.562440215
 40
0.6249244997
 40
0.656171374
 40
0.6874177207
 40
0.718663599
 40
0.7499090906
 40
0.7811540562
 40
0.8123981642
 40
0.8436402277
 40
0.8592648816
 40
0.8748900273
 40
0.8905156276
 40
0.9061436673
 40
0.9139656969
 40
0.9217889797
 40
0.9296109047
 40
0.9374385129
 40
0.9452626249
 40
0.9530866374
 40
0.9609136811
 40
0.9687329864
 40
0.9765538983
 40
0.9843736486
 40
1.0
 40
1.0
 40
1.0
 40
1.0
 10
28.2793904107
 20
8.9192421126
 30
0.0
 10
28.2826048129
 20
8.9087948763
 30
0.0
 10
28.286314123
 20
8.8927463873
 30
0.0
 10
28.2889637964
 20
8.8710285757
 30
0.0
 10
28.2898025267
 20
8.8546311491
 30
0.0
 10
28.2894872012
 20
8.8382179788
 30
0.0
 10
28.2880175806
 20
8.8218682616
 30
0.0
 10
28.285397038
 20
8.8056643053
 30
0.0
 10
28.281630946
 20
8.7896882234
 30
0.0
 10
28.276725632
 20
8.7740253704
 30
0.0
 10
28.2716905048
 20
8.761305923
 30
0.0
 10
28.2670921017
 20
8.751384563
 30
0.0
 10
28.2633536422
 20
8.7440835552
 30
0.0
 10
28.2593202096
 20
8.7369412755
 30
0.0
 10
28.2549813063
 20
8.7299800752
 30
0.0
 10
28.2503182004
 20
8.7232309575
 30
0.0
 10
28.2452977697
 20
8.7167428131
 30
0.0
 10
28.2407641418
 20
8.7116198964
 30
0.0
 10
28.2368682676
 20
8.7077818147
 30
0.0
 10
28.233783577
 20
8.7050753303
 30
0.0
 10
28.2305023582
 20
8.7026079751
 30
0.0
 10
28.2275656491
 20
8.7008389527
 30
0.0
 10
28.2250786335
 20
8.6996926372
 30
0.0
 10
28.2231448504
 20
8.698994712
 30
0.0
 10
28.2211492559
 20
8.6984944695
 30
0.0
 10
28.2191098481
 20
8.6982195073
 30
0.0
 10
28.2170517921
 20
8.6981800859
 30
0.0
 10
28.2150039503
 20
8.6983840123
 30
0.0
 10
28.2129901577
 20
8.6988012814
 30
0.0
 10
28.2110262365
 20
8.699408399
 30
0.0
 10
28.2091199254
 20
8.700173701
 30
0.0
 10
28.2066552709
 20
8.7013633183
 30
0.0
 10
28.2048884373
 20
8.7024138173
 30
0.0
 10
28.2037429641
 20
8.7031598251
 30
0.0
  0
SPLINE
  5
235
100
AcDbEntity
  8
0
100
AcDbSpline
 62
7
  6
CONTINUOUS
 70
0
 71
3
 72
38
 73
34
 74
0
 42
0.0000001
 43
0.0000001
 44
0.0000000001
 40
0.0
 40
0.0
 40
0.0
 40
0.0
 40
0.1249503735
 40
0.1874612147
 40
0.2499672135
 40
0.3124706431
 40
0.3749685143
 40
0.4374624399
 40
0.4999529339
 40
0.5624402132
 40
0.6249244977
 40
0.656171372
 40
0.6874177186
 40
0.7186635969
 40
0.7499090883
 40
0.7811540539
 40
0.8123981618
 40
0.8436402252
 40
0.8592648789
 40
0.8748900248
 40
0.8905156254
 40
0.9061436654
 40
0.9139656958
 40
0.9217889786
 40
0.9296109039
 40
0.9374385122
 40
0.9452626239
 40
0.9530866368
 40
0.9609136804
 40
0.9687329856
 40
0.976553898
 40
0.9843736483
 40
1.0
 40
1.0
 40
1.0
 40
1.0
 10
28.3184404807
 20
9.1448284225
 30
0.0
 10
28.3233305868
 20
9.1350527389
 30
0.0
 10
28.3296307788
 20
9.1198336536
 30
0.0
 10
28.3358189176
 20
9.0988481574
 30
0.0
 10
28.3393451129
 20
9.0828124157
 30
0.0
 10
28.3417355832
 20
9.0665711953
 30
0.0
 10
28.3429770572
 20
9.0502025736
 30
0.0
 10
28.3430593149
 20
9.033788291
 30
0.0
 10
28.3419741401
 20
9.0174102252
 30
0.0
 10
28.3397137252
 20
9.0011536084
 30
0.0
 10
28.3368408032
 20
8.9877788872
 30
0.0
 10
28.333938103
 20
8.9772359737
 30
0.0
 10
28.3314523262
 20
8.9694192155
 30
0.0
 10
28.3286494737
 20
8.9617104702
 30
0.0
 10
28.3255155121
 20
8.9541300562
 30
0.0
 10
28.3220268623
 20
8.9467054708
 30
0.0
 10
28.3181428066
 20
8.9394794862
 30
0.0
 10
28.3145142074
 20
8.9336802341
 30
0.0
 10
28.3113031888
 20
8.9292532638
 30
0.0
 10
28.3087060376
 20
8.9260759725
 30
0.0
 10
28.3058756791
 20
8.9231022022
 30
0.0
 10
28.3032701911
 20
8.9208739443
 30
0.0
 10
28.3010057702
 20
8.9193339169
 30
0.0
 10
28.2992132346
 20
8.9183272226
 30
0.0
 10
28.2973271932
 20
8.9175053418
 30
0.0
 10
28.2953608568
 20
8.9168984568
 30
0.0
 10
28.293337358
 20
8.9165208313
 30
0.0
 10
28.2912838807
 20
8.9163849157
 30
0.0
 10
28.2892288734
 20
8.9164650372
 30
0.0
 10
28.2871918097
 20
8.9167406269
 30
0.0
 10
28.2851855343
 20
8.9171817256
 30
0.0
 10
28.2825586909
 20
8.9179494531
 30
0.0
 10
28.2806430492
 20
8.9186948162
 30
0.0
 10
28.2793904107
 20
8.9192421126
 30
0.0
  0
SPLINE
  5
236
100
AcDbEntity
  8
0
100
AcDbSpline
 62
7
  6
CONTINUOUS
 70
0
 71
3
 72
38
 73
34
 74
0
 42
0.0000001
 43
0.0000001
 44
0.0000000001
 40
0.0
 40
0.0
 40
0.0
 40
0.0
 40
0.1249503743
 40
0.187461215
 40
0.2499672137
 40
0.3124706437
 40
0.3749685154
 40
0.4374624413
 40
0.4999529355
 40
0.562440215
 40
0.6249244997
 40
0.656171374
 40
0.6874177207
 40
0.718663599
 40
0.7499090906
 40
0.7811540562
 40
0.8123981642
 40
0.8436402277
 40
0.8592648816
 40
0.8748900273
 40
0.8905156276
 40
0.9061436673
 40
0.9139656969
 40
0.9217889797
 40
0.9296109047
 40
0.9374385129
 40
0.9452626249
 40
0.9530866374
 40
0.9609136811
 40
0.9687329864
 40
0.9765538983
 40
0.9843736486
 40
1.0
 40
1.0
 40
1.0
 40
1.0
 10
28.3198280089
 20
9.3737654573
 30
0.0
 10
28.326260432
 20
9.3649279769
 30
0.0
 10
28.3349796562
 20
9.3509534247
 30
0.0
 10
28.3445374671
 20
9.3312726635
 30
0.0
 10
28.3506549436
 20
9.316036012
 30
0.0
 10
28.355686005
 20
9.3004097517
 30
0.0
 10
28.3596047101
 20
9.2844687107
 30
0.0
 10
28.3623875243
 20
9.2682918326
 30
0.0
 10
28.3640128668
 20
9.2519585259
 30
0.0
 10
28.3644590081
 20
9.2355515754
 30
0.0
 10
28.3638266557
 20
9.2218864014
 30
0.0
 10
28.362698835
 20
9.2110095124
 30
0.0
 10
28.3615335451
 20
9.2028902209
 30
0.0
 10
28.3600377257
 20
9.1948252806
 30
0.0
 10
28.3581941907
 20
9.1868324231
 30
0.0
 10
28.3559751564
 20
9.1789348898
 30
0.0
 10
28.3533334207
 20
9.1711681675
 30
0.0
 10
28.3507088271
 20
9.1648507657
 30
0.0
 10
28.3482702508
 20
9.1599556608
 30
0.0
 10
28.3462314808
 20
9.1563942297
 30
0.0
 10
28.3439291864
 20
9.1529951594
 30
0.0
 10
28.3417259892
 20
9.1503684462
 30
0.0
 10
28.3397459295
 20
9.1484767143
 30
0.0
 10
28.3381435362
 20
9.147188711
 30
0.0
 10
28.3364184937
 20
9.1460676096
 30
0.0
 10
28.334578864
 20
9.1451453564
 30
0.0
 10
28.3326451172
 20
9.144439827
 30
0.0
 10
28.3306420169
 20
9.1439677768
 30
0.0
 10
28.3286018493
 20
9.1437085657
 30
0.0
 10
28.3265472079
 20
9.1436451099
 30
0.0
 10
28.3244956932
 20
9.1437499736
 30
0.0
 10
28.3217783133
 20
9.1440748701
 30
0.0
 10
28.3197661163
 20
9.1444947661
 30
0.0
 10
28.3184404807
 20
9.1448284225
 30
0.0
  0
SPLINE
  5
237
100
AcDbEntity
  8
0
100
AcDbSpline
 62
7
  6
CONTINUOUS
 70
0
 71
3
 72
38
 73
34
 74
0
 42
0.0000001
 43
0.0000001
 44
0.0000000001
 40
0.0
 40
0.0
 40
0.0
 40
0.0
 40
0.1249503771
 40
0.1874612191
 40
0.2499672193
 40
0.3124706507
 40
0.3749685237
 40
0.437462451
 40
0.4999529466
 40
0.5624402275
 40
0.6249245135
 40
0.6561713886
 40
0.687417736
 40
0.718663615
 40
0.7499091073
 40
0.7811540736
 40
0.8123981822
 40
0.8436402465
 40
0.8592649006
 40
0.8748900467
 40
0.8905156474
 40
0.9061436873
 40
0.9139657173
 40
0.9217890005
 40
0.9296109251
 40
0.9374385328
 40
0.9452626463
 40
0.9530866617
 40
0.9609137027
 40
0.9687329952
 40
0.9765538827
 40
0.9843736101
 40
1.0
 40
1.0
 40
1.0
 40
1.0
 10
28.2835151477
 20
9.5998085225
 30
0.0
 10
28.2913144314
 20
9.5921503041
 30
0.0
 10
28.3022148545
 20
9.5798014674
 30
0.0
 10
28.3148816301
 20
9.5619622711
 30
0.0
 10
28.3234235221
 20
9.5479403183
 30
0.0
 10
28.330957943
 20
9.5333552539
 30
0.0
 10
28.337446989
 20
9.5182766156
 30
0.0
 10
28.342854453
 20
9.5027783968
 30
0.0
 10
28.3471459786
 20
9.4869353711
 30
0.0
 10
28.3502865065
 20
9.4708256174
 30
0.0
 10
28.3519119721
 20
9.4572427341
 30
0.0
 10
28.3525897943
 20
9.4463285572
 30
0.0
 10
28.3527767767
 20
9.4381282014
 30
0.0
 10
28.3526287917
 20
9.4299270526
 30
0.0
 10
28.352125969
 20
9.421739772
 30
0.0
 10
28.3512370785
 20
9.4135847108
 30
0.0
 10
28.3499097209
 20
9.4054891029
 30
0.0
 10
28.3483607233
 20
9.3988258705
 30
0.0
 10
28.3467611057
 20
9.3935961543
 30
0.0
 10
28.3453363282
 20
9.3897477281
 30
0.0
 10
28.3436248968
 20
9.3860160742
 30
0.0
 10
28.3418840863
 20
9.3830625542
 30
0.0
 10
28.3402423971
 20
9.3808707187
 30
0.0
 10
28.3388738541
 20
9.3793365391
 30
0.0
 10
28.3373568638
 20
9.3779467981
 30
0.0
 10
28.3356941199
 20
9.3767343331
 30
0.0
 10
28.3339028711
 20
9.3757201449
 30
0.0
 10
28.3320047861
 20
9.3749248362
 30
0.0
 10
28.3300351084
 20
9.3743333637
 30
0.0
 10
28.3280189362
 20
9.3739325974
 30
0.0
 10
28.3259781466
 20
9.3736983664
 30
0.0
 10
28.3232443529
 20
9.3735715605
 30
0.0
 10
28.3211904858
 20
9.3736545418
 30
0.0
 10
28.3198280089
 20
9.3737654573
 30
0.0
  0
SPLINE
  5
238
100
AcDbEntity
  8
0
100
AcDbSpline
 62
7
  6
CONTINUOUS
 70
0
 71
3
 72
38
 73
34
 74
0
 42
0.0000001
 43
0.0000001
 44
0.0000000001
 40
0.0
 40
0.0
 40
0.0
 40
0.0
 40
0.1249503743
 40
0.187461215
 40
0.2499672137
 40
0.3124706437
 40
0.3749685154
 40
0.4374624413
 40
0.4999529355
 40
0.562440215
 40
0.6249244997
 40
0.656171374
 40
0.6874177207
 40
0.718663599
 40
0.7499090906
 40
0.7811540562
 40
0.8123981642
 40
0.8436402277
 40
0.8592648816
 40
0.8748900273
 40
0.8905156276
 40
0.9061436673
 40
0.9139656969
 40
0.9217889797
 40
0.9296109047
 40
0.9374385129
 40
0.9452626249
 40
0.9530866374
 40
0.9609136811
 40
0.9687329864
 40
0.9765538983
 40
0.9843736486
 40
1.0
 40
1.0
 40
1.0
 40
1.0
 10
28.2104923999
 20
9.8167918616
 30
0.0
 10
28.2194458034
 20
9.8105217983
 30
0.0
 10
28.2322300952
 20
9.8001355158
 30
0.0
 10
28.2476603246
 20
9.7846244832
 30
0.0
 10
28.2583936355
 20
9.7721997054
 30
0.0
 10
28.2682258999
 20
9.7590536731
 30
0.0
 10
28.2771082857
 20
9.745248737
 30
0.0
 10
28.2849929008
 20
9.7308519218
 30
0.0
 10
28.2918335499
 20
9.7159313265
 30
0.0
 10
28.2975828009
 20
9.7005581948
 30
0.0
 10
28.3014217473
 20
9.6874281018
 30
0.0
 10
28.3038867238
 20
9.6767743426
 30
0.0
 10
28.3054208785
 20
9.6687166032
 30
0.0
 10
28.3066247647
 20
9.6606029484
 30
0.0
 10
28.3074763701
 20
9.6524445686
 30
0.0
 10
28.30794187
 20
9.6442544248
 30
0.0
 10
28.3079650974
 20
9.6360507547
 30
0.0
 10
28.3075339484
 20
9.6292234442
 30
0.0
 10
28.3068169229
 20
9.6238017673
 30
0.0
 10
28.306045002
 20
9.6197713191
 30
0.0
 10
28.3049711169
 20
9.6158088692
 30
0.0
 10
28.3037401781
 20
9.6126091052
 30
0.0
 10
28.3024816406
 20
9.610176952
 30
0.0
 10
28.3013842783
 20
9.6084384431
 30
0.0
 10
28.3001167197
 20
9.6068179695
 30
0.0
 10
28.298676217
 20
9.605348364
 30
0.0
 10
28.2970763272
 20
9.6040531802
 30
0.0
 10
28.2953350316
 20
9.6029563065
 30
0.0
 10
28.2934895689
 20
9.6020487043
 30
0.0
 10
28.2915668555
 20
9.6013215513
 30
0.0
 10
28.2895924467
 20
9.6007546133
 30
0.0
 10
28.2869168065
 20
9.6001795821
 30
0.0
 10
28.2848772952
 20
9.5999233737
 30
0.0
 10
28.2835151477
 20
9.5998085225
 30
0.0
  0
SPLINE
  5
239
100
AcDbEntity
  8
0
100
AcDbSpline
 62
7
  6
CONTINUOUS
 70
0
 71
3
 72
38
 73
34
 74
0
 42
0.0000001
 43
0.0000001
 44
0.0000000001
 40
0.0
 40
0.0
 40
0.0
 40
0.0
 40
0.1249503743
 40
0.187461215
 40
0.2499672137
 40
0.3124706437
 40
0.3749685154
 40
0.4374624413
 40
0.4999529355
 40
0.562440215
 40
0.6249244997
 40
0.6561713741
 40
0.6874177207
 40
0.7186635991
 40
0.7499090906
 40
0.7811540563
 40
0.8123981642
 40
0.8436402278
 40
0.8592648816
 40
0.8748900273
 40
0.8905156277
 40
0.9061436673
 40
0.9139656969
 40
0.9217889798
 40
0.9296109047
 40
0.9374385129
 40
0.9452626249
 40
0.9530866374
 40
0.9609136811
 40
0.9687329864
 40
0.9765538983
 40
0.9843736486
 40
1.0
 40
1.0
 40
1.0
 40
1.0
 10
28.1027516003
 20
10.0187968399
 30
0.0
 10
28.1126149026
 20
10.0140859594
 30
0.0
 10
28.1269343473
 20
10.0059455364
 30
0.0
 10
28.1447071418
 20
9.9931857603
 30
0.0
 10
28.1573391001
 20
9.9826970666
 30
0.0
 10
28.1692010144
 20
9.9713486492
 30
0.0
 10
28.180234456
 20
9.9591939709
 30
0.0
 10
28.190381154
 20
9.9462912595
 30
0.0
 10
28.199584335
 20
9.932700082
 30
0.0
 10
28.2077854871
 20
9.9184829033
 30
0.0
 10
28.2137331994
 20
9.9061637488
 30
0.0
 10
28.2179180931
 20
9.8960610086
 30
0.0
 10
28.2207575729
 20
9.8883656756
 30
0.0
 10
28.2232804919
 20
9.8805608299
 30
0.0
 10
28.2254632961
 20
9.8726538863
 30
0.0
 10
28.2272704888
 20
9.8646520614
 30
0.0
 10
28.2286436672
 20
9.8565640998
 30
0.0
 10
28.2293421269
 20
9.8497589391
 30
0.0
 10
28.2295272514
 20
9.844293188
 30
0.0
 10
28.2294292425
 20
9.840190656
 30
0.0
 10
28.2290221956
 20
9.8361054937
 30
0.0
 10
28.228334704
 20
9.8327467654
 30
0.0
 10
28.2274936468
 20
9.8301406364
 30
0.0
 10
28.2266973975
 20
9.8282452198
 30
0.0
 10
28.2257138452
 20
9.8264382155
 30
0.0
 10
28.2245348757
 20
9.8247515563
 30
0.0
 10
28.2231699843
 20
9.8232107059
 30
0.0
 10
28.2216329751
 20
9.8218421866
 30
0.0
 10
28.2199620669
 20
9.8206432121
 30
0.0
 10
28.2181852607
 20
9.819609511
 30
0.0
 10
28.2163310939
 20
9.818725331
 30
0.0
 10
28.2137865915
 20
9.8177177503
 30
0.0
 10
28.2118170661
 20
9.8171293466
 30
0.0
 10
28.2104923999
 20
9.8167918616
 30
0.0
  0
SPLINE
  5
23A
100
AcDbEntity
  8
0
100
AcDbSpline
 62
7
  6
CONTINUOUS
 70
0
 71
3
 72
38
 73
34
 74
0
 42
0.0000001
 43
0.0000001
 44
0.0000000001
 40
0.0
 40
0.0
 40
0.0
 40
0.0
 40
0.1249503743
 40
0.187461215
 40
0.2499672137
 40
0.3124706437
 40
0.3749685154
 40
0.4374624413
 40
0.4999529355
 40
0.562440215
 40
0.6249244997
 40
0.6561713741
 40
0.6874177207
 40
0.7186635991
 40
0.7499090906
 40
0.7811540563
 40
0.8123981642
 40
0.8436402278
 40
0.8592648816
 40
0.8748900273
 40
0.8905156277
 40
0.9061436673
 40
0.9139656969
 40
0.9217889798
 40
0.9296109047
 40
0.9374385129
 40
0.9452626249
 40
0.9530866374
 40
0.9609136811
 40
0.9687329864
 40
0.9765538983
 40
0.9843736486
 40
1.0
 40
1.0
 40
1.0
 40
1.0
 10
27.9632315849
 20
10.2003133859
 30
0.0
 10
27.9737357457
 20
10.1972901864
 30
0.0
 10
27.989199753
 20
10.1916176686
 30
0.0
 10
28.0088303257
 20
10.1819571962
 30
0.0
 10
28.0230163706
 20
10.1736906858
 30
0.0
 10
28.0365843784
 20
10.1644494329
 30
0.0
 10
28.0494679176
 20
10.1542765544
 30
0.0
 10
28.0615999281
 20
10.143219893
 30
0.0
 10
28.0729146065
 20
10.1313288587
 30
0.0
 10
28.0833439577
 20
10.1186554337
 30
0.0
 10
28.0912382007
 20
10.107483246
 30
0.0
 10
28.0970288607
 20
10.0982070964
 30
0.0
 10
28.1010962134
 20
10.0910840748
 30
0.0
 10
28.1048693477
 20
10.0838009303
 30
0.0
 10
28.1083238105
 20
10.0763610997
 30
0.0
 10
28.1114234014
 20
10.0687658589
 30
0.0
 10
28.1141090748
 20
10.0610142204
 30
0.0
 10
28.1159180913
 20
10.0544168332
 30
0.0
 10
28.1170003161
 20
10.0490560967
 30
0.0
 10
28.1175788925
 20
10.0449933854
 30
0.0
 10
28.1178497868
 20
10.0408969412
 30
0.0
 10
28.1177244952
 20
10.0374708644
 30
0.0
 10
28.1173238597
 20
10.0347618467
 30
0.0
 10
28.1168504425
 20
10.0327612235
 30
0.0
 10
28.1161777249
 20
10.0308169779
 30
0.0
 10
28.1152924473
 20
10.0289592718
 30
0.0
 10
28.1141997843
 20
10.0272147845
 30
0.0
 10
28.1129089865
 20
10.0256119485
 30
0.0
 10
28.1114582097
 20
10.0241543062
 30
0.0
 10
28.1098757766
 20
10.022842253
 30
0.0
 10
28.1081924277
 20
10.0216649487
 30
0.0
 10
28.1058484693
 20
10.0202523022
 30
0.0
 10
28.1040026524
 20
10.0193477531
 30
0.0
 10
28.1027516003
 20
10.0187968399
 30
0.0
  0
SPLINE
  5
23B
100
AcDbEntity
  8
0
100
AcDbSpline
 62
7
  6
CONTINUOUS
 70
0
 71
3
 72
38
 73
34
 74
0
 42
0.0000001
 43
0.0000001
 44
0.0000000001
 40
0.0
 40
0.0
 40
0.0
 40
0.0
 40
0.1249503743
 40
0.187461215
 40
0.2499672137
 40
0.3124706437
 40
0.3749685153
 40
0.4374624411
 40
0.4999529353
 40
0.5624402148
 40
0.6249244994
 40
0.6561713738
 40
0.6874177204
 40
0.7186635987
 40
0.7499090903
 40
0.7811540559
 40
0.8123981638
 40
0.8436402273
 40
0.859264881
 40
0.8748900269
 40
0.8905156272
 40
0.9061436666
 40
0.9139656962
 40
0.9217889786
 40
0.9296109038
 40
0.937438512
 40
0.9452626237
 40
0.9530866367
 40
0.9609136806
 40
0.968732986
 40
0.9765538982
 40
0.9843736486
 40
1.0
 40
1.0
 40
1.0
 40
1.0
 10
27.7957380286
 20
10.3563902892
 30
0.0
 10
27.8065965267
 20
10.3551372343
 30
0.0
 10
27.8227832864
 20
10.3520873504
 30
0.0
 10
27.8437361759
 20
10.3457896895
 30
0.0
 10
27.859089356
 20
10.3399708472
 30
0.0
 10
27.8739933639
 20
10.3330888318
 30
0.0
 10
27.8883755775
 20
10.3251752378
 30
0.0
 10
27.9021619769
 20
10.3162662179
 30
0.0
 10
27.9152795232
 20
10.3063996773
 30
0.0
 10
27.927652593
 20
10.295615698
 30
0.0
 10
27.9372780361
 20
10.2858952199
 30
0.0
 10
27.9445165111
 20
10.2776986856
 30
0.0
 10
27.9497007919
 20
10.2713422694
 30
0.0
 10
27.9546212221
 20
10.2647794877
 30
0.0
 10
27.9592531165
 20
10.2580097058
 30
0.0
 10
27.9635605583
 20
10.2510282238
 30
0.0
 10
27.9674854697
 20
10.243824349
 30
0.0
 10
27.9703556987
 20
10.2376146918
 30
0.0
 10
27.9723055041
 20
10.2325051942
 30
0.0
 10
27.9735448841
 20
10.2285931217
 30
0.0
 10
27.9744863304
 20
10.2245971341
 30
0.0
 10
27.9749266563
 20
10.2211971615
 30
0.0
 10
27.9749773706
 20
10.2184591488
 30
0.0
 10
27.9748396991
 20
10.2164078898
 30
0.0
 10
27.9744961655
 20
10.2143794361
 30
0.0
 10
27.9739287278
 20
10.2124013556
 30
0.0
 10
27.9731380975
 20
10.2105008155
 30
0.0
 10
27.9721287199
 20
10.2087073833
 30
0.0
 10
27.9709376476
 20
10.2070308329
 30
0.0
 10
27.9695927513
 20
10.2054762164
 30
0.0
 10
27.9681261368
 20
10.204037901
 30
0.0
 10
27.9660466583
 20
10.2022587214
 30
0.0
 10
27.964374898
 20
10.2010627
 30
0.0
 10
27.9632315849
 20
10.2003133859
 30
0.0
  0
SPLINE
  5
23C
100
AcDbEntity
  8
0
100
AcDbSpline
 62
7
  6
CONTINUOUS
 70
0
 71
3
 72
38
 73
34
 74
0
 42
0.0000001
 43
0.0000001
 44
0.0000000001
 40
0.0
 40
0.0
 40
0.0
 40
0.0
 40
0.1249503743
 40
0.187461215
 40
0.2499672137
 40
0.3124706437
 40
0.3749685154
 40
0.4374624413
 40
0.4999529355
 40
0.562440215
 40
0.6249244997
 40
0.6561713741
 40
0.6874177207
 40
0.7186635991
 40
0.7499090906
 40
0.7811540563
 40
0.8123981642
 40
0.8436402278
 40
0.8592648816
 40
0.8748900273
 40
0.8905156277
 40
0.9061436673
 40
0.9139656969
 40
0.9217889798
 40
0.9296109048
 40
0.937438513
 40
0.9452626249
 40
0.9530866375
 40
0.9609136811
 40
0.9687329864
 40
0.9765538983
 40
0.9843736486
 40
1.0
 40
1.0
 40
1.0
 40
1.0
 10
27.6048396378
 20
10.4827702543
 30
0.0
 10
27.6157562871
 20
10.4833215234
 30
0.0
 10
27.6322242743
 20
10.4829774648
 30
0.0
 10
27.6539279505
 20
10.4802143962
 30
0.0
 10
27.6700294786
 20
10.477001942
 30
0.0
 10
27.6858629514
 20
10.4726668841
 30
0.0
 10
27.7013515371
 20
10.4672284331
 30
0.0
 10
27.7164162749
 20
10.4607100652
 30
0.0
 10
27.730978883
 20
10.4531371471
 30
0.0
 10
27.7449581723
 20
10.4445367669
 30
0.0
 10
27.7560522633
 20
10.4365331431
 30
0.0
 10
27.7645411099
 20
10.4296398002
 30
0.0
 10
27.7707009077
 20
10.4242233727
 30
0.0
 10
27.7766344197
 20
10.4185599663
 30
0.0
 10
27.7823174018
 20
10.4126448918
 30
0.0
 10
27.7877152008
 20
10.4064676018
 30
0.0
 10
27.7927722909
 20
10.4000079902
 30
0.0
 10
27.7966254414
 20
10.3943554431
 30
0.0
 10
27.7993896428
 20
10.3896365557
 30
0.0
 10
27.8012560198
 20
10.3859818313
 30
0.0
 10
27.8028423384
 20
10.3821952983
 30
0.0
 10
27.8038362711
 20
10.3789141707
 30
0.0
 10
27.8043369518
 20
10.3762218474
 30
0.0
 10
27.804538781
 20
10.3741759047
 30
0.0
 10
27.8045338025
 20
10.3721185726
 30
0.0
 10
27.8042996818
 20
10.3700740737
 30
0.0
 10
27.8038326505
 20
10.3680693218
 30
0.0
 10
27.803132226
 20
10.3661342126
 30
0.0
 10
27.8022333466
 20
10.3642844856
 30
0.0
 10
27.8011626719
 20
10.362529711
 30
0.0
 10
27.7999527967
 20
10.3608696174
 30
0.0
 10
27.7981945198
 20
10.3587724351
 30
0.0
 10
27.7967424167
 20
10.3573175654
 30
0.0
 10
27.7957380286
 20
10.3563902892
 30
0.0
  0
SPLINE
  5
23D
100
AcDbEntity
  8
0
100
AcDbSpline
 62
7
  6
CONTINUOUS
 70
0
 71
3
 72
38
 73
34
 74
0
 42
0.0000001
 43
0.0000001
 44
0.0000000001
 40
0.0
 40
0.0
 40
0.0
 40
0.0
 40
0.1249503743
 40
0.187461215
 40
0.2499672137
 40
0.3124706437
 40
0.3749685154
 40
0.4374624413
 40
0.4999529355
 40
0.562440215
 40
0.6249244997
 40
0.656171374
 40
0.6874177207
 40
0.718663599
 40
0.7499090906
 40
0.7811540562
 40
0.8123981642
 40
0.8436402277
 40
0.8592648816
 40
0.8748900273
 40
0.8905156276
 40
0.9061436673
 40
0.9139656969
 40
0.9217889797
 40
0.9296109047
 40
0.9374385129
 40
0.9452626249
 40
0.9530866374
 40
0.9609136811
 40
0.9687329864
 40
0.9765538983
 40
0.9843736486
 40
1.0
 40
1.0
 40
1.0
 40
1.0
 10
27.3957435308
 20
10.5760060263
 30
0.0
 10
27.4064205587
 20
10.5783465825
 30
0.0
 10
27.4227205777
 20
10.5807177341
 30
0.0
 10
27.4445830315
 20
10.5815646257
 30
0.0
 10
27.4609937074
 20
10.5810461855
 30
0.0
 10
27.477324757
 20
10.5793763321
 30
0.0
 10
27.4934972341
 20
10.5765613681
 30
0.0
 10
27.5094293907
 20
10.5726114532
 30
0.0
 10
27.5250398377
 20
10.5675387234
 30
0.0
 10
27.5402440347
 20
10.5613565343
 30
0.0
 10
27.552504161
 20
10.5552880788
 30
0.0
 10
27.5620118299
 20
10.5498859563
 30
0.0
 10
27.5689791243
 20
10.545557261
 30
0.0
 10
27.5757638703
 20
10.5409477101
 30
0.0
 10
27.582342926
 20
10.5360486879
 30
0.0
 10
27.5886838469
 20
10.5308440873
 30
0.0
 10
27.5947351739
 20
10.5253049371
 30
0.0
 10
27.5994661438
 20
10.5203636842
 30
0.0
 10
27.6029693422
 20
10.5161641238
 30
0.0
 10
27.6054118073
 20
10.5128664369
 30
0.0
 10
27.6075997283
 20
10.5093926436
 30
0.0
 10
27.6091201564
 20
10.5063198601
 30
0.0
 10
27.6100571466
 20
10.5037466645
 30
0.0
 10
27.6105929712
 20
10.5017618449
 30
0.0
 10
27.6109266834
 20
10.4997317523
 30
0.0
 10
27.6110322663
 20
10.4976766025
 30
0.0
 10
27.610901573
 20
10.4956223222
 30
0.0
 10
27.6105292069
 20
10.4935983198
 30
0.0
 10
27.6099470392
 20
10.4916258708
 30
0.0
 10
27.6091797907
 20
10.4897188029
 30
0.0
 10
27.6082596563
 20
10.4878822132
 30
0.0
 10
27.6068705414
 20
10.485524233
 30
0.0
 10
27.6056777043
 20
10.4838501992
 30
0.0
 10
27.6048396378
 20
10.4827702543
 30
0.0
  0
SPLINE
  5
23E
100
AcDbEntity
  8
0
100
AcDbSpline
 62
7
  6
CONTINUOUS
 70
0
 71
3
 72
38
 73
34
 74
0
 42
0.0000001
 43
0.0000001
 44
0.0000000001
 40
0.0
 40
0.0
 40
0.0
 40
0.0
 40
0.1249503729
 40
0.1874612144
 40
0.2499672134
 40
0.3124706426
 40
0.3749685135
 40
0.4374624389
 40
0.4999529327
 40
0.5624402118
 40
0.6249244962
 40
0.6561713704
 40
0.687417717
 40
0.7186635952
 40
0.7499090866
 40
0.7811540521
 40
0.8123981599
 40
0.8436402233
 40
0.8592648769
 40
0.8748900229
 40
0.8905156238
 40
0.906143664
 40
0.9139656951
 40
0.9217889779
 40
0.9296109035
 40
0.9374385119
 40
0.9452626235
 40
0.9530866365
 40
0.9609136799
 40
0.9687329851
 40
0.9765538977
 40
0.9843736481
 40
1.0
 40
1.0
 40
1.0
 40
1.0
 10
27.1741532029
 20
10.6335544215
 30
0.0
 10
27.1842993731
 20
10.6376204216
 30
0.0
 10
27.1999868097
 20
10.6426421057
 30
0.0
 10
27.2214117008
 20
10.6470758569
 30
0.0
 10
27.2376838922
 20
10.6492655722
 30
0.0
 10
27.2540670578
 20
10.6503064717
 30
0.0
 10
27.2704822909
 20
10.6501917783
 30
0.0
 10
27.2868472863
 20
10.6489180579
 30
0.0
 10
27.3030797674
 20
10.6464838849
 30
0.0
 10
27.3190941484
 20
10.6428885178
 30
0.0
 10
27.3321858916
 20
10.6389207595
 30
0.0
 10
27.3424530429
 20
10.6351572108
 30
0.0
 10
27.3500377877
 20
10.6320343211
 30
0.0
 10
27.3574887007
 20
10.62860436
 30
0.0
 10
27.3647843736
 20
10.6248550204
 30
0.0
 10
27.3718954558
 20
10.6207650746
 30
0.0
 10
27.3787759581
 20
10.6162974769
 30
0.0
 10
27.3842557013
 20
10.6122023004
 30
0.0
 10
27.3884023403
 20
10.6086366178
 30
0.0
 10
27.3913542709
 20
10.6057859196
 30
0.0
 10
27.3940841146
 20
10.6027196201
 30
0.0
 10
27.3960895657
 20
10.5999389964
 30
0.0
 10
27.3974373072
 20
10.5975551173
 30
0.0
 10
27.3982925121
 20
10.5956855606
 30
0.0
 10
27.3989558118
 20
10.5937380819
 30
0.0
 10
27.3993982189
 20
10.5917283395
 30
0.0
 10
27.3996074282
 20
10.589680565
 30
0.0
 10
27.3995732775
 20
10.587622878
 30
0.0
 10
27.3993237016
 20
10.5855815094
 30
0.0
 10
27.3988808072
 20
10.5835741671
 30
0.0
 10
27.3982755121
 20
10.5816111778
 30
0.0
 10
27.3972934501
 20
10.5790567178
 30
0.0
 10
27.3963924158
 20
10.5772091824
 30
0.0
 10
27.3957435308
 20
10.5760060263
 30
0.0
  0
SPLINE
  5
23F
100
AcDbEntity
  8
0
100
AcDbSpline
 62
7
  6
CONTINUOUS
 70
0
 71
3
 72
24
 73
20
 74
0
 42
0.0000001
 43
0.0000001
 44
0.0000000001
 40
0.0
 40
0.0
 40
0.0
 40
0.0
 40
0.1250061932
 40
0.2500009587
 40
0.3749806892
 40
0.4999455588
 40
0.5624529877
 40
0.6249580426
 40
0.6874608193
 40
0.7499612016
 40
0.8124582648
 40
0.8437119612
 40
0.874965209
 40
0.9062175156
 40
0.9374686525
 40
0.9530975115
 40
0.9687270294
 40
0.9843688647
 40
1.0
 40
1.0
 40
1.0
 40
1.0
 10
26.6623915778
 20
10.5246419767
 30
0.0
 10
26.655936081
 20
10.5178892432
 30
0.0
 10
26.6421937634
 20
10.5051530294
 30
0.0
 10
26.6194506269
 20
10.4886705753
 30
0.0
 10
26.5948968598
 20
10.4750328656
 30
0.0
 10
26.5732077311
 20
10.4662151711
 30
0.0
 10
26.5553193582
 20
10.4607959319
 30
0.0
 10
26.5416716859
 20
10.4575730917
 30
0.0
 10
26.5278466564
 20
10.4552265064
 30
0.0
 10
26.5138965369
 20
10.4538020078
 30
0.0
 10
26.5022124969
 20
10.453443659
 30
0.0
 10
26.492872568
 20
10.4537312272
 30
0.0
 10
26.4858834571
 20
10.4542714892
 30
0.0
 10
26.4789342246
 20
10.4551952547
 30
0.0
 10
26.4732063464
 20
10.4563701209
 30
0.0
 10
26.4687132152
 20
10.4576569814
 30
0.0
 10
26.4654097612
 20
10.4588382913
 30
0.0
 10
26.4622179556
 20
10.4602985296
 30
0.0
 10
26.4602091559
 20
10.4615091678
 30
0.0
 10
26.4592572076
 20
10.462186197
 30
0.0
  0
SPLINE
  5
240
100
AcDbEntity
  8
0
100
AcDbSpline
 62
7
  6
CONTINUOUS
 70
0
 71
3
 72
24
 73
20
 74
0
 42
0.0000001
 43
0.0000001
 44
0.0000000001
 40
0.0
 40
0.0
 40
0.0
 40
0.0
 40
0.1250061932
 40
0.2500009587
 40
0.3749806892
 40
0.4999455588
 40
0.5624529877
 40
0.6249580426
 40
0.6874608193
 40
0.7499612016
 40
0.8124582647
 40
0.8437119612
 40
0.874965209
 40
0.9062175156
 40
0.9374686525
 40
0.9530975115
 40
0.9687270294
 40
0.9843688647
 40
1.0
 40
1.0
 40
1.0
 40
1.0
 10
26.4592572076
 20
10.462186197
 30
0.0
 10
26.4540012074
 20
10.45446303
 30
0.0
 10
26.4425426072
 20
10.4396386272
 30
0.0
 10
26.4228225509
 20
10.419637604
 30
0.0
 10
26.4008483327
 20
10.40214451
 30
0.0
 10
26.3809063422
 20
10.3898771934
 30
0.0
 10
26.3641539087
 20
10.3815875608
 30
0.0
 10
26.3512228269
 20
10.3761623618
 30
0.0
 10
26.3379725813
 20
10.3715722754
 30
0.0
 10
26.3244471825
 20
10.3678711107
 30
0.0
 10
26.3129814766
 20
10.3655945364
 30
0.0
 10
26.3037215981
 20
10.3643408944
 30
0.0
 10
26.2967388844
 20
10.3637234283
 30
0.0
 10
26.2897323833
 20
10.3634907991
 30
0.0
 10
26.2838892496
 20
10.3637068725
 30
0.0
 10
26.2792455894
 20
10.3642366436
 30
0.0
 10
26.2757927538
 20
10.3648581164
 30
0.0
 10
26.2724041344
 20
10.36577309
 30
0.0
 10
26.2702234688
 20
10.3666365824
 30
0.0
 10
26.2691730692
 20
10.3671476937
 30
0.0
  0
SPLINE
  5
241
100
AcDbEntity
  8
0
100
AcDbSpline
 62
7
  6
CONTINUOUS
 70
0
 71
3
 72
24
 73
20
 74
0
 42
0.0000001
 43
0.0000001
 44
0.0000000001
 40
0.0
 40
0.0
 40
0.0
 40
0.0
 40
0.1250061932
 40
0.2500009587
 40
0.3749806892
 40
0.4999455588
 40
0.5624529877
 40
0.6249580426
 40
0.6874608193
 40
0.7499612016
 40
0.8124582648
 40
0.8437119612
 40
0.874965209
 40
0.9062175156
 40
0.9374686525
 40
0.9530975115
 40
0.9687270294
 40
0.9843688647
 40
1.0
 40
1.0
 40
1.0
 40
1.0
 10
26.2691730692
 20
10.3671476937
 30
0.0
 10
26.2652599331
 20
10.3586647572
 30
0.0
 10
26.2563976055
 20
10.3421565294
 30
0.0
 10
26.2402385315
 20
10.3191825033
 30
0.0
 10
26.2214432509
 20
10.2983111824
 30
0.0
 10
26.2037923546
 20
10.2829288582
 30
0.0
 10
26.188632815
 20
10.2719949477
 30
0.0
 10
26.1767710437
 20
10.2645153727
 30
0.0
 10
26.1644570077
 20
10.2578069884
 30
0.0
 10
26.1517252609
 20
10.251930114
 30
0.0
 10
26.1407906379
 20
10.2477974121
 30
0.0
 10
26.1318633907
 20
10.2450367554
 30
0.0
 10
26.1250775412
 20
10.2432784038
 30
0.0
 10
26.118204887
 20
10.2418957253
 30
0.0
 10
26.1124058805
 20
10.2411471121
 30
0.0
 10
26.1077383559
 20
10.2409053433
 30
0.0
 10
26.1042303216
 20
10.2409500271
 30
0.0
 10
26.1007373192
 20
10.2412947783
 30
0.0
 10
26.0984442697
 20
10.2417875714
 30
0.0
 10
26.0973240705
 20
10.2421188235
 30
0.0
  0
SPLINE
  5
242
100
AcDbEntity
  8
0
100
AcDbSpline
 62
7
  6
CONTINUOUS
 70
0
 71
3
 72
17
 73
13
 74
0
 42
0.0000001
 43
0.0000001
 44
0.0000000001
 40
0.0
 40
0.0
 40
0.0
 40
0.0
 40
0.1137197316
 40
0.2372447984
 40
0.3676397055
 40
0.5018735296
 40
0.6365101573
 40
0.7676309347
 40
0.8305152418
 40
0.8907841742
 40
0.9476548311
 40
1.0
 40
1.0
 40
1.0
 40
1.0
 10
26.9460267541
 20
10.6537932373
 30
0.0
 10
26.9425934537
 20
10.650540424
 30
0.0
 10
26.9358203815
 20
10.6433402145
 30
0.0
 10
26.9262634498
 20
10.6313928983
 30
0.0
 10
26.9168942595
 20
10.6182398732
 30
0.0
 10
26.9077413607
 20
10.6043831912
 30
0.0
 10
26.898805601
 20
10.5903516299
 30
0.0
 10
26.8914455562
 20
10.5788340533
 30
0.0
 10
26.8856010728
 20
10.5700203317
 30
0.0
 10
26.8813561231
 20
10.5638523156
 30
0.0
 10
26.8772229792
 20
10.558141552
 30
0.0
 10
26.8744475532
 20
10.5545445317
 30
0.0
 10
26.8730837239
 20
10.5528476867
 30
0.0
  0
SPLINE
  5
243
100
AcDbEntity
  8
0
100
AcDbSpline
 62
7
  6
CONTINUOUS
 70
0
 71
3
 72
17
 73
13
 74
0
 42
0.0000001
 43
0.0000001
 44
0.0000000001
 40
0.0
 40
0.0
 40
0.0
 40
0.0
 40
0.0523241472
 40
0.1091838079
 40
0.1694486004
 40
0.2323324032
 40
0.3634594463
 40
0.4981073424
 40
0.6323553026
 40
0.7627585177
 40
0.8862843678
 40
1.0
 40
1.0
 40
1.0
 40
1.0
 10
26.6623915778
 20
10.5246419767
 30
0.0
 10
26.6634578305
 20
10.5265411151
 30
0.0
 10
26.6656041648
 20
10.5305483646
 30
0.0
 10
26.668742255
 20
10.5368659601
 30
0.0
 10
26.6719156546
 20
10.5436541754
 30
0.0
 10
26.6762320943
 20
10.5533185992
 30
0.0
 10
26.6815990943
 20
10.5659027015
 30
0.0
 10
26.68810757
 20
10.581228834
 30
0.0
 10
26.6948597916
 20
10.5964179772
 30
0.0
 10
26.7019422958
 20
10.6109472818
 30
0.0
 10
26.7094097834
 20
10.6243158407
 30
0.0
 10
26.7149118427
 20
10.6325384376
 30
0.0
 10
26.7177665763
 20
10.6363140902
 30
0.0
  0
SPLINE
  5
244
100
AcDbEntity
  8
0
100
AcDbSpline
 62
7
  6
CONTINUOUS
 70
0
 71
3
 72
17
 73
13
 74
0
 42
0.0000001
 43
0.0000001
 44
0.0000000001
 40
0.0
 40
0.0
 40
0.0
 40
0.0
 40
0.0523241472
 40
0.1091838077
 40
0.1694486001
 40
0.2323324028
 40
0.3634594441
 40
0.498107338
 40
0.6323552996
 40
0.7627585158
 40
0.8862843668
 40
1.0
 40
1.0
 40
1.0
 40
1.0
 10
26.4592572076
 20
10.462186197
 30
0.0
 10
26.4599963331
 20
10.464234932
 30
0.0
 10
26.461453829
 20
10.4685408007
 30
0.0
 10
26.4635092875
 20
10.4752887421
 30
0.0
 10
26.4655221133
 20
10.4825066964
 30
0.0
 10
26.4681889854
 20
10.4927497688
 30
0.0
 10
26.4714115309
 20
10.5060456145
 30
0.0
 10
26.4753086647
 20
10.5222339726
 30
0.0
 10
26.4794687677
 20
10.5383273287
 30
0.0
 10
26.4840632536
 20
10.5538242079
 30
0.0
 10
26.4892285232
 20
10.5682395376
 30
0.0
 10
26.4933021599
 20
10.5772555922
 30
0.0
 10
26.4954965128
 20
10.5814496204
 30
0.0
  0
SPLINE
  5
245
100
AcDbEntity
  8
0
100
AcDbSpline
 62
7
  6
CONTINUOUS
 70
0
 71
3
 72
17
 73
13
 74
0
 42
0.0000001
 43
0.0000001
 44
0.0000000001
 40
0.0
 40
0.0
 40
0.0
 40
0.0
 40
0.0523241472
 40
0.1091838077
 40
0.1694486001
 40
0.2323324028
 40
0.3634594441
 40
0.498107338
 40
0.6323552996
 40
0.7627585158
 40
0.8862843668
 40
1.0
 40
1.0
 40
1.0
 40
1.0
 10
26.2691730692
 20
10.3671476937
 30
0.0
 10
26.2695649065
 20
10.3692901421
 30
0.0
 10
26.2702938079
 20
10.3737771793
 30
0.0
 10
26.2712105683
 20
10.3807714035
 30
0.0
 10
26.2720079164
 20
10.3882222134
 30
0.0
 10
26.2729524772
 20
10.398764535
 30
0.0
 10
26.2739426671
 20
10.4124094548
 30
0.0
 10
26.2751221573
 20
10.4290184702
 30
0.0
 10
26.2765766669
 20
10.4455770622
 30
0.0
 10
26.2785578111
 20
10.4616188087
 30
0.0
 10
26.28127997
 20
10.4766877036
 30
0.0
 10
26.2838140679
 20
10.4862512859
 30
0.0
 10
26.2852881849
 20
10.4907492894
 30
0.0
  0
SPLINE
  5
246
100
AcDbEntity
  8
0
100
AcDbSpline
 62
7
  6
CONTINUOUS
 70
0
 71
3
 72
17
 73
13
 74
0
 42
0.0000001
 43
0.0000001
 44
0.0000000001
 40
0.0
 40
0.0
 40
0.0
 40
0.0
 40
0.0523241472
 40
0.1091838077
 40
0.1694486001
 40
0.2323324028
 40
0.3634594441
 40
0.498107338
 40
0.6323552996
 40
0.7627585158
 40
0.8862843668
 40
1.0
 40
1.0
 40
1.0
 40
1.0
 10
26.0973240705
 20
10.2421188235
 30
0.0
 10
26.0973579314
 20
10.2442965459
 30
0.0
 10
26.0973383562
 20
10.248842359
 30
0.0
 10
26.0970914121
 20
10.2558920853
 30
0.0
 10
26.0966515334
 20
10.2633725157
 30
0.0
 10
26.095848018
 20
10.2739265245
 30
0.0
 10
26.094578843
 20
10.2875483272
 30
0.0
 10
26.0930085168
 20
10.3041249573
 30
0.0
 10
26.0917177585
 20
10.320697118
 30
0.0
 10
26.0910315215
 20
10.3368461626
 30
0.0
 10
26.0912363176
 20
10.3521575897
 30
0.0
 10
26.0921617542
 20
10.3620078346
 30
0.0
 10
26.0928754261
 20
10.3666871219
 30
0.0
  0
SPLINE
  5
247
100
AcDbEntity
  8
0
100
AcDbSpline
 62
7
  6
CONTINUOUS
 70
0
 71
3
 72
17
 73
13
 74
0
 42
0.0000001
 43
0.0000001
 44
0.0000000001
 40
0.0
 40
0.0
 40
0.0
 40
0.0
 40
0.0523241472
 40
0.1091838077
 40
0.1694486001
 40
0.2323324028
 40
0.3634594441
 40
0.498107338
 40
0.6323552996
 40
0.7627585158
 40
0.8862843668
 40
1.0
 40
1.0
 40
1.0
 40
1.0
 10
25.948397721
 20
10.0905099874
 30
0.0
 10
25.9480726818
 20
10.0926635823
 30
0.0
 10
25.947305164
 20
10.0971441756
 30
0.0
 10
25.9459012512
 20
10.1040571092
 30
0.0
 10
25.9442361443
 20
10.1113631171
 30
0.0
 10
25.9417064701
 20
10.1216409324
 30
0.0
 10
25.9382125494
 20
10.1348680573
 30
0.0
 10
25.9339352404
 20
10.1509601428
 30
0.0
 10
25.9299344221
 20
10.1670938349
 30
0.0
 10
25.9265995223
 20
10.1829096816
 30
0.0
 10
25.9242813695
 20
10.1980459925
 30
0.0
 10
25.9235729019
 20
10.2079142158
 30
0.0
 10
25.9235066617
 20
10.2126471504
 30
0.0
  0
SPLINE
  5
248
100
AcDbEntity
  8
0
100
AcDbSpline
 62
7
  6
CONTINUOUS
 70
0
 71
3
 72
17
 73
13
 74
0
 42
0.0000001
 43
0.0000001
 44
0.0000000001
 40
0.0
 40
0.0
 40
0.0
 40
0.0
 40
0.0523241472
 40
0.1091838077
 40
0.1694486001
 40
0.2323324028
 40
0.3634594441
 40
0.498107338
 40
0.6323552996
 40
0.7627585158
 40
0.8862843668
 40
1.0
 40
1.0
 40
1.0
 40
1.0
 10
25.8264562712
 20
9.916456606
 30
0.0
 10
25.8257811981
 20
9.91852733
 30
0.0
 10
25.8242866731
 20
9.9228204867
 30
0.0
 10
25.8217640861
 20
9.9294080642
 30
0.0
 10
25.8189191699
 20
9.9363403642
 30
0.0
 10
25.8147323386
 20
9.946061639
 30
0.0
 10
25.8091089756
 20
9.958533291
 30
0.0
 10
25.8022413556
 20
9.9737018896
 30
0.0
 10
25.7956396072
 20
9.9889570358
 30
0.0
 10
25.7897470104
 20
10.0040082772
 30
0.0
 10
25.7849691407
 20
10.0185566002
 30
0.0
 10
25.7826460936
 20
10.0281736272
 30
0.0
 10
25.7818017483
 20
10.0328311092
 30
0.0
  0
SPLINE
  5
249
100
AcDbEntity
  8
0
100
AcDbSpline
 62
7
  6
CONTINUOUS
 70
0
 71
3
 72
17
 73
13
 74
0
 42
0.0000001
 43
0.0000001
 44
0.0000000001
 40
0.0
 40
0.0
 40
0.0
 40
0.0
 40
0.0523241472
 40
0.1091838077
 40
0.1694486001
 40
0.2323324028
 40
0.3634594441
 40
0.498107338
 40
0.6323552996
 40
0.7627585158
 40
0.8862843668
 40
1.0
 40
1.0
 40
1.0
 40
1.0
 10
25.8971641843
 20
8.5106546645
 30
0.0
 10
25.8949966989
 20
8.5108682733
 30
0.0
 10
25.8904648003
 20
8.5112242152
 30
0.0
 10
25.8834187644
 20
8.5115603696
 30
0.0
 10
25.8759275609
 20
8.5117398214
 30
0.0
 10
25.8653432466
 20
8.5118107335
 30
0.0
 10
25.8516631597
 20
8.511670954
 30
0.0
 10
25.8350134681
 20
8.5114750987
 30
0.0
 10
25.8183913209
 20
8.511557487
 30
0.0
 10
25.802240773
 20
8.5122073851
 30
0.0
 10
25.7869985736
 20
8.513676091
 30
0.0
 10
25.7772584171
 20
8.5154119224
 30
0.0
 10
25.772654061
 20
8.5165096301
 30
0.0
  0
SPLINE
  5
24A
100
AcDbEntity
  8
0
100
AcDbSpline
 62
7
  6
CONTINUOUS
 70
0
 71
3
 72
17
 73
13
 74
0
 42
0.0000001
 43
0.0000001
 44
0.0000000001
 40
0.0
 40
0.0
 40
0.0
 40
0.0
 40
0.0523241472
 40
0.1091838077
 40
0.1694486001
 40
0.2323324028
 40
0.3634594441
 40
0.498107338
 40
0.6323552996
 40
0.7627585158
 40
0.8862843668
 40
1.0
 40
1.0
 40
1.0
 40
1.0
 10
26.03595483
 20
8.3497153796
 30
0.0
 10
26.0337817473
 20
8.3495693219
 30
0.0
 10
26.0292530711
 20
8.3491744899
 30
0.0
 10
26.0222478035
 20
8.3483463304
 30
0.0
 10
26.014829232
 20
8.3472903341
 30
0.0
 10
26.0043775997
 20
8.3456181736
 30
0.0
 10
25.9909070948
 20
8.3432286519
 30
0.0
 10
25.9745167157
 20
8.3402950428
 30
0.0
 10
25.9581077083
 20
8.3376404161
 30
0.0
 10
25.9420704602
 20
8.3356231811
 30
0.0
 10
25.9267944019
 20
8.3345630947
 30
0.0
 10
25.9169013802
 20
8.3346720891
 30
0.0
 10
25.9121791453
 20
8.3349969803
 30
0.0
  0
SPLINE
  5
24B
100
AcDbEntity
  8
0
100
AcDbSpline
 62
7
  6
CONTINUOUS
 70
0
 71
3
 72
17
 73
13
 74
0
 42
0.0000001
 43
0.0000001
 44
0.0000000001
 40
0.0
 40
0.0
 40
0.0
 40
0.0
 40
0.0523241472
 40
0.1091838077
 40
0.1694486001
 40
0.2323324028
 40
0.3634594441
 40
0.498107338
 40
0.6323552996
 40
0.7627585158
 40
0.8862843668
 40
1.0
 40
1.0
 40
1.0
 40
1.0
 10
26.1993420881
 20
8.2138150462
 30
0.0
 10
26.197222683
 20
8.2133133059
 30
0.0
 10
26.1928207576
 20
8.2121784697
 30
0.0
 10
26.1860473404
 20
8.2102085861
 30
0.0
 10
26.1789037565
 20
8.207945946
 30
0.0
 10
26.1688698944
 20
8.2045763241
 30
0.0
 10
26.1559764053
 20
8.2000022392
 30
0.0
 10
26.1402924176
 20
8.194410896
 30
0.0
 10
26.1245441371
 20
8.1890916642
 30
0.0
 10
26.1090576353
 20
8.1844623201
 30
0.0
 10
26.0941644017
 20
8.1809023572
 30
0.0
 10
26.0843883659
 20
8.1793815416
 30
0.0
 10
26.07967706
 20
8.1789247543
 30
0.0
  0
SPLINE
  5
24C
100
AcDbEntity
  8
0
100
AcDbSpline
 62
7
  6
CONTINUOUS
 70
0
 71
3
 72
17
 73
13
 74
0
 42
0.0000001
 43
0.0000001
 44
0.0000000001
 40
0.0
 40
0.0
 40
0.0
 40
0.0
 40
0.0523241472
 40
0.1091838077
 40
0.1694486001
 40
0.2323324028
 40
0.3634594441
 40
0.498107338
 40
0.6323552996
 40
0.7627585158
 40
0.8862843668
 40
1.0
 40
1.0
 40
1.0
 40
1.0
 10
26.3828692592
 20
8.1066606051
 30
0.0
 10
26.3808613425
 20
8.1058168683
 30
0.0
 10
26.3767062388
 20
8.1039729828
 30
0.0
 10
26.3703494299
 20
8.1009151074
 30
0.0
 10
26.3636756885
 20
8.0975075412
 30
0.0
 10
26.3543332895
 20
8.0925323709
 30
0.0
 10
26.3423685106
 20
8.0858984896
 30
0.0
 10
26.327818725
 20
8.0778019269
 30
0.0
 10
26.3131607358
 20
8.0699631822
 30
0.0
 10
26.2986474042
 20
8.0628480033
 30
0.0
 10
26.2845432368
 20
8.0568852687
 30
0.0
 10
26.2751508468
 20
8.0537761262
 30
0.0
 10
26.2705789799
 20
8.0525501202
 30
0.0
  0
SPLINE
  5
24D
100
AcDbEntity
  8
0
100
AcDbSpline
 62
7
  6
CONTINUOUS
 70
0
 71
3
 72
17
 73
13
 74
0
 42
0.0000001
 43
0.0000001
 44
0.0000000001
 40
0.0
 40
0.0
 40
0.0
 40
0.0
 40
0.0523241472
 40
0.1091838077
 40
0.1694486001
 40
0.2323324028
 40
0.3634594441
 40
0.498107338
 40
0.6323552996
 40
0.7627585158
 40
0.8862843668
 40
1.0
 40
1.0
 40
1.0
 40
1.0
 10
26.5815302893
 20
8.0311748986
 30
0.0
 10
26.5796886307
 20
8.0300121797
 30
0.0
 10
26.5758936872
 20
8.0275095404
 30
0.0
 10
26.5701268807
 20
8.0234470825
 30
0.0
 10
26.5641050207
 20
8.0189875382
 30
0.0
 10
26.5557089165
 20
8.0125425268
 30
0.0
 10
26.5449992101
 20
8.0040298008
 30
0.0
 10
26.5319804998
 20
7.9936488678
 30
0.0
 10
26.5188126265
 20
7.983504427
 30
0.0
 10
26.505668344
 20
7.9740974933
 30
0.0
 10
26.4927379608
 20
7.965894632
 30
0.0
 10
26.483985412
 20
7.9612819704
 30
0.0
 10
26.4796776905
 20
7.9593201873
 30
0.0
  0
SPLINE
  5
24E
100
AcDbEntity
  8
0
100
AcDbSpline
 62
7
  6
CONTINUOUS
 70
0
 71
3
 72
17
 73
13
 74
0
 42
0.0000001
 43
0.0000001
 44
0.0000000001
 40
0.0
 40
0.0
 40
0.0
 40
0.0
 40
0.0523241472
 40
0.1091838077
 40
0.1694486001
 40
0.2323324028
 40
0.3634594441
 40
0.498107338
 40
0.6323552996
 40
0.7627585158
 40
0.8862843668
 40
1.0
 40
1.0
 40
1.0
 40
1.0
 10
26.7899063194
 20
7.9894169433
 30
0.0
 10
26.7882811538
 20
7.9879669577
 30
0.0
 10
26.7849498847
 20
7.9848738289
 30
0.0
 10
26.7799303812
 20
7.9799175998
 30
0.0
 10
26.7747246605
 20
7.97452772
 30
0.0
 10
26.7675038709
 20
7.9667886674
 30
0.0
 10
26.7583413646
 20
7.9566292976
 30
0.0
 10
26.7472088397
 20
7.9442471541
 30
0.0
 10
26.7358902612
 20
7.9320737262
 30
0.0
 10
26.7244735632
 20
7.9206316298
 30
0.0
 10
26.7130696652
 20
7.9104123905
 30
0.0
 10
26.7051957001
 20
7.904422029
 30
0.0
 10
26.7012696253
 20
7.9017779801
 30
0.0
  0
SPLINE
  5
24F
100
AcDbEntity
  8
0
100
AcDbSpline
 62
7
  6
CONTINUOUS
 70
0
 71
3
 72
17
 73
13
 74
0
 42
0.0000001
 43
0.0000001
 44
0.0000000001
 40
0.0
 40
0.0
 40
0.0
 40
0.0
 40
0.0523241472
 40
0.1091838077
 40
0.1694486001
 40
0.2323324028
 40
0.3634594441
 40
0.498107338
 40
0.6323552996
 40
0.7627585158
 40
0.8862843668
 40
1.0
 40
1.0
 40
1.0
 40
1.0
 10
27.0023134955
 20
7.9825257672
 30
0.0
 10
27.0009491523
 20
7.9808280661
 30
0.0
 10
26.9981724243
 20
7.9772288187
 30
0.0
 10
26.9940371404
 20
7.9715140091
 30
0.0
 10
26.989789555
 20
7.965340813
 30
0.0
 10
26.9839410407
 20
7.9565188166
 30
0.0
 10
26.9765756595
 20
7.9449899193
 30
0.0
 10
26.9676329809
 20
7.9309443118
 30
0.0
 10
26.9584724331
 20
7.9170739503
 30
0.0
 10
26.9490947317
 20
7.9039087962
 30
0.0
 10
26.939528382
 20
7.8919519281
 30
0.0
 10
26.932747778
 20
7.8847472653
 30
0.0
 10
26.9293104411
 20
7.8814930722
 30
0.0
  0
SPLINE
  5
250
100
AcDbEntity
  8
0
100
AcDbSpline
 62
7
  6
CONTINUOUS
 70
0
 71
3
 72
17
 73
13
 74
0
 42
0.0000001
 43
0.0000001
 44
0.0000000001
 40
0.0
 40
0.0
 40
0.0
 40
0.0
 40
0.0523241472
 40
0.1091838077
 40
0.1694486001
 40
0.2323324028
 40
0.3634594441
 40
0.498107338
 40
0.6323552996
 40
0.7627585158
 40
0.8862843668
 40
1.0
 40
1.0
 40
1.0
 40
1.0
 10
27.2129580063
 20
8.0106893403
 30
0.0
 10
27.2118917006
 20
8.0087902316
 30
0.0
 10
27.2097452543
 20
8.004783042
 30
0.0
 10
27.2066069877
 20
7.9984655342
 30
0.0
 10
27.2034333985
 20
7.9916774076
 30
0.0
 10
27.199116689
 20
7.9820131043
 30
0.0
 10
27.1937493377
 20
7.9694291521
 30
0.0
 10
27.1872404341
 20
7.9541032014
 30
0.0
 10
27.1804877883
 20
7.9389142468
 30
0.0
 10
27.1734048783
 20
7.9243851398
 30
0.0
 10
27.1659370173
 20
7.9110167894
 30
0.0
 10
27.1604347284
 20
7.9027943461
 30
0.0
 10
27.1575798893
 20
7.8990187731
 30
0.0
  0
SPLINE
  5
251
100
AcDbEntity
  8
0
100
AcDbSpline
 62
7
  6
CONTINUOUS
 70
0
 71
3
 72
17
 73
13
 74
0
 42
0.0000001
 43
0.0000001
 44
0.0000000001
 40
0.0
 40
0.0
 40
0.0
 40
0.0
 40
0.0523241472
 40
0.1091838077
 40
0.1694486001
 40
0.2323324028
 40
0.3634594441
 40
0.498107338
 40
0.6323552996
 40
0.7627585158
 40
0.8862843668
 40
1.0
 40
1.0
 40
1.0
 40
1.0
 10
27.4160941205
 20
8.0731394473
 30
0.0
 10
27.4153549378
 20
8.071090733
 30
0.0
 10
27.4138973217
 20
8.0667849049
 30
0.0
 10
27.4118416747
 20
8.060037021
 30
0.0
 10
27.4098286474
 20
8.0528191229
 30
0.0
 10
27.4071614892
 20
8.042576125
 30
0.0
 10
27.4039385724
 20
8.0292803692
 30
0.0
 10
27.4000409865
 20
8.0130921199
 30
0.0
 10
27.3958804341
 20
7.9969988801
 30
0.0
 10
27.3912855155
 20
7.9815021292
 30
0.0
 10
27.3861198433
 20
7.9670869437
 30
0.0
 10
27.3820459549
 20
7.9580710028
 30
0.0
 10
27.3798514848
 20
7.9538770359
 30
0.0
  0
SPLINE
  5
252
100
AcDbEntity
  8
0
100
AcDbSpline
 62
7
  6
CONTINUOUS
 70
0
 71
3
 72
17
 73
13
 74
0
 42
0.0000001
 43
0.0000001
 44
0.0000000001
 40
0.0
 40
0.0
 40
0.0
 40
0.0
 40
0.0523241472
 40
0.1091838077
 40
0.1694486001
 40
0.2323324028
 40
0.3634594441
 40
0.498107338
 40
0.6323552996
 40
0.7627585158
 40
0.8862843668
 40
1.0
 40
1.0
 40
1.0
 40
1.0
 10
27.6061809128
 20
8.1681726424
 30
0.0
 10
27.6057890157
 20
8.1660302049
 30
0.0
 10
27.605059989
 20
8.1615431881
 30
0.0
 10
27.6041430332
 20
8.1545489895
 30
0.0
 10
27.603345477
 20
8.1470982019
 30
0.0
 10
27.6024006219
 20
8.1365559067
 30
0.0
 10
27.601410051
 20
8.1229110145
 30
0.0
 10
27.6002300969
 20
8.106302032
 30
0.0
 10
27.5987751249
 20
8.0897434807
 30
0.0
 10
27.5967935328
 20
8.0737017895
 30
0.0
 10
27.594070953
 20
8.0586329707
 30
0.0
 10
27.5915365881
 20
8.0490694592
 30
0.0
 10
27.5900623455
 20
8.0445714968
 30
0.0
  0
SPLINE
  5
253
100
AcDbEntity
  8
0
100
AcDbSpline
 62
7
  6
CONTINUOUS
 70
0
 71
3
 72
17
 73
13
 74
0
 42
0.0000001
 43
0.0000001
 44
0.0000000001
 40
0.0
 40
0.0
 40
0.0
 40
0.0
 40
0.0523241472
 40
0.1091838077
 40
0.1694486001
 40
0.2323324028
 40
0.3634594441
 40
0.498107338
 40
0.6323552996
 40
0.7627585158
 40
0.8862843668
 40
1.0
 40
1.0
 40
1.0
 40
1.0
 10
27.7780334029
 20
8.2931967137
 30
0.0
 10
27.7779994812
 20
8.2910189922
 30
0.0
 10
27.7780189295
 20
8.2864731785
 30
0.0
 10
27.7782656767
 20
8.2794234454
 30
0.0
 10
27.7787053465
 20
8.2719430027
 30
0.0
 10
27.7795085672
 20
8.2613889715
 30
0.0
 10
27.7807773618
 20
8.2477671333
 30
0.0
 10
27.7823472251
 20
8.2311904594
 30
0.0
 10
27.7836375206
 20
8.2146182627
 30
0.0
 10
27.7843233066
 20
8.1984691989
 30
0.0
 10
27.7841180829
 20
8.1831577775
 30
0.0
 10
27.7831923712
 20
8.1733075584
 30
0.0
 10
27.7824785687
 20
8.168628291
 30
0.0
  0
SPLINE
  5
254
100
AcDbEntity
  8
0
100
AcDbSpline
 62
7
  6
CONTINUOUS
 70
0
 71
3
 72
17
 73
13
 74
0
 42
0.0000001
 43
0.0000001
 44
0.0000000001
 40
0.0
 40
0.0
 40
0.0
 40
0.0
 40
0.0523241472
 40
0.1091838077
 40
0.1694486001
 40
0.2323324028
 40
0.3634594441
 40
0.498107338
 40
0.6323552996
 40
0.7627585158
 40
0.8862843668
 40
1.0
 40
1.0
 40
1.0
 40
1.0
 10
27.9269639861
 20
8.4448013909
 30
0.0
 10
27.9272889651
 20
8.4426477869
 30
0.0
 10
27.9280563578
 20
8.4381671722
 30
0.0
 10
27.9294600775
 20
8.4312541994
 30
0.0
 10
27.9311249804
 20
8.423948145
 30
0.0
 10
27.9336543676
 20
8.4136702591
 30
0.0
 10
27.9371479189
 20
8.4004430366
 30
0.0
 10
27.9414247785
 20
8.3843508316
 30
0.0
 10
27.9454251463
 20
8.3682170279
 30
0.0
 10
27.9487596044
 20
8.352401088
 30
0.0
 10
27.9510773345
 20
8.3372647123
 30
0.0
 10
27.9517855266
 20
8.3273964693
 30
0.0
 10
27.9518516346
 20
8.3226635328
 30
0.0
  0
SPLINE
  5
255
100
AcDbEntity
  8
0
100
AcDbSpline
 62
7
  6
CONTINUOUS
 70
0
 71
3
 72
17
 73
13
 74
0
 42
0.0000001
 43
0.0000001
 44
0.0000000001
 40
0.0
 40
0.0
 40
0.0
 40
0.0
 40
0.0523241472
 40
0.1091838077
 40
0.1694486001
 40
0.2323324028
 40
0.3634594441
 40
0.498107338
 40
0.6323552996
 40
0.7627585158
 40
0.8862843668
 40
1.0
 40
1.0
 40
1.0
 40
1.0
 10
28.0489102963
 20
8.618851367
 30
0.0
 10
28.0495853115
 20
8.6167806241
 30
0.0
 10
28.0510797167
 20
8.6124874256
 30
0.0
 10
28.0536021197
 20
8.6058997777
 30
0.0
 10
28.0564468424
 20
8.5989673983
 30
0.0
 10
28.0606334021
 20
8.5892460066
 30
0.0
 10
28.0662564169
 20
8.5767741976
 30
0.0
 10
28.0731236133
 20
8.5616054072
 30
0.0
 10
28.0797249357
 20
8.5463500767
 30
0.0
 10
28.0856171121
 20
8.5312986707
 30
0.0
 10
28.0903945756
 20
8.5167502143
 30
0.0
 10
28.0927173542
 20
8.5071331224
 30
0.0
 10
28.0935615694
 20
8.5024756168
 30
0.0
  0
SPLINE
  5
256
100
AcDbEntity
  8
0
100
AcDbSpline
 62
7
  6
CONTINUOUS
 70
0
 71
3
 72
17
 73
13
 74
0
 42
0.0000001
 43
0.0000001
 44
0.0000000001
 40
0.0
 40
0.0
 40
0.0
 40
0.0
 40
0.0523241472
 40
0.1091838077
 40
0.1694486001
 40
0.2323324028
 40
0.3634594441
 40
0.498107338
 40
0.6323552996
 40
0.7627585158
 40
0.8862843668
 40
1.0
 40
1.0
 40
1.0
 40
1.0
 10
28.1405460152
 20
8.8105990966
 30
0.0
 10
28.1415526543
 20
8.8086676983
 30
0.0
 10
28.143733309
 20
8.8046790213
 30
0.0
 10
28.1473055921
 20
8.7985963889
 30
0.0
 10
28.1512525392
 20
8.7922267782
 30
0.0
 10
28.1569820751
 20
8.7833270504
 30
0.0
 10
28.1645811749
 20
8.7719508472
 30
0.0
 10
28.1738513922
 20
8.7581192291
 30
0.0
 10
28.1828736055
 20
8.7441584901
 30
0.0
 10
28.1911627799
 20
8.7302821739
 30
0.0
 10
28.1982696623
 20
8.7167184736
 30
0.0
 10
28.2021436692
 20
8.7076148574
 30
0.0
 10
28.2037429641
 20
8.7031598251
 30
0.0
  0
SPLINE
  5
257
100
AcDbEntity
  8
0
100
AcDbSpline
 62
7
  6
CONTINUOUS
 70
0
 71
3
 72
17
 73
13
 74
0
 42
0.0000001
 43
0.0000001
 44
0.0000000001
 40
0.0
 40
0.0
 40
0.0
 40
0.0
 40
0.0523241472
 40
0.1091838077
 40
0.1694486001
 40
0.2323324028
 40
0.3634594441
 40
0.498107338
 40
0.6323552996
 40
0.7627585158
 40
0.8862843668
 40
1.0
 40
1.0
 40
1.0
 40
1.0
 10
28.1993716034
 20
9.0148142942
 30
0.0
 10
28.2006824084
 20
9.0130749231
 30
0.0
 10
28.2034898313
 20
9.0094995663
 30
0.0
 10
28.2080145534
 20
9.0040878649
 30
0.0
 10
28.2129560646
 20
8.9984547663
 30
0.0
 10
28.2200722926
 20
8.9906194593
 30
0.0
 10
28.2294401974
 20
8.9806491696
 30
0.0
 10
28.2408605727
 20
8.9685320076
 30
0.0
 10
28.2520575789
 20
8.9562466659
 30
0.0
 10
28.2625176483
 20
8.9439239425
 30
0.0
 10
28.2717600958
 20
8.9317149742
 30
0.0
 10
28.2770796599
 20
8.9233731522
 30
0.0
 10
28.2793904107
 20
8.9192421126
 30
0.0
  0
SPLINE
  5
258
100
AcDbEntity
  8
0
100
AcDbSpline
 62
7
  6
CONTINUOUS
 70
0
 71
3
 72
17
 73
13
 74
0
 42
0.0000001
 43
0.0000001
 44
0.0000000001
 40
0.0
 40
0.0
 40
0.0
 40
0.0
 40
0.0523241472
 40
0.1091838077
 40
0.1694486001
 40
0.2323324028
 40
0.3634594441
 40
0.498107338
 40
0.6323552996
 40
0.7627585158
 40
0.8862843668
 40
1.0
 40
1.0
 40
1.0
 40
1.0
 10
28.2237824807
 20
9.2259266004
 30
0.0
 10
28.2253616969
 20
9.2244267012
 30
0.0
 10
28.2287193101
 20
9.2213621892
 30
0.0
 10
28.234073051
 20
9.2167690333
 30
0.0
 10
28.2398743369
 20
9.2120261003
 30
0.0
 10
28.2481831485
 20
9.2054689371
 30
0.0
 10
28.2590643307
 20
9.1971765197
 30
0.0
 10
28.2723233516
 20
9.1871043324
 30
0.0
 10
28.2853897308
 20
9.1768294942
 30
0.0
 10
28.2977353768
 20
9.1663964894
 30
0.0
 10
28.308861284
 20
9.1558752761
 30
0.0
 10
28.3154813042
 20
9.1485227874
 30
0.0
 10
28.3184404807
 20
9.1448284225
 30
0.0
  0
SPLINE
  5
259
100
AcDbEntity
  8
0
100
AcDbSpline
 62
7
  6
CONTINUOUS
 70
0
 71
3
 72
17
 73
13
 74
0
 42
0.0000001
 43
0.0000001
 44
0.0000000001
 40
0.0
 40
0.0
 40
0.0
 40
0.0
 40
0.0523241472
 40
0.1091838077
 40
0.1694486001
 40
0.2323324028
 40
0.3634594441
 40
0.498107338
 40
0.6323552996
 40
0.7627585158
 40
0.8862843668
 40
1.0
 40
1.0
 40
1.0
 40
1.0
 10
28.213112794
 20
9.4381775239
 30
0.0
 10
28.2149173452
 20
9.4369580092
 30
0.0
 10
28.2187335634
 20
9.4344879325
 30
0.0
 10
28.2247702895
 20
9.4308386092
 30
0.0
 10
28.2312731091
 20
9.4271152143
 30
0.0
 10
28.2405478653
 20
9.4220150541
 30
0.0
 10
28.2526455201
 20
9.4156267004
 30
0.0
 10
28.2673815213
 20
9.4078742261
 30
0.0
 10
28.2819608633
 20
9.3998901572
 30
0.0
 10
28.2958553347
 20
9.3916314511
 30
0.0
 10
28.3085612213
 20
9.3830849789
 30
0.0
 10
28.3163011239
 20
9.3769223767
 30
0.0
 10
28.3198280089
 20
9.3737654573
 30
0.0
  0
SPLINE
  5
25A
100
AcDbEntity
  8
0
100
AcDbSpline
 62
7
  6
CONTINUOUS
 70
0
 71
3
 72
17
 73
13
 74
0
 42
0.0000001
 43
0.0000001
 44
0.0000000001
 40
0.0
 40
0.0
 40
0.0
 40
0.0
 40
0.0523241472
 40
0.1091838077
 40
0.1694486001
 40
0.2323324028
 40
0.3634594441
 40
0.498107338
 40
0.6323552996
 40
0.7627585158
 40
0.8862843668
 40
1.0
 40
1.0
 40
1.0
 40
1.0
 10
28.1676535791
 20
9.6457775156
 30
0.0
 10
28.1696342429
 20
9.6448716499
 30
0.0
 10
28.1738049714
 20
9.6430633846
 30
0.0
 10
28.1803600194
 20
9.6404574362
 30
0.0
 10
28.1873869959
 20
9.6378551421
 30
0.0
 10
28.1973747102
 20
9.6343511014
 30
0.0
 10
28.2103588509
 20
9.630041066
 30
0.0
 10
28.2261698799
 20
9.6248197682
 30
0.0
 10
28.2418645051
 20
9.6193442494
 30
0.0
 10
28.2569288038
 20
9.6134851139
 30
0.0
 10
28.2708680924
 20
9.6071465041
 30
0.0
 10
28.2795167567
 20
9.6023418852
 30
0.0
 10
28.2835151477
 20
9.5998085225
 30
0.0
  0
SPLINE
  5
25B
100
AcDbEntity
  8
0
100
AcDbSpline
 62
7
  6
CONTINUOUS
 70
0
 71
3
 72
17
 73
13
 74
0
 42
0.0000001
 43
0.0000001
 44
0.0000000001
 40
0.0
 40
0.0
 40
0.0
 40
0.0
 40
0.0523241472
 40
0.1091838077
 40
0.1694486001
 40
0.2323324028
 40
0.3634594441
 40
0.498107338
 40
0.6323552996
 40
0.7627585158
 40
0.8862843668
 40
1.0
 40
1.0
 40
1.0
 40
1.0
 10
28.0886448231
 20
9.8430638893
 30
0.0
 10
28.090747573
 20
9.8424963819
 30
0.0
 10
28.0951590473
 20
9.8413992518
 30
0.0
 10
28.1020536158
 20
9.8399077604
 30
0.0
 10
28.1094130749
 20
9.8384975498
 30
0.0
 10
28.1198413133
 20
9.8366852081
 30
0.0
 10
28.1333577726
 20
9.8345710553
 30
0.0
 10
28.1498125535
 20
9.8320233549
 30
0.0
 10
28.1661943611
 20
9.8292057413
 30
0.0
 10
28.1820175795
 20
9.8259059956
 30
0.0
 10
28.1968100495
 20
9.821948146
 30
0.0
 10
28.2061315667
 20
9.8186325655
 30
0.0
 10
28.2104923999
 20
9.8167918616
 30
0.0
  0
SPLINE
  5
25C
100
AcDbEntity
  8
0
100
AcDbSpline
 62
7
  6
CONTINUOUS
 70
0
 71
3
 72
17
 73
13
 74
0
 42
0.0000001
 43
0.0000001
 44
0.0000000001
 40
0.0
 40
0.0
 40
0.0
 40
0.0
 40
0.0523241472
 40
0.1091838077
 40
0.1694486001
 40
0.2323324028
 40
0.3634594441
 40
0.498107338
 40
0.6323552996
 40
0.7627585158
 40
0.8862843668
 40
1.0
 40
1.0
 40
1.0
 40
1.0
 10
27.9782416406
 20
10.0246552824
 30
0.0
 10
27.98040912
 20
10.0244416131
 30
0.0
 10
27.9849410087
 20
10.0240855447
 30
0.0
 10
27.9919870353
 20
10.0237491936
 30
0.0
 10
27.9994782337
 20
10.0235695325
 30
0.0
 10
28.0100625461
 20
10.0234983248
 30
0.0
 10
28.0237426368
 20
10.0236377224
 30
0.0
 10
28.0403923339
 20
10.0238331127
 30
0.0
 10
28.0570144788
 20
10.0237502602
 30
0.0
 10
28.0731650085
 20
10.0230999111
 30
0.0
 10
28.0884071669
 20
10.0216307796
 30
0.0
 10
28.0981472749
 20
10.0198946762
 30
0.0
 10
28.1027516003
 20
10.0187968399
 30
0.0
  0
SPLINE
  5
25D
100
AcDbEntity
  8
0
100
AcDbSpline
 62
7
  6
CONTINUOUS
 70
0
 71
3
 72
17
 73
13
 74
0
 42
0.0000001
 43
0.0000001
 44
0.0000000001
 40
0.0
 40
0.0
 40
0.0
 40
0.0
 40
0.0523241472
 40
0.1091838077
 40
0.1694486001
 40
0.2323324028
 40
0.3634594441
 40
0.498107338
 40
0.6323552996
 40
0.7627585158
 40
0.8862843668
 40
1.0
 40
1.0
 40
1.0
 40
1.0
 10
27.8394554892
 20
10.185598443
 30
0.0
 10
27.8416285761
 20
10.1857444401
 30
0.0
 10
27.8461572632
 20
10.1861391456
 30
0.0
 10
27.8531625539
 20
10.1869671095
 30
0.0
 10
27.860581155
 20
10.1880228986
 30
0.0
 10
27.871032834
 20
10.1896947673
 30
0.0
 10
27.8845034055
 20
10.1920839128
 30
0.0
 10
27.9008938666
 20
10.1950170642
 30
0.0
 10
27.9173029481
 20
10.1976712327
 30
0.0
 10
27.9333402525
 20
10.1996880198
 30
0.0
 10
27.9486163404
 20
10.2007476797
 30
0.0
 10
27.9585093591
 20
10.200638409
 30
0.0
 10
27.9632315849
 20
10.2003133859
 30
0.0
  0
SPLINE
  5
25E
100
AcDbEntity
  8
0
100
AcDbSpline
 62
7
  6
CONTINUOUS
 70
0
 71
3
 72
17
 73
13
 74
0
 42
0.0000001
 43
0.0000001
 44
0.0000000001
 40
0.0
 40
0.0
 40
0.0
 40
0.0
 40
0.0523241472
 40
0.1091838077
 40
0.1694486001
 40
0.2323324028
 40
0.3634594441
 40
0.498107338
 40
0.6323552996
 40
0.7627585158
 40
0.8862843668
 40
1.0
 40
1.0
 40
1.0
 40
1.0
 10
27.6760720262
 20
10.3215033391
 30
0.0
 10
27.6781914454
 20
10.3220050202
 30
0.0
 10
27.6825934024
 20
10.3231397334
 30
0.0
 10
27.6893668746
 20
10.3251094279
 30
0.0
 10
27.6965105218
 20
10.3273718685
 30
0.0
 10
27.7065444779
 20
10.3307412102
 30
0.0
 10
27.7194380947
 20
10.3353149351
 30
0.0
 10
27.7351222386
 20
10.3409058403
 30
0.0
 10
27.7508706676
 20
10.3462246323
 30
0.0
 10
27.7663572987
 20
10.3508535439
 30
0.0
 10
27.7812506317
 20
10.3544130909
 30
0.0
 10
27.79102671
 20
10.3559336335
 30
0.0
 10
27.7957380286
 20
10.3563902892
 30
0.0
  0
SPLINE
  5
25F
100
AcDbEntity
  8
0
100
AcDbSpline
 62
7
  6
CONTINUOUS
 70
0
 71
3
 72
17
 73
13
 74
0
 42
0.0000001
 43
0.0000001
 44
0.0000000001
 40
0.0
 40
0.0
 40
0.0
 40
0.0
 40
0.0523241472
 40
0.1091838077
 40
0.1694486001
 40
0.2323324028
 40
0.3634594441
 40
0.498107338
 40
0.6323552996
 40
0.7627585158
 40
0.8862843668
 40
1.0
 40
1.0
 40
1.0
 40
1.0
 10
27.4925478475
 20
10.4286629051
 30
0.0
 10
27.4945557878
 20
10.4295065859
 30
0.0
 10
27.4987109429
 20
10.4313503553
 30
0.0
 10
27.5050678372
 20
10.4344080533
 30
0.0
 10
27.5117416739
 20
10.437815433
 30
0.0
 10
27.5210842118
 20
10.4427903424
 30
0.0
 10
27.5330491759
 20
10.4494238897
 30
0.0
 10
27.5475991876
 20
10.4575200461
 30
0.0
 10
27.5622573958
 20
10.4653583814
 30
0.0
 10
27.576770926
 20
10.472473155
 30
0.0
 10
27.5908752599
 20
10.4784354957
 30
0.0
 10
27.6002677367
 20
10.4815443759
 30
0.0
 10
27.6048396378
 20
10.4827702543
 30
0.0
  0
SPLINE
  5
260
100
AcDbEntity
  8
0
100
AcDbSpline
 62
7
  6
CONTINUOUS
 70
0
 71
3
 72
17
 73
13
 74
0
 42
0.0000001
 43
0.0000001
 44
0.0000000001
 40
0.0
 40
0.0
 40
0.0
 40
0.0
 40
0.0523241472
 40
0.1091838077
 40
0.1694486001
 40
0.2323324028
 40
0.3634594441
 40
0.498107338
 40
0.6323552996
 40
0.7627585158
 40
0.8862843668
 40
1.0
 40
1.0
 40
1.0
 40
1.0
 10
27.2938889255
 20
10.5041541593
 30
0.0
 10
27.2957306165
 20
10.5053168267
 30
0.0
 10
27.2995256299
 20
10.5078193601
 30
0.0
 10
27.3052925499
 20
10.5118816569
 30
0.0
 10
27.3113145344
 20
10.516341033
 30
0.0
 10
27.3197108186
 20
10.52278581
 30
0.0
 10
27.3304207627
 20
10.531298237
 30
0.0
 10
27.3434397629
 20
10.5416788064
 30
0.0
 10
27.3566079195
 20
10.5518228795
 30
0.0
 10
27.3697524647
 20
10.5612294461
 30
0.0
 10
27.3826830769
 20
10.5694319463
 30
0.0
 10
27.3914357545
 20
10.5740443634
 30
0.0
 10
27.3957435308
 20
10.5760060263
 30
0.0
  0
SPLINE
  5
261
100
AcDbEntity
  8
0
100
AcDbSpline
 62
7
  6
CONTINUOUS
 70
0
 71
3
 72
17
 73
13
 74
0
 42
0.0000001
 43
0.0000001
 44
0.0000000001
 40
0.0
 40
0.0
 40
0.0
 40
0.0
 40
0.0523241472
 40
0.1091838077
 40
0.1694486001
 40
0.2323324028
 40
0.3634594441
 40
0.498107338
 40
0.6323552996
 40
0.7627585158
 40
0.8862843668
 40
1.0
 40
1.0
 40
1.0
 40
1.0
 10
27.0855140615
 20
10.5459179335
 30
0.0
 10
27.0871392676
 20
10.5473678737
 30
0.0
 10
27.0904706232
 20
10.5504609095
 30
0.0
 10
27.095490265
 20
10.5554169984
 30
0.0
 10
27.1006961362
 20
10.5608067329
 30
0.0
 10
27.107917142
 20
10.5685455838
 30
0.0
 10
27.1170799319
 20
10.5787046977
 30
0.0
 10
27.1282128026
 20
10.5910865304
 30
0.0
 10
27.139531721
 20
10.6032596422
 30
0.0
 10
27.1509487386
 20
10.6147014198
 30
0.0
 10
27.162352922
 20
10.6249203406
 30
0.0
 10
27.1702270544
 20
10.6309104823
 30
0.0
 10
27.1741532029
 20
10.6335544215
 30
0.0
  0
SPLINE
  5
262
100
AcDbEntity
  8
0
100
AcDbSpline
 62
7
  6
CONTINUOUS
 70
0
 71
3
 72
27
 73
23
 74
0
 42
0.0000001
 43
0.0000001
 44
0.0000000001
 40
0.0
 40
0.0
 40
0.0
 40
0.0
 40
0.0624954088
 40
0.0937524841
 40
0.1250095415
 40
0.1875049044
 40
0.2500002684
 40
0.281257323
 40
0.3125143822
 40
0.3750097061
 40
0.4375049974
 40
0.5000002828
 40
0.5624955532
 40
0.6249908086
 40
0.687486061
 40
0.7187431301
 40
0.7500001925
 40
0.812495375
 40
0.8749908014
 40
0.9062469609
 40
0.9375044662
 40
1.0
 40
1.0
 40
1.0
 40
1.0
 10
26.9346125011
 20
8.6426695021
 30
0.0
 10
26.9550720667
 20
8.6426695047
 30
0.0
 10
26.985792261
 20
8.6441740076
 30
0.0
 10
27.0264228726
 20
8.6491721682
 30
0.0
 10
27.0667637137
 20
8.6561519509
 30
0.0
 10
27.1164747714
 20
8.6685702064
 30
0.0
 10
27.1647318579
 20
8.6857952565
 30
0.0
 10
27.2021736076
 20
8.7023533372
 30
0.0
 10
27.2387588075
 20
8.7207259121
 30
0.0
 10
27.2827360254
 20
8.7470253921
 30
0.0
 10
27.3321500752
 20
8.7835962735
 30
0.0
 10
27.3777439932
 20
8.8248358873
 30
0.0
 10
27.4190741229
 20
8.8703478466
 30
0.0
 10
27.4557399739
 20
8.9196916495
 30
0.0
 10
27.482118372
 20
8.9636218906
 30
0.0
 10
27.5005512466
 20
9.0001768029
 30
0.0
 10
27.5171667959
 20
9.0375930942
 30
0.0
 10
27.5344570204
 20
9.0858273645
 30
0.0
 10
27.546926309
 20
9.1355259333
 30
0.0
 10
27.553936768
 20
9.1758614459
 30
0.0
 10
27.5589571971
 20
9.2164892947
 30
0.0
 10
27.560469022
 20
9.2472098956
 30
0.0
 10
27.560469022
 20
9.2676695021
 30
0.0
  0
SPLINE
  5
263
100
AcDbEntity
  8
0
100
AcDbSpline
 62
7
  6
CONTINUOUS
 70
0
 71
3
 72
24
 73
20
 74
0
 42
0.0000001
 43
0.0000001
 44
0.0000000001
 40
0.0
 40
0.0
 40
0.0
 40
0.0
 40
0.125006189
 40
0.2500009504
 40
0.3749806767
 40
0.4999455423
 40
0.5624529692
 40
0.6249580221
 40
0.6874607967
 40
0.7499611769
 40
0.8124582382
 40
0.8437119332
 40
0.874965181
 40
0.9062174841
 40
0.9374686309
 40
0.9530974825
 40
0.9687269543
 40
0.9843688507
 40
1.0
 40
1.0
 40
1.0
 40
1.0
 10
26.0973240705
 20
10.2421188235
 30
0.0
 10
26.0948605368
 20
10.233107506
 30
0.0
 10
26.0888362189
 20
10.2153657472
 30
0.0
 10
26.0766788973
 20
10.1900453793
 30
0.0
 10
26.0615752324
 20
10.1663651374
 30
0.0
 10
26.0466968928
 20
10.1482873883
 30
0.0
 10
26.0335437532
 20
10.1350074434
 30
0.0
 10
26.0230748454
 20
10.1256775122
 30
0.0
 10
26.0120329085
 20
10.117033814
 30
0.0
 10
26.0004420968
 20
10.1091415329
 30
0.0
 10
25.9903368201
 20
10.1032654306
 30
0.0
 10
25.9819857123
 20
10.0990730612
 30
0.0
 10
25.9755818244
 20
10.0962217863
 30
0.0
 10
25.9690304817
 20
10.0937267731
 30
0.0
 10
25.9634337815
 20
10.092033893
 30
0.0
 10
25.9588697117
 20
10.0910271771
 30
0.0
 10
25.9554021654
 20
10.0904938613
 30
0.0
 10
25.9519000572
 20
10.0902589733
 30
0.0
 10
25.9495571652
 20
10.0903676301
 30
0.0
 10
25.948397721
 20
10.0905099874
 30
0.0
  0
SPLINE
  5
264
100
AcDbEntity
  8
0
100
AcDbSpline
 62
7
  6
CONTINUOUS
 70
0
 71
3
 72
37
 73
33
 74
0
 42
0.0000001
 43
0.0000001
 44
0.0000000001
 40
0.0
 40
0.0
 40
0.0
 40
0.0
 40
0.0156261399
 40
0.0234464421
 40
0.0312679555
 40
0.0390872588
 40
0.0469133823
 40
0.0547364237
 40
0.0625601651
 40
0.0703863068
 40
0.0782073791
 40
0.0938378076
 40
0.1094665648
 40
0.1250923423
 40
0.1407175408
 40
0.1563424901
 40
0.1875849642
 40
0.2188295783
 40
0.2500751172
 40
0.2813212299
 40
0.3125677495
 40
0.3438147049
 40
0.3750622144
 40
0.437547804
 40
0.5000364445
 40
0.562528353
 40
0.6250237748
 40
0.6875233043
 40
0.7500282842
 40
0.8125357862
 40
0.8750479996
 40
1.0
 40
1.0
 40
1.0
 40
1.0
 10
-4.8258467971
 20
10.6335544215
 30
0.0
 10
-4.8254046355
 20
10.6348484314
 30
0.0
 10
-4.8248198167
 20
10.6368198506
 30
0.0
 10
-4.8242714794
 20
10.6395022083
 30
0.0
 10
-4.8239976784
 20
10.6415389456
 30
0.0
 10
-4.8238914982
 20
10.6435925521
 30
0.0
 10
-4.8239815772
 20
10.6456477494
 30
0.0
 10
-4.82428739
 20
10.6476834599
 30
0.0
 10
-4.8248314788
 20
10.6496691676
 30
0.0
 10
-4.8255990112
 20
10.6515792196
 30
0.0
 10
-4.8269003342
 20
10.6539928382
 30
0.0
 10
-4.8289646768
 20
10.6567437538
 30
0.0
 10
-4.8318872655
 20
10.6596365739
 30
0.0
 10
-4.8350870207
 20
10.6622124457
 30
0.0
 10
-4.8384693561
 20
10.6645386741
 30
0.0
 10
-4.8431486717
 20
10.6673735137
 30
0.0
 10
-4.8492304856
 20
10.6705112113
 30
0.0
 10
-4.8567558553
 20
10.6737856086
 30
0.0
 10
-4.8644465017
 20
10.6766493987
 30
0.0
 10
-4.8722631914
 20
10.6791466402
 30
0.0
 10
-4.8801804445
 20
10.6813030985
 30
0.0
 10
-4.8881791474
 20
10.6831345067
 30
0.0
 10
-4.8989302562
 20
10.6851558321
 30
0.0
 10
-4.9125021461
 20
10.6869128927
 30
0.0
 10
-4.9288965037
 20
10.6878203594
 30
0.0
 10
-4.9453146393
 20
10.6875456949
 30
0.0
 10
-4.9616721759
 20
10.6861037225
 30
0.0
 10
-4.9778880901
 20
10.6835094144
 30
0.0
 10
-4.9938816628
 20
10.6797797323
 30
0.0
 10
-5.0095760669
 20
10.6749343894
 30
0.0
 10
-5.0299840277
 20
10.6670241995
 30
0.0
 10
-5.0446336109
 20
10.6594800525
 30
0.0
 10
-5.0539732459
 20
10.6537932373
 30
0.0
  0
SPLINE
  5
265
100
AcDbEntity
  8
0
100
AcDbSpline
 62
7
  6
CONTINUOUS
 70
0
 71
3
 72
37
 73
33
 74
0
 42
0.0000001
 43
0.0000001
 44
0.0000000001
 40
0.0
 40
0.0
 40
0.0
 40
0.0
 40
0.1249521919
 40
0.1874645067
 40
0.2499719992
 40
0.3124769409
 40
0.3749764164
 40
0.4374717719
 40
0.4999636119
 40
0.5624521798
 40
0.6249376932
 40
0.6561851618
 40
0.6874320764
 40
0.7186785579
 40
0.7499246382
 40
0.7811701436
 40
0.8124147418
 40
0.843657161
 40
0.8592821278
 40
0.8749072151
 40
0.8905328938
 40
0.9061618124
 40
0.9217926392
 40
0.9296138036
 40
0.9374400206
 40
0.9452638211
 40
0.9530868139
 40
0.9609129305
 40
0.9687322556
 40
0.9765537656
 40
0.9843740973
 40
1.0
 40
1.0
 40
1.0
 40
1.0
 10
-5.2822334237
 20
10.6363140902
 30
0.0
 10
-5.2739559165
 20
10.6434561357
 30
0.0
 10
-5.260746622
 20
10.6533019963
 30
0.0
 10
-5.2419184755
 20
10.6644548072
 30
0.0
 10
-5.2272358289
 20
10.6718110517
 30
0.0
 10
-5.2120749887
 20
10.6781163044
 30
0.0
 10
-5.1965084514
 20
10.6833385131
 30
0.0
 10
-5.1806130066
 20
10.6874476861
 30
0.0
 10
-5.1644660737
 20
10.6904157365
 30
0.0
 10
-5.1481484055
 20
10.6922141575
 30
0.0
 10
-5.1344747589
 20
10.6927110545
 30
0.0
 10
-5.1235396284
 20
10.6924838755
 30
0.0
 10
-5.1153502013
 20
10.6919917691
 30
0.0
 10
-5.1071877069
 20
10.6911656334
 30
0.0
 10
-5.0990684266
 20
10.6899867474
 30
0.0
 10
-5.0910132883
 20
10.6884253989
 30
0.0
 10
-5.0830538335
 20
10.6864314877
 30
0.0
 10
-5.0765407367
 20
10.6843346469
 30
0.0
 10
-5.0714609747
 20
10.6823054723
 30
0.0
 10
-5.0677441082
 20
10.6805646646
 30
0.0
 10
-5.0641670676
 20
10.6785466068
 30
0.0
 10
-5.0608126418
 20
10.6761690442
 30
0.0
 10
-5.0583296436
 20
10.6737897562
 30
0.0
 10
-5.0566553551
 20
10.6716187058
 30
0.0
 10
-5.0555896148
 20
10.6698579649
 30
0.0
 10
-5.0547321956
 20
10.6679865017
 30
0.0
 10
-5.0541014907
 20
10.6660273561
 30
0.0
 10
-5.0536799116
 20
10.6640142543
 30
0.0
 10
-5.0534513694
 20
10.6619710409
 30
0.0
 10
-5.0533902016
 20
10.6599172752
 30
0.0
 10
-5.0534940217
 20
10.6571819416
 30
0.0
 10
-5.053748749
 20
10.6551418808
 30
0.0
 10
-5.0539732459
 20
10.6537932373
 30
0.0
  0
SPLINE
  5
266
100
AcDbEntity
  8
0
100
AcDbSpline
 62
7
  6
CONTINUOUS
 70
0
 71
3
 72
37
 73
33
 74
0
 42
0.0000001
 43
0.0000001
 44
0.0000000001
 40
0.0
 40
0.0
 40
0.0
 40
0.0
 40
0.1249521341
 40
0.1874639106
 40
0.24997087
 40
0.3124752563
 40
0.3749740682
 40
0.4374689253
 40
0.4999603457
 40
0.5624485454
 40
0.6249337463
 40
0.6561810774
 40
0.687427879
 40
0.7186742134
 40
0.7499201612
 40
0.7811655818
 40
0.8124101441
 40
0.8436526585
 40
0.8592775376
 40
0.8749028965
 40
0.8905287086
 40
0.9061569827
 40
0.9217879989
 40
0.9296100019
 40
0.9374376965
 40
0.9452619329
 40
0.9530860198
 40
0.9609131596
 40
0.9687325763
 40
0.9765535769
 40
0.9843734318
 40
1.0
 40
1.0
 40
1.0
 40
1.0
 10
-5.5045034872
 20
10.5814496204
 30
0.0
 10
-5.4975158342
 20
10.5898549602
 30
0.0
 10
-5.4861098156
 20
10.6017383797
 30
0.0
 10
-5.4693781421
 20
10.6158357321
 30
0.0
 10
-5.4561098538
 20
10.6255069256
 30
0.0
 10
-5.4421971404
 20
10.634220616
 30
0.0
 10
-5.4277061727
 20
10.6419332818
 30
0.0
 10
-5.4127077003
 20
10.6486027272
 30
0.0
 10
-5.3972734022
 20
10.6541885362
 30
0.0
 10
-5.3814781934
 20
10.6586493187
 30
0.0
 10
-5.3680760424
 20
10.6613914473
 30
0.0
 10
-5.3572551805
 20
10.6629686835
 30
0.0
 10
-5.3490983084
 20
10.6638325393
 30
0.0
 10
-5.3409129716
 20
10.6643626413
 30
0.0
 10
-5.3327121377
 20
10.6645379728
 30
0.0
 10
-5.3245115198
 20
10.664325894
 30
0.0
 10
-5.3163339133
 20
10.6636719309
 30
0.0
 10
-5.3095655153
 20
10.6626787565
 30
0.0
 10
-5.3042214561
 20
10.6615166604
 30
0.0
 10
-5.300268672
 20
10.6604147837
 30
0.0
 10
-5.296407649
 20
10.6590172052
 30
0.0
 10
-5.2927061792
 20
10.6572296048
 30
0.0
 10
-5.2898613091
 20
10.6552988136
 30
0.0
 10
-5.2878486899
 20
10.6534376125
 30
0.0
 10
-5.2865030038
 20
10.6518806252
 30
0.0
 10
-5.2853442879
 20
10.6501793278
 30
0.0
 10
-5.2843948761
 20
10.6483534383
 30
0.0
 10
-5.283642707
 20
10.6464393623
 30
0.0
 10
-5.2830767255
 20
10.6444631974
 30
0.0
 10
-5.2826746831
 20
10.642448735
 30
0.0
 10
-5.2823224578
 20
10.639734766
 30
0.0
 10
-5.2822354557
 20
10.6376810687
 30
0.0
 10
-5.2822334237
 20
10.6363140902
 30
0.0
  0
SPLINE
  5
267
100
AcDbEntity
  8
0
100
AcDbSpline
 62
7
  6
CONTINUOUS
 70
0
 71
3
 72
37
 73
33
 74
0
 42
0.0000001
 43
0.0000001
 44
0.0000000001
 40
0.0
 40
0.0
 40
0.0
 40
0.0
 40
0.1249521341
 40
0.1874639106
 40
0.24997087
 40
0.3124752563
 40
0.3749740682
 40
0.4374689253
 40
0.4999603457
 40
0.5624485454
 40
0.6249337463
 40
0.6561810774
 40
0.6874278789
 40
0.7186742134
 40
0.7499201612
 40
0.7811655817
 40
0.8124101441
 40
0.8436526585
 40
0.8592775376
 40
0.8749028965
 40
0.8905287086
 40
0.9061569827
 40
0.9217879989
 40
0.9296100019
 40
0.9374376964
 40
0.9452619329
 40
0.9530860198
 40
0.9609131596
 40
0.9687325763
 40
0.9765535769
 40
0.9843734318
 40
1.0
 40
1.0
 40
1.0
 40
1.0
 10
-5.7147118151
 20
10.4907492894
 30
0.0
 10
-5.7092029241
 20
10.5001901131
 30
0.0
 10
-5.6999083954
 20
10.5137888135
 30
0.0
 10
-5.6857252435
 20
10.5304478185
 30
0.0
 10
-5.6742297263
 20
10.5421709811
 30
0.0
 10
-5.6619409745
 20
10.5530557674
 30
0.0
 10
-5.6489170931
 20
10.5630483583
 30
0.0
 10
-5.6352209217
 20
10.5720954884
 30
0.0
 10
-5.6209165093
 20
10.5801454952
 30
0.0
 10
-5.606070937
 20
10.5871452226
 30
0.0
 10
-5.5933029062
 20
10.5920558549
 30
0.0
 10
-5.5828892264
 20
10.5953926197
 30
0.0
 10
-5.5749857861
 20
10.597587259
 30
0.0
 10
-5.5669993358
 20
10.5994573815
 30
0.0
 10
-5.558939207
 20
10.6009801228
 30
0.0
 10
-5.5508155261
 20
10.6021207019
 30
0.0
 10
-5.5426418117
 20
10.6028216358
 30
0.0
 10
-5.5358022545
 20
10.6029560386
 30
0.0
 10
-5.530339807
 20
10.6026893872
 30
0.0
 10
-5.5262595714
 20
10.6022531396
 30
0.0
 10
-5.522221175
 20
10.6015101198
 30
0.0
 10
-5.5182759607
 20
10.600356136
 30
0.0
 10
-5.5151520952
 20
10.598919924
 30
0.0
 10
-5.5128605841
 20
10.59741537
 30
0.0
 10
-5.5112769817
 20
10.5961011083
 30
0.0
 10
-5.509854047
 20
10.5946137307
 30
0.0
 10
-5.5086170549
 20
10.5929690102
 30
0.0
 10
-5.5075601003
 20
10.5912048411
 30
0.0
 10
-5.5066765748
 20
10.5893487847
 30
0.0
 10
-5.5059484489
 20
10.5874279699
 30
0.0
 10
-5.5051543267
 20
10.5848089891
 30
0.0
 10
-5.5047304867
 20
10.582797621
 30
0.0
 10
-5.5045034872
 20
10.5814496204
 30
0.0
  0
SPLINE
  5
268
100
AcDbEntity
  8
0
100
AcDbSpline
 62
7
  6
CONTINUOUS
 70
0
 71
3
 72
37
 73
33
 74
0
 42
0.0000001
 43
0.0000001
 44
0.0000000001
 40
0.0
 40
0.0
 40
0.0
 40
0.0
 40
0.1249521341
 40
0.1874639106
 40
0.24997087
 40
0.3124752563
 40
0.3749740682
 40
0.4374689253
 40
0.4999603457
 40
0.5624485454
 40
0.6249337463
 40
0.6561810774
 40
0.687427879
 40
0.7186742134
 40
0.7499201612
 40
0.7811655818
 40
0.8124101441
 40
0.8436526585
 40
0.8592775376
 40
0.8749028965
 40
0.8905287086
 40
0.9061569827
 40
0.9217879989
 40
0.9296100019
 40
0.9374376965
 40
0.9452619329
 40
0.9530860198
 40
0.9609131596
 40
0.9687325763
 40
0.9765535769
 40
0.9843734318
 40
1.0
 40
1.0
 40
1.0
 40
1.0
 10
-5.9071245739
 20
10.3666871219
 30
0.0
 10
-5.9032447105
 20
10.376905913
 30
0.0
 10
-5.8963151976
 20
10.3918489639
 30
0.0
 10
-5.88506744
 20
10.4106152153
 30
0.0
 10
-5.8756582559
 20
10.4240705753
 30
0.0
 10
-5.8653286649
 20
10.4368295542
 30
0.0
 10
-5.854127121
 20
10.4488295031
 30
0.0
 10
-5.8421068398
 20
10.4600075403
 30
0.0
 10
-5.8293224935
 20
10.4703021656
 30
0.0
 10
-5.8158314989
 20
10.4796499069
 30
0.0
 10
-5.8040458607
 20
10.486595096
 30
0.0
 10
-5.794323416
 20
10.4916003727
 30
0.0
 10
-5.786888989
 20
10.4950659326
 30
0.0
 10
-5.7793192709
 20
10.4982250645
 30
0.0
 10
-5.7716197025
 20
10.5010536798
 30
0.0
 10
-5.7637945476
 20
10.5035158054
 30
0.0
 10
-5.7558476789
 20
10.5055525169
 30
0.0
 10
-5.7491235245
 20
10.5068108309
 30
0.0
 10
-5.7436916873
 20
10.5074468976
 30
0.0
 10
-5.7395952965
 20
10.5076881785
 30
0.0
 10
-5.7354896816
 20
10.5076199847
 30
0.0
 10
-5.7314083361
 20
10.5071310947
 30
0.0
 10
-5.7280906847
 20
10.5062286372
 30
0.0
 10
-5.725582787
 20
10.50512177
 30
0.0
 10
-5.723804464
 20
10.5040860829
 30
0.0
 10
-5.7221561238
 20
10.5028531961
 30
0.0
 10
-5.7206652926
 20
10.5014345075
 30
0.0
 10
-5.7193323832
 20
10.4998683664
 30
0.0
 10
-5.7181554134
 20
10.498183046
 30
0.0
 10
-5.7171210651
 20
10.4964082726
 30
0.0
 10
-5.7159067072
 20
10.4939557178
 30
0.0
 10
-5.7151575903
 20
10.4920415428
 30
0.0
 10
-5.7147118151
 20
10.4907492894
 30
0.0
  0
SPLINE
  5
269
100
AcDbEntity
  8
0
100
AcDbSpline
 62
7
  6
CONTINUOUS
 70
0
 71
3
 72
37
 73
33
 74
0
 42
0.0000001
 43
0.0000001
 44
0.0000000001
 40
0.0
 40
0.0
 40
0.0
 40
0.0
 40
0.1249521342
 40
0.1874639107
 40
0.24997087
 40
0.3124752562
 40
0.374974068
 40
0.437468925
 40
0.4999603453
 40
0.5624485449
 40
0.6249337457
 40
0.6561810767
 40
0.6874278782
 40
0.7186742126
 40
0.7499201603
 40
0.7811655808
 40
0.8124101431
 40
0.8436526573
 40
0.8592775364
 40
0.8749028954
 40
0.8905287076
 40
0.906156981
 40
0.9217879962
 40
0.9296099995
 40
0.9374376942
 40
0.9452619301
 40
0.9530860182
 40
0.9609131586
 40
0.9687325754
 40
0.9765535766
 40
0.9843734317
 40
1.0
 40
1.0
 40
1.0
 40
1.0
 10
-6.0764933383
 20
10.2126471504
 30
0.0
 10
-6.0743483332
 20
10.2233651719
 30
0.0
 10
-6.0699728517
 20
10.2392449729
 30
0.0
 10
-6.0619672924
 20
10.2596065854
 30
0.0
 10
-6.0549010951
 20
10.2744271222
 30
0.0
 10
-6.0468124241
 20
10.2887122682
 30
0.0
 10
-6.0377387613
 20
10.3023922536
 30
0.0
 10
-6.0277222464
 20
10.3153962954
 30
0.0
 10
-6.0168066835
 20
10.3276547336
 30
0.0
 10
-6.0050382594
 20
10.3390955113
 30
0.0
 10
-5.9945564896
 20
10.347885814
 30
0.0
 10
-5.9857904782
 20
10.3544230742
 30
0.0
 10
-5.9790278527
 20
10.3590650249
 30
0.0
 10
-5.9720813453
 20
10.3634269948
 30
0.0
 10
-5.9649523579
 20
10.3674843283
 30
0.0
 10
-5.957639175
 20
10.3712008411
 30
0.0
 10
-5.9501359181
 20
10.3745177751
 30
0.0
 10
-5.9437105807
 20
10.3768656773
 30
0.0
 10
-5.9384575175
 20
10.3783871122
 30
0.0
 10
-5.9344567083
 20
10.3792993403
 30
0.0
 10
-5.9303958635
 20
10.3799078327
 30
0.0
 10
-5.9262897135
 20
10.3800973716
 30
0.0
 10
-5.9228687714
 20
10.3797532856
 30
0.0
 10
-5.920212895
 20
10.3790742965
 30
0.0
 10
-5.9182883583
 20
10.3783454351
 30
0.0
 10
-5.9164595743
 20
10.3774006681
 30
0.0
 10
-5.9147555693
 20
10.3762467086
 30
0.0
 10
-5.9131830622
 20
10.3749213152
 30
0.0
 10
-5.9117447523
 20
10.3734527011
 30
0.0
 10
-5.9104323954
 20
10.3718723794
 30
0.0
 10
-5.9088309257
 20
10.3696531485
 30
0.0
 10
-5.9077769655
 20
10.3678883794
 30
0.0
 10
-5.9071245739
 20
10.3666871219
 30
0.0
  0
SPLINE
  5
26A
100
AcDbEntity
  8
0
100
AcDbSpline
 62
7
  6
CONTINUOUS
 70
0
 71
3
 72
37
 73
33
 74
0
 42
0.0000001
 43
0.0000001
 44
0.0000000001
 40
0.0
 40
0.0
 40
0.0
 40
0.0
 40
0.1249521341
 40
0.1874639106
 40
0.24997087
 40
0.3124752563
 40
0.3749740682
 40
0.4374689253
 40
0.4999603457
 40
0.5624485454
 40
0.6249337463
 40
0.6561810774
 40
0.687427879
 40
0.7186742134
 40
0.7499201612
 40
0.7811655818
 40
0.8124101441
 40
0.8436526585
 40
0.8592775376
 40
0.8749028965
 40
0.8905287086
 40
0.9061569827
 40
0.9217879989
 40
0.9296100019
 40
0.9374376965
 40
0.9452619329
 40
0.9530860198
 40
0.9609131596
 40
0.9687325763
 40
0.9765535769
 40
0.9843734318
 40
1.0
 40
1.0
 40
1.0
 40
1.0
 10
-6.2181982517
 20
10.0328311092
 30
0.0
 10
-6.217846614
 20
10.0437560066
 30
0.0
 10
-6.2161445136
 20
10.0601394059
 30
0.0
 10
-6.2115995195
 20
10.0815409776
 30
0.0
 10
-6.2070690529
 20
10.0973224328
 30
0.0
 10
-6.201441936
 20
10.1127440913
 30
0.0
 10
-6.1947436556
 20
10.1277309655
 30
0.0
 10
-6.1870041266
 20
10.1422063019
 30
0.0
 10
-6.1782550899
 20
10.1560941808
 30
0.0
 10
-6.1685302424
 20
10.1693159259
 30
0.0
 10
-6.1596382513
 20
10.1797115698
 30
0.0
 10
-6.1520677829
 20
10.1876024973
 30
0.0
 10
-6.1461614224
 20
10.1932942207
 30
0.0
 10
-6.140027605
 20
10.1987400475
 30
0.0
 10
-6.1336636551
 20
10.2039154277
 30
0.0
 10
-6.1270619252
 20
10.2087849527
 30
0.0
 10
-6.1202069457
 20
10.2132916335
 30
0.0
 10
-6.1142556885
 20
10.2166650804
 30
0.0
 10
-6.1093246868
 20
10.2190303834
 30
0.0
 10
-6.1055285889
 20
10.2205886759
 30
0.0
 10
-6.1016232813
 20
10.2218572565
 30
0.0
 10
-6.0976043296
 20
10.2227200548
 30
0.0
 10
-6.0941734095
 20
10.2229437245
 30
0.0
 10
-6.0914419982
 20
10.2227111355
 30
0.0
 10
-6.0894237437
 20
10.2223089794
 30
0.0
 10
-6.0874643993
 20
10.2216781032
 30
0.0
 10
-6.0855937005
 20
10.2208203496
 30
0.0
 10
-6.0838244897
 20
10.2197718561
 30
0.0
 10
-6.0821640723
 20
10.2185600077
 30
0.0
 10
-6.0806095039
 20
10.2172172442
 30
0.0
 10
-6.0786646057
 20
10.2152918711
 30
0.0
 10
-6.077334551
 20
10.2137246454
 30
0.0
 10
-6.0764933383
 20
10.2126471504
 30
0.0
  0
SPLINE
  5
26B
100
AcDbEntity
  8
0
100
AcDbSpline
 62
7
  6
CONTINUOUS
 70
0
 71
3
 72
37
 73
33
 74
0
 42
0.0000001
 43
0.0000001
 44
0.0000000001
 40
0.0
 40
0.0
 40
0.0
 40
0.0
 40
0.1249521341
 40
0.1874639106
 40
0.24997087
 40
0.3124752563
 40
0.3749740682
 40
0.4374689253
 40
0.4999603457
 40
0.5624485455
 40
0.6249337463
 40
0.6561810774
 40
0.687427879
 40
0.7186742135
 40
0.7499201612
 40
0.7811655818
 40
0.8124101441
 40
0.8436526585
 40
0.8592775377
 40
0.8749028965
 40
0.8905287087
 40
0.9061569828
 40
0.921787999
 40
0.929610002
 40
0.9374376965
 40
0.945261933
 40
0.9530860199
 40
0.9609131597
 40
0.9687325763
 40
0.9765535769
 40
0.9843734318
 40
1.0
 40
1.0
 40
1.0
 40
1.0
 10
-6.3283740422
 20
9.8321438242
 30
0.0
 10
-6.3298253634
 20
9.8429776
 30
0.0
 10
-6.3308430722
 20
9.8594177091
 30
0.0
 10
-6.3298826167
 20
9.8812754713
 30
0.0
 10
-6.328011458
 20
9.8975873756
 30
0.0
 10
-6.3249993854
 20
9.9137248913
 30
0.0
 10
-6.3208591959
 20
9.9296098587
 30
0.0
 10
-6.3156077632
 20
9.9451616473
 30
0.0
 10
-6.3092638994
 20
9.9603001484
 30
0.0
 10
-6.3018478924
 20
9.9749422125
 30
0.0
 10
-6.294788226
 20
9.9866596367
 30
0.0
 10
-6.2886197996
 20
9.9956889912
 30
0.0
 10
-6.2837308114
 20
10.0022752348
 30
0.0
 10
-6.2785769955
 20
10.0086563732
 30
0.0
 10
-6.2731516722
 20
10.0148086317
 30
0.0
 10
-6.2674414701
 20
10.0206983434
 30
0.0
 10
-6.2614217506
 20
10.0262718426
 30
0.0
 10
-6.2561069056
 20
10.0305788171
 30
0.0
 10
-6.2516324678
 20
10.0337234701
 30
0.0
 10
-6.248144627
 20
10.0358853214
 30
0.0
 10
-6.2445013815
 20
10.0377793874
 30
0.0
 10
-6.2406792527
 20
10.0392919104
 30
0.0
 10
-6.2373319396
 20
10.0400772355
 30
0.0
 10
-6.2345994979
 20
10.0402973902
 30
0.0
 10
-6.2325425772
 20
10.0402329097
 30
0.0
 10
-6.2305061173
 20
10.0399331324
 30
0.0
 10
-6.2285197516
 20
10.0393949814
 30
0.0
 10
-6.2266020953
 20
10.0386519877
 30
0.0
 10
-6.2247648615
 20
10.0377299603
 30
0.0
 10
-6.2230104853
 20
10.0366613813
 30
0.0
 10
-6.2207752093
 20
10.0350823843
 30
0.0
 10
-6.2192053399
 20
10.0337554509
 30
0.0
 10
-6.2181982517
 20
10.0328311092
 30
0.0
  0
SPLINE
  5
26C
100
AcDbEntity
  8
0
100
AcDbSpline
 62
7
  6
CONTINUOUS
 70
0
 71
3
 72
37
 73
33
 74
0
 42
0.0000001
 43
0.0000001
 44
0.0000000001
 40
0.0
 40
0.0
 40
0.0
 40
0.0
 40
0.1249521341
 40
0.1874639106
 40
0.24997087
 40
0.3124752563
 40
0.3749740682
 40
0.4374689253
 40
0.4999603457
 40
0.5624485454
 40
0.6249337463
 40
0.6561810774
 40
0.687427879
 40
0.7186742134
 40
0.7499201612
 40
0.7811655818
 40
0.8124101441
 40
0.8436526585
 40
0.8592775376
 40
0.8749028965
 40
0.8905287086
 40
0.9061569827
 40
0.9217879989
 40
0.9296100019
 40
0.9374376965
 40
0.9452619329
 40
0.9530860198
 40
0.9609131596
 40
0.9687325763
 40
0.9765535769
 40
0.9843734318
 40
1.0
 40
1.0
 40
1.0
 40
1.0
 10
-6.4040154546
 20
9.6160594243
 30
0.0
 10
-6.4072301472
 20
9.6265065666
 30
0.0
 10
-6.4109399053
 20
9.6425549501
 30
0.0
 10
-6.4135901866
 20
9.6642726906
 30
0.0
 10
-6.4144293751
 20
9.6806701057
 30
0.0
 10
-6.414114507
 20
9.6970832971
 30
0.0
 10
-6.41264534
 20
9.7134330648
 30
0.0
 10
-6.4100252464
 20
9.7296371009
 30
0.0
 10
-6.4062595966
 20
9.7456132927
 30
0.0
 10
-6.4013547157
 20
9.7612762855
 30
0.0
 10
-6.3963199399
 20
9.7739958748
 30
0.0
 10
-6.3917218111
 20
9.7839173636
 30
0.0
 10
-6.3879835517
 20
9.7912184749
 30
0.0
 10
-6.3839503174
 20
9.7983608672
 30
0.0
 10
-6.3796116067
 20
9.8053221894
 30
0.0
 10
-6.3749486891
 20
9.8120714346
 30
0.0
 10
-6.3699284291
 20
9.8185597245
 30
0.0
 10
-6.3653949688
 20
9.8236827454
 30
0.0
 10
-6.3614991437
 20
9.827520972
 30
0.0
 10
-6.3584146976
 20
9.8302274137
 30
0.0
 10
-6.3551328906
 20
9.8326953008
 30
0.0
 10
-6.3516118406
 20
9.8348162915
 30
0.0
 10
-6.3484394388
 20
9.8361418507
 30
0.0
 10
-6.3457804993
 20
9.836808744
 30
0.0
 10
-6.3437410188
 20
9.837083698
 30
0.0
 10
-6.3416829918
 20
9.8371231965
 30
0.0
 10
-6.3396351411
 20
9.8369193272
 30
0.0
 10
-6.337621347
 20
9.8365020999
 30
0.0
 10
-6.3356574108
 20
9.8358950436
 30
0.0
 10
-6.3337510808
 20
9.8351297967
 30
0.0
 10
-6.3312863984
 20
9.8339402459
 30
0.0
 10
-6.3295195355
 20
9.8328897995
 30
0.0
 10
-6.3283740422
 20
9.8321438242
 30
0.0
  0
SPLINE
  5
26D
100
AcDbEntity
  8
0
100
AcDbSpline
 62
7
  6
CONTINUOUS
 70
0
 71
3
 72
37
 73
33
 74
0
 42
0.0000001
 43
0.0000001
 44
0.0000000001
 40
0.0
 40
0.0
 40
0.0
 40
0.0
 40
0.1249521333
 40
0.1874639104
 40
0.2499708699
 40
0.3124752557
 40
0.3749740672
 40
0.437468924
 40
0.4999603442
 40
0.5624485437
 40
0.6249337444
 40
0.6561810754
 40
0.6874278769
 40
0.7186742113
 40
0.7499201589
 40
0.7811655794
 40
0.8124101417
 40
0.8436526559
 40
0.859277535
 40
0.874902894
 40
0.8905287064
 40
0.9061569808
 40
0.9217879978
 40
0.9296100011
 40
0.9374376958
 40
0.9452619319
 40
0.9530860193
 40
0.960913159
 40
0.9687325755
 40
0.9765535765
 40
0.9843734315
 40
1.0
 40
1.0
 40
1.0
 40
1.0
 10
-6.443059225
 20
9.390472024
 30
0.0
 10
-6.4479496022
 20
9.400247567
 30
0.0
 10
-6.4542502187
 20
9.4154664746
 30
0.0
 10
-6.4604389454
 20
9.4364518006
 30
0.0
 10
-6.4639655907
 20
9.4524874556
 30
0.0
 10
-6.4663565156
 20
9.4687286215
 30
0.0
 10
-6.4675984454
 20
9.4850972184
 30
0.0
 10
-6.467681159
 20
9.5015115058
 30
0.0
 10
-6.4665964385
 20
9.5178896071
 30
0.0
 10
-6.4643364738
 20
9.5341462906
 30
0.0
 10
-6.4614639217
 20
9.5475210939
 30
0.0
 10
-6.4585615134
 20
9.5580640893
 30
0.0
 10
-6.4560759509
 20
9.5658809166
 30
0.0
 10
-6.4532733126
 20
9.5735897403
 30
0.0
 10
-6.450139561
 20
9.5811702429
 30
0.0
 10
-6.4466511179
 20
9.5885949231
 30
0.0
 10
-6.4427672545
 20
9.595821023
 30
0.0
 10
-6.4391388378
 20
9.6016203504
 30
0.0
 10
-6.4359278915
 20
9.6060474556
 30
0.0
 10
-6.4333309744
 20
9.6092246644
 30
0.0
 10
-6.4305001233
 20
9.6121990563
 30
0.0
 10
-6.4273761955
 20
9.6148706606
 30
0.0
 10
-6.4244652384
 20
9.6167002973
 30
0.0
 10
-6.4219523285
 20
9.6177957381
 30
0.0
 10
-6.419985919
 20
9.618402627
 30
0.0
 10
-6.4179624614
 20
9.6187803237
 30
0.0
 10
-6.4159089848
 20
9.6189162971
 30
0.0
 10
-6.4138539829
 20
9.618836217
 30
0.0
 10
-6.4118169145
 20
9.6185606903
 30
0.0
 10
-6.4098106295
 20
9.618119649
 30
0.0
 10
-6.4071837695
 20
9.6173519918
 30
0.0
 10
-6.4052681076
 20
9.6166066853
 30
0.0
 10
-6.4040154546
 20
9.6160594243
 30
0.0
  0
SPLINE
  5
26E
100
AcDbEntity
  8
0
100
AcDbSpline
 62
7
  6
CONTINUOUS
 70
0
 71
3
 72
37
 73
33
 74
0
 42
0.0000001
 43
0.0000001
 44
0.0000000001
 40
0.0
 40
0.0
 40
0.0
 40
0.0
 40
0.1249521341
 40
0.1874639106
 40
0.24997087
 40
0.3124752563
 40
0.3749740682
 40
0.4374689253
 40
0.4999603457
 40
0.5624485454
 40
0.6249337463
 40
0.6561810774
 40
0.687427879
 40
0.7186742134
 40
0.7499201612
 40
0.7811655818
 40
0.8124101441
 40
0.8436526585
 40
0.8592775376
 40
0.8749028965
 40
0.8905287086
 40
0.9061569827
 40
0.9217879989
 40
0.9296100019
 40
0.9374376965
 40
0.9452619329
 40
0.9530860198
 40
0.9609131596
 40
0.9687325763
 40
0.9765535769
 40
0.9843734318
 40
1.0
 40
1.0
 40
1.0
 40
1.0
 10
-6.4444403601
 20
9.1615349505
 30
0.0
 10
-6.4508730274
 20
9.1703722477
 30
0.0
 10
-6.459592641
 20
9.1843465547
 30
0.0
 10
-6.4691510038
 20
9.2040270513
 30
0.0
 10
-6.4752689099
 20
9.2192635431
 30
0.0
 10
-6.4803004108
 20
9.2348896748
 30
0.0
 10
-6.4842195614
 20
9.2508306163
 30
0.0
 10
-6.487002826
 20
9.2670074242
 30
0.0
 10
-6.4886286225
 20
9.2833406911
 30
0.0
 10
-6.4890752189
 20
9.2997476333
 30
0.0
 10
-6.4884432448
 20
9.3134128274
 30
0.0
 10
-6.4873157255
 20
9.3242897492
 30
0.0
 10
-6.4861506584
 20
9.3324090736
 30
0.0
 10
-6.4846550632
 20
9.340474056
 30
0.0
 10
-6.4828117499
 20
9.3484669662
 30
0.0
 10
-6.4805929351
 20
9.3563645591
 30
0.0
 10
-6.4779514081
 20
9.3641313635
 30
0.0
 10
-6.4753270068
 20
9.3704488095
 30
0.0
 10
-6.472888524
 20
9.3753440355
 30
0.0
 10
-6.4708499714
 20
9.3789053468
 30
0.0
 10
-6.4685472934
 20
9.3823051111
 30
0.0
 10
-6.4659056989
 20
9.385454456
 30
0.0
 10
-6.4633355883
 20
9.3877382624
 30
0.0
 10
-6.461037253
 20
9.3892323711
 30
0.0
 10
-6.4591975518
 20
9.3901546401
 30
0.0
 10
-6.4572638575
 20
9.3908602331
 30
0.0
 10
-6.4552607673
 20
9.3913323401
 30
0.0
 10
-6.4532206119
 20
9.3915915912
 30
0.0
 10
-6.4511659761
 20
9.3916551099
 30
0.0
 10
-6.4491144614
 20
9.3915503045
 30
0.0
 10
-6.4463970768
 20
9.3912254799
 30
0.0
 10
-6.4443848692
 20
9.3908056432
 30
0.0
 10
-6.443059225
 20
9.390472024
 30
0.0
  0
SPLINE
  5
26F
100
AcDbEntity
  8
0
100
AcDbSpline
 62
7
  6
CONTINUOUS
 70
0
 71
3
 72
37
 73
33
 74
0
 42
0.0000001
 43
0.0000001
 44
0.0000000001
 40
0.0
 40
0.0
 40
0.0
 40
0.0
 40
0.1249521368
 40
0.1874639148
 40
0.2499708756
 40
0.3124752632
 40
0.3749740765
 40
0.437468935
 40
0.4999603568
 40
0.5624485579
 40
0.6249337602
 40
0.6561810919
 40
0.6874278942
 40
0.7186742294
 40
0.7499201778
 40
0.7811655991
 40
0.8124101621
 40
0.8436526772
 40
0.8592775566
 40
0.8749029159
 40
0.8905287284
 40
0.9061570027
 40
0.9217880196
 40
0.9296100223
 40
0.9374377163
 40
0.9452619542
 40
0.953086044
 40
0.9609131813
 40
0.9687325851
 40
0.9765535613
 40
0.9843733934
 40
1.0
 40
1.0
 40
1.0
 40
1.0
 10
-6.4081211867
 20
8.9354928995
 30
0.0
 10
-6.415920681
 20
8.9431508969
 30
0.0
 10
-6.4268214479
 20
8.9554994277
 30
0.0
 10
-6.4394887243
 20
8.9733382722
 30
0.0
 10
-6.4480310138
 20
8.9873599967
 30
0.0
 10
-6.4555658469
 20
9.001944862
 30
0.0
 10
-6.462055316
 20
9.0170233288
 30
0.0
 10
-6.4674632128
 20
9.0325214042
 30
0.0
 10
-6.4717551795
 20
9.048364316
 30
0.0
 10
-6.474896155
 20
9.0644739866
 30
0.0
 10
-6.4765219971
 20
9.0780568274
 30
0.0
 10
-6.477200122
 20
9.088970987
 30
0.0
 10
-6.4773873295
 20
9.0971713386
 30
0.0
 10
-6.4772395725
 20
9.105372492
 30
0.0
 10
-6.4767369772
 20
9.1135597881
 30
0.0
 10
-6.475848313
 20
9.1217148719
 30
0.0
 10
-6.4745211747
 20
9.1298105265
 30
0.0
 10
-6.4729723742
 20
9.1364737708
 30
0.0
 10
-6.4713728688
 20
9.1417035911
 30
0.0
 10
-6.469948286
 20
9.1455518633
 30
0.0
 10
-6.4682365904
 20
9.1492842651
 30
0.0
 10
-6.4661493831
 20
9.1528254458
 30
0.0
 10
-6.463990223
 20
9.1555011268
 30
0.0
 10
-6.461969153
 20
9.1573531478
 30
0.0
 10
-6.4603063413
 20
9.1585656401
 30
0.0
 10
-6.4585151547
 20
9.1595798824
 30
0.0
 10
-6.4566170891
 20
9.1603752456
 30
0.0
 10
-6.4546474299
 20
9.1609667555
 30
0.0
 10
-6.4526312737
 20
9.161367583
 30
0.0
 10
-6.4505904936
 20
9.1616018713
 30
0.0
 10
-6.4478567071
 20
9.161728749
 30
0.0
 10
-6.4458028393
 20
9.1616458279
 30
0.0
 10
-6.4444403601
 20
9.1615349505
 30
0.0
  0
SPLINE
  5
270
100
AcDbEntity
  8
0
100
AcDbSpline
 62
7
  6
CONTINUOUS
 70
0
 71
3
 72
37
 73
33
 74
0
 42
0.0000001
 43
0.0000001
 44
0.0000000001
 40
0.0
 40
0.0
 40
0.0
 40
0.0
 40
0.1249521341
 40
0.1874639106
 40
0.24997087
 40
0.3124752563
 40
0.3749740682
 40
0.4374689253
 40
0.4999603457
 40
0.5624485454
 40
0.6249337463
 40
0.6561810774
 40
0.687427879
 40
0.7186742134
 40
0.7499201612
 40
0.7811655818
 40
0.8124101441
 40
0.8436526585
 40
0.8592775376
 40
0.8749028965
 40
0.8905287086
 40
0.9061569827
 40
0.9217879989
 40
0.9296100019
 40
0.9374376965
 40
0.9452619329
 40
0.9530860198
 40
0.9609131596
 40
0.9687325763
 40
0.9765535769
 40
0.9843734318
 40
1.0
 40
1.0
 40
1.0
 40
1.0
 10
-6.3350923796
 20
8.7185115996
 30
0.0
 10
-6.3440459545
 20
8.7247814104
 30
0.0
 10
-6.356830535
 20
8.7351673345
 30
0.0
 10
-6.3722612005
 20
8.7506779376
 30
0.0
 10
-6.3829948659
 20
8.7631024249
 30
0.0
 10
-6.3928275042
 20
8.7762481929
 30
0.0
 10
-6.401710279
 20
8.7900528903
 30
0.0
 10
-6.4095952973
 20
8.8044494927
 30
0.0
 10
-6.4164363629
 20
8.819369903
 30
0.0
 10
-6.4221860417
 20
8.8347428792
 30
0.0
 10
-6.4260253524
 20
8.8478728682
 30
0.0
 10
-6.4284906246
 20
8.8585265606
 30
0.0
 10
-6.4300250007
 20
8.8665842587
 30
0.0
 10
-6.4312291126
 20
8.8746978807
 30
0.0
 10
-6.4320809448
 20
8.8828562383
 30
0.0
 10
-6.4325466717
 20
8.8910463671
 30
0.0
 10
-6.432570123
 20
8.8992500472
 30
0.0
 10
-6.4321391703
 20
8.9060773369
 30
0.0
 10
-6.4314222726
 20
8.9114990981
 30
0.0
 10
-6.4306505185
 20
8.9155293624
 30
0.0
 10
-6.4295764959
 20
8.9194925933
 30
0.0
 10
-6.4281006097
 20
8.9233290179
 30
0.0
 10
-6.4264112966
 20
8.92632359
 30
0.0
 10
-6.4247226214
 20
8.9284830071
 30
0.0
 10
-6.4232820563
 20
8.9299526507
 30
0.0
 10
-6.4216822367
 20
8.9312478776
 30
0.0
 10
-6.4199409692
 20
8.9323448018
 30
0.0
 10
-6.418095531
 20
8.9332524379
 30
0.0
 10
-6.4161728435
 20
8.9339796484
 30
0.0
 10
-6.4141984535
 20
8.9345466416
 30
0.0
 10
-6.4115228322
 20
8.9351217424
 30
0.0
 10
-6.4094833301
 20
8.9353780103
 30
0.0
 10
-6.4081211867
 20
8.9354928995
 30
0.0
  0
SPLINE
  5
271
100
AcDbEntity
  8
0
100
AcDbSpline
 62
7
  6
CONTINUOUS
 70
0
 71
3
 72
37
 73
33
 74
0
 42
0.0000001
 43
0.0000001
 44
0.0000000001
 40
0.0
 40
0.0
 40
0.0
 40
0.0
 40
0.1249521341
 40
0.1874639106
 40
0.24997087
 40
0.3124752563
 40
0.3749740682
 40
0.4374689253
 40
0.4999603457
 40
0.5624485455
 40
0.6249337463
 40
0.6561810774
 40
0.687427879
 40
0.7186742135
 40
0.7499201612
 40
0.7811655818
 40
0.8124101441
 40
0.8436526585
 40
0.8592775376
 40
0.8749028965
 40
0.8905287087
 40
0.9061569827
 40
0.921787999
 40
0.9296100019
 40
0.9374376965
 40
0.9452619329
 40
0.9530860198
 40
0.9609131596
 40
0.9687325763
 40
0.9765535769
 40
0.9843734318
 40
1.0
 40
1.0
 40
1.0
 40
1.0
 10
-6.227345939
 20
8.5165096301
 30
0.0
 10
-6.2372093688
 20
8.5212202333
 30
0.0
 10
-6.2515290392
 20
8.5293602552
 30
0.0
 10
-6.2693021932
 20
8.5421195359
 30
0.0
 10
-6.2819344533
 20
8.5526078847
 30
0.0
 10
-6.2937966929
 20
8.56395598
 30
0.0
 10
-6.3048304789
 20
8.5761103588
 30
0.0
 10
-6.3149775398
 20
8.5890127939
 30
0.0
 10
-6.324181101
 20
8.6026037204
 30
0.0
 10
-6.3323826495
 20
8.6168206752
 30
0.0
 10
-6.338330704
 20
8.6291396673
 30
0.0
 10
-6.3425158784
 20
8.6392422928
 30
0.0
 10
-6.3453555698
 20
8.6469375487
 30
0.0
 10
-6.347878706
 20
8.6547423248
 30
0.0
 10
-6.3500617303
 20
8.6626492093
 30
0.0
 10
-6.3518691444
 20
8.670650982
 30
0.0
 10
-6.3532425453
 20
8.6787389166
 30
0.0
 10
-6.3539411952
 20
8.6855440245
 30
0.0
 10
-6.3541264596
 20
8.6910098377
 30
0.0
 10
-6.3540285848
 20
8.6951121608
 30
0.0
 10
-6.3536215309
 20
8.6991981162
 30
0.0
 10
-6.3527972227
 20
8.7032251386
 30
0.0
 10
-6.3516238352
 20
8.7064569187
 30
0.0
 10
-6.3503136162
 20
8.708864829
 30
0.0
 10
-6.3491345914
 20
8.7105515361
 30
0.0
 10
-6.3477697763
 20
8.7120924174
 30
0.0
 10
-6.3462328032
 20
8.7134609819
 30
0.0
 10
-6.3445619246
 20
8.7146599858
 30
0.0
 10
-6.3427851535
 20
8.7156937395
 30
0.0
 10
-6.3409310143
 20
8.7165779708
 30
0.0
 10
-6.338386542
 20
8.717585617
 30
0.0
 10
-6.3364170355
 20
8.7181740779
 30
0.0
 10
-6.3350923796
 20
8.7185115996
 30
0.0
  0
SPLINE
  5
272
100
AcDbEntity
  8
0
100
AcDbSpline
 62
7
  6
CONTINUOUS
 70
0
 71
3
 72
37
 73
33
 74
0
 42
0.0000001
 43
0.0000001
 44
0.0000000001
 40
0.0
 40
0.0
 40
0.0
 40
0.0
 40
0.1249521341
 40
0.1874639106
 40
0.24997087
 40
0.3124752563
 40
0.3749740682
 40
0.4374689253
 40
0.4999603457
 40
0.5624485455
 40
0.6249337463
 40
0.6561810774
 40
0.687427879
 40
0.7186742135
 40
0.7499201612
 40
0.7811655818
 40
0.8124101441
 40
0.8436526585
 40
0.8592775376
 40
0.8749028965
 40
0.8905287086
 40
0.9061569827
 40
0.921787999
 40
0.9296100019
 40
0.9374376965
 40
0.9452619329
 40
0.9530860199
 40
0.9609131597
 40
0.9687325763
 40
0.9765535769
 40
0.9843734318
 40
1.0
 40
1.0
 40
1.0
 40
1.0
 10
-6.0878208547
 20
8.3349969803
 30
0.0
 10
-6.0983250956
 20
8.3380198852
 30
0.0
 10
-6.1137892596
 20
8.3436919703
 30
0.0
 10
-6.1334201053
 20
8.3533518949
 30
0.0
 10
-6.1476063912
 20
8.3616180155
 30
0.0
 10
-6.1611746668
 20
8.370858897
 30
0.0
 10
-6.1740584964
 20
8.3810314234
 30
0.0
 10
-6.1861908194
 20
8.3920877526
 30
0.0
 10
-6.1975058315
 20
8.4039784768
 30
0.0
 10
-6.2079355368
 20
8.4166516157
 30
0.0
 10
-6.2158300906
 20
8.4278235868
 30
0.0
 10
-6.2216210086
 20
8.4370995771
 30
0.0
 10
-6.2256885573
 20
8.4442224879
 30
0.0
 10
-6.2294618944
 20
8.451505528
 30
0.0
 10
-6.2329165646
 20
8.458945264
 30
0.0
 10
-6.2360163653
 20
8.4665404169
 30
0.0
 10
-6.2387022537
 20
8.4742919922
 30
0.0
 10
-6.2405114492
 20
8.480889296
 30
0.0
 10
-6.2415938222
 20
8.4862500707
 30
0.0
 10
-6.2421724965
 20
8.4903125539
 30
0.0
 10
-6.2424435144
 20
8.4944097815
 30
0.0
 10
-6.2422932687
 20
8.498517557
 30
0.0
 10
-6.2416678133
 20
8.5018983922
 30
0.0
 10
-6.2407717892
 20
8.5044891153
 30
0.0
 10
-6.2398864649
 20
8.5063468778
 30
0.0
 10
-6.2387938823
 20
8.508091383
 30
0.0
 10
-6.2375031275
 20
8.5096942577
 30
0.0
 10
-6.2360523849
 20
8.5111519241
 30
0.0
 10
-6.2344699949
 20
8.5124640234
 30
0.0
 10
-6.2327866817
 20
8.5136413737
 30
0.0
 10
-6.2304427637
 20
8.5150540798
 30
0.0
 10
-6.2285969748
 20
8.5159586823
 30
0.0
 10
-6.227345939
 20
8.5165096301
 30
0.0
  0
SPLINE
  5
273
100
AcDbEntity
  8
0
100
AcDbSpline
 62
7
  6
CONTINUOUS
 70
0
 71
3
 72
37
 73
33
 74
0
 42
0.0000001
 43
0.0000001
 44
0.0000000001
 40
0.0
 40
0.0
 40
0.0
 40
0.0
 40
0.1249521341
 40
0.1874639107
 40
0.24997087
 40
0.3124752563
 40
0.3749740681
 40
0.4374689252
 40
0.4999603455
 40
0.5624485452
 40
0.6249337461
 40
0.6561810771
 40
0.6874278787
 40
0.7186742131
 40
0.7499201608
 40
0.7811655814
 40
0.8124101437
 40
0.843652658
 40
0.8592775371
 40
0.874902896
 40
0.8905287082
 40
0.906156982
 40
0.9217879978
 40
0.9296100009
 40
0.9374376956
 40
0.9452619318
 40
0.9530860192
 40
0.9609131592
 40
0.9687325759
 40
0.9765535768
 40
0.9843734318
 40
1.0
 40
1.0
 40
1.0
 40
1.0
 10
-5.92032294
 20
8.1789247543
 30
0.0
 10
-5.9311814687
 20
8.1801775055
 30
0.0
 10
-5.9473683117
 20
8.1832269368
 30
0.0
 10
-5.9683213803
 20
8.1895240125
 30
0.0
 10
-5.9836747339
 20
8.1953424306
 30
0.0
 10
-5.9985789449
 20
8.2022240356
 30
0.0
 10
-6.012961387
 20
8.2101372345
 30
0.0
 10
-6.0267480398
 20
8.2190458753
 30
0.0
 10
-6.0398658642
 20
8.228912055
 30
0.0
 10
-6.0522392362
 20
8.2396956939
 30
0.0
 10
-6.0618649503
 20
8.2494159072
 30
0.0
 10
-6.0691036535
 20
8.2576122419
 30
0.0
 10
-6.0742881094
 20
8.2639685166
 30
0.0
 10
-6.0792087225
 20
8.2705311618
 30
0.0
 10
-6.0838408058
 20
8.2773008163
 30
0.0
 10
-6.08814844
 20
8.2842821771
 30
0.0
 10
-6.0920735532
 20
8.2914859541
 30
0.0
 10
-6.094943945
 20
8.2976954997
 30
0.0
 10
-6.0968939029
 20
8.3028050105
 30
0.0
 10
-6.0981333419
 20
8.306716842
 30
0.0
 10
-6.0990750391
 20
8.3107135819
 30
0.0
 10
-6.0996029541
 20
8.3147900631
 30
0.0
 10
-6.0995424915
 20
8.3182277346
 30
0.0
 10
-6.0990851027
 20
8.3209306036
 30
0.0
 10
-6.0985176282
 20
8.3229087475
 30
0.0
 10
-6.0977270801
 20
8.324809292
 30
0.0
 10
-6.0967177513
 20
8.3266027553
 30
0.0
 10
-6.0955267166
 20
8.3282793238
 30
0.0
 10
-6.0941818705
 20
8.3298339786
 30
0.0
 10
-6.0927152989
 20
8.3312723335
 30
0.0
 10
-6.09063587
 20
8.3330515654
 30
0.0
 10
-6.0889641462
 20
8.3342476347
 30
0.0
 10
-6.0878208547
 20
8.3349969803
 30
0.0
  0
SPLINE
  5
274
100
AcDbEntity
  8
0
100
AcDbSpline
 62
7
  6
CONTINUOUS
 70
0
 71
3
 72
37
 73
33
 74
0
 42
0.0000001
 43
0.0000001
 44
0.0000000001
 40
0.0
 40
0.0
 40
0.0
 40
0.0
 40
0.1249521341
 40
0.1874639106
 40
0.24997087
 40
0.3124752563
 40
0.3749740682
 40
0.4374689253
 40
0.4999603457
 40
0.5624485455
 40
0.6249337463
 40
0.6561810774
 40
0.687427879
 40
0.7186742135
 40
0.7499201612
 40
0.7811655818
 40
0.8124101441
 40
0.8436526585
 40
0.8592775376
 40
0.8749028965
 40
0.8905287087
 40
0.9061569828
 40
0.921787999
 40
0.929610002
 40
0.9374376965
 40
0.9452619329
 40
0.9530860199
 40
0.9609131597
 40
0.9687325763
 40
0.9765535769
 40
0.9843734318
 40
1.0
 40
1.0
 40
1.0
 40
1.0
 10
-5.7294210201
 20
8.0525501202
 30
0.0
 10
-5.7403376495
 20
8.0519985465
 30
0.0
 10
-5.7568056445
 20
8.0523421449
 30
0.0
 10
-5.778509401
 20
8.0551046068
 30
0.0
 10
-5.7946110303
 20
8.058316614
 30
0.0
 10
-5.8104446359
 20
8.0626512337
 30
0.0
 10
-5.825933382
 20
8.0680892574
 30
0.0
 10
-5.8409983073
 20
8.0746072097
 30
0.0
 10
-5.8555611305
 20
8.082179726
 30
0.0
 10
-5.8695406617
 20
8.0907797206
 30
0.0
 10
-5.8806349765
 20
8.0987830387
 30
0.0
 10
-5.8891240154
 20
8.1056761472
 30
0.0
 10
-5.8952839625
 20
8.1110924062
 30
0.0
 10
-5.9012176324
 20
8.116755648
 30
0.0
 10
-5.90690078
 20
8.1226705657
 30
0.0
 10
-5.9122987489
 20
8.1288477045
 30
0.0
 10
-5.9173560218
 20
8.1353071864
 30
0.0
 10
-5.9212093146
 20
8.1409595966
 30
0.0
 10
-5.9239736684
 20
8.1456784719
 30
0.0
 10
-5.925840064
 20
8.1493329489
 30
0.0
 10
-5.9274267539
 20
8.1531201826
 30
0.0
 10
-5.9286184299
 20
8.1570541758
 30
0.0
 10
-5.9291246088
 20
8.1604549145
 30
0.0
 10
-5.9291183321
 20
8.1631962037
 30
0.0
 10
-5.9288841856
 20
8.1652407711
 30
0.0
 10
-5.9284172361
 20
8.1672455138
 30
0.0
 10
-5.9277168648
 20
8.1691806456
 30
0.0
 10
-5.9268180255
 20
8.1710303844
 30
0.0
 10
-5.9257474066
 20
8.1727851885
 30
0.0
 10
-5.9245375801
 20
8.1744453141
 30
0.0
 10
-5.9227793608
 20
8.1765425397
 30
0.0
 10
-5.9213273016
 20
8.1779974507
 30
0.0
 10
-5.92032294
 20
8.1789247543
 30
0.0
  0
SPLINE
  5
275
100
AcDbEntity
  8
0
100
AcDbSpline
 62
7
  6
CONTINUOUS
 70
0
 71
3
 72
37
 73
33
 74
0
 42
0.0000001
 43
0.0000001
 44
0.0000000001
 40
0.0
 40
0.0
 40
0.0
 40
0.0
 40
0.1249521341
 40
0.1874639106
 40
0.24997087
 40
0.3124752563
 40
0.3749740682
 40
0.4374689253
 40
0.4999603457
 40
0.5624485454
 40
0.6249337463
 40
0.6561810774
 40
0.687427879
 40
0.7186742134
 40
0.7499201612
 40
0.7811655818
 40
0.8124101441
 40
0.8436526585
 40
0.8592775376
 40
0.8749028965
 40
0.8905287086
 40
0.9061569827
 40
0.9217879989
 40
0.9296100019
 40
0.9374376965
 40
0.9452619329
 40
0.9530860198
 40
0.9609131596
 40
0.9687325763
 40
0.9765535769
 40
0.9843734318
 40
1.0
 40
1.0
 40
1.0
 40
1.0
 10
-5.5203223095
 20
7.9593201873
 30
0.0
 10
-5.5309992677
 20
7.9569793339
 30
0.0
 10
-5.5472992186
 20
7.9546077272
 30
0.0
 10
-5.5691616517
 20
7.9537602239
 30
0.0
 10
-5.585572354
 20
7.9542782065
 30
0.0
 10
-5.6019034624
 20
7.9559476058
 30
0.0
 10
-5.6180760273
 20
7.9587621219
 30
0.0
 10
-5.6340083006
 20
7.962711596
 30
0.0
 10
-5.6496188935
 20
7.9677838942
 30
0.0
 10
-5.6648232657
 20
7.9739656632
 30
0.0
 10
-5.6770835624
 20
7.9800337803
 30
0.0
 10
-5.6865913823
 20
7.9854356399
 30
0.0
 10
-5.6935587964
 20
7.9897641444
 30
0.0
 10
-5.700343671
 20
7.994373507
 30
0.0
 10
-5.706922864
 20
7.9992723473
 30
0.0
 10
-5.7132639276
 20
8.0044767708
 30
0.0
 10
-5.7193154136
 20
8.0100157629
 30
0.0
 10
-5.7240465014
 20
8.0149568574
 30
0.0
 10
-5.7275498482
 20
8.0191563808
 30
0.0
 10
-5.7299922909
 20
8.0224538205
 30
0.0
 10
-5.7321806934
 20
8.0259282439
 30
0.0
 10
-5.7340036251
 20
8.0296124418
 30
0.0
 10
-5.7350626388
 20
8.0328834861
 30
0.0
 10
-5.7355076451
 20
8.0355884214
 30
0.0
 10
-5.7356132138
 20
8.037643643
 30
0.0
 10
-5.7354825997
 20
8.0396979009
 30
0.0
 10
-5.7351102898
 20
8.0417219168
 30
0.0
 10
-5.7345281636
 20
8.0436943707
 30
0.0
 10
-5.7337609749
 20
8.0456014586
 30
0.0
 10
-5.7328408939
 20
8.0474380718
 30
0.0
 10
-5.731451843
 20
8.0497960853
 30
0.0
 10
-5.7302590559
 20
8.0514701525
 30
0.0
 10
-5.7294210201
 20
8.0525501202
 30
0.0
  0
SPLINE
  5
276
100
AcDbEntity
  8
0
100
AcDbSpline
 62
7
  6
CONTINUOUS
 70
0
 71
3
 72
37
 73
33
 74
0
 42
0.0000001
 43
0.0000001
 44
0.0000000001
 40
0.0
 40
0.0
 40
0.0
 40
0.0
 40
0.1249521327
 40
0.1874639101
 40
0.2499708697
 40
0.3124752553
 40
0.3749740664
 40
0.437468923
 40
0.499960343
 40
0.5624485423
 40
0.6249337429
 40
0.6561810738
 40
0.6874278753
 40
0.7186742096
 40
0.7499201572
 40
0.7811655776
 40
0.8124101398
 40
0.843652654
 40
0.859277533
 40
0.8749028921
 40
0.8905287048
 40
0.9061569794
 40
0.9217879971
 40
0.9296100007
 40
0.9374376955
 40
0.9452619315
 40
0.953086019
 40
0.9609131585
 40
0.968732575
 40
0.9765535762
 40
0.9843734313
 40
1.0
 40
1.0
 40
1.0
 40
1.0
 10
-5.2987303747
 20
7.9017779801
 30
0.0
 10
-5.3088764271
 20
7.8977116983
 30
0.0
 10
-5.3245637217
 20
7.8926895765
 30
0.0
 10
-5.3459884917
 20
7.8882552253
 30
0.0
 10
-5.3622606339
 20
7.8860650544
 30
0.0
 10
-5.3786437827
 20
7.8850236973
 30
0.0
 10
-5.3950590287
 20
7.8851379345
 30
0.0
 10
-5.4114240666
 20
7.8864112009
 30
0.0
 10
-5.4276566205
 20
7.8888449241
 30
0.0
 10
-5.4436711053
 20
7.8924398479
 30
0.0
 10
-5.4567629609
 20
7.8964072445
 30
0.0
 10
-5.4670302178
 20
7.9001705091
 30
0.0
 10
-5.4746150492
 20
7.9032931909
 30
0.0
 10
-5.4820660581
 20
7.906722945
 30
0.0
 10
-5.4893618366
 20
7.9104720826
 30
0.0
 10
-5.4964730303
 20
7.9145618301
 30
0.0
 10
-5.5033536634
 20
7.9190292458
 30
0.0
 10
-5.5088334968
 20
7.9231242467
 30
0.0
 10
-5.5129802761
 20
7.9266898683
 30
0.0
 10
-5.5159321439
 20
7.9295403264
 30
0.0
 10
-5.5186625663
 20
7.9326071682
 30
0.0
 10
-5.5210670298
 20
7.9359410774
 30
0.0
 10
-5.5226499922
 20
7.9389932034
 30
0.0
 10
-5.5235341426
 20
7.9415880029
 30
0.0
 10
-5.5239765475
 20
7.9435978185
 30
0.0
 10
-5.5241858312
 20
7.9456455577
 30
0.0
 10
-5.5241517382
 20
7.9477032488
 30
0.0
 10
-5.523902204
 20
7.9497446156
 30
0.0
 10
-5.523459372
 20
7.9517519677
 30
0.0
 10
-5.5228541334
 20
7.9537149713
 30
0.0
 10
-5.52187214
 20
7.9562694536
 30
0.0
 10
-5.5209711605
 20
7.9581170138
 30
0.0
 10
-5.5203223095
 20
7.9593201873
 30
0.0
  0
SPLINE
  5
277
100
AcDbEntity
  8
0
100
AcDbSpline
 62
7
  6
CONTINUOUS
 70
0
 71
3
 72
37
 73
33
 74
0
 42
0.0000001
 43
0.0000001
 44
0.0000000001
 40
0.0
 40
0.0
 40
0.0
 40
0.0
 40
0.1249521339
 40
0.1874639106
 40
0.24997087
 40
0.3124752562
 40
0.374974068
 40
0.4374689251
 40
0.4999603455
 40
0.5624485452
 40
0.624933746
 40
0.656181077
 40
0.6874278786
 40
0.7186742131
 40
0.7499201608
 40
0.7811655814
 40
0.8124101437
 40
0.843652658
 40
0.8592775372
 40
0.8749028961
 40
0.8905287083
 40
0.9061569824
 40
0.9217879987
 40
0.9296100017
 40
0.9374376963
 40
0.9452619327
 40
0.9530860197
 40
0.9609131595
 40
0.9687325761
 40
0.9765535768
 40
0.9843734318
 40
1.0
 40
1.0
 40
1.0
 40
1.0
 10
-5.0706895589
 20
7.8814930722
 30
0.0
 10
-5.0800279529
 20
7.8758122775
 30
0.0
 10
-5.0946746902
 20
7.8682766286
 30
0.0
 10
-5.1150773957
 20
7.8603763849
 30
0.0
 10
-5.1307671239
 20
7.8555378015
 30
0.0
 10
-5.1467554317
 20
7.851814093
 30
0.0
 10
-5.162965602
 20
7.8492249353
 30
0.0
 10
-5.179317017
 20
7.8477872634
 30
0.0
 10
-5.1957287583
 20
7.8475160274
 30
0.0
 10
-5.2121165301
 20
7.8484260477
 30
0.0
 10
-5.2256828393
 20
7.8501845055
 30
0.0
 10
-5.2364294744
 20
7.852206525
 30
0.0
 10
-5.2444248324
 20
7.8540382071
 30
0.0
 10
-5.252338735
 20
7.8561947997
 30
0.0
 10
-5.2601520927
 20
7.8586919698
 30
0.0
 10
-5.2678394452
 20
7.8615554859
 30
0.0
 10
-5.2753615431
 20
7.8648294679
 30
0.0
 10
-5.281440649
 20
7.8679666765
 30
0.0
 10
-5.2861177496
 20
7.8708011371
 30
0.0
 10
-5.2894985241
 20
7.8731268624
 30
0.0
 10
-5.2926964888
 20
7.8757024682
 30
0.0
 10
-5.2956168976
 20
7.8785951498
 30
0.0
 10
-5.2976806293
 20
7.8813451047
 30
0.0
 10
-5.2989798079
 20
7.8837589898
 30
0.0
 10
-5.2997469804
 20
7.8856685779
 30
0.0
 10
-5.3002904539
 20
7.8876539424
 30
0.0
 10
-5.3005955077
 20
7.8896891812
 30
0.0
 10
-5.3006853714
 20
7.8917437785
 30
0.0
 10
-5.3005789755
 20
7.8937966405
 30
0.0
 10
-5.3003050884
 20
7.8958324899
 30
0.0
 10
-5.2997569379
 20
7.8985137623
 30
0.0
 10
-5.2991723423
 20
7.9004844196
 30
0.0
 10
-5.2987303747
 20
7.9017779801
 30
0.0
  0
SPLINE
  5
278
100
AcDbEntity
  8
0
100
AcDbSpline
 62
7
  6
CONTINUOUS
 70
0
 71
3
 72
37
 73
33
 74
0
 42
0.0000001
 43
0.0000001
 44
0.0000000001
 40
0.0
 40
0.0
 40
0.0
 40
0.0
 40
0.1249521341
 40
0.1874639106
 40
0.24997087
 40
0.3124752563
 40
0.3749740682
 40
0.4374689253
 40
0.4999603457
 40
0.5624485454
 40
0.6249337463
 40
0.6561810774
 40
0.687427879
 40
0.7186742134
 40
0.7499201612
 40
0.7811655818
 40
0.8124101441
 40
0.8436526585
 40
0.8592775376
 40
0.8749028965
 40
0.8905287086
 40
0.9061569827
 40
0.9217879989
 40
0.9296100019
 40
0.9374376965
 40
0.9452619329
 40
0.9530860198
 40
0.9609131596
 40
0.9687325763
 40
0.9765535769
 40
0.9843734318
 40
1.0
 40
1.0
 40
1.0
 40
1.0
 10
-4.8424201107
 20
7.8990187731
 30
0.0
 10
-4.8506961236
 20
7.89187842
 30
0.0
 10
-4.8639027859
 20
7.8820347933
 30
0.0
 10
-4.8827269042
 20
7.8708841513
 30
0.0
 10
-4.897406251
 20
7.8635291371
 30
0.0
 10
-4.9125636062
 20
7.8572246484
 30
0.0
 10
-4.9281265372
 20
7.85200272
 30
0.0
 10
-4.9440183133
 20
7.8478933249
 30
0.0
 10
-4.9601615802
 20
7.8449245282
 30
0.0
 10
-4.9764756313
 20
7.8431248224
 30
0.0
 10
-4.9901463471
 20
7.8426263761
 30
0.0
 10
-5.0010792252
 20
7.8428519959
 30
0.0
 10
-5.0092670212
 20
7.8433427156
 30
0.0
 10
-5.0174279507
 20
7.8441673216
 30
0.0
 10
-5.0255457634
 20
7.845344409
 30
0.0
 10
-5.0335995874
 20
7.8469035857
 30
0.0
 10
-5.0415579705
 20
7.84889483
 30
0.0
 10
-5.0480705298
 20
7.8509886728
 30
0.0
 10
-5.0531503747
 20
7.853014657
 30
0.0
 10
-5.0568678391
 20
7.8547522108
 30
0.0
 10
-5.0604461156
 20
7.8567663263
 30
0.0
 10
-5.0638028101
 20
7.8591388768
 30
0.0
 10
-5.0662910193
 20
7.8615116506
 30
0.0
 10
-5.067969788
 20
7.8636787781
 30
0.0
 10
-5.0690408025
 20
7.8654360511
 30
0.0
 10
-5.0699036413
 20
7.8673048862
 30
0.0
 10
-5.070539521
 20
7.8692621578
 30
0.0
 10
-5.0709663317
 20
7.8712739426
 30
0.0
 10
-5.0711992739
 20
7.8733163188
 30
0.0
 10
-5.071264209
 20
7.8753694823
 30
0.0
 10
-5.0711648535
 20
7.878104408
 30
0.0
 10
-5.0709125876
 20
7.880144409
 30
0.0
 10
-5.0706895589
 20
7.8814930722
 30
0.0
  0
SPLINE
  5
279
100
AcDbEntity
  8
0
100
AcDbSpline
 62
7
  6
CONTINUOUS
 70
0
 71
3
 72
37
 73
33
 74
0
 42
0.0000001
 43
0.0000001
 44
0.0000000001
 40
0.0
 40
0.0
 40
0.0
 40
0.0
 40
0.1249521341
 40
0.1874639106
 40
0.24997087
 40
0.3124752563
 40
0.3749740682
 40
0.4374689253
 40
0.4999603457
 40
0.5624485454
 40
0.6249337463
 40
0.6561810774
 40
0.687427879
 40
0.7186742134
 40
0.7499201612
 40
0.7811655818
 40
0.8124101441
 40
0.8436526585
 40
0.8592775376
 40
0.8749028965
 40
0.8905287086
 40
0.9061569827
 40
0.9217879989
 40
0.9296100019
 40
0.9374376965
 40
0.9452619329
 40
0.9530860198
 40
0.9609131596
 40
0.9687325763
 40
0.9765535769
 40
0.9843734318
 40
1.0
 40
1.0
 40
1.0
 40
1.0
 10
-4.6201485152
 20
7.9538770359
 30
0.0
 10
-4.6271364029
 20
7.9454718913
 30
0.0
 10
-4.6385427533
 20
7.9335887903
 30
0.0
 10
-4.6552748205
 20
7.9194919052
 30
0.0
 10
-4.6685433789
 20
7.9098210822
 30
0.0
 10
-4.6824563356
 20
7.9011077803
 30
0.0
 10
-4.6969475186
 20
7.8933955192
 30
0.0
 10
-4.7119461773
 20
7.8867264926
 30
0.0
 10
-4.7273806314
 20
7.8811411146
 30
0.0
 10
-4.7431759647
 20
7.8766807732
 30
0.0
 10
-4.7565781923
 20
7.8739390189
 30
0.0
 10
-4.7673990983
 20
7.8723620848
 30
0.0
 10
-4.7755559945
 20
7.8714984568
 30
0.0
 10
-4.7837413461
 20
7.8709685834
 30
0.0
 10
-4.7919421849
 20
7.8707934809
 30
0.0
 10
-4.8001427969
 20
7.8710057887
 30
0.0
 10
-4.8083203851
 20
7.8716599802
 30
0.0
 10
-4.8150887553
 20
7.8726533436
 30
0.0
 10
-4.8204327821
 20
7.8738155889
 30
0.0
 10
-4.8243855354
 20
7.874917576
 30
0.0
 10
-4.8282465194
 20
7.8763152623
 30
0.0
 10
-4.8319479393
 20
7.878102966
 30
0.0
 10
-4.8347927555
 20
7.8800338367
 30
0.0
 10
-4.8368053227
 20
7.8818950941
 30
0.0
 10
-4.8381509653
 20
7.8834521189
 30
0.0
 10
-4.8393096337
 20
7.8851534487
 30
0.0
 10
-4.8402589945
 20
7.8869793647
 30
0.0
 10
-4.8410111101
 20
7.8888934617
 30
0.0
 10
-4.8415770365
 20
7.8908696423
 30
0.0
 10
-4.8419790226
 20
7.892884116
 30
0.0
 10
-4.8423311721
 20
7.8955980948
 30
0.0
 10
-4.8424181169
 20
7.8976517946
 30
0.0
 10
-4.8424201107
 20
7.8990187731
 30
0.0
  0
SPLINE
  5
27A
100
AcDbEntity
  8
0
100
AcDbSpline
 62
7
  6
CONTINUOUS
 70
0
 71
3
 72
37
 73
33
 74
0
 42
0.0000001
 43
0.0000001
 44
0.0000000001
 40
0.0
 40
0.0
 40
0.0
 40
0.0
 40
0.1249521341
 40
0.1874639106
 40
0.24997087
 40
0.3124752563
 40
0.3749740682
 40
0.4374689253
 40
0.4999603457
 40
0.5624485454
 40
0.6249337463
 40
0.6561810774
 40
0.6874278789
 40
0.7186742134
 40
0.7499201612
 40
0.7811655817
 40
0.8124101441
 40
0.8436526585
 40
0.8592775376
 40
0.8749028965
 40
0.8905287086
 40
0.9061569827
 40
0.9217879989
 40
0.9296100019
 40
0.9374376964
 40
0.9452619329
 40
0.9530860198
 40
0.9609131596
 40
0.9687325763
 40
0.9765535769
 40
0.9843734318
 40
1.0
 40
1.0
 40
1.0
 40
1.0
 10
-4.4099376545
 20
8.0445714968
 30
0.0
 10
-4.4154468091
 20
8.0351308269
 30
0.0
 10
-4.4247417176
 20
8.0215323861
 30
0.0
 10
-4.4389253347
 20
8.0048737771
 30
0.0
 10
-4.4504211793
 20
7.9931509356
 30
0.0
 10
-4.462710235
 20
7.9822664924
 30
0.0
 10
-4.4757343955
 20
7.9722742653
 30
0.0
 10
-4.4894308195
 20
7.9632275176
 30
0.0
 10
-4.5037354566
 20
7.9551779103
 30
0.0
 10
-4.5185812244
 20
7.9481785974
 30
0.0
 10
-4.5313493924
 20
7.9432683217
 30
0.0
 10
-4.5417631654
 20
7.9399318477
 30
0.0
 10
-4.5496666669
 20
7.9377374291
 30
0.0
 10
-4.5576531694
 20
7.9358675296
 30
0.0
 10
-4.5657133408
 20
7.9343450135
 30
0.0
 10
-4.5738370535
 20
7.9332046612
 30
0.0
 10
-4.5820107875
 20
7.9325039556
 30
0.0
 10
-4.5888503484
 20
7.9323697437
 30
0.0
 10
-4.5943127885
 20
7.9326365477
 30
0.0
 10
-4.5983930119
 20
7.9330729093
 30
0.0
 10
-4.6024313876
 20
7.9338160418
 30
0.0
 10
-4.6063765696
 20
7.9349701357
 30
0.0
 10
-4.609500395
 20
7.936406435
 30
0.0
 10
-4.6117918641
 20
7.937911053
 30
0.0
 10
-4.6133754298
 20
7.9392253589
 30
0.0
 10
-4.614798323
 20
7.9407127763
 30
0.0
 10
-4.6160352692
 20
7.9423575313
 30
0.0
 10
-4.6170921744
 20
7.94412173
 30
0.0
 10
-4.6179756482
 20
7.9459778109
 30
0.0
 10
-4.6187037204
 20
7.9478986461
 30
0.0
 10
-4.6194977694
 20
7.9505176491
 30
0.0
 10
-4.6199215533
 20
7.9525290291
 30
0.0
 10
-4.6201485152
 20
7.9538770359
 30
0.0
  0
SPLINE
  5
27B
100
AcDbEntity
  8
0
100
AcDbSpline
 62
7
  6
CONTINUOUS
 70
0
 71
3
 72
37
 73
33
 74
0
 42
0.0000001
 43
0.0000001
 44
0.0000000001
 40
0.0
 40
0.0
 40
0.0
 40
0.0
 40
0.1249521341
 40
0.1874639106
 40
0.24997087
 40
0.3124752563
 40
0.3749740682
 40
0.4374689253
 40
0.4999603457
 40
0.5624485454
 40
0.6249337463
 40
0.6561810774
 40
0.687427879
 40
0.7186742134
 40
0.7499201612
 40
0.7811655818
 40
0.8124101441
 40
0.8436526585
 40
0.8592775376
 40
0.8749028965
 40
0.8905287086
 40
0.9061569827
 40
0.9217879989
 40
0.9296100019
 40
0.9374376965
 40
0.9452619329
 40
0.9530860198
 40
0.9609131596
 40
0.9687325763
 40
0.9765535769
 40
0.9843734318
 40
1.0
 40
1.0
 40
1.0
 40
1.0
 10
-4.2175214313
 20
8.168628291
 30
0.0
 10
-4.22140158
 20
8.1584096083
 30
0.0
 10
-4.2283315103
 20
8.143466751
 30
0.0
 10
-4.239579792
 20
8.1247008137
 30
0.0
 10
-4.2489893517
 20
8.1112457164
 30
0.0
 10
-4.259319299
 20
8.0984870259
 30
0.0
 10
-4.270521178
 20
8.0864873899
 30
0.0
 10
-4.2825417714
 20
8.0753096884
 30
0.0
 10
-4.2953264052
 20
8.0650154201
 30
0.0
 10
-4.3088176608
 20
8.0556680555
 30
0.0
 10
-4.3206034929
 20
8.0487231955
 30
0.0
 10
-4.3303260775
 20
8.0437181903
 30
0.0
 10
-4.3377606012
 20
8.040252838
 30
0.0
 10
-4.3453304075
 20
8.0370939175
 30
0.0
 10
-4.3530300549
 20
8.0342655172
 30
0.0
 10
-4.3608552785
 20
8.0318036102
 30
0.0
 10
-4.3688022041
 20
8.0297671206
 30
0.0
 10
-4.3755263936
 20
8.0285089944
 30
0.0
 10
-4.3809582486
 20
8.0278730794
 30
0.0
 10
-4.3850546462
 20
8.0276319128
 30
0.0
 10
-4.3891602592
 20
8.0277002213
 30
0.0
 10
-4.3932415909
 20
8.0281892252
 30
0.0
 10
-4.3965592172
 20
8.0290917754
 30
0.0
 10
-4.399067084
 20
8.0301987126
 30
0.0
 10
-4.400845378
 20
8.0312344494
 30
0.0
 10
-4.4024936839
 20
8.0324673822
 30
0.0
 10
-4.4039844754
 20
8.0338861125
 30
0.0
 10
-4.4053173411
 20
8.0354522908
 30
0.0
 10
-4.4064942638
 20
8.037137644
 30
0.0
 10
-4.4075285625
 20
8.0389124463
 30
0.0
 10
-4.4087428519
 20
8.0413650351
 30
0.0
 10
-4.4094919154
 20
8.043279231
 30
0.0
 10
-4.4099376545
 20
8.0445714968
 30
0.0
  0
SPLINE
  5
27C
100
AcDbEntity
  8
0
100
AcDbSpline
 62
7
  6
CONTINUOUS
 70
0
 71
3
 72
37
 73
33
 74
0
 42
0.0000001
 43
0.0000001
 44
0.0000000001
 40
0.0
 40
0.0
 40
0.0
 40
0.0
 40
0.1249521342
 40
0.1874639107
 40
0.24997087
 40
0.3124752562
 40
0.374974068
 40
0.437468925
 40
0.4999603453
 40
0.5624485449
 40
0.6249337457
 40
0.6561810767
 40
0.6874278782
 40
0.7186742126
 40
0.7499201603
 40
0.7811655808
 40
0.8124101431
 40
0.8436526573
 40
0.8592775364
 40
0.8749028954
 40
0.8905287076
 40
0.906156981
 40
0.9217879962
 40
0.9296099995
 40
0.9374376942
 40
0.9452619301
 40
0.9530860182
 40
0.9609131586
 40
0.9687325754
 40
0.9765535766
 40
0.9843734317
 40
1.0
 40
1.0
 40
1.0
 40
1.0
 10
-4.0481483654
 20
8.3226635328
 30
0.0
 10
-4.0502936698
 20
8.3119455713
 30
0.0
 10
-4.0546695947
 20
8.2960658924
 30
0.0
 10
-4.0626757227
 20
8.2757045035
 30
0.0
 10
-4.0697423338
 20
8.260884164
 30
0.0
 10
-4.0778314037
 20
8.2465992439
 30
0.0
 10
-4.0869054485
 20
8.2329195119
 30
0.0
 10
-4.0969223266
 20
8.2199157498
 30
0.0
 10
-4.1078382318
 20
8.2076576164
 30
0.0
 10
-4.1196069754
 20
8.1962171674
 30
0.0
 10
-4.1300889906
 20
8.1874271574
 30
0.0
 10
-4.1388551846
 20
8.180890142
 30
0.0
 10
-4.1456179397
 20
8.1762483801
 30
0.0
 10
-4.1525645689
 20
8.1718866043
 30
0.0
 10
-4.1596936696
 20
8.1678294698
 30
0.0
 10
-4.1670069563
 20
8.1641131612
 30
0.0
 10
-4.1745103058
 20
8.1607964368
 30
0.0
 10
-4.1809357088
 20
8.158448714
 30
0.0
 10
-4.1861888144
 20
8.1569274258
 30
0.0
 10
-4.1901896491
 20
8.1560153094
 30
0.0
 10
-4.194250511
 20
8.1554069304
 30
0.0
 10
-4.1983566662
 20
8.1552175062
 30
0.0
 10
-4.2017775987
 20
8.1555616877
 30
0.0
 10
-4.2044334561
 20
8.156240751
 30
0.0
 10
-4.2063579724
 20
8.1569696661
 30
0.0
 10
-4.2081867301
 20
8.1579144842
 30
0.0
 10
-4.2098907029
 20
8.1590684913
 30
0.0
 10
-4.211463173
 20
8.1603939286
 30
0.0
 10
-4.2129014419
 20
8.1618625829
 30
0.0
 10
-4.2142137547
 20
8.1634429412
 30
0.0
 10
-4.2158151624
 20
8.1656622168
 30
0.0
 10
-4.2168690733
 20
8.1674270154
 30
0.0
 10
-4.2175214313
 20
8.168628291
 30
0.0
  0
SPLINE
  5
27D
100
AcDbEntity
  8
0
100
AcDbSpline
 62
7
  6
CONTINUOUS
 70
0
 71
3
 72
37
 73
33
 74
0
 42
0.0000001
 43
0.0000001
 44
0.0000000001
 40
0.0
 40
0.0
 40
0.0
 40
0.0
 40
0.1249521341
 40
0.1874639106
 40
0.24997087
 40
0.3124752563
 40
0.3749740682
 40
0.4374689253
 40
0.4999603457
 40
0.5624485454
 40
0.6249337463
 40
0.6561810774
 40
0.687427879
 40
0.7186742134
 40
0.7499201612
 40
0.7811655818
 40
0.8124101441
 40
0.8436526585
 40
0.8592775376
 40
0.8749028965
 40
0.8905287086
 40
0.9061569827
 40
0.9217879989
 40
0.9296100019
 40
0.9374376965
 40
0.9452619329
 40
0.9530860198
 40
0.9609131596
 40
0.9687325763
 40
0.9765535769
 40
0.9843734318
 40
1.0
 40
1.0
 40
1.0
 40
1.0
 10
-3.9064384306
 20
8.5024756168
 30
0.0
 10
-3.9067903734
 20
8.4915507293
 30
0.0
 10
-3.9084929313
 20
8.4751673775
 30
0.0
 10
-3.913038523
 20
8.4537659327
 30
0.0
 10
-3.9175694303
 20
8.437984604
 30
0.0
 10
-3.9231969779
 20
8.4225631027
 30
0.0
 10
-3.9298956768
 20
8.4075764156
 30
0.0
 10
-3.9376356101
 20
8.3931012952
 30
0.0
 10
-3.9463850345
 20
8.3792136607
 30
0.0
 10
-3.9561102512
 20
8.3659921872
 30
0.0
 10
-3.9650025327
 20
8.3555967916
 30
0.0
 10
-3.9725732214
 20
8.3477060756
 30
0.0
 10
-3.9784797408
 20
8.342014517
 30
0.0
 10
-3.9846137104
 20
8.3365688615
 30
0.0
 10
-3.9909778047
 20
8.3313936591
 30
0.0
 10
-3.9975796706
 20
8.3265243184
 30
0.0
 10
-4.004434776
 20
8.322017829
 30
0.0
 10
-4.0103861273
 20
8.3186445483
 30
0.0
 10
-4.0153171951
 20
8.316279383
 30
0.0
 10
-4.0191133365
 20
8.3147211966
 30
0.0
 10
-4.0230186795
 20
8.313452725
 30
0.0
 10
-4.0270376554
 20
8.3125900389
 30
0.0
 10
-4.0304685817
 20
8.3123664651
 30
0.0
 10
-4.0331999866
 20
8.3125991303
 30
0.0
 10
-4.0352182297
 20
8.3130013428
 30
0.0
 10
-4.0371775566
 20
8.3136322737
 30
0.0
 10
-4.0390482314
 20
8.3144900795
 30
0.0
 10
-4.0408174129
 20
8.3155386224
 30
0.0
 10
-4.0424777965
 20
8.3167505172
 30
0.0
 10
-4.0440323274
 20
8.3180933241
 30
0.0
 10
-4.0459771719
 20
8.3200187515
 30
0.0
 10
-4.0473071828
 20
8.3215860144
 30
0.0
 10
-4.0481483654
 20
8.3226635328
 30
0.0
  0
SPLINE
  5
27E
100
AcDbEntity
  8
0
100
AcDbSpline
 62
7
  6
CONTINUOUS
 70
0
 71
3
 72
33
 73
29
 74
0
 42
0.0000001
 43
0.0000001
 44
0.0000000001
 40
0.0
 40
0.0
 40
0.0
 40
0.0
 40
0.1249786654
 40
0.2499417635
 40
0.3124423711
 40
0.3749404538
 40
0.4374363773
 40
0.4999302687
 40
0.562422193
 40
0.6249120158
 40
0.6561605318
 40
0.6874086405
 40
0.7186566518
 40
0.7499045841
 40
0.7811521532
 40
0.8123986573
 40
0.8280246359
 40
0.8436531618
 40
0.8592823716
 40
0.8749158184
 40
0.8905541337
 40
0.9061898543
 40
0.9218332372
 40
0.9296585829
 40
0.9374843744
 40
0.9531273286
 40
0.9687622053
 40
1.0
 40
1.0
 40
1.0
 40
1.0
 10
-3.7961275996
 20
8.6426411213
 30
0.0
 10
-3.7972023854
 20
8.634304924
 30
0.0
 10
-3.8002552051
 20
8.6177366961
 30
0.0
 10
-3.806288922
 20
8.5975638323
 30
0.0
 10
-3.8124098425
 20
8.5818993632
 30
0.0
 10
-3.817640959
 20
8.5704187025
 30
0.0
 10
-3.8235023066
 20
8.5592473378
 30
0.0
 10
-3.8299863103
 20
8.5484254401
 30
0.0
 10
-3.8370879849
 20
8.537998806
 30
0.0
 10
-3.8435232184
 20
8.5296834721
 30
0.0
 10
-3.8489886598
 20
8.5232953614
 30
0.0
 10
-3.8532527428
 20
8.5186495398
 30
0.0
 10
-3.8576889087
 20
8.5141675412
 30
0.0
 10
-3.8623102689
 20
8.5098758894
 30
0.0
 10
-3.8671378482
 20
8.5058169668
 30
0.0
 10
-3.8713619182
 20
8.5026842542
 30
0.0
 10
-3.8748900357
 20
8.5003968479
 30
0.0
 10
-3.8776206587
 20
8.4988168376
 30
0.0
 10
-3.8804487332
 20
8.4974154932
 30
0.0
 10
-3.8833833432
 20
8.4962467983
 30
0.0
 10
-3.8864300317
 20
8.4953992207
 30
0.0
 10
-3.8895690893
 20
8.4949746295
 30
0.0
 10
-3.8922123701
 20
8.4950684261
 30
0.0
 10
-3.8942892428
 20
8.4954243062
 30
0.0
 10
-3.8963255238
 20
8.4959658885
 30
0.0
 10
-3.8987752128
 20
8.4969539105
 30
0.0
 10
-3.9024251405
 20
8.4990589527
 30
0.0
 10
-3.9048907312
 20
8.5010550029
 30
0.0
 10
-3.9064384306
 20
8.5024756168
 30
0.0
  0
SPLINE
  5
27F
100
AcDbEntity
  8
0
100
AcDbSpline
 62
7
  6
CONTINUOUS
 70
0
 71
3
 72
15
 73
11
 74
0
 42
0.0000001
 43
0.0000001
 44
0.0000000001
 40
0.0
 40
0.0
 40
0.0
 40
0.0
 40
0.1250221883
 40
0.2500605169
 40
0.3750760425
 40
0.500083558
 40
0.625077372
 40
0.7500613511
 40
0.875035796
 40
1.0
 40
1.0
 40
1.0
 40
1.0
 10
-3.8972483997
 20
10.0187968399
 30
0.0
 10
-3.8906381602
 20
10.0156396774
 30
0.0
 10
-3.8777107827
 20
10.0086876876
 30
0.0
 10
-3.8594001449
 20
9.9964779532
 30
0.0
 10
-3.8423197958
 20
9.9825976127
 30
0.0
 10
-3.8266227646
 20
9.9671745611
 30
0.0
 10
-3.8124513705
 20
9.9503410036
 30
0.0
 10
-3.7999428563
 20
9.9322383139
 30
0.0
 10
-3.7892376959
 20
9.9130176653
 30
0.0
 10
-3.7834030605
 20
9.8995520325
 30
0.0
 10
-3.7808526766
 20
9.8926884534
 30
0.0
  0
SPLINE
  5
280
100
AcDbEntity
  8
0
100
AcDbSpline
 62
7
  6
CONTINUOUS
 70
0
 71
3
 72
37
 73
33
 74
0
 42
0.0000001
 43
0.0000001
 44
0.0000000001
 40
0.0
 40
0.0
 40
0.0
 40
0.0
 40
0.1249521341
 40
0.1874639106
 40
0.24997087
 40
0.3124752563
 40
0.3749740682
 40
0.4374689253
 40
0.4999603457
 40
0.5624485455
 40
0.6249337463
 40
0.6561810774
 40
0.687427879
 40
0.7186742135
 40
0.7499201612
 40
0.7811655818
 40
0.8124101441
 40
0.8436526585
 40
0.8592775376
 40
0.8749028965
 40
0.8905287086
 40
0.9061569827
 40
0.921787999
 40
0.9296100019
 40
0.9374376965
 40
0.9452619329
 40
0.9530860199
 40
0.9609131597
 40
0.9687325763
 40
0.9765535769
 40
0.9843734318
 40
1.0
 40
1.0
 40
1.0
 40
1.0
 10
-4.0367684151
 20
10.2003133859
 30
0.0
 10
-4.0262642586
 20
10.1972901876
 30
0.0
 10
-4.010800253
 20
10.1916176707
 30
0.0
 10
-3.9911696771
 20
10.1819571979
 30
0.0
 10
-3.976983622
 20
10.1736906812
 30
0.0
 10
-3.9634156045
 20
10.1644494208
 30
0.0
 10
-3.9505320589
 20
10.1542765346
 30
0.0
 10
-3.9384000447
 20
10.1432198666
 30
0.0
 10
-3.9270853647
 20
10.1313288265
 30
0.0
 10
-3.9166560133
 20
10.1186553963
 30
0.0
 10
-3.9087617714
 20
10.1074832047
 30
0.0
 10
-3.9029711125
 20
10.0982070527
 30
0.0
 10
-3.8989037627
 20
10.0910840284
 30
0.0
 10
-3.8951306289
 20
10.0838008829
 30
0.0
 10
-3.8916761666
 20
10.0763610504
 30
0.0
 10
-3.888576578
 20
10.068765811
 30
0.0
 10
-3.885890906
 20
10.0610141607
 30
0.0
 10
-3.8840818947
 20
10.0544168063
 30
0.0
 10
-3.8829996715
 20
10.0490560014
 30
0.0
 10
-3.8824211105
 20
10.044993502
 30
0.0
 10
-3.8821502071
 20
10.0408962669
 30
0.0
 10
-3.8823005675
 20
10.0367884955
 30
0.0
 10
-3.8829261173
 20
10.0334076779
 30
0.0
 10
-3.8838222138
 20
10.0308169797
 30
0.0
 10
-3.8847075899
 20
10.028959242
 30
0.0
 10
-3.8858002213
 20
10.0272147672
 30
0.0
 10
-3.8870910209
 20
10.0256119287
 30
0.0
 10
-3.8885418042
 20
10.0241543027
 30
0.0
 10
-3.8901242308
 20
10.0228422477
 30
0.0
 10
-3.8918075768
 20
10.0216649443
 30
0.0
 10
-3.8941515343
 20
10.0202523037
 30
0.0
 10
-3.8959973484
 20
10.0193477527
 30
0.0
 10
-3.8972483997
 20
10.0187968399
 30
0.0
  0
SPLINE
  5
281
100
AcDbEntity
  8
0
100
AcDbSpline
 62
7
  6
CONTINUOUS
 70
0
 71
3
 72
37
 73
33
 74
0
 42
0.0000001
 43
0.0000001
 44
0.0000000001
 40
0.0
 40
0.0
 40
0.0
 40
0.0
 40
0.1249521341
 40
0.1874639107
 40
0.24997087
 40
0.3124752563
 40
0.3749740681
 40
0.4374689252
 40
0.4999603455
 40
0.5624485452
 40
0.6249337461
 40
0.6561810771
 40
0.6874278787
 40
0.7186742131
 40
0.7499201608
 40
0.7811655814
 40
0.8124101437
 40
0.843652658
 40
0.8592775371
 40
0.874902896
 40
0.8905287082
 40
0.906156982
 40
0.9217879978
 40
0.9296100009
 40
0.9374376956
 40
0.9452619318
 40
0.9530860192
 40
0.9609131592
 40
0.9687325759
 40
0.9765535768
 40
0.9843734318
 40
1.0
 40
1.0
 40
1.0
 40
1.0
 10
-4.2042619714
 20
10.3563902892
 30
0.0
 10
-4.1934034777
 20
10.3551372348
 30
0.0
 10
-4.1772167198
 20
10.3520873515
 30
0.0
 10
-4.1562638271
 20
10.3457896907
 30
0.0
 10
-4.140910636
 20
10.3399708439
 30
0.0
 10
-4.1260066172
 20
10.3330888226
 30
0.0
 10
-4.111624396
 20
10.3251752222
 30
0.0
 10
-4.097837992
 20
10.3162661963
 30
0.0
 10
-4.0847204431
 20
10.3063996503
 30
0.0
 10
-4.0723473723
 20
10.2956156659
 30
0.0
 10
-4.0627219296
 20
10.2858951838
 30
0.0
 10
-4.0554834553
 20
10.2776986469
 30
0.0
 10
-4.0502991769
 20
10.2713422275
 30
0.0
 10
-4.0453787471
 20
10.2647794448
 30
0.0
 10
-4.0407468528
 20
10.258009661
 30
0.0
 10
-4.0364394135
 20
10.2510281799
 30
0.0
 10
-4.0325145015
 20
10.2438242933
 30
0.0
 10
-4.0296442831
 20
10.2376146676
 30
0.0
 10
-4.027694468
 20
10.2325051023
 30
0.0
 10
-4.0264551381
 20
10.2285932362
 30
0.0
 10
-4.0255135526
 20
10.22459647
 30
0.0
 10
-4.0249857514
 20
10.220519974
 30
0.0
 10
-4.02504631
 20
10.2170823043
 30
0.0
 10
-4.0255037743
 20
10.214379448
 30
0.0
 10
-4.026071304
 20
10.21240132
 30
0.0
 10
-4.0268619052
 20
10.2105007976
 30
0.0
 10
-4.027871284
 20
10.2087073625
 30
0.0
 10
-4.0290623656
 20
10.2070308272
 30
0.0
 10
-4.0304072551
 20
10.2054762099
 30
0.0
 10
-4.0318738669
 20
10.204037896
 30
0.0
 10
-4.0339533455
 20
10.2022587222
 30
0.0
 10
-4.0356251027
 20
10.2010626996
 30
0.0
 10
-4.0367684151
 20
10.2003133859
 30
0.0
  0
SPLINE
  5
282
100
AcDbEntity
  8
0
100
AcDbSpline
 62
7
  6
CONTINUOUS
 70
0
 71
3
 72
37
 73
33
 74
0
 42
0.0000001
 43
0.0000001
 44
0.0000000001
 40
0.0
 40
0.0
 40
0.0
 40
0.0
 40
0.1249521341
 40
0.1874639106
 40
0.24997087
 40
0.3124752563
 40
0.3749740682
 40
0.4374689253
 40
0.4999603457
 40
0.5624485455
 40
0.6249337463
 40
0.6561810774
 40
0.687427879
 40
0.7186742135
 40
0.7499201612
 40
0.7811655818
 40
0.8124101441
 40
0.8436526585
 40
0.8592775376
 40
0.8749028965
 40
0.8905287087
 40
0.9061569828
 40
0.921787999
 40
0.929610002
 40
0.9374376965
 40
0.9452619329
 40
0.9530860199
 40
0.9609131597
 40
0.9687325763
 40
0.9765535769
 40
0.9843734318
 40
1.0
 40
1.0
 40
1.0
 40
1.0
 10
-4.3951603622
 20
10.4827702543
 30
0.0
 10
-4.3842437174
 20
10.4833215232
 30
0.0
 10
-4.367775732
 20
10.4829774649
 30
0.0
 10
-4.3460720526
 20
10.4802143969
 30
0.0
 10
-4.329970513
 20
10.4770019401
 30
0.0
 10
-4.3141370284
 20
10.4726668782
 30
0.0
 10
-4.2986484342
 20
10.467228422
 30
0.0
 10
-4.2835836909
 20
10.460710049
 30
0.0
 10
-4.2690210793
 20
10.453137126
 30
0.0
 10
-4.2550417882
 20
10.444536741
 30
0.0
 10
-4.2439476969
 20
10.4365331131
 30
0.0
 10
-4.2354588505
 20
10.4296397675
 30
0.0
 10
-4.2292990546
 20
10.4242233365
 30
0.0
 10
-4.2233655428
 20
10.4185599291
 30
0.0
 10
-4.2176825605
 20
10.4126448526
 30
0.0
 10
-4.2122847641
 20
10.4064675631
 30
0.0
 10
-4.2072276715
 20
10.40000794
 30
0.0
 10
-4.2033745366
 20
10.3943554222
 30
0.0
 10
-4.2006103146
 20
10.3896364697
 30
0.0
 10
-4.198744021
 20
10.3859819406
 30
0.0
 10
-4.1971574369
 20
10.3821946626
 30
0.0
 10
-4.1959658707
 20
10.3782606361
 30
0.0
 10
-4.1954597868
 20
10.3748598833
 30
0.0
 10
-4.1954661401
 20
10.3721185943
 30
0.0
 10
-4.1957003437
 20
10.3700740334
 30
0.0
 10
-4.1961673491
 20
10.3680693037
 30
0.0
 10
-4.1968677745
 20
10.3661341914
 30
0.0
 10
-4.1977666654
 20
10.3642844778
 30
0.0
 10
-4.1988373334
 20
10.3625297035
 30
0.0
 10
-4.2000472062
 20
10.3608696118
 30
0.0
 10
-4.201805484
 20
10.3587724353
 30
0.0
 10
-4.2032575839
 20
10.3573175648
 30
0.0
 10
-4.2042619714
 20
10.3563902892
 30
0.0
  0
SPLINE
  5
283
100
AcDbEntity
  8
0
100
AcDbSpline
 62
7
  6
CONTINUOUS
 70
0
 71
3
 72
37
 73
33
 74
0
 42
0.0000001
 43
0.0000001
 44
0.0000000001
 40
0.0
 40
0.0
 40
0.0
 40
0.0
 40
0.1249521341
 40
0.1874639106
 40
0.24997087
 40
0.3124752563
 40
0.3749740682
 40
0.4374689253
 40
0.4999603457
 40
0.5624485454
 40
0.6249337463
 40
0.6561810774
 40
0.687427879
 40
0.7186742134
 40
0.7499201612
 40
0.7811655818
 40
0.8124101441
 40
0.8436526585
 40
0.8592775376
 40
0.8749028965
 40
0.8905287086
 40
0.9061569827
 40
0.9217879989
 40
0.9296100019
 40
0.9374376965
 40
0.9452619329
 40
0.9530860198
 40
0.9609131596
 40
0.9687325763
 40
0.9765535769
 40
0.9843734318
 40
1.0
 40
1.0
 40
1.0
 40
1.0
 10
-4.6042564692
 20
10.5760060263
 30
0.0
 10
-4.5935794457
 20
10.5783465815
 30
0.0
 10
-4.5772794285
 20
10.5807177331
 30
0.0
 10
-4.5554169718
 20
10.5815646259
 30
0.0
 10
-4.5390062839
 20
10.581046185
 30
0.0
 10
-4.5226752222
 20
10.5793763296
 30
0.0
 10
-4.5065027358
 20
10.5765613618
 30
0.0
 10
-4.4905705729
 20
10.5726114428
 30
0.0
 10
-4.4749601216
 20
10.5675387088
 30
0.0
 10
-4.459755922
 20
10.5613565152
 30
0.0
 10
-4.4474957948
 20
10.5552880557
 30
0.0
 10
-4.4379881257
 20
10.5498859306
 30
0.0
 10
-4.4310208326
 20
10.5455572315
 30
0.0
 10
-4.4242360867
 20
10.5409476795
 30
0.0
 10
-4.4176570304
 20
10.5360486555
 30
0.0
 10
-4.4113161121
 20
10.5308440549
 30
0.0
 10
-4.4052647808
 20
10.5253048938
 30
0.0
 10
-4.4005338311
 20
10.5203636672
 30
0.0
 10
-4.3970306015
 20
10.5161640459
 30
0.0
 10
-4.3945882509
 20
10.5128665381
 30
0.0
 10
-4.3923999454
 20
10.5093920535
 30
0.0
 10
-4.3905771166
 20
10.5057078047
 30
0.0
 10
-4.3895181943
 20
10.5024367309
 30
0.0
 10
-4.3890732635
 20
10.4997317831
 30
0.0
 10
-4.3889677522
 20
10.4976765586
 30
0.0
 10
-4.3890984237
 20
10.4956223044
 30
0.0
 10
-4.3894707901
 20
10.4935982988
 30
0.0
 10
-4.3900529714
 20
10.4916258611
 30
0.0
 10
-4.3908202133
 20
10.4897187947
 30
0.0
 10
-4.3917403456
 20
10.4878822072
 30
0.0
 10
-4.3931294624
 20
10.4855242325
 30
0.0
 10
-4.3943222962
 20
10.4838501985
 30
0.0
 10
-4.3951603622
 20
10.4827702543
 30
0.0
  0
SPLINE
  5
284
100
AcDbEntity
  8
0
100
AcDbSpline
 62
7
  6
CONTINUOUS
 70
0
 71
3
 72
37
 73
33
 74
0
 42
0.0000001
 43
0.0000001
 44
0.0000000001
 40
0.0
 40
0.0
 40
0.0
 40
0.0
 40
0.1249521327
 40
0.1874639101
 40
0.2499708697
 40
0.3124752553
 40
0.3749740664
 40
0.437468923
 40
0.499960343
 40
0.5624485423
 40
0.6249337429
 40
0.6561810738
 40
0.6874278753
 40
0.7186742096
 40
0.7499201572
 40
0.7811655776
 40
0.8124101398
 40
0.843652654
 40
0.859277533
 40
0.8749028921
 40
0.8905287048
 40
0.9061569794
 40
0.9217879971
 40
0.9296100007
 40
0.9374376955
 40
0.9452619315
 40
0.953086019
 40
0.9609131585
 40
0.968732575
 40
0.9765535762
 40
0.9843734313
 40
1.0
 40
1.0
 40
1.0
 40
1.0
 10
-4.8258467971
 20
10.6335544215
 30
0.0
 10
-4.815700631
 20
10.63762042
 30
0.0
 10
-4.8000131963
 20
10.6426421037
 30
0.0
 10
-4.7785883024
 20
10.6470758566
 30
0.0
 10
-4.7623160991
 20
10.6492655731
 30
0.0
 10
-4.7459329212
 20
10.6503064727
 30
0.0
 10
-4.7295176784
 20
10.6501917771
 30
0.0
 10
-4.7131526761
 20
10.6489180537
 30
0.0
 10
-4.6969201901
 20
10.6464838771
 30
0.0
 10
-4.6809058057
 20
10.6428885061
 30
0.0
 10
-4.667814061
 20
10.638920744
 30
0.0
 10
-4.6575469091
 20
10.6351571927
 30
0.0
 10
-4.6499621649
 20
10.6320342991
 30
0.0
 10
-4.6425112518
 20
10.6286043369
 30
0.0
 10
-4.635215578
 20
10.6248549956
 30
0.0
 10
-4.6281044985
 20
10.6207650494
 30
0.0
 10
-4.6212239901
 20
10.6162974416
 30
0.0
 10
-4.6157442712
 20
10.6122022877
 30
0.0
 10
-4.6115975914
 20
10.6086365503
 30
0.0
 10
-4.6086458032
 20
10.6057860098
 30
0.0
 10
-4.6059154664
 20
10.6027190918
 30
0.0
 10
-4.6035110961
 20
10.5993851153
 30
0.0
 10
-4.6019282189
 20
10.5963329452
 30
0.0
 10
-4.6010441409
 20
10.593738121
 30
0.0
 10
-4.6006017922
 20
10.5917282931
 30
0.0
 10
-4.6003925656
 20
10.589680548
 30
0.0
 10
-4.6004267161
 20
10.5876228579
 30
0.0
 10
-4.6006763073
 20
10.5855814981
 30
0.0
 10
-4.6011191953
 20
10.5835741583
 30
0.0
 10
-4.6017244888
 20
10.5816111716
 30
0.0
 10
-4.6027065535
 20
10.5790567167
 30
0.0
 10
-4.6036075846
 20
10.5772091817
 30
0.0
 10
-4.6042564692
 20
10.5760060263
 30
0.0
  0
SPLINE
  5
285
100
AcDbEntity
  8
0
100
AcDbSpline
 62
7
  6
CONTINUOUS
 70
0
 71
3
 72
24
 73
20
 74
0
 42
0.0000001
 43
0.0000001
 44
0.0000000001
 40
0.0
 40
0.0
 40
0.0
 40
0.0
 40
0.1250061932
 40
0.2500009587
 40
0.3749806892
 40
0.4999455588
 40
0.5624529877
 40
0.6249580426
 40
0.6874608193
 40
0.7499612016
 40
0.8124582648
 40
0.8437119612
 40
0.874965209
 40
0.9062175156
 40
0.9374686525
 40
0.9530975115
 40
0.9687270294
 40
0.9843688647
 40
1.0
 40
1.0
 40
1.0
 40
1.0
 10
25.948397721
 20
10.0905099874
 30
0.0
 10
25.947450987
 20
10.0812160893
 30
0.0
 10
25.9444290032
 20
10.0627247387
 30
0.0
 10
25.9366050472
 20
10.0357486889
 30
0.0
 10
25.9256049776
 20
10.0099054485
 30
0.0
 10
25.9139050284
 20
9.9896253787
 30
0.0
 10
25.9031170646
 20
9.9743616349
 30
0.0
 10
25.8943265787
 20
9.963435839
 30
0.0
 10
25.8848579296
 20
9.9530926003
 30
0.0
 10
25.8747242134
 20
9.9434001895
 30
0.0
 10
25.8657239226
 20
9.935940969
 30
0.0
 10
25.8581767459
 20
9.930431242
 30
0.0
 10
25.8523294969
 20
9.9265648182
 30
0.0
 10
25.8462781667
 20
9.9230255277
 30
0.0
 10
25.8410364329
 20
9.9204345574
 30
0.0
 10
25.8367003048
 20
9.9186903584
 30
0.0
 10
25.8333678334
 20
9.917593574
 30
0.0
 10
25.8299521487
 20
9.9167854797
 30
0.0
 10
25.8276233324
 20
9.9165070267
 30
0.0
 10
25.8264562712
 20
9.916456606
 30
0.0
  0
SPLINE
  5
286
100
AcDbEntity
  8
0
100
AcDbSpline
 62
7
  6
CONTINUOUS
 70
0
 71
3
 72
17
 73
13
 74
0
 42
0.0000001
 43
0.0000001
 44
0.0000000001
 40
0.0
 40
0.0
 40
0.0
 40
0.0
 40
0.1137197046
 40
0.2372447541
 40
0.3676396662
 40
0.5018735348
 40
0.6365102473
 40
0.7676310321
 40
0.8305153226
 40
0.8907842391
 40
0.9476548643
 40
1.0
 40
1.0
 40
1.0
 40
1.0
 10
-5.0539732459
 20
10.6537932373
 30
0.0
 10
-5.0574065455
 20
10.6505404247
 30
0.0
 10
-5.0641796165
 20
10.6433402168
 30
0.0
 10
-5.0737365475
 20
10.631392902
 30
0.0
 10
-5.0831057387
 20
10.6182398759
 30
0.0
 10
-5.0922586406
 20
10.6043831893
 30
0.0
 10
-5.1011944033
 20
10.5903516231
 30
0.0
 10
-5.10855445
 20
10.5788340441
 30
0.0
 10
-5.1143989327
 20
10.5700203232
 30
0.0
 10
-5.1186438812
 20
10.5638523095
 30
0.0
 10
-5.1227770233
 20
10.5581415488
 30
0.0
 10
-5.1255524476
 20
10.5545445307
 30
0.0
 10
-5.1269162761
 20
10.5528476867
 30
0.0
  0
SPLINE
  5
287
100
AcDbEntity
  8
0
100
AcDbSpline
 62
7
  6
CONTINUOUS
 70
0
 71
3
 72
17
 73
13
 74
0
 42
0.0000001
 43
0.0000001
 44
0.0000000001
 40
0.0
 40
0.0
 40
0.0
 40
0.0
 40
0.0523241208
 40
0.1091837592
 40
0.1694485424
 40
0.2323323419
 40
0.3634593802
 40
0.498107277
 40
0.6323553078
 40
0.7627585408
 40
0.8862843854
 40
1.0
 40
1.0
 40
1.0
 40
1.0
 10
-5.3376084222
 20
10.5246419767
 30
0.0
 10
-5.3365421701
 20
10.5265411141
 30
0.0
 10
-5.3343958366
 20
10.5305483618
 30
0.0
 10
-5.3312577475
 20
10.5368659551
 30
0.0
 10
-5.3280843481
 20
10.5436541689
 30
0.0
 10
-5.3237679089
 20
10.5533185922
 30
0.0
 10
-5.3184009087
 20
10.5659026941
 30
0.0
 10
-5.311892432
 20
10.5812288292
 30
0.0
 10
-5.3051402091
 20
10.5964179758
 30
0.0
 10
-5.2980577034
 20
10.6109472836
 30
0.0
 10
-5.2905902157
 20
10.6243158421
 30
0.0
 10
-5.2850881568
 20
10.6325384381
 30
0.0
 10
-5.2822334237
 20
10.6363140902
 30
0.0
  0
SPLINE
  5
288
100
AcDbEntity
  8
0
100
AcDbSpline
 62
7
  6
CONTINUOUS
 70
0
 71
3
 72
17
 73
13
 74
0
 42
0.0000001
 43
0.0000001
 44
0.0000000001
 40
0.0
 40
0.0
 40
0.0
 40
0.0
 40
0.0523241208
 40
0.1091837591
 40
0.1694485421
 40
0.2323323415
 40
0.3634593781
 40
0.4981072726
 40
0.6323553048
 40
0.7627585389
 40
0.8862843844
 40
1.0
 40
1.0
 40
1.0
 40
1.0
 10
-5.5407427924
 20
10.462186197
 30
0.0
 10
-5.5400036673
 20
10.464234931
 30
0.0
 10
-5.538546172
 20
10.4685407978
 30
0.0
 10
-5.5364907141
 20
10.4752887368
 30
0.0
 10
-5.5344778884
 20
10.4825066896
 30
0.0
 10
-5.5318110166
 20
10.4927497613
 30
0.0
 10
-5.5285884709
 20
10.5060456067
 30
0.0
 10
-5.5246913364
 20
10.5222339675
 30
0.0
 10
-5.5205312328
 20
10.5383273272
 30
0.0
 10
-5.5159367459
 20
10.5538242097
 30
0.0
 10
-5.5107714761
 20
10.5682395392
 30
0.0
 10
-5.5066978398
 20
10.5772555929
 30
0.0
 10
-5.5045034872
 20
10.5814496204
 30
0.0
  0
SPLINE
  5
289
100
AcDbEntity
  8
0
100
AcDbSpline
 62
7
  6
CONTINUOUS
 70
0
 71
3
 72
17
 73
13
 74
0
 42
0.0000001
 43
0.0000001
 44
0.0000000001
 40
0.0
 40
0.0
 40
0.0
 40
0.0
 40
0.0523241208
 40
0.1091837591
 40
0.1694485421
 40
0.2323323415
 40
0.3634593781
 40
0.4981072726
 40
0.6323553048
 40
0.7627585389
 40
0.8862843844
 40
1.0
 40
1.0
 40
1.0
 40
1.0
 10
-5.7308269308
 20
10.3671476937
 30
0.0
 10
-5.7304350937
 20
10.3692901411
 30
0.0
 10
-5.7297061926
 20
10.3737771762
 30
0.0
 10
-5.7287894324
 20
10.380771398
 30
0.0
 10
-5.727992084
 20
10.3882222065
 30
0.0
 10
-5.7270475236
 20
10.3987645273
 30
0.0
 10
-5.7260573334
 20
10.4124094468
 30
0.0
 10
-5.724877843
 20
10.429018465
 30
0.0
 10
-5.7234233333
 20
10.4455770607
 30
0.0
 10
-5.7214421887
 20
10.4616188106
 30
0.0
 10
-5.7187200296
 20
10.4766877053
 30
0.0
 10
-5.7161859319
 20
10.4862512866
 30
0.0
 10
-5.7147118151
 20
10.4907492894
 30
0.0
  0
SPLINE
  5
28A
100
AcDbEntity
  8
0
100
AcDbSpline
 62
7
  6
CONTINUOUS
 70
0
 71
3
 72
17
 73
13
 74
0
 42
0.0000001
 43
0.0000001
 44
0.0000000001
 40
0.0
 40
0.0
 40
0.0
 40
0.0
 40
0.0523241208
 40
0.1091837591
 40
0.1694485421
 40
0.2323323415
 40
0.3634593781
 40
0.4981072726
 40
0.6323553048
 40
0.7627585389
 40
0.8862843844
 40
1.0
 40
1.0
 40
1.0
 40
1.0
 10
-5.9026759295
 20
10.2421188235
 30
0.0
 10
-5.9026420687
 20
10.2442965448
 30
0.0
 10
-5.9026616438
 20
10.2488423559
 30
0.0
 10
-5.9029085877
 20
10.2558920798
 30
0.0
 10
-5.9033484659
 20
10.2633725087
 30
0.0
 10
-5.9041519815
 20
10.2739265168
 30
0.0
 10
-5.9054211561
 20
10.2875483192
 30
0.0
 10
-5.9069914826
 20
10.3041249521
 30
0.0
 10
-5.9082822415
 20
10.3206971164
 30
0.0
 10
-5.9089684786
 20
10.3368461645
 30
0.0
 10
-5.9087636823
 20
10.3521575914
 30
0.0
 10
-5.9078382456
 20
10.3620078353
 30
0.0
 10
-5.9071245739
 20
10.3666871219
 30
0.0
  0
SPLINE
  5
28B
100
AcDbEntity
  8
0
100
AcDbSpline
 62
7
  6
CONTINUOUS
 70
0
 71
3
 72
17
 73
13
 74
0
 42
0.0000001
 43
0.0000001
 44
0.0000000001
 40
0.0
 40
0.0
 40
0.0
 40
0.0
 40
0.0523241208
 40
0.1091837591
 40
0.1694485421
 40
0.2323323415
 40
0.3634593781
 40
0.4981072726
 40
0.6323553048
 40
0.7627585389
 40
0.8862843844
 40
1.0
 40
1.0
 40
1.0
 40
1.0
 10
-6.051602279
 20
10.0905099874
 30
0.0
 10
-6.051927318
 20
10.0926635812
 30
0.0
 10
-6.0526948355
 20
10.0971441726
 30
0.0
 10
-6.0540987476
 20
10.1040571038
 30
0.0
 10
-6.0557638539
 20
10.1113631104
 30
0.0
 10
-6.0582935281
 20
10.1216409249
 30
0.0
 10
-6.0617874484
 20
10.1348680496
 30
0.0
 10
-6.0660647581
 20
10.1509601378
 30
0.0
 10
-6.0700655776
 20
10.1670938334
 30
0.0
 10
-6.073400478
 20
10.1829096835
 30
0.0
 10
-6.0757186307
 20
10.1980459942
 30
0.0
 10
-6.0764270981
 20
10.2079142166
 30
0.0
 10
-6.0764933383
 20
10.2126471504
 30
0.0
  0
SPLINE
  5
28C
100
AcDbEntity
  8
0
100
AcDbSpline
 62
7
  6
CONTINUOUS
 70
0
 71
3
 72
17
 73
13
 74
0
 42
0.0000001
 43
0.0000001
 44
0.0000000001
 40
0.0
 40
0.0
 40
0.0
 40
0.0
 40
0.0523241208
 40
0.1091837591
 40
0.1694485421
 40
0.2323323415
 40
0.3634593781
 40
0.4981072726
 40
0.6323553048
 40
0.7627585389
 40
0.8862843844
 40
1.0
 40
1.0
 40
1.0
 40
1.0
 10
-6.1735437288
 20
9.916456606
 30
0.0
 10
-6.1742188015
 20
9.9185273289
 30
0.0
 10
-6.1757133259
 20
9.9228204838
 30
0.0
 10
-6.1782359119
 20
9.929408059
 30
0.0
 10
-6.1810808273
 20
9.9363403579
 30
0.0
 10
-6.1852676584
 20
9.9460616319
 30
0.0
 10
-6.190891021
 20
9.9585332837
 30
0.0
 10
-6.1977586422
 20
9.9737018849
 30
0.0
 10
-6.2043603923
 20
9.9889570343
 30
0.0
 10
-6.2102529903
 20
10.0040082789
 30
0.0
 10
-6.2150308598
 20
10.0185566018
 30
0.0
 10
-6.2173539066
 20
10.0281736279
 30
0.0
 10
-6.2181982517
 20
10.0328311092
 30
0.0
  0
SPLINE
  5
28D
100
AcDbEntity
  8
0
100
AcDbSpline
 62
7
  6
CONTINUOUS
 70
0
 71
3
 72
17
 73
13
 74
0
 42
0.0000001
 43
0.0000001
 44
0.0000000001
 40
0.0
 40
0.0
 40
0.0
 40
0.0
 40
0.0523241208
 40
0.1091837591
 40
0.1694485421
 40
0.2323323415
 40
0.3634593781
 40
0.4981072726
 40
0.6323553048
 40
0.7627585389
 40
0.8862843844
 40
1.0
 40
1.0
 40
1.0
 40
1.0
 10
-6.265174093
 20
9.7247063175
 30
0.0
 10
-6.2661807856
 20
9.7266376867
 30
0.0
 10
-6.2683615507
 20
9.7306263011
 30
0.0
 10
-6.2719340023
 20
9.7367088316
 30
0.0
 10
-6.2758811262
 20
9.7430783311
 30
0.0
 10
-6.2816109105
 20
9.7519778982
 30
0.0
 10
-6.2892103274
 20
9.7633538891
 30
0.0
 10
-6.2984809326
 20
9.7771852506
 30
0.0
 10
-6.307503538
 20
9.7911457406
 30
0.0
 10
-6.3157931016
 20
9.8050218283
 30
0.0
 10
-6.3229003626
 20
9.81858533
 30
0.0
 10
-6.3267746231
 20
9.8276888372
 30
0.0
 10
-6.3283740422
 20
9.8321438242
 30
0.0
  0
SPLINE
  5
28E
100
AcDbEntity
  8
0
100
AcDbSpline
 62
7
  6
CONTINUOUS
 70
0
 71
3
 72
17
 73
13
 74
0
 42
0.0000001
 43
0.0000001
 44
0.0000000001
 40
0.0
 40
0.0
 40
0.0
 40
0.0
 40
0.0523241208
 40
0.1091837591
 40
0.1694485421
 40
0.2323323415
 40
0.3634593781
 40
0.4981072726
 40
0.6323553048
 40
0.7627585389
 40
0.8862843844
 40
1.0
 40
1.0
 40
1.0
 40
1.0
 10
-6.3239939784
 20
9.5204894773
 30
0.0
 10
-6.3253048314
 20
9.5222288109
 30
0.0
 10
-6.3281123528
 20
9.5258040877
 30
0.0
 10
-6.3326372245
 20
9.5312156609
 30
0.0
 10
-6.3375788917
 20
9.5368486207
 30
0.0
 10
-6.3446953382
 20
9.5446837283
 30
0.0
 10
-6.3540635209
 20
9.5546537564
 30
0.0
 10
-6.3654842366
 20
9.5667706015
 30
0.0
 10
-6.3766815885
 20
9.579055633
 30
0.0
 10
-6.3871420042
 20
9.591378067
 30
0.0
 10
-6.3963847924
 20
9.6035867771
 30
0.0
 10
-6.4017045888
 20
9.6119284498
 30
0.0
 10
-6.4040154546
 20
9.6160594243
 30
0.0
  0
SPLINE
  5
28F
100
AcDbEntity
  8
0
100
AcDbSpline
 62
7
  6
CONTINUOUS
 70
0
 71
3
 72
17
 73
13
 74
0
 42
0.0000001
 43
0.0000001
 44
0.0000000001
 40
0.0
 40
0.0
 40
0.0
 40
0.0
 40
0.0523241208
 40
0.1091837591
 40
0.1694485421
 40
0.2323323415
 40
0.3634593781
 40
0.4981072726
 40
0.6323553048
 40
0.7627585389
 40
0.8862843844
 40
1.0
 40
1.0
 40
1.0
 40
1.0
 10
-6.3483989604
 20
9.3093764895
 30
0.0
 10
-6.3499782177
 20
9.3108763438
 30
0.0
 10
-6.353335915
 20
9.3139407607
 30
0.0
 10
-6.3586897822
 20
9.3185337656
 30
0.0
 10
-6.3644911992
 20
9.323276536
 30
0.0
 10
-6.3728001934
 20
9.3298334665
 30
0.0
 10
-6.3836816068
 20
9.3381255802
 30
0.0
 10
-6.3969409112
 20
9.3481973988
 30
0.0
 10
-6.4100075804
 20
9.3584718742
 30
0.0
 10
-6.4223535203
 20
9.3689045365
 30
0.0
 10
-6.4334797211
 20
9.3794254391
 30
0.0
 10
-6.4400999459
 20
9.3867777423
 30
0.0
 10
-6.443059225
 20
9.390472024
 30
0.0
  0
SPLINE
  5
290
100
AcDbEntity
  8
0
100
AcDbSpline
 62
7
  6
CONTINUOUS
 70
0
 71
3
 72
17
 73
13
 74
0
 42
0.0000001
 43
0.0000001
 44
0.0000000001
 40
0.0
 40
0.0
 40
0.0
 40
0.0
 40
0.0523241208
 40
0.1091837591
 40
0.1694485421
 40
0.2323323415
 40
0.3634593781
 40
0.4981072726
 40
0.6323553048
 40
0.7627585389
 40
0.8862843844
 40
1.0
 40
1.0
 40
1.0
 40
1.0
 10
-6.3377233465
 20
9.097125864
 30
0.0
 10
-6.3395279309
 20
9.0983453277
 30
0.0
 10
-6.3433442164
 20
9.1008152967
 30
0.0
 10
-6.3493810422
 20
9.1044644503
 30
0.0
 10
-6.3558839643
 20
9.1081876632
 30
0.0
 10
-6.3651588625
 20
9.1132875639
 30
0.0
 10
-6.3772566953
 20
9.1196755799
 30
0.0
 10
-6.3919929154
 20
9.1274276439
 30
0.0
 10
-6.4065724837
 20
9.1354113072
 30
0.0
 10
-6.4204671887
 20
9.1436696272
 30
0.0
 10
-6.4331733137
 20
9.1522157446
 30
0.0
 10
-6.4409133875
 20
9.1583781301
 30
0.0
 10
-6.4444403601
 20
9.1615349505
 30
0.0
  0
SPLINE
  5
291
100
AcDbEntity
  8
0
100
AcDbSpline
 62
7
  6
CONTINUOUS
 70
0
 71
3
 72
17
 73
13
 74
0
 42
0.0000001
 43
0.0000001
 44
0.0000000001
 40
0.0
 40
0.0
 40
0.0
 40
0.0
 40
0.0523241208
 40
0.1091837591
 40
0.1694485421
 40
0.2323323415
 40
0.3634593781
 40
0.4981072726
 40
0.6323553048
 40
0.7627585389
 40
0.8862843844
 40
1.0
 40
1.0
 40
1.0
 40
1.0
 10
-6.2922583344
 20
8.8895271418
 30
0.0
 10
-6.2942390224
 20
8.8904329518
 30
0.0
 10
-6.2984097996
 20
8.8922410998
 30
0.0
 10
-6.3049649181
 20
8.8948468644
 30
0.0
 10
-6.3119919658
 20
8.8974489621
 30
0.0
 10
-6.3219797773
 20
8.9009527234
 30
0.0
 10
-6.3349640379
 20
8.9052623964
 30
0.0
 10
-6.3507752154
 20
8.9104832536
 30
0.0
 10
-6.3664699971
 20
8.9159583351
 30
0.0
 10
-6.3815344626
 20
8.9218170512
 30
0.0
 10
-6.395473928
 20
8.9281552717
 30
0.0
 10
-6.4041227255
 20
8.9329596488
 30
0.0
 10
-6.4081211867
 20
8.9354928995
 30
0.0
  0
SPLINE
  5
292
100
AcDbEntity
  8
0
100
AcDbSpline
 62
7
  6
CONTINUOUS
 70
0
 71
3
 72
17
 73
13
 74
0
 42
0.0000001
 43
0.0000001
 44
0.0000000001
 40
0.0
 40
0.0
 40
0.0
 40
0.0
 40
0.0523241208
 40
0.1091837591
 40
0.1694485421
 40
0.2323323415
 40
0.3634593781
 40
0.4981072726
 40
0.6323553048
 40
0.7627585389
 40
0.8862843844
 40
1.0
 40
1.0
 40
1.0
 40
1.0
 10
-6.2132440692
 20
8.6922429746
 30
0.0
 10
-6.2153468338
 20
8.692810423
 30
0.0
 10
-6.2197583368
 20
8.6939074294
 30
0.0
 10
-6.2266529446
 20
8.6953987278
 30
0.0
 10
-6.2340124415
 20
8.6968087331
 30
0.0
 10
-6.2444407299
 20
8.6986207832
 30
0.0
 10
-6.2579572479
 20
8.7007345588
 30
0.0
 10
-6.2744121026
 20
8.7032818001
 30
0.0
 10
-6.2907939925
 20
8.7060989566
 30
0.0
 10
-6.3066173065
 20
8.7093982611
 30
0.0
 10
-6.3214098868
 20
8.7133556978
 30
0.0
 10
-6.3307314956
 20
8.7166710178
 30
0.0
 10
-6.3350923796
 20
8.7185115996
 30
0.0
  0
SPLINE
  5
293
100
AcDbEntity
  8
0
100
AcDbSpline
 62
7
  6
CONTINUOUS
 70
0
 71
3
 72
17
 73
13
 74
0
 42
0.0000001
 43
0.0000001
 44
0.0000000001
 40
0.0
 40
0.0
 40
0.0
 40
0.0
 40
0.0523241208
 40
0.1091837591
 40
0.1694485421
 40
0.2323323415
 40
0.3634593781
 40
0.4981072726
 40
0.6323553048
 40
0.7627585389
 40
0.8862843844
 40
1.0
 40
1.0
 40
1.0
 40
1.0
 10
-6.1028358157
 20
8.5106546645
 30
0.0
 10
-6.1050033
 20
8.5108682732
 30
0.0
 10
-6.1095351966
 20
8.511224215
 30
0.0
 10
-6.1165812301
 20
8.5115603693
 30
0.0
 10
-6.1240724321
 20
8.5117398215
 30
0.0
 10
-6.1346567457
 20
8.5118107334
 30
0.0
 10
-6.1483368323
 20
8.5116709542
 30
0.0
 10
-6.1649865266
 20
8.5114750988
 30
0.0
 10
-6.1816086776
 20
8.5115574869
 30
0.0
 10
-6.1977592289
 20
8.5122073851
 30
0.0
 10
-6.2130014281
 20
8.5136760912
 30
0.0
 10
-6.2227415836
 20
8.5154119226
 30
0.0
 10
-6.227345939
 20
8.5165096301
 30
0.0
  0
SPLINE
  5
294
100
AcDbEntity
  8
0
100
AcDbSpline
 62
7
  6
CONTINUOUS
 70
0
 71
3
 72
17
 73
13
 74
0
 42
0.0000001
 43
0.0000001
 44
0.0000000001
 40
0.0
 40
0.0
 40
0.0
 40
0.0
 40
0.0523241208
 40
0.1091837591
 40
0.1694485421
 40
0.2323323415
 40
0.3634593781
 40
0.4981072726
 40
0.6323553048
 40
0.7627585389
 40
0.8862843844
 40
1.0
 40
1.0
 40
1.0
 40
1.0
 10
-5.96404517
 20
8.3497153796
 30
0.0
 10
-5.9662182517
 20
8.349569322
 30
0.0
 10
-5.9707469258
 20
8.3491744902
 30
0.0
 10
-5.977752191
 20
8.3483463311
 30
0.0
 10
-5.9851707612
 20
8.3472903354
 30
0.0
 10
-5.9956223927
 20
8.3456181747
 30
0.0
 10
-6.0090928973
 20
8.3432286534
 30
0.0
 10
-6.0254832791
 20
8.3402950438
 30
0.0
 10
-6.0418922901
 20
8.3376404162
 30
0.0
 10
-6.0579295417
 20
8.3356231808
 30
0.0
 10
-6.0732055998
 20
8.3345630946
 30
0.0
 10
-6.0830986205
 20
8.3346720891
 30
0.0
 10
-6.0878208547
 20
8.3349969803
 30
0.0
  0
SPLINE
  5
295
100
AcDbEntity
  8
0
100
AcDbSpline
 62
7
  6
CONTINUOUS
 70
0
 71
3
 72
17
 73
13
 74
0
 42
0.0000001
 43
0.0000001
 44
0.0000000001
 40
0.0
 40
0.0
 40
0.0
 40
0.0
 40
0.0523241208
 40
0.1091837591
 40
0.1694485421
 40
0.2323323415
 40
0.3634593781
 40
0.4981072726
 40
0.6323553048
 40
0.7627585389
 40
0.8862843844
 40
1.0
 40
1.0
 40
1.0
 40
1.0
 10
-5.8006579119
 20
8.2138150462
 30
0.0
 10
-5.802777316
 20
8.2133133062
 30
0.0
 10
-5.8071792394
 20
8.2121784705
 30
0.0
 10
-5.8139526543
 20
8.2102085877
 30
0.0
 10
-5.821096237
 20
8.2079459483
 30
0.0
 10
-5.8311300982
 20
8.2045763265
 30
0.0
 10
-5.8440235871
 20
8.2000022419
 30
0.0
 10
-5.8597075775
 20
8.1944108978
 30
0.0
 10
-5.8754558614
 20
8.1890916646
 30
0.0
 10
-5.8909423665
 20
8.1844623196
 30
0.0
 10
-5.9058355999
 20
8.1809023569
 30
0.0
 10
-5.9156116348
 20
8.1793815415
 30
0.0
 10
-5.92032294
 20
8.1789247543
 30
0.0
  0
SPLINE
  5
296
100
AcDbEntity
  8
0
100
AcDbSpline
 62
7
  6
CONTINUOUS
 70
0
 71
3
 72
17
 73
13
 74
0
 42
0.0000001
 43
0.0000001
 44
0.0000000001
 40
0.0
 40
0.0
 40
0.0
 40
0.0
 40
0.0523241208
 40
0.1091837591
 40
0.1694485421
 40
0.2323323415
 40
0.3634593781
 40
0.4981072726
 40
0.6323553048
 40
0.7627585389
 40
0.8862843844
 40
1.0
 40
1.0
 40
1.0
 40
1.0
 10
-5.6171307408
 20
8.1066606051
 30
0.0
 10
-5.6191386565
 20
8.1058168687
 30
0.0
 10
-5.6232937583
 20
8.1039729841
 30
0.0
 10
-5.6296505651
 20
8.1009151098
 30
0.0
 10
-5.6363243054
 20
8.0975075446
 30
0.0
 10
-5.6456667037
 20
8.0925323745
 30
0.0
 10
-5.6576314824
 20
8.0858984936
 30
0.0
 10
-5.6721812704
 20
8.0778019295
 30
0.0
 10
-5.6868392628
 20
8.0699631829
 30
0.0
 10
-5.7013525975
 20
8.0628480025
 30
0.0
 10
-5.7154567648
 20
8.0568852681
 30
0.0
 10
-5.7248491539
 20
8.053776126
 30
0.0
 10
-5.7294210201
 20
8.0525501202
 30
0.0
  0
SPLINE
  5
297
100
AcDbEntity
  8
0
100
AcDbSpline
 62
7
  6
CONTINUOUS
 70
0
 71
3
 72
17
 73
13
 74
0
 42
0.0000001
 43
0.0000001
 44
0.0000000001
 40
0.0
 40
0.0
 40
0.0
 40
0.0
 40
0.0523241208
 40
0.1091837591
 40
0.1694485421
 40
0.2323323415
 40
0.3634593781
 40
0.4981072726
 40
0.6323553048
 40
0.7627585389
 40
0.8862843844
 40
1.0
 40
1.0
 40
1.0
 40
1.0
 10
-5.4184697107
 20
8.0311748986
 30
0.0
 10
-5.4203113683
 20
8.0300121803
 30
0.0
 10
-5.4241063102
 20
8.0275095422
 30
0.0
 10
-5.4298731148
 20
8.0234470857
 30
0.0
 10
-5.4358949738
 20
8.0189875426
 30
0.0
 10
-5.4442910773
 20
8.0125425314
 30
0.0
 10
-5.4550007836
 20
8.0040298059
 30
0.0
 10
-5.4680194961
 20
7.9936488711
 30
0.0
 10
-5.4811873723
 20
7.9835044279
 30
0.0
 10
-5.4943316576
 20
7.9740974922
 30
0.0
 10
-5.5072620406
 20
7.9658946312
 30
0.0
 10
-5.5160145887
 20
7.9612819701
 30
0.0
 10
-5.5203223095
 20
7.9593201873
 30
0.0
  0
SPLINE
  5
298
100
AcDbEntity
  8
0
100
AcDbSpline
 62
7
  6
CONTINUOUS
 70
0
 71
3
 72
17
 73
13
 74
0
 42
0.0000001
 43
0.0000001
 44
0.0000000001
 40
0.0
 40
0.0
 40
0.0
 40
0.0
 40
0.0523241208
 40
0.1091837591
 40
0.1694485421
 40
0.2323323415
 40
0.3634593781
 40
0.4981072726
 40
0.6323553048
 40
0.7627585389
 40
0.8862843844
 40
1.0
 40
1.0
 40
1.0
 40
1.0
 10
-5.2100936806
 20
7.9894169433
 30
0.0
 10
-5.2117188454
 20
7.9879669585
 30
0.0
 10
-5.215050113
 20
7.984873831
 30
0.0
 10
-5.2200696149
 20
7.9799176037
 30
0.0
 10
-5.2252753348
 20
7.9745277252
 30
0.0
 10
-5.2324961238
 20
7.966788673
 30
0.0
 10
-5.2416586301
 20
7.9566293036
 30
0.0
 10
-5.2527911568
 20
7.944247158
 30
0.0
 10
-5.2641097377
 20
7.9320737272
 30
0.0
 10
-5.2755264382
 20
7.9206316284
 30
0.0
 10
-5.2869303361
 20
7.9104123894
 30
0.0
 10
-5.2948043005
 20
7.9044220286
 30
0.0
 10
-5.2987303747
 20
7.9017779801
 30
0.0
  0
SPLINE
  5
299
100
AcDbEntity
  8
0
100
AcDbSpline
 62
7
  6
CONTINUOUS
 70
0
 71
3
 72
17
 73
13
 74
0
 42
0.0000001
 43
0.0000001
 44
0.0000000001
 40
0.0
 40
0.0
 40
0.0
 40
0.0
 40
0.0523241208
 40
0.1091837591
 40
0.1694485421
 40
0.2323323415
 40
0.3634593781
 40
0.4981072726
 40
0.6323553048
 40
0.7627585389
 40
0.8862843844
 40
1.0
 40
1.0
 40
1.0
 40
1.0
 10
-4.9976865045
 20
7.9825257672
 30
0.0
 10
-4.999050847
 20
7.9808280669
 30
0.0
 10
-5.0018275738
 20
7.9772288212
 30
0.0
 10
-5.0059628563
 20
7.9715140136
 30
0.0
 10
-5.0102104413
 20
7.9653408189
 30
0.0
 10
-5.016058955
 20
7.956518823
 30
0.0
 10
-5.0234243363
 20
7.9449899261
 30
0.0
 10
-5.0323670163
 20
7.9309443163
 30
0.0
 10
-5.041527566
 20
7.9170739515
 30
0.0
 10
-5.0509052694
 20
7.9039087946
 30
0.0
 10
-5.0604716191
 20
7.8919519268
 30
0.0
 10
-5.0672522225
 20
7.8847472648
 30
0.0
 10
-5.0706895589
 20
7.8814930722
 30
0.0
  0
SPLINE
  5
29A
100
AcDbEntity
  8
0
100
AcDbSpline
 62
7
  6
CONTINUOUS
 70
0
 71
3
 72
17
 73
13
 74
0
 42
0.0000001
 43
0.0000001
 44
0.0000000001
 40
0.0
 40
0.0
 40
0.0
 40
0.0
 40
0.0523241208
 40
0.1091837591
 40
0.1694485421
 40
0.2323323415
 40
0.3634593781
 40
0.4981072726
 40
0.6323553048
 40
0.7627585389
 40
0.8862843844
 40
1.0
 40
1.0
 40
1.0
 40
1.0
 10
-4.7870419937
 20
8.0106893403
 30
0.0
 10
-4.7881082989
 20
8.0087902326
 30
0.0
 10
-4.7902547442
 20
8.0047830448
 30
0.0
 10
-4.7933930098
 20
7.9984655392
 30
0.0
 10
-4.7965665988
 20
7.991677414
 30
0.0
 10
-4.8008833077
 20
7.9820131113
 30
0.0
 10
-4.8062506593
 20
7.9694291595
 30
0.0
 10
-4.8127595639
 20
7.9541032063
 30
0.0
 10
-4.819512211
 20
7.9389142482
 30
0.0
 10
-4.8265951225
 20
7.9243851381
 30
0.0
 10
-4.8340629836
 20
7.9110167879
 30
0.0
 10
-4.8395652721
 20
7.9027943455
 30
0.0
 10
-4.8424201107
 20
7.8990187731
 30
0.0
  0
SPLINE
  5
29B
100
AcDbEntity
  8
0
100
AcDbSpline
 62
7
  6
CONTINUOUS
 70
0
 71
3
 72
17
 73
13
 74
0
 42
0.0000001
 43
0.0000001
 44
0.0000000001
 40
0.0
 40
0.0
 40
0.0
 40
0.0
 40
0.0523241208
 40
0.1091837591
 40
0.1694485421
 40
0.2323323415
 40
0.3634593781
 40
0.4981072726
 40
0.6323553048
 40
0.7627585389
 40
0.8862843844
 40
1.0
 40
1.0
 40
1.0
 40
1.0
 10
-4.5839058795
 20
8.0731394473
 30
0.0
 10
-4.5846450618
 20
8.071090734
 30
0.0
 10
-4.5861026774
 20
8.0667849079
 30
0.0
 10
-4.5881583237
 20
8.0600370263
 30
0.0
 10
-4.590171351
 20
8.0528191297
 30
0.0
 10
-4.5928385088
 20
8.0425761324
 30
0.0
 10
-4.5960614258
 20
8.029280377
 30
0.0
 10
-4.5999590123
 20
8.0130921251
 30
0.0
 10
-4.6041195654
 20
7.9969988815
 30
0.0
 10
-4.6087144851
 20
7.9815021274
 30
0.0
 10
-4.6138801573
 20
7.9670869422
 30
0.0
 10
-4.6179540455
 20
7.9580710022
 30
0.0
 10
-4.6201485152
 20
7.9538770359
 30
0.0
  0
SPLINE
  5
29C
100
AcDbEntity
  8
0
100
AcDbSpline
 62
7
  6
CONTINUOUS
 70
0
 71
3
 72
17
 73
13
 74
0
 42
0.0000001
 43
0.0000001
 44
0.0000000001
 40
0.0
 40
0.0
 40
0.0
 40
0.0
 40
0.0523241208
 40
0.1091837591
 40
0.1694485421
 40
0.2323323415
 40
0.3634593781
 40
0.4981072726
 40
0.6323553048
 40
0.7627585389
 40
0.8862843844
 40
1.0
 40
1.0
 40
1.0
 40
1.0
 10
-4.3938190872
 20
8.1681726424
 30
0.0
 10
-4.3942109841
 20
8.166030206
 30
0.0
 10
-4.3949400106
 20
8.1615431912
 30
0.0
 10
-4.3958569661
 20
8.154548995
 30
0.0
 10
-4.3966545225
 20
8.1470982088
 30
0.0
 10
-4.3975993773
 20
8.1365559144
 30
0.0
 10
-4.3985899486
 20
8.1229110225
 30
0.0
 10
-4.3997699028
 20
8.1063020373
 30
0.0
 10
-4.4012248748
 20
8.0897434822
 30
0.0
 10
-4.4032064675
 20
8.0737017876
 30
0.0
 10
-4.4059290473
 20
8.058632969
 30
0.0
 10
-4.4084634121
 20
8.0490694585
 30
0.0
 10
-4.4099376545
 20
8.0445714968
 30
0.0
  0
SPLINE
  5
29D
100
AcDbEntity
  8
0
100
AcDbSpline
 62
7
  6
CONTINUOUS
 70
0
 71
3
 72
17
 73
13
 74
0
 42
0.0000001
 43
0.0000001
 44
0.0000000001
 40
0.0
 40
0.0
 40
0.0
 40
0.0
 40
0.0523241208
 40
0.1091837591
 40
0.1694485421
 40
0.2323323415
 40
0.3634593781
 40
0.4981072726
 40
0.6323553048
 40
0.7627585389
 40
0.8862843844
 40
1.0
 40
1.0
 40
1.0
 40
1.0
 10
-4.2219665971
 20
8.2931967137
 30
0.0
 10
-4.2220005188
 20
8.2910189933
 30
0.0
 10
-4.2219810706
 20
8.2864731817
 30
0.0
 10
-4.2217343235
 20
8.2794234509
 30
0.0
 10
-4.2212946542
 20
8.2719430096
 30
0.0
 10
-4.2204914333
 20
8.2613889792
 30
0.0
 10
-4.2192226391
 20
8.2477671413
 30
0.0
 10
-4.2176527755
 20
8.2311904646
 30
0.0
 10
-4.2163624794
 20
8.2146182642
 30
0.0
 10
-4.2156766933
 20
8.198469197
 30
0.0
 10
-4.2158819172
 20
8.1831577758
 30
0.0
 10
-4.2168076289
 20
8.1733075577
 30
0.0
 10
-4.2175214313
 20
8.168628291
 30
0.0
  0
SPLINE
  5
29E
100
AcDbEntity
  8
0
100
AcDbSpline
 62
7
  6
CONTINUOUS
 70
0
 71
3
 72
17
 73
13
 74
0
 42
0.0000001
 43
0.0000001
 44
0.0000000001
 40
0.0
 40
0.0
 40
0.0
 40
0.0
 40
0.0523241208
 40
0.1091837591
 40
0.1694485421
 40
0.2323323415
 40
0.3634593781
 40
0.4981072726
 40
0.6323553048
 40
0.7627585389
 40
0.8862843844
 40
1.0
 40
1.0
 40
1.0
 40
1.0
 10
-4.0730360139
 20
8.4448013909
 30
0.0
 10
-4.0727110351
 20
8.442647788
 30
0.0
 10
-4.0719436427
 20
8.4381671752
 30
0.0
 10
-4.0705399236
 20
8.4312542048
 30
0.0
 10
-4.0688750214
 20
8.4239481517
 30
0.0
 10
-4.0663456342
 20
8.4136702666
 30
0.0
 10
-4.0628520833
 20
8.4004430443
 30
0.0
 10
-4.0585752229
 20
8.3843508367
 30
0.0
 10
-4.054574854
 20
8.3682170294
 30
0.0
 10
-4.0512403952
 20
8.3524010861
 30
0.0
 10
-4.0489226653
 20
8.3372647106
 30
0.0
 10
-4.0482144734
 20
8.3273964685
 30
0.0
 10
-4.0481483654
 20
8.3226635328
 30
0.0
  0
SPLINE
  5
29F
100
AcDbEntity
  8
0
100
AcDbSpline
 62
7
  6
CONTINUOUS
 70
0
 71
3
 72
17
 73
13
 74
0
 42
0.0000001
 43
0.0000001
 44
0.0000000001
 40
0.0
 40
0.0
 40
0.0
 40
0.0
 40
0.0523241208
 40
0.1091837591
 40
0.1694485421
 40
0.2323323415
 40
0.3634593781
 40
0.4981072726
 40
0.6323553048
 40
0.7627585389
 40
0.8862843844
 40
1.0
 40
1.0
 40
1.0
 40
1.0
 10
-3.9510897037
 20
8.618851367
 30
0.0
 10
-3.9504146888
 20
8.6167806252
 30
0.0
 10
-3.9489202844
 20
8.6124874286
 30
0.0
 10
-3.9463978823
 20
8.6058997829
 30
0.0
 10
-3.9435531605
 20
8.5989674046
 30
0.0
 10
-3.9393666008
 20
8.5892460137
 30
0.0
 10
-3.9337435865
 20
8.5767742049
 30
0.0
 10
-3.9268763889
 20
8.5616054119
 30
0.0
 10
-3.9202750648
 20
8.5463500781
 30
0.0
 10
-3.9143828872
 20
8.5312986689
 30
0.0
 10
-3.9096054239
 20
8.5167502127
 30
0.0
 10
-3.9072826457
 20
8.5071331217
 30
0.0
 10
-3.9064384306
 20
8.5024756168
 30
0.0
  0
SPLINE
  5
2A0
100
AcDbEntity
  8
0
100
AcDbSpline
 62
7
  6
CONTINUOUS
 70
0
 71
3
 72
17
 73
13
 74
0
 42
0.0000001
 43
0.0000001
 44
0.0000000001
 40
0.0
 40
0.0
 40
0.0
 40
0.0
 40
0.0523241208
 40
0.1091837591
 40
0.1694485421
 40
0.2323323415
 40
0.3634593781
 40
0.4981072726
 40
0.6323553048
 40
0.7627585389
 40
0.8862843844
 40
1.0
 40
1.0
 40
1.0
 40
1.0
 10
-4.0217583594
 20
10.0246552824
 30
0.0
 10
-4.0195908811
 20
10.0244416132
 30
0.0
 10
-4.0150589944
 20
10.0240855449
 30
0.0
 10
-4.0080129703
 20
10.0237491938
 30
0.0
 10
-4.0005217733
 20
10.0235695324
 30
0.0
 10
-3.9899374617
 20
10.023498325
 30
0.0
 10
-3.9762573712
 20
10.0236377222
 30
0.0
 10
-3.9596076714
 20
10.0238331125
 30
0.0
 10
-3.9429855228
 20
10.0237502603
 30
0.0
 10
-3.9268349896
 20
10.0230999111
 30
0.0
 10
-3.9115928314
 20
10.0216307793
 30
0.0
 10
-3.9018527244
 20
10.019894676
 30
0.0
 10
-3.8972483997
 20
10.0187968399
 30
0.0
  0
SPLINE
  5
2A1
100
AcDbEntity
  8
0
100
AcDbSpline
 62
7
  6
CONTINUOUS
 70
0
 71
3
 72
17
 73
13
 74
0
 42
0.0000001
 43
0.0000001
 44
0.0000000001
 40
0.0
 40
0.0
 40
0.0
 40
0.0
 40
0.0523241208
 40
0.1091837591
 40
0.1694485421
 40
0.2323323415
 40
0.3634593781
 40
0.4981072726
 40
0.6323553048
 40
0.7627585389
 40
0.8862843844
 40
1.0
 40
1.0
 40
1.0
 40
1.0
 10
-4.1605445108
 20
10.185598443
 30
0.0
 10
-4.158371425
 20
10.18574444
 30
0.0
 10
-4.1538427399
 20
10.1861391453
 30
0.0
 10
-4.1468374516
 20
10.1869671088
 30
0.0
 10
-4.1394188519
 20
10.1880228974
 30
0.0
 10
-4.1289671737
 20
10.1896947662
 30
0.0
 10
-4.1154966023
 20
10.1920839113
 30
0.0
 10
-4.0991061386
 20
10.1950170632
 30
0.0
 10
-4.0826970535
 20
10.1976712325
 30
0.0
 10
-4.0666597456
 20
10.1996880201
 30
0.0
 10
-4.0513836579
 20
10.2007476797
 30
0.0
 10
-4.0414906402
 20
10.200638409
 30
0.0
 10
-4.0367684151
 20
10.2003133859
 30
0.0
  0
SPLINE
  5
2A2
100
AcDbEntity
  8
0
100
AcDbSpline
 62
7
  6
CONTINUOUS
 70
0
 71
3
 72
17
 73
13
 74
0
 42
0.0000001
 43
0.0000001
 44
0.0000000001
 40
0.0
 40
0.0
 40
0.0
 40
0.0
 40
0.0523241208
 40
0.1091837591
 40
0.1694485421
 40
0.2323323415
 40
0.3634593781
 40
0.4981072726
 40
0.6323553048
 40
0.7627585389
 40
0.8862843844
 40
1.0
 40
1.0
 40
1.0
 40
1.0
 10
-4.3239279738
 20
10.3215033391
 30
0.0
 10
-4.3218085557
 20
10.3220050199
 30
0.0
 10
-4.3174066006
 20
10.3231397326
 30
0.0
 10
-4.3106331307
 20
10.3251094263
 30
0.0
 10
-4.3034894848
 20
10.3273718662
 30
0.0
 10
-4.2934555294
 20
10.3307412078
 30
0.0
 10
-4.2805619128
 20
10.3353149323
 30
0.0
 10
-4.2648777663
 20
10.3409058385
 30
0.0
 10
-4.2491293338
 20
10.3462246319
 30
0.0
 10
-4.2336426995
 20
10.3508535444
 30
0.0
 10
-4.2187493667
 20
10.3544130912
 30
0.0
 10
-4.2089732893
 20
10.3559336336
 30
0.0
 10
-4.2042619714
 20
10.3563902892
 30
0.0
  0
SPLINE
  5
2A3
100
AcDbEntity
  8
0
100
AcDbSpline
 62
7
  6
CONTINUOUS
 70
0
 71
3
 72
17
 73
13
 74
0
 42
0.0000001
 43
0.0000001
 44
0.0000000001
 40
0.0
 40
0.0
 40
0.0
 40
0.0
 40
0.0523241208
 40
0.1091837591
 40
0.1694485421
 40
0.2323323415
 40
0.3634593781
 40
0.4981072726
 40
0.6323553048
 40
0.7627585389
 40
0.8862843844
 40
1.0
 40
1.0
 40
1.0
 40
1.0
 10
-4.5074521525
 20
10.4286629051
 30
0.0
 10
-4.5054442132
 20
10.4295065854
 30
0.0
 10
-4.5012890599
 20
10.431350354
 30
0.0
 10
-4.4949321677
 20
10.4344080509
 30
0.0
 10
-4.4882583322
 20
10.4378154296
 30
0.0
 10
-4.478915795
 20
10.4427903389
 30
0.0
 10
-4.4669508311
 20
10.4494238857
 30
0.0
 10
-4.452400817
 20
10.4575200435
 30
0.0
 10
-4.4377426057
 20
10.4653583807
 30
0.0
 10
-4.4232290723
 20
10.4724731558
 30
0.0
 10
-4.4091247385
 20
10.4784354963
 30
0.0
 10
-4.3997322626
 20
10.4815443761
 30
0.0
 10
-4.3951603622
 20
10.4827702543
 30
0.0
  0
SPLINE
  5
2A4
100
AcDbEntity
  8
0
100
AcDbSpline
 62
7
  6
CONTINUOUS
 70
0
 71
3
 72
17
 73
13
 74
0
 42
0.0000001
 43
0.0000001
 44
0.0000000001
 40
0.0
 40
0.0
 40
0.0
 40
0.0
 40
0.0523241208
 40
0.1091837591
 40
0.1694485421
 40
0.2323323415
 40
0.3634593781
 40
0.4981072726
 40
0.6323553048
 40
0.7627585389
 40
0.8862843844
 40
1.0
 40
1.0
 40
1.0
 40
1.0
 10
-4.7061110745
 20
10.5041541593
 30
0.0
 10
-4.7042693844
 20
10.5053168262
 30
0.0
 10
-4.7004743727
 20
10.5078193583
 30
0.0
 10
-4.6947074546
 20
10.5118816537
 30
0.0
 10
-4.6886854711
 20
10.5163410287
 30
0.0
 10
-4.6802891876
 20
10.5227858054
 30
0.0
 10
-4.6695792436
 20
10.5312982319
 30
0.0
 10
-4.6565602412
 20
10.5416788031
 30
0.0
 10
-4.6433920818
 20
10.5518228786
 30
0.0
 10
-4.6302475337
 20
10.5612294472
 30
0.0
 10
-4.6173169216
 20
10.5694319472
 30
0.0
 10
-4.6085642448
 20
10.5740443638
 30
0.0
 10
-4.6042564692
 20
10.5760060263
 30
0.0
  0
SPLINE
  5
2A5
100
AcDbEntity
  8
0
100
AcDbSpline
 62
7
  6
CONTINUOUS
 70
0
 71
3
 72
17
 73
13
 74
0
 42
0.0000001
 43
0.0000001
 44
0.0000000001
 40
0.0
 40
0.0
 40
0.0
 40
0.0
 40
0.0523241208
 40
0.1091837591
 40
0.1694485421
 40
0.2323323415
 40
0.3634593781
 40
0.4981072726
 40
0.6323553048
 40
0.7627585389
 40
0.8862843844
 40
1.0
 40
1.0
 40
1.0
 40
1.0
 10
-4.9144859385
 20
10.5459179335
 30
0.0
 10
-4.9128607332
 20
10.547367873
 30
0.0
 10
-4.9095293791
 20
10.5504609074
 30
0.0
 10
-4.9045097389
 20
10.5554169945
 30
0.0
 10
-4.8993038684
 20
10.5608067277
 30
0.0
 10
-4.8920828633
 20
10.5685455782
 30
0.0
 10
-4.8829200734
 20
10.5787046917
 30
0.0
 10
-4.8717872009
 20
10.5910865265
 30
0.0
 10
-4.8604682801
 20
10.6032596412
 30
0.0
 10
-4.84905126
 20
10.6147014211
 30
0.0
 10
-4.8376470767
 20
10.6249203417
 30
0.0
 10
-4.829772945
 20
10.6309104827
 30
0.0
 10
-4.8258467971
 20
10.6335544215
 30
0.0
  0
SPLINE
  5
2A6
100
AcDbEntity
  8
0
100
AcDbSpline
 62
7
  6
CONTINUOUS
 70
0
 71
3
 72
25
 73
21
 74
0
 42
0.0000001
 43
0.0000001
 44
0.0000000001
 40
0.0
 40
0.0
 40
0.0
 40
0.0
 40
0.1250048799
 40
0.2499982738
 40
0.3749772286
 40
0.4999411833
 40
0.5624481916
 40
0.6249528281
 40
0.6874551947
 40
0.7499551595
 40
0.8124517871
 40
0.8437052671
 40
0.8749582912
 40
0.9062103848
 40
0.9218385558
 40
0.9374685058
 40
0.9530973162
 40
0.968726962
 40
0.9843689375
 40
1.0
 40
1.0
 40
1.0
 40
1.0
 10
-4.9144859385
 20
10.5459179335
 30
0.0
 10
-4.9227859486
 20
10.5416268655
 30
0.0
 10
-4.9399226068
 20
10.5340426079
 30
0.0
 10
-4.9667907601
 20
10.5258387272
 30
0.0
 10
-4.994447747
 20
10.5209145839
 30
0.0
 10
-5.0178291737
 20
10.5196198676
 30
0.0
 10
-5.0365111708
 20
10.5203054526
 30
0.0
 10
-5.0504681138
 20
10.5216910924
 30
0.0
 10
-5.0643080815
 20
10.5239634458
 30
0.0
 10
-5.0779667436
 20
10.5271489115
 30
0.0
 10
-5.0891352378
 20
10.5306068773
 30
0.0
 10
-5.0978766068
 20
10.5339143269
 30
0.0
 10
-5.1043114537
 20
10.5366972051
 30
0.0
 10
-5.1095404823
 20
10.5393077277
 30
0.0
 10
-5.113604507
 20
10.5416152842
 30
0.0
 10
-5.116577612
 20
10.5434732604
 30
0.0
 10
-5.1194508554
 20
10.5454833376
 30
0.0
 10
-5.1221904856
 20
10.5476759024
 30
0.0
 10
-5.1247328934
 20
10.5500968709
 30
0.0
 10
-5.1262373173
 20
10.5518968537
 30
0.0
 10
-5.1269162761
 20
10.5528476867
 30
0.0
  0
SPLINE
  5
2A7
100
AcDbEntity
  8
0
100
AcDbSpline
 62
7
  6
CONTINUOUS
 70
0
 71
3
 72
24
 73
20
 74
0
 42
0.0000001
 43
0.0000001
 44
0.0000000001
 40
0.0
 40
0.0
 40
0.0
 40
0.0
 40
0.1250061875
 40
0.250001025
 40
0.3749807929
 40
0.4999456777
 40
0.5624531083
 40
0.6249581613
 40
0.6874609332
 40
0.7499613075
 40
0.812458363
 40
0.8437120528
 40
0.8749652922
 40
0.9062175901
 40
0.9374687115
 40
0.9530975688
 40
0.9687270782
 40
0.9843688711
 40
1.0
 40
1.0
 40
1.0
 40
1.0
 10
-4.7061110745
 20
10.5041541593
 30
0.0
 10
-4.7150026074
 20
10.5012882419
 30
0.0
 10
-4.7331506272
 20
10.4966286288
 30
0.0
 10
-4.7609975965
 20
10.4929587114
 30
0.0
 10
-4.7890828477
 20
10.4926524523
 30
0.0
 10
-4.8123544973
 20
10.495221606
 30
0.0
 10
-4.8306659324
 20
10.4989703958
 30
0.0
 10
-4.8442024152
 20
10.5026322644
 30
0.0
 10
-4.8574777832
 20
10.5071491746
 30
0.0
 10
-4.8704242534
 20
10.5125365574
 30
0.0
 10
-4.8808703444
 20
10.5177829227
 30
0.0
 10
-4.8889474544
 20
10.522481564
 30
0.0
 10
-4.89483686
 20
10.5262834623
 30
0.0
 10
-4.9005086486
 20
10.5304036509
 30
0.0
 10
-4.9049867977
 20
10.5341633126
 30
0.0
 10
-4.9083257412
 20
10.5374337371
 30
0.0
 10
-4.9106686627
 20
10.5400450573
 30
0.0
 10
-4.9127806288
 20
10.542848535
 30
0.0
 10
-4.9139710093
 20
10.5448694008
 30
0.0
 10
-4.9144859385
 20
10.5459179335
 30
0.0
  0
SPLINE
  5
2A8
100
AcDbEntity
  8
0
100
AcDbSpline
 62
7
  6
CONTINUOUS
 70
0
 71
3
 72
24
 73
20
 74
0
 42
0.0000001
 43
0.0000001
 44
0.0000000001
 40
0.0
 40
0.0
 40
0.0
 40
0.0
 40
0.1250061851
 40
0.2500010234
 40
0.3749807918
 40
0.4999456778
 40
0.5624531091
 40
0.6249581628
 40
0.6874609355
 40
0.7499613105
 40
0.8124583668
 40
0.843712057
 40
0.8749652967
 40
0.9062175953
 40
0.9374687162
 40
0.9530975735
 40
0.9687270822
 40
0.9843688714
 40
1.0
 40
1.0
 40
1.0
 40
1.0
 10
-4.5074521525
 20
10.4286629051
 30
0.0
 10
-4.5166941287
 20
10.4272995597
 30
0.0
 10
-4.5353615779
 20
10.4256905361
 30
0.0
 10
-4.5634328006
 20
10.4266540908
 30
0.0
 10
-4.5911854207
 20
10.4309746483
 30
0.0
 10
-4.6137168162
 20
10.4373391166
 30
0.0
 10
-4.6311614866
 20
10.4440507155
 30
0.0
 10
-4.6439106344
 20
10.4498906541
 30
0.0
 10
-4.6562614946
 20
10.4565309952
 30
0.0
 10
-4.6681446688
 20
10.4639758028
 30
0.0
 10
-4.6775847757
 20
10.4708699708
 30
0.0
 10
-4.6847783623
 20
10.4768339669
 30
0.0
 10
-4.6899616791
 20
10.4815533691
 30
0.0
 10
-4.6948779585
 20
10.4865509023
 30
0.0
 10
-4.6986762179
 20
10.4909963608
 30
0.0
 10
-4.701431334
 20
10.4947717488
 30
0.0
 10
-4.7033124959
 20
10.4977330832
 30
0.0
 10
-4.7049342247
 20
10.5008459406
 30
0.0
 10
-4.7057757495
 20
10.5030351731
 30
0.0
 10
-4.7061110745
 20
10.5041541593
 30
0.0
  0
SPLINE
  5
2A9
100
AcDbEntity
  8
0
100
AcDbSpline
 62
7
  6
CONTINUOUS
 70
0
 71
3
 72
24
 73
20
 74
0
 42
0.0000001
 43
0.0000001
 44
0.0000000001
 40
0.0
 40
0.0
 40
0.0
 40
0.0
 40
0.1250061851
 40
0.2500010234
 40
0.3749807918
 40
0.4999456778
 40
0.5624531091
 40
0.6249581628
 40
0.6874609355
 40
0.7499613105
 40
0.8124583668
 40
0.8437120569
 40
0.8749652967
 40
0.9062175953
 40
0.9374687162
 40
0.9530975735
 40
0.9687270822
 40
0.9843688714
 40
1.0
 40
1.0
 40
1.0
 40
1.0
 10
-4.3239279738
 20
10.3215033391
 30
0.0
 10
-4.333268301
 20
10.3216797535
 30
0.0
 10
-4.3519459893
 20
10.3231652086
 30
0.0
 10
-4.3794757694
 20
10.3287359526
 30
0.0
 10
-4.4061387526
 20
10.3375654753
 30
0.0
 10
-4.4273153067
 20
10.3475516552
 30
0.0
 10
-4.4434173757
 20
10.3570429913
 30
0.0
 10
-4.455031431
 20
10.3649017045
 30
0.0
 10
-4.4661208899
 20
10.3734843485
 30
0.0
 10
-4.4766166318
 20
10.3827835094
 30
0.0
 10
-4.4847932574
 20
10.3911374284
 30
0.0
 10
-4.4909071017
 20
10.3982040998
 30
0.0
 10
-4.4952429449
 20
10.403712275
 30
0.0
 10
-4.4992696142
 20
10.4094508355
 30
0.0
 10
-4.5022843791
 20
10.4144608323
 30
0.0
 10
-4.5043805168
 20
10.418638203
 30
0.0
 10
-4.5057486072
 20
10.4218687757
 30
0.0
 10
-4.5068358631
 20
10.425206104
 30
0.0
 10
-4.5073055783
 20
10.427503988
 30
0.0
 10
-4.5074521525
 20
10.4286629051
 30
0.0
  0
SPLINE
  5
2AA
100
AcDbEntity
  8
0
100
AcDbSpline
 62
7
  6
CONTINUOUS
 70
0
 71
3
 72
24
 73
20
 74
0
 42
0.0000001
 43
0.0000001
 44
0.0000000001
 40
0.0
 40
0.0
 40
0.0
 40
0.0
 40
0.125006185
 40
0.2500010234
 40
0.3749807918
 40
0.4999456778
 40
0.5624531091
 40
0.6249581628
 40
0.6874609355
 40
0.7499613106
 40
0.8124583669
 40
0.843712057
 40
0.8749652968
 40
0.9062175954
 40
0.9374687163
 40
0.9530975736
 40
0.9687270822
 40
0.9843688714
 40
1.0
 40
1.0
 40
1.0
 40
1.0
 10
-4.1605445108
 20
10.185598443
 30
0.0
 10
-4.1697284138
 20
10.1873098052
 30
0.0
 10
-4.1879068715
 20
10.1918492204
 30
0.0
 10
-4.2141442818
 20
10.201875201
 30
0.0
 10
-4.2389903441
 20
10.2149728468
 30
0.0
 10
-4.2582344261
 20
10.2283083462
 30
0.0
 10
-4.2725546789
 20
10.2403205252
 30
0.0
 10
-4.2827168462
 20
10.2499836515
 30
0.0
 10
-4.2922424177
 20
10.2602744904
 30
0.0
 10
-4.3010644357
 20
10.2711743522
 30
0.0
 10
-4.307754547
 20
10.2807601532
 30
0.0
 10
-4.3126218823
 20
10.288736743
 30
0.0
 10
-4.3159919835
 20
10.2948834452
 30
0.0
 10
-4.3190192075
 20
10.3012065027
 30
0.0
 10
-4.3211682446
 20
10.3066443806
 30
0.0
 10
-4.3225482276
 20
10.3111097883
 30
0.0
 10
-4.3233659293
 20
10.3145214793
 30
0.0
 10
-4.3238890554
 20
10.3179922464
 30
0.0
 10
-4.3239741484
 20
10.3203361027
 30
0.0
 10
-4.3239279738
 20
10.3215033391
 30
0.0
  0
SPLINE
  5
2AB
100
AcDbEntity
  8
0
100
AcDbSpline
 62
7
  6
CONTINUOUS
 70
0
 71
3
 72
24
 73
20
 74
0
 42
0.0000001
 43
0.0000001
 44
0.0000000001
 40
0.0
 40
0.0
 40
0.0
 40
0.0
 40
0.1250061851
 40
0.2500010234
 40
0.3749807918
 40
0.4999456778
 40
0.5624531091
 40
0.6249581628
 40
0.6874609355
 40
0.7499613105
 40
0.8124583668
 40
0.8437120569
 40
0.8749652967
 40
0.9062175953
 40
0.9374687162
 40
0.9530975735
 40
0.9687270822
 40
0.9843688714
 40
1.0
 40
1.0
 40
1.0
 40
1.0
 10
-4.0217583594
 20
10.0246552824
 30
0.0
 10
-4.0305353297
 20
10.0278549117
 30
0.0
 10
-4.0477187047
 20
10.0353244657
 30
0.0
 10
-4.0719480696
 20
10.0495322052
 30
0.0
 10
-4.0942994874
 20
10.0665407108
 30
0.0
 10
-4.1110861781
 20
10.0828617785
 30
0.0
 10
-4.1232340026
 20
10.0970671454
 30
0.0
 10
-4.1316670892
 20
10.1082711046
 30
0.0
 10
-4.1393689452
 20
10.119989436
 30
0.0
 10
-4.1462766021
 20
10.1321926842
 30
0.0
 10
-4.1512977135
 20
10.1427488961
 30
0.0
 10
-4.1547857739
 20
10.1514178276
 30
0.0
 10
-4.157098207
 20
10.1580353938
 30
0.0
 10
-4.1590434125
 20
10.1647704749
 30
0.0
 10
-4.1602681027
 20
10.1704879052
 30
0.0
 10
-4.1608942894
 20
10.1751195474
 30
0.0
 10
-4.1611392979
 20
10.1786192963
 30
0.0
 10
-4.1610840249
 20
10.1821288305
 30
0.0
 10
-4.1607821747
 20
10.1844547259
 30
0.0
 10
-4.1605445108
 20
10.185598443
 30
0.0
  0
SPLINE
  5
2AC
100
AcDbEntity
  8
0
100
AcDbSpline
 62
7
  6
CONTINUOUS
 70
0
 71
3
 72
21
 73
17
 74
0
 42
0.0000001
 43
0.0000001
 44
0.0000000001
 40
0.0
 40
0.0
 40
0.0
 40
0.0
 40
0.1250077622
 40
0.2500080046
 40
0.3750011668
 40
0.4999874018
 40
0.6249654217
 40
0.6874681857
 40
0.7499695322
 40
0.8124686251
 40
0.8437219944
 40
0.8749759207
 40
0.9062319019
 40
0.9374849606
 40
0.9687446123
 40
1.0
 40
1.0
 40
1.0
 40
1.0
 10
-3.9720952458
 20
9.8925952991
 30
0.0
 10
-3.9760823747
 20
9.8971626404
 30
0.0
 10
-3.9837020494
 20
9.9066136118
 30
0.0
 10
-3.9939766291
 20
9.9216426507
 30
0.0
 10
-4.0030207117
 20
9.9374439331
 30
0.0
 10
-4.0107453533
 20
9.9539291309
 30
0.0
 10
-4.0159936457
 20
9.9681692779
 30
0.0
 10
-4.0193810922
 20
9.9798148617
 30
0.0
 10
-4.021472601
 20
9.9886692372
 30
0.0
 10
-4.0227839426
 20
9.9961392436
 30
0.0
 10
-4.023503834
 20
10.0021605322
 30
0.0
 10
-4.023849498
 20
10.0066965894
 30
0.0
 10
-4.0239553602
 20
10.0112453277
 30
0.0
 10
-4.023752141
 20
10.0157935166
 30
0.0
 10
-4.0231266184
 20
10.0203055986
 30
0.0
 10
-4.0223068464
 20
10.0232421188
 30
0.0
 10
-4.0217583594
 20
10.0246552824
 30
0.0
  0
SPLINE
  5
2AD
100
AcDbEntity
  8
0
100
AcDbSpline
 62
7
  6
CONTINUOUS
 70
0
 71
3
 72
24
 73
20
 74
0
 42
0.0000001
 43
0.0000001
 44
0.0000000001
 40
0.0
 40
0.0
 40
0.0
 40
0.0
 40
0.1250061851
 40
0.2500010234
 40
0.3749807918
 40
0.4999456778
 40
0.5624531091
 40
0.6249581628
 40
0.6874609355
 40
0.7499613105
 40
0.8124583668
 40
0.843712057
 40
0.8749652967
 40
0.9062175953
 40
0.9374687162
 40
0.9530975735
 40
0.9687270822
 40
0.9843688714
 40
1.0
 40
1.0
 40
1.0
 40
1.0
 10
-4.0730360139
 20
8.4448013909
 30
0.0
 10
-4.0720890205
 20
8.4540952619
 30
0.0
 10
-4.0690665195
 20
8.4725865329
 30
0.0
 10
-4.0612418077
 20
8.4995623715
 30
0.0
 10
-4.0502410104
 20
8.5254053125
 30
0.0
 10
-4.0385404904
 20
8.5456850578
 30
0.0
 10
-4.0277520981
 20
8.5609485003
 30
0.0
 10
-4.0189613059
 20
8.5718740495
 30
0.0
 10
-4.0094923677
 20
8.5822170223
 30
0.0
 10
-3.9993583792
 20
8.5919091462
 30
0.0
 10
-3.9903578823
 20
8.5993681156
 30
0.0
 10
-3.9828105508
 20
8.6048776279
 30
0.0
 10
-3.9769631945
 20
8.6087438864
 30
0.0
 10
-3.9709117665
 20
8.612283005
 30
0.0
 10
-3.9656699621
 20
8.6148738278
 30
0.0
 10
-3.9613337872
 20
8.6166179052
 30
0.0
 10
-3.9580012886
 20
8.6177145933
 30
0.0
 10
-3.954585586
 20
8.6185225916
 30
0.0
 10
-3.9522567658
 20
8.6188009789
 30
0.0
 10
-3.9510897037
 20
8.618851367
 30
0.0
  0
SPLINE
  5
2AE
100
AcDbEntity
  8
0
100
AcDbSpline
 62
7
  6
CONTINUOUS
 70
0
 71
3
 72
24
 73
20
 74
0
 42
0.0000001
 43
0.0000001
 44
0.0000000001
 40
0.0
 40
0.0
 40
0.0
 40
0.0
 40
0.1250061808
 40
0.2500010151
 40
0.3749807794
 40
0.4999456614
 40
0.5624530906
 40
0.6249581423
 40
0.6874609129
 40
0.749961286
 40
0.8124583404
 40
0.8437120291
 40
0.8749652687
 40
0.9062175639
 40
0.9374686946
 40
0.9530975447
 40
0.9687270073
 40
0.9843688574
 40
1.0
 40
1.0
 40
1.0
 40
1.0
 10
-4.2219665971
 20
8.2931967137
 30
0.0
 10
-4.2195028119
 20
8.3022079617
 30
0.0
 10
-4.213477997
 20
8.3199495568
 30
0.0
 10
-4.2013199648
 20
8.345269592
 30
0.0
 10
-4.1862156312
 20
8.3689494188
 30
0.0
 10
-4.1713367821
 20
8.387026754
 30
0.0
 10
-4.1581832694
 20
8.4003063311
 30
0.0
 10
-4.1477141002
 20
8.4096359686
 30
0.0
 10
-4.1366719219
 20
8.4182793569
 30
0.0
 10
-4.1250808887
 20
8.4261713103
 30
0.0
 10
-4.11497545
 20
8.4320471309
 30
0.0
 10
-4.1066242249
 20
8.4362392632
 30
0.0
 10
-4.1002202584
 20
8.4390903573
 30
0.0
 10
-4.0936688475
 20
8.4415851847
 30
0.0
 10
-4.0880721019
 20
8.4432779078
 30
0.0
 10
-4.083508006
 20
8.444284496
 30
0.0
 10
-4.0800404487
 20
8.4448177124
 30
0.0
 10
-4.0765383387
 20
8.4450525026
 30
0.0
 10
-4.0741954537
 20
8.4449437805
 30
0.0
 10
-4.0730360139
 20
8.4448013909
 30
0.0
  0
SPLINE
  5
2AF
100
AcDbEntity
  8
0
100
AcDbSpline
 62
7
  6
CONTINUOUS
 70
0
 71
3
 72
24
 73
20
 74
0
 42
0.0000001
 43
0.0000001
 44
0.0000000001
 40
0.0
 40
0.0
 40
0.0
 40
0.0
 40
0.1250061851
 40
0.2500010234
 40
0.3749807918
 40
0.4999456778
 40
0.5624531091
 40
0.6249581628
 40
0.6874609355
 40
0.7499613105
 40
0.8124583668
 40
0.843712057
 40
0.8749652967
 40
0.9062175953
 40
0.9374687162
 40
0.9530975735
 40
0.9687270822
 40
0.9843688714
 40
1.0
 40
1.0
 40
1.0
 40
1.0
 10
-4.3938190872
 20
8.1681726424
 30
0.0
 10
-4.3899057145
 20
8.1766554691
 30
0.0
 10
-4.3810429236
 20
8.1931634536
 30
0.0
 10
-4.3648832033
 20
8.2161370346
 30
0.0
 10
-4.3460873317
 20
8.237007836
 30
0.0
 10
-4.3284360008
 20
8.252389668
 30
0.0
 10
-4.3132761538
 20
8.2633231544
 30
0.0
 10
-4.3014141729
 20
8.2708023965
 30
0.0
 10
-4.2890999499
 20
8.2775104355
 30
0.0
 10
-4.2763680385
 20
8.2833869501
 30
0.0
 10
-4.2654333021
 20
8.2875193476
 30
0.0
 10
-4.2565059783
 20
8.290279751
 30
0.0
 10
-4.249720081
 20
8.2920379115
 30
0.0
 10
-4.2428473902
 20
8.2934203955
 30
0.0
 10
-4.2370483646
 20
8.2941688463
 30
0.0
 10
-4.2323808353
 20
8.2944104849
 30
0.0
 10
-4.2288728065
 20
8.2943657012
 30
0.0
 10
-4.2253798185
 20
8.2940208533
 30
0.0
 10
-4.2230867865
 20
8.2935279969
 30
0.0
 10
-4.2219665971
 20
8.2931967137
 30
0.0
  0
SPLINE
  5
2B0
100
AcDbEntity
  8
0
100
AcDbSpline
 62
7
  6
CONTINUOUS
 70
0
 71
3
 72
24
 73
20
 74
0
 42
0.0000001
 43
0.0000001
 44
0.0000000001
 40
0.0
 40
0.0
 40
0.0
 40
0.0
 40
0.1250061851
 40
0.2500010234
 40
0.3749807918
 40
0.4999456778
 40
0.5624531091
 40
0.6249581628
 40
0.6874609355
 40
0.7499613105
 40
0.8124583668
 40
0.8437120569
 40
0.8749652967
 40
0.9062175953
 40
0.9374687162
 40
0.9530975735
 40
0.9687270821
 40
0.9843688714
 40
1.0
 40
1.0
 40
1.0
 40
1.0
 10
-4.5839058795
 20
8.0731394473
 30
0.0
 10
-4.578649664
 20
8.0808624671
 30
0.0
 10
-4.5671906469
 20
8.0956865536
 30
0.0
 10
-4.5474700264
 20
8.1156870313
 30
0.0
 10
-4.5254953106
 20
8.1331795157
 30
0.0
 10
-4.5055529726
 20
8.1454462753
 30
0.0
 10
-4.4888003056
 20
8.153735439
 30
0.0
 10
-4.4758690719
 20
8.1591602751
 30
0.0
 10
-4.4626186986
 20
8.1637499902
 30
0.0
 10
-4.4490931969
 20
8.167450773
 30
0.0
 10
-4.4376274291
 20
8.1697270283
 30
0.0
 10
-4.4283675167
 20
8.1709804078
 30
0.0
 10
-4.4213847874
 20
8.1715976775
 30
0.0
 10
-4.4143782821
 20
8.1718301089
 30
0.0
 10
-4.4085351564
 20
8.1716138722
 30
0.0
 10
-4.4038915129
 20
8.1710839718
 30
0.0
 10
-4.4004386993
 20
8.1704624014
 30
0.0
 10
-4.3970501098
 20
8.1695473348
 30
0.0
 10
-4.3948694721
 20
8.1686837829
 30
0.0
 10
-4.3938190872
 20
8.1681726424
 30
0.0
  0
SPLINE
  5
2B1
100
AcDbEntity
  8
0
100
AcDbSpline
 62
7
  6
CONTINUOUS
 70
0
 71
3
 72
24
 73
20
 74
0
 42
0.0000001
 43
0.0000001
 44
0.0000000001
 40
0.0
 40
0.0
 40
0.0
 40
0.0
 40
0.1250061851
 40
0.2500010234
 40
0.3749807918
 40
0.4999456778
 40
0.5624531091
 40
0.6249581628
 40
0.6874609355
 40
0.7499613105
 40
0.8124583668
 40
0.843712057
 40
0.8749652967
 40
0.9062175953
 40
0.9374687162
 40
0.9530975735
 40
0.9687270822
 40
0.9843688714
 40
1.0
 40
1.0
 40
1.0
 40
1.0
 10
-4.7870419937
 20
8.0106893403
 30
0.0
 10
-4.7805863088
 20
8.017441893
 30
0.0
 10
-4.766843632
 20
8.0301777262
 30
0.0
 10
-4.7441000288
 20
8.0466595495
 30
0.0
 10
-4.7195458713
 20
8.0602965759
 30
0.0
 10
-4.6978564915
 20
8.0691136639
 30
0.0
 10
-4.6799679655
 20
8.0745324021
 30
0.0
 10
-4.666320203
 20
8.0777548595
 30
0.0
 10
-4.6524951087
 20
8.0801010574
 30
0.0
 10
-4.6385449504
 20
8.0815251624
 30
0.0
 10
-4.626860902
 20
8.0818831864
 30
0.0
 10
-4.6175209828
 20
8.0815953537
 30
0.0
 10
-4.6105318888
 20
8.0810548954
 30
0.0
 10
-4.6035826848
 20
8.0801309341
 30
0.0
 10
-4.5978548414
 20
8.0789559081
 30
0.0
 10
-4.593361748
 20
8.0776689229
 30
0.0
 10
-4.5900583317
 20
8.0764875203
 30
0.0
 10
-4.586866571
 20
8.0750271952
 30
0.0
 10
-4.5848578085
 20
8.0738165028
 30
0.0
 10
-4.5839058795
 20
8.0731394473
 30
0.0
  0
SPLINE
  5
2B2
100
AcDbEntity
  8
0
100
AcDbSpline
 62
7
  6
CONTINUOUS
 70
0
 71
3
 72
24
 73
20
 74
0
 42
0.0000001
 43
0.0000001
 44
0.0000000001
 40
0.0
 40
0.0
 40
0.0
 40
0.0
 40
0.1250061851
 40
0.2500010234
 40
0.3749807918
 40
0.4999456778
 40
0.5624531091
 40
0.6249581628
 40
0.6874609355
 40
0.7499613105
 40
0.8124583668
 40
0.843712057
 40
0.8749652967
 40
0.9062175953
 40
0.9374687162
 40
0.9530975735
 40
0.9687270822
 40
0.9843688714
 40
1.0
 40
1.0
 40
1.0
 40
1.0
 10
-4.9976865045
 20
7.9825257672
 30
0.0
 10
-4.9902074413
 20
7.988123664
 30
0.0
 10
-4.9745559626
 20
7.9984238499
 30
0.0
 10
-4.9494097519
 20
8.0109374455
 30
0.0
 10
-4.9229459142
 20
8.020347038
 30
0.0
 10
-4.9001011118
 20
8.0254739514
 30
0.0
 10
-4.8815646705
 20
8.0278744577
 30
0.0
 10
-4.867572648
 20
8.0288066377
 30
0.0
 10
-4.8535499385
 20
8.0288453214
 30
0.0
 10
-4.839555641
 20
8.0279539034
 30
0.0
 10
-4.8279720166
 20
8.0263839303
 30
0.0
 10
-4.8188068548
 20
8.0245627366
 30
0.0
 10
-4.8120020369
 20
8.0228792924
 30
0.0
 10
-4.805299687
 20
8.0208241411
 30
0.0
 10
-4.7998433638
 20
8.0187223769
 30
0.0
 10
-4.7956233782
 20
8.0167134119
 30
0.0
 10
-4.7925594661
 20
8.0150044022
 30
0.0
 10
-4.7896515956
 20
8.0130386517
 30
0.0
 10
-4.7878695012
 20
8.0115138427
 30
0.0
 10
-4.7870419937
 20
8.0106893403
 30
0.0
  0
SPLINE
  5
2B3
100
AcDbEntity
  8
0
100
AcDbSpline
 62
7
  6
CONTINUOUS
 70
0
 71
3
 72
24
 73
20
 74
0
 42
0.0000001
 43
0.0000001
 44
0.0000000001
 40
0.0
 40
0.0
 40
0.0
 40
0.0
 40
0.1250061853
 40
0.2500010235
 40
0.3749807919
 40
0.4999456778
 40
0.562453109
 40
0.6249581627
 40
0.6874609353
 40
0.7499613102
 40
0.8124583665
 40
0.8437120566
 40
0.8749652963
 40
0.9062175948
 40
0.9374687158
 40
0.9530975731
 40
0.9687270818
 40
0.9843688714
 40
1.0
 40
1.0
 40
1.0
 40
1.0
 10
-5.2100936806
 20
7.9894169433
 30
0.0
 10
-5.2017952448
 20
7.993707491
 30
0.0
 10
-5.1846618881
 20
8.0012910722
 30
0.0
 10
-5.1577989809
 20
8.0094951079
 30
0.0
 10
-5.1301473146
 20
8.014420602
 30
0.0
 10
-5.1067702253
 20
8.0157174944
 30
0.0
 10
-5.0880914856
 20
8.0150342904
 30
0.0
 10
-5.0741368622
 20
8.013650766
 30
0.0
 10
-5.0602990338
 20
8.0113808803
 30
0.0
 10
-5.0466423181
 20
8.0081982545
 30
0.0
 10
-5.0354750833
 20
8.0047431083
 30
0.0
 10
-5.0267346761
 20
8.0014382301
 30
0.0
 10
-5.0202997489
 20
7.9986577192
 30
0.0
 10
-5.0140270724
 20
7.9955274362
 30
0.0
 10
-5.008991101
 20
7.9925562634
 30
0.0
 10
-5.0051593313
 20
7.9898801169
 30
0.0
 10
-5.0024184975
 20
7.9876901165
 30
0.0
 10
-4.9998738349
 20
7.9852725603
 30
0.0
 10
-4.9983670186
 20
7.9834752268
 30
0.0
 10
-4.9976865045
 20
7.9825257672
 30
0.0
  0
SPLINE
  5
2B4
100
AcDbEntity
  8
0
100
AcDbSpline
 62
7
  6
CONTINUOUS
 70
0
 71
3
 72
24
 73
20
 74
0
 42
0.0000001
 43
0.0000001
 44
0.0000000001
 40
0.0
 40
0.0
 40
0.0
 40
0.0
 40
0.1250061875
 40
0.250001025
 40
0.3749807929
 40
0.4999456777
 40
0.5624531083
 40
0.6249581613
 40
0.6874609332
 40
0.7499613075
 40
0.812458363
 40
0.8437120528
 40
0.8749652922
 40
0.9062175901
 40
0.9374687115
 40
0.9530975688
 40
0.9687270782
 40
0.9843688711
 40
1.0
 40
1.0
 40
1.0
 40
1.0
 10
-5.4184697107
 20
8.0311748986
 30
0.0
 10
-5.4095782579
 20
8.0340410643
 30
0.0
 10
-5.3914303682
 20
8.0387011842
 30
0.0
 10
-5.3635835014
 20
8.0423718792
 30
0.0
 10
-5.3354982588
 20
8.0426789226
 30
0.0
 10
-5.3122265374
 20
8.0401104188
 30
0.0
 10
-5.2939149976
 20
8.0363621403
 30
0.0
 10
-5.2803784126
 20
8.0327006497
 30
0.0
 10
-5.2671029185
 20
8.0281841102
 30
0.0
 10
-5.2541562978
 20
8.022797089
 30
0.0
 10
-5.2437100603
 20
8.0175510154
 30
0.0
 10
-5.2356328191
 20
8.0128525997
 30
0.0
 10
-5.2297433073
 20
8.0090508658
 30
0.0
 10
-5.2240714036
 20
8.0049308356
 30
0.0
 10
-5.2195931496
 20
8.0011712989
 30
0.0
 10
-5.2162541147
 20
7.9979009677
 30
0.0
 10
-5.2139111204
 20
7.995289713
 30
0.0
 10
-5.211799076
 20
7.9924862942
 30
0.0
 10
-5.210608639
 20
7.9904654617
 30
0.0
 10
-5.2100936806
 20
7.9894169433
 30
0.0
  0
SPLINE
  5
2B5
100
AcDbEntity
  8
0
100
AcDbSpline
 62
7
  6
CONTINUOUS
 70
0
 71
3
 72
24
 73
20
 74
0
 42
0.0000001
 43
0.0000001
 44
0.0000000001
 40
0.0
 40
0.0
 40
0.0
 40
0.0
 40
0.1250061851
 40
0.2500010234
 40
0.3749807918
 40
0.4999456778
 40
0.5624531091
 40
0.6249581628
 40
0.6874609355
 40
0.7499613105
 40
0.8124583668
 40
0.843712057
 40
0.8749652967
 40
0.9062175953
 40
0.9374687162
 40
0.9530975735
 40
0.9687270822
 40
0.9843688714
 40
1.0
 40
1.0
 40
1.0
 40
1.0
 10
-5.6171307408
 20
8.1066606051
 30
0.0
 10
-5.6078888026
 20
8.1080242086
 30
0.0
 10
-5.5892213984
 20
8.1096337535
 30
0.0
 10
-5.5611501487
 20
8.1086709828
 30
0.0
 10
-5.533397408
 20
8.1043512002
 30
0.0
 10
-5.5108658348
 20
8.0979873611
 30
0.0
 10
-5.493420977
 20
8.0912762494
 30
0.0
 10
-5.4806716661
 20
8.0854366668
 30
0.0
 10
-5.4683206205
 20
8.0787966706
 30
0.0
 10
-5.4564372384
 20
8.0713521948
 30
0.0
 10
-5.446996939
 20
8.0644582905
 30
0.0
 10
-5.4398031859
 20
8.0584944952
 30
0.0
 10
-5.4346197372
 20
8.0537752378
 30
0.0
 10
-5.4297033183
 20
8.0487778419
 30
0.0
 10
-5.4259049348
 20
8.0443324894
 30
0.0
 10
-5.4231497133
 20
8.0405571784
 30
0.0
 10
-5.4212684687
 20
8.0375958965
 30
0.0
 10
-5.4196466529
 20
8.0344830844
 30
0.0
 10
-5.4188050669
 20
8.0322938754
 30
0.0
 10
-5.4184697107
 20
8.0311748986
 30
0.0
  0
SPLINE
  5
2B6
100
AcDbEntity
  8
0
100
AcDbSpline
 62
7
  6
CONTINUOUS
 70
0
 71
3
 72
24
 73
20
 74
0
 42
0.0000001
 43
0.0000001
 44
0.0000000001
 40
0.0
 40
0.0
 40
0.0
 40
0.0
 40
0.1250061851
 40
0.2500010234
 40
0.3749807918
 40
0.4999456778
 40
0.5624531091
 40
0.6249581628
 40
0.6874609355
 40
0.7499613105
 40
0.8124583668
 40
0.8437120569
 40
0.8749652967
 40
0.9062175953
 40
0.9374687162
 40
0.9530975735
 40
0.9687270822
 40
0.9843688714
 40
1.0
 40
1.0
 40
1.0
 40
1.0
 10
-5.8006579119
 20
8.2138150462
 30
0.0
 10
-5.7913175797
 20
8.2136388926
 30
0.0
 10
-5.77263985
 20
8.2121539591
 30
0.0
 10
-5.7451099143
 20
8.2065839839
 30
0.0
 10
-5.7184466846
 20
8.1977552057
 30
0.0
 10
-5.6972698515
 20
8.1877696172
 30
0.0
 10
-5.6811675175
 20
8.1782787307
 30
0.0
 10
-5.6695532428
 20
8.1704203419
 30
0.0
 10
-5.6584635442
 20
8.1618380076
 30
0.0
 10
-5.6479675427
 20
8.1525391398
 30
0.0
 10
-5.6397906838
 20
8.1441854491
 30
0.0
 10
-5.6336766421
 20
8.1371189484
 30
0.0
 10
-5.6293406451
 20
8.1316108943
 30
0.0
 10
-5.6253138156
 20
8.1258724463
 30
0.0
 10
-5.6222989107
 20
8.1208625337
 30
0.0
 10
-5.6202026564
 20
8.1166852215
 30
0.0
 10
-5.6188344758
 20
8.113454687
 30
0.0
 10
-5.6177471266
 20
8.110117389
 30
0.0
 10
-5.6172773473
 20
8.1078195182
 30
0.0
 10
-5.6171307408
 20
8.1066606051
 30
0.0
  0
SPLINE
  5
2B7
100
AcDbEntity
  8
0
100
AcDbSpline
 62
7
  6
CONTINUOUS
 70
0
 71
3
 72
24
 73
20
 74
0
 42
0.0000001
 43
0.0000001
 44
0.0000000001
 40
0.0
 40
0.0
 40
0.0
 40
0.0
 40
0.125006185
 40
0.2500010234
 40
0.3749807918
 40
0.4999456778
 40
0.5624531091
 40
0.6249581628
 40
0.6874609355
 40
0.7499613106
 40
0.8124583669
 40
0.843712057
 40
0.8749652968
 40
0.9062175954
 40
0.9374687163
 40
0.9530975736
 40
0.9687270822
 40
0.9843688714
 40
1.0
 40
1.0
 40
1.0
 40
1.0
 10
-5.96404517
 20
8.3497153796
 30
0.0
 10
-5.9548612192
 20
8.3480042739
 30
0.0
 10
-5.9366826347
 20
8.3434653664
 30
0.0
 10
-5.9104449445
 20
8.3334401185
 30
0.0
 10
-5.8855985164
 20
8.3203431665
 30
0.0
 10
-5.866354062
 20
8.3070082045
 30
0.0
 10
-5.8520334737
 20
8.2949964254
 30
0.0
 10
-5.8418710367
 20
8.2853335829
 30
0.0
 10
-5.8323451778
 20
8.27504301
 30
0.0
 10
-5.8235228553
 20
8.2641433945
 30
0.0
 10
-5.8168324764
 20
8.2545577804
 30
0.0
 10
-5.8119649183
 20
8.2465813265
 30
0.0
 10
-5.8085946455
 20
8.2404347184
 30
0.0
 10
-5.8055672449
 20
8.2341117454
 30
0.0
 10
-5.8034180559
 20
8.2286739276
 30
0.0
 10
-5.8020379483
 20
8.2242085584
 30
0.0
 10
-5.8012201513
 20
8.2207968903
 30
0.0
 10
-5.8006969283
 20
8.2173261377
 30
0.0
 10
-5.8006117698
 20
8.2149822838
 30
0.0
 10
-5.8006579119
 20
8.2138150462
 30
0.0
  0
SPLINE
  5
2B8
100
AcDbEntity
  8
0
100
AcDbSpline
 62
7
  6
CONTINUOUS
 70
0
 71
3
 72
24
 73
20
 74
0
 42
0.0000001
 43
0.0000001
 44
0.0000000001
 40
0.0
 40
0.0
 40
0.0
 40
0.0
 40
0.1250061851
 40
0.2500010234
 40
0.3749807918
 40
0.4999456778
 40
0.5624531091
 40
0.6249581628
 40
0.6874609355
 40
0.7499613105
 40
0.8124583668
 40
0.8437120569
 40
0.8749652967
 40
0.9062175953
 40
0.9374687162
 40
0.9530975735
 40
0.9687270822
 40
0.9843688714
 40
1.0
 40
1.0
 40
1.0
 40
1.0
 10
-6.1028358157
 20
8.5106546645
 30
0.0
 10
-6.0940587561
 20
8.5074552803
 30
0.0
 10
-6.0768751725
 20
8.4999862062
 30
0.0
 10
-6.0526454108
 20
8.4857791433
 30
0.0
 10
-6.030293518
 20
8.4687712619
 30
0.0
 10
-6.0135063715
 20
8.452450663
 30
0.0
 10
-6.0013581504
 20
8.4382456354
 30
0.0
 10
-5.9929247509
 20
8.4270419117
 30
0.0
 10
-5.9852225677
 20
8.4153237953
 30
0.0
 10
-5.9783145701
 20
8.40312074
 30
0.0
 10
-5.9732931638
 20
8.3925646684
 30
0.0
 10
-5.9698048614
 20
8.3838958343
 30
0.0
 10
-5.9674922434
 20
8.3772783326
 30
0.0
 10
-5.9655468499
 20
8.3705433059
 30
0.0
 10
-5.964322
 20
8.3648259097
 30
0.0
 10
-5.963695684
 20
8.360194285
 30
0.0
 10
-5.9634505777
 20
8.356694543
 30
0.0
 10
-5.9635057527
 20
8.3531850072
 30
0.0
 10
-5.963807538
 20
8.3508591034
 30
0.0
 10
-5.96404517
 20
8.3497153796
 30
0.0
  0
SPLINE
  5
2B9
100
AcDbEntity
  8
0
100
AcDbSpline
 62
7
  6
CONTINUOUS
 70
0
 71
3
 72
24
 73
20
 74
0
 42
0.0000001
 43
0.0000001
 44
0.0000000001
 40
0.0
 40
0.0
 40
0.0
 40
0.0
 40
0.1250061851
 40
0.2500010234
 40
0.3749807918
 40
0.4999456778
 40
0.5624531091
 40
0.6249581628
 40
0.6874609355
 40
0.7499613105
 40
0.8124583669
 40
0.843712057
 40
0.8749652967
 40
0.9062175953
 40
0.9374687162
 40
0.9530975735
 40
0.9687270822
 40
0.9843688714
 40
1.0
 40
1.0
 40
1.0
 40
1.0
 10
-6.2132440692
 20
8.6922429746
 30
0.0
 10
-6.2051133117
 20
8.6876425812
 30
0.0
 10
-6.189393444
 20
8.6774470737
 30
0.0
 10
-6.167832524
 20
8.6594457207
 30
0.0
 10
-6.1485848571
 20
8.6389908322
 30
0.0
 10
-6.13471292
 20
8.6201297719
 30
0.0
 10
-6.1250684319
 20
8.604118965
 30
0.0
 10
-6.118594107
 20
8.5916799631
 30
0.0
 10
-6.1129256913
 20
8.5788539372
 30
0.0
 10
-6.1081204472
 20
8.5656803037
 30
0.0
 10
-6.1049049822
 20
8.5544417115
 30
0.0
 10
-6.1028910854
 20
8.5453169563
 30
0.0
 10
-6.1016992034
 20
8.5384090661
 30
0.0
 10
-6.1008888812
 20
8.5314456962
 30
0.0
 10
-6.1006217806
 20
8.5256046747
 30
0.0
 10
-6.1007663402
 20
8.5209331308
 30
0.0
 10
-6.1011006104
 20
8.517440777
 30
0.0
 10
-6.1017326784
 20
8.5139881873
 30
0.0
 10
-6.1024131755
 20
8.511743677
 30
0.0
 10
-6.1028358157
 20
8.5106546645
 30
0.0
  0
SPLINE
  5
2BA
100
AcDbEntity
  8
0
100
AcDbSpline
 62
7
  6
CONTINUOUS
 70
0
 71
3
 72
24
 73
20
 74
0
 42
0.0000001
 43
0.0000001
 44
0.0000000001
 40
0.0
 40
0.0
 40
0.0
 40
0.0
 40
0.1250061851
 40
0.2500010234
 40
0.3749807918
 40
0.4999456778
 40
0.5624531091
 40
0.6249581628
 40
0.6874609355
 40
0.7499613105
 40
0.8124583668
 40
0.843712057
 40
0.8749652967
 40
0.9062175953
 40
0.9374687162
 40
0.9530975735
 40
0.9687270822
 40
0.9843688714
 40
1.0
 40
1.0
 40
1.0
 40
1.0
 10
-6.2922583344
 20
8.8895271418
 30
0.0
 10
-6.2849956612
 20
8.8836512238
 30
0.0
 10
-6.2711682987
 20
8.8710073849
 30
0.0
 10
-6.2528643355
 20
8.8497027629
 30
0.0
 10
-6.2372459114
 20
8.8263588136
 30
0.0
 10
-6.2266675672
 20
8.8054717633
 30
0.0
 10
-6.2197898841
 20
8.7880919025
 30
0.0
 10
-6.2154512333
 20
8.7747569199
 30
0.0
 10
-6.2119712019
 20
8.7611728388
 30
0.0
 10
-6.2093997837
 20
8.7473879631
 30
0.0
 10
-6.2080779679
 20
8.7357734045
 30
0.0
 10
-6.2075934096
 20
8.7264416232
 30
0.0
 10
-6.2075547744
 20
8.7194317703
 30
0.0
 10
-6.2079016266
 20
8.7124299967
 30
0.0
 10
-6.2085995609
 20
8.7066246747
 30
0.0
 10
-6.2095110531
 20
8.702040637
 30
0.0
 10
-6.2104155817
 20
8.6986509321
 30
0.0
 10
-6.2116073019
 20
8.6953494644
 30
0.0
 10
-6.2126479491
 20
8.6932475709
 30
0.0
 10
-6.2132440692
 20
8.6922429746
 30
0.0
  0
SPLINE
  5
2BB
100
AcDbEntity
  8
0
100
AcDbSpline
 62
7
  6
CONTINUOUS
 70
0
 71
3
 72
24
 73
20
 74
0
 42
0.0000001
 43
0.0000001
 44
0.0000000001
 40
0.0
 40
0.0
 40
0.0
 40
0.0
 40
0.1250061851
 40
0.2500010234
 40
0.3749807918
 40
0.4999456778
 40
0.5624531091
 40
0.6249581628
 40
0.6874609355
 40
0.7499613105
 40
0.8124583668
 40
0.843712057
 40
0.8749652967
 40
0.9062175953
 40
0.9374687162
 40
0.9530975735
 40
0.9687270822
 40
0.9843688714
 40
1.0
 40
1.0
 40
1.0
 40
1.0
 10
-6.3377233465
 20
9.097125864
 30
0.0
 10
-6.3315268607
 20
9.0901346982
 30
0.0
 10
-6.3199691713
 20
9.0753874127
 30
0.0
 10
-6.3054214405
 20
9.0513606461
 30
0.0
 10
-6.2938582815
 20
9.0257643867
 30
0.0
 10
-6.2868620748
 20
9.0034210806
 30
0.0
 10
-6.2829387985
 20
8.9851462348
 30
0.0
 10
-6.2808541669
 20
8.9712790085
 30
0.0
 10
-6.2796574443
 20
8.957307404
 30
0.0
 10
-6.2793899922
 20
8.9432872949
 30
0.0
 10
-6.2799978806
 20
8.9316135791
 30
0.0
 10
-6.2810558781
 20
8.922329314
 30
0.0
 10
-6.2821715435
 20
8.9154087055
 30
0.0
 10
-6.2836661092
 20
8.9085595147
 30
0.0
 10
-6.2853100409
 20
8.9029482436
 30
0.0
 10
-6.2869636029
 20
8.8985767504
 30
0.0
 10
-6.2884137173
 20
8.8953821551
 30
0.0
 10
-6.2901325832
 20
8.8923218633
 30
0.0
 10
-6.2915049949
 20
8.8904199198
 30
0.0
 10
-6.2922583344
 20
8.8895271418
 30
0.0
  0
SPLINE
  5
2BC
100
AcDbEntity
  8
0
100
AcDbSpline
 62
7
  6
CONTINUOUS
 70
0
 71
3
 72
24
 73
20
 74
0
 42
0.0000001
 43
0.0000001
 44
0.0000000001
 40
0.0
 40
0.0
 40
0.0
 40
0.0
 40
0.1250061851
 40
0.2500010234
 40
0.3749807918
 40
0.4999456778
 40
0.5624531091
 40
0.6249581628
 40
0.6874609355
 40
0.7499613105
 40
0.8124583668
 40
0.843712057
 40
0.8749652967
 40
0.9062175953
 40
0.9374687162
 40
0.9530975735
 40
0.9687270822
 40
0.9843688714
 40
1.0
 40
1.0
 40
1.0
 40
1.0
 10
-6.3483989604
 20
9.3093764895
 30
0.0
 10
-6.343437683
 20
9.3014607734
 30
0.0
 10
-6.3344649247
 20
9.2850123016
 30
0.0
 10
-6.3240702434
 20
9.2589187663
 30
0.0
 10
-6.3168777568
 20
9.2317683837
 30
0.0
 10
-6.3136545224
 20
9.2085782781
 30
0.0
 10
-6.3127926678
 20
9.1899069286
 30
0.0
 10
-6.3130189177
 20
9.1758857138
 30
0.0
 10
-6.3141381468
 20
9.1619076881
 30
0.0
 10
-6.3161819562
 20
9.1480347708
 30
0.0
 10
-6.3187029674
 20
9.1366203207
 30
0.0
 10
-6.3212746619
 20
9.1276368177
 30
0.0
 10
-6.323514196
 20
9.1209942266
 30
0.0
 10
-6.3261157079
 20
9.1144844434
 30
0.0
 10
-6.3286607957
 20
9.1092202812
 30
0.0
 10
-6.3310113234
 20
9.1051805734
 30
0.0
 10
-6.3329674691
 20
9.1022682263
 30
0.0
 10
-6.3351665953
 20
9.0995325857
 30
0.0
 10
-6.3368333362
 20
9.0978824713
 30
0.0
 10
-6.3377233465
 20
9.097125864
 30
0.0
  0
SPLINE
  5
2BD
100
AcDbEntity
  8
0
100
AcDbSpline
 62
7
  6
CONTINUOUS
 70
0
 71
3
 72
24
 73
20
 74
0
 42
0.0000001
 43
0.0000001
 44
0.0000000001
 40
0.0
 40
0.0
 40
0.0
 40
0.0
 40
0.1250061864
 40
0.2500010243
 40
0.3749807924
 40
0.4999456778
 40
0.5624531087
 40
0.624958162
 40
0.6874609342
 40
0.7499613088
 40
0.8124583647
 40
0.8437120547
 40
0.8749652942
 40
0.9062175924
 40
0.9374687136
 40
0.9530975709
 40
0.9687270799
 40
0.9843688712
 40
1.0
 40
1.0
 40
1.0
 40
1.0
 10
-6.3239939784
 20
9.5204894773
 30
0.0
 10
-6.3204032377
 20
9.511865127
 30
0.0
 10
-6.3142601596
 20
9.4941641324
 30
0.0
 10
-6.3083020627
 20
9.4667155793
 30
0.0
 10
-6.3056764372
 20
9.4387516521
 30
0.0
 10
-6.3063140951
 20
9.4153473016
 30
0.0
 10
-6.3085371709
 20
9.3967887451
 30
0.0
 10
-6.3110681308
 20
9.3829959973
 30
0.0
 10
-6.3144727825
 20
9.3693928278
 30
0.0
 10
-6.3187721044
 20
9.3560455127
 30
0.0
 10
-6.3231374731
 20
9.3452016793
 30
0.0
 10
-6.3271527165
 20
9.3367639807
 30
0.0
 10
-6.3304550317
 20
9.3305805963
 30
0.0
 10
-6.3340925286
 20
9.3245877875
 30
0.0
 10
-6.3374693503
 20
9.3198143242
 30
0.0
 10
-6.3404527287
 20
9.3162165926
 30
0.0
 10
-6.3428615479
 20
9.3136659333
 30
0.0
 10
-6.3454809493
 20
9.3113295636
 30
0.0
 10
-6.3473965561
 20
9.3099762883
 30
0.0
 10
-6.3483989604
 20
9.3093764895
 30
0.0
  0
SPLINE
  5
2BE
100
AcDbEntity
  8
0
100
AcDbSpline
 62
7
  6
CONTINUOUS
 70
0
 71
3
 72
24
 73
20
 74
0
 42
0.0000001
 43
0.0000001
 44
0.0000000001
 40
0.0
 40
0.0
 40
0.0
 40
0.0
 40
0.1250061851
 40
0.2500010234
 40
0.3749807918
 40
0.4999456778
 40
0.5624531091
 40
0.6249581628
 40
0.6874609355
 40
0.7499613105
 40
0.8124583668
 40
0.843712057
 40
0.8749652967
 40
0.9062175953
 40
0.9374687162
 40
0.9530975735
 40
0.9687270822
 40
0.9843688714
 40
1.0
 40
1.0
 40
1.0
 40
1.0
 10
-6.265174093
 20
9.7247063175
 30
0.0
 10
-6.2630518334
 20
9.7156085788
 30
0.0
 10
-6.2599059996
 20
9.6971378901
 30
0.0
 10
-6.2585470055
 20
9.6690830309
 30
0.0
 10
-6.26055986
 20
9.6410683284
 30
0.0
 10
-6.2650410168
 20
9.6180881311
 30
0.0
 10
-6.2702883844
 20
9.6001485876
 30
0.0
 10
-6.2750550177
 20
9.5869605301
 30
0.0
 10
-6.2806522237
 20
9.574103269
 30
0.0
 10
-6.287089786
 20
9.5616456296
 30
0.0
 10
-6.2931804385
 20
9.551668199
 30
0.0
 10
-6.2985297076
 20
9.5440064591
 30
0.0
 10
-6.302804727
 20
9.5384509448
 30
0.0
 10
-6.3073789894
 20
9.5331385757
 30
0.0
 10
-6.3114954358
 20
9.5289860169
 30
0.0
 10
-6.3150302874
 20
9.5259283964
 30
0.0
 10
-6.317826075
 20
9.5238089995
 30
0.0
 10
-6.320794302
 20
9.5219356298
 30
0.0
 10
-6.3229065226
 20
9.5209161069
 30
0.0
 10
-6.3239939784
 20
9.5204894773
 30
0.0
  0
SPLINE
  5
2BF
100
AcDbEntity
  8
0
100
AcDbSpline
 62
7
  6
CONTINUOUS
 70
0
 71
3
 72
24
 73
20
 74
0
 42
0.0000001
 43
0.0000001
 44
0.0000000001
 40
0.0
 40
0.0
 40
0.0
 40
0.0
 40
0.1250061943
 40
0.2500010243
 40
0.3749807933
 40
0.4999456789
 40
0.56245311
 40
0.6249581636
 40
0.6874609361
 40
0.749961311
 40
0.8124583672
 40
0.8437120573
 40
0.8749652969
 40
0.9062175955
 40
0.9374687163
 40
0.9530975736
 40
0.9687270822
 40
0.9843688714
 40
1.0
 40
1.0
 40
1.0
 40
1.0
 10
-6.1735437288
 20
9.916456606
 30
0.0
 10
-6.1729478389
 20
9.9071336363
 30
0.0
 10
-6.1728850582
 20
9.8883970765
 30
0.0
 10
-6.1761622362
 20
9.8605011611
 30
0.0
 10
-6.1827586662
 20
9.8331998385
 30
0.0
 10
-6.1909610899
 20
9.8112706232
 30
0.0
 10
-6.1990896173
 20
9.7944394281
 30
0.0
 10
-6.2059619048
 20
9.7822157906
 30
0.0
 10
-6.2135989905
 20
9.7704551444
 30
0.0
 10
-6.2219991965
 20
9.7592269865
 30
0.0
 10
-6.2296489985
 20
9.7503881123
 30
0.0
 10
-6.2361863816
 20
9.7437113197
 30
0.0
 10
-6.2413174959
 20
9.7389352129
 30
0.0
 10
-6.2467037519
 20
9.7344481886
 30
0.0
 10
-6.251447539
 20
9.7310298031
 30
0.0
 10
-6.2554374441
 20
9.7285956961
 30
0.0
 10
-6.2585439397
 20
9.726965372
 30
0.0
 10
-6.2617800285
 20
9.725606102
 30
0.0
 10
-6.2640312481
 20
9.7249481408
 30
0.0
 10
-6.265174093
 20
9.7247063175
 30
0.0
  0
SPLINE
  5
2C0
100
AcDbEntity
  8
0
100
AcDbSpline
 62
7
  6
CONTINUOUS
 70
0
 71
3
 72
24
 73
20
 74
0
 42
0.0000001
 43
0.0000001
 44
0.0000000001
 40
0.0
 40
0.0
 40
0.0
 40
0.0
 40
0.1250061851
 40
0.2500010234
 40
0.3749807918
 40
0.4999456778
 40
0.5624531091
 40
0.6249581628
 40
0.6874609355
 40
0.7499613105
 40
0.8124583668
 40
0.843712057
 40
0.8749652967
 40
0.9062175953
 40
0.9374687162
 40
0.9530975735
 40
0.9687270822
 40
0.9843688714
 40
1.0
 40
1.0
 40
1.0
 40
1.0
 10
-6.051602279
 20
10.0905099874
 30
0.0
 10
-6.0525490129
 20
10.0812160899
 30
0.0
 10
-6.0555709975
 20
10.0627247346
 30
0.0
 10
-6.063394956
 20
10.0357486774
 30
0.0
 10
-6.0743950317
 20
10.0099054293
 30
0.0
 10
-6.0860949853
 20
9.9896253572
 30
0.0
 10
-6.0968829514
 20
9.9743616135
 30
0.0
 10
-6.1056734385
 20
9.9634358188
 30
0.0
 10
-6.1151420878
 20
9.9530925815
 30
0.0
 10
-6.1252758057
 20
9.9434001746
 30
0.0
 10
-6.1342760943
 20
9.9359409539
 30
0.0
 10
-6.141823272
 20
9.9304312309
 30
0.0
 10
-6.1476705203
 20
9.926564809
 30
0.0
 10
-6.1537218495
 20
9.9230255215
 30
0.0
 10
-6.1589635815
 20
9.9204345523
 30
0.0
 10
-6.1632997077
 20
9.9186903538
 30
0.0
 10
-6.1666321757
 20
9.9175935727
 30
0.0
 10
-6.1700478557
 20
9.916785479
 30
0.0
 10
-6.1723766681
 20
9.9165070267
 30
0.0
 10
-6.1735437288
 20
9.916456606
 30
0.0
  0
SPLINE
  5
2C1
100
AcDbEntity
  8
0
100
AcDbSpline
 62
7
  6
CONTINUOUS
 70
0
 71
3
 72
24
 73
20
 74
0
 42
0.0000001
 43
0.0000001
 44
0.0000000001
 40
0.0
 40
0.0
 40
0.0
 40
0.0
 40
0.1250061808
 40
0.2500010151
 40
0.3749807794
 40
0.4999456614
 40
0.5624530906
 40
0.6249581423
 40
0.6874609129
 40
0.7499612859
 40
0.8124583404
 40
0.843712029
 40
0.8749652687
 40
0.9062175639
 40
0.9374686946
 40
0.9530975447
 40
0.9687270072
 40
0.9843688574
 40
1.0
 40
1.0
 40
1.0
 40
1.0
 10
-5.9026759295
 20
10.2421188235
 30
0.0
 10
-5.9051394631
 20
10.2331075066
 30
0.0
 10
-5.9111637825
 20
10.2153657433
 30
0.0
 10
-5.9233211077
 20
10.1900453686
 30
0.0
 10
-5.9384247799
 20
10.16636512
 30
0.0
 10
-5.9533031243
 20
10.1482873693
 30
0.0
 10
-5.9664562661
 20
10.1350074249
 30
0.0
 10
-5.9769251748
 20
10.1256774951
 30
0.0
 10
-5.9879671118
 20
10.1170337984
 30
0.0
 10
-5.9995579245
 20
10.1091415214
 30
0.0
 10
-6.0096631991
 20
10.1032654185
 30
0.0
 10
-6.0180143072
 20
10.0990730531
 30
0.0
 10
-6.024418194
 20
10.0962217801
 30
0.0
 10
-6.0309695353
 20
10.0937267697
 30
0.0
 10
-6.0365662336
 20
10.0920338904
 30
0.0
 10
-6.0411303014
 20
10.0910271747
 30
0.0
 10
-6.0445978438
 20
10.0904938615
 30
0.0
 10
-6.0480999473
 20
10.0902589735
 30
0.0
 10
-6.0504428353
 20
10.0903676302
 30
0.0
 10
-6.051602279
 20
10.0905099874
 30
0.0
  0
SPLINE
  5
2C2
100
AcDbEntity
  8
0
100
AcDbSpline
 62
7
  6
CONTINUOUS
 70
0
 71
3
 72
24
 73
20
 74
0
 42
0.0000001
 43
0.0000001
 44
0.0000000001
 40
0.0
 40
0.0
 40
0.0
 40
0.0
 40
0.1250061851
 40
0.2500010234
 40
0.3749807918
 40
0.4999456778
 40
0.5624531091
 40
0.6249581628
 40
0.6874609355
 40
0.7499613105
 40
0.8124583668
 40
0.843712057
 40
0.8749652967
 40
0.9062175953
 40
0.9374687162
 40
0.9530975735
 40
0.9687270822
 40
0.9843688714
 40
1.0
 40
1.0
 40
1.0
 40
1.0
 10
-5.7308269308
 20
10.3671476937
 30
0.0
 10
-5.7347400666
 20
10.3586647578
 30
0.0
 10
-5.7436023965
 20
10.3421565258
 30
0.0
 10
-5.7597614753
 20
10.3191824935
 30
0.0
 10
-5.7785567641
 20
10.2983111673
 30
0.0
 10
-5.7962076654
 20
10.2829288423
 30
0.0
 10
-5.8113672071
 20
10.2719949326
 30
0.0
 10
-5.8232289791
 20
10.2645153592
 30
0.0
 10
-5.8355430148
 20
10.2578069763
 30
0.0
 10
-5.848274762
 20
10.2519301062
 30
0.0
 10
-5.859209383
 20
10.2477974034
 30
0.0
 10
-5.8681366298
 20
10.2450367507
 30
0.0
 10
-5.874922478
 20
10.2432784007
 30
0.0
 10
-5.8817951302
 20
10.2418957247
 30
0.0
 10
-5.8875941348
 20
10.241147112
 30
0.0
 10
-5.8922616574
 20
10.2409053431
 30
0.0
 10
-5.8957696874
 20
10.2409500288
 30
0.0
 10
-5.8992626851
 20
10.2412947792
 30
0.0
 10
-5.9015557308
 20
10.2417875716
 30
0.0
 10
-5.9026759295
 20
10.2421188235
 30
0.0
  0
SPLINE
  5
2C3
100
AcDbEntity
  8
0
100
AcDbSpline
 62
7
  6
CONTINUOUS
 70
0
 71
3
 72
24
 73
20
 74
0
 42
0.0000001
 43
0.0000001
 44
0.0000000001
 40
0.0
 40
0.0
 40
0.0
 40
0.0
 40
0.1250061851
 40
0.2500010234
 40
0.3749807918
 40
0.4999456778
 40
0.5624531091
 40
0.6249581628
 40
0.6874609355
 40
0.7499613105
 40
0.8124583668
 40
0.8437120569
 40
0.8749652967
 40
0.9062175953
 40
0.9374687162
 40
0.9530975735
 40
0.9687270821
 40
0.9843688714
 40
1.0
 40
1.0
 40
1.0
 40
1.0
 10
-5.5407427924
 20
10.462186197
 30
0.0
 10
-5.5459987922
 20
10.4544630305
 30
0.0
 10
-5.5574573954
 20
10.439638624
 30
0.0
 10
-5.5771774574
 20
10.4196375955
 30
0.0
 10
-5.5991516846
 20
10.4021444975
 30
0.0
 10
-5.6190936801
 20
10.389877181
 30
0.0
 10
-5.6358461156
 20
10.3815875495
 30
0.0
 10
-5.6487771978
 20
10.3761623523
 30
0.0
 10
-5.6620274429
 20
10.3715722672
 30
0.0
 10
-5.6755528413
 20
10.3678711067
 30
0.0
 10
-5.6870185455
 20
10.3655945312
 30
0.0
 10
-5.6962784229
 20
10.3643408931
 30
0.0
 10
-5.703261135
 20
10.3637234284
 30
0.0
 10
-5.7102676338
 20
10.3634908014
 30
0.0
 10
-5.7161107655
 20
10.3637068749
 30
0.0
 10
-5.7207544238
 20
10.3642366456
 30
0.0
 10
-5.7242072548
 20
10.3648581196
 30
0.0
 10
-5.7275958698
 20
10.3657730915
 30
0.0
 10
-5.7297765317
 20
10.3666365826
 30
0.0
 10
-5.7308269308
 20
10.3671476937
 30
0.0
  0
SPLINE
  5
2C4
100
AcDbEntity
  8
0
100
AcDbSpline
 62
7
  6
CONTINUOUS
 70
0
 71
3
 72
24
 73
20
 74
0
 42
0.0000001
 43
0.0000001
 44
0.0000000001
 40
0.0
 40
0.0
 40
0.0
 40
0.0
 40
0.1250061851
 40
0.2500010234
 40
0.3749807918
 40
0.4999456778
 40
0.5624531091
 40
0.6249581628
 40
0.6874609355
 40
0.7499613105
 40
0.8124583668
 40
0.843712057
 40
0.8749652967
 40
0.9062175953
 40
0.9374687162
 40
0.9530975735
 40
0.9687270822
 40
0.9843688714
 40
1.0
 40
1.0
 40
1.0
 40
1.0
 10
-5.3376084222
 20
10.5246419767
 30
0.0
 10
-5.3440639185
 20
10.5178892437
 30
0.0
 10
-5.3578062397
 20
10.5051530267
 30
0.0
 10
-5.3805493826
 20
10.4886705683
 30
0.0
 10
-5.4051031593
 20
10.4750328562
 30
0.0
 10
-5.4267922929
 20
10.4662151626
 30
0.0
 10
-5.4446806676
 20
10.4607959248
 30
0.0
 10
-5.4583283401
 20
10.4575730863
 30
0.0
 10
-5.4721533688
 20
10.4552265023
 30
0.0
 10
-5.4861034873
 20
10.4538020078
 30
0.0
 10
-5.4977875257
 20
10.4534436575
 30
0.0
 10
-5.507127453
 20
10.4537312294
 30
0.0
 10
-5.5141165621
 20
10.4542714924
 30
0.0
 10
-5.5210657919
 20
10.4551952597
 30
0.0
 10
-5.5267936681
 20
10.4563701258
 30
0.0
 10
-5.5312867974
 20
10.4576569855
 30
0.0
 10
-5.5345902468
 20
10.4588382958
 30
0.0
 10
-5.5377820482
 20
10.4602985318
 30
0.0
 10
-5.5397908445
 20
10.4615091681
 30
0.0
 10
-5.5407427924
 20
10.462186197
 30
0.0
  0
SPLINE
  5
2C5
100
AcDbEntity
  8
0
100
AcDbSpline
 62
7
  6
CONTINUOUS
 70
0
 71
3
 72
25
 73
21
 74
0
 42
0.0000001
 43
0.0000001
 44
0.0000000001
 40
0.0
 40
0.0
 40
0.0
 40
0.0
 40
0.0156310396
 40
0.0312729812
 40
0.0469025913
 40
0.0625313855
 40
0.0781613234
 40
0.0937894922
 40
0.1250415992
 40
0.1562946351
 40
0.1875481247
 40
0.2500447779
 40
0.3125447645
 40
0.3750471501
 40
0.4375518043
 40
0.5000588287
 40
0.6250228056
 40
0.7500017761
 40
0.87499516
 40
1.0
 40
1.0
 40
1.0
 40
1.0
 10
-5.3376084222
 20
10.5246419767
 30
0.0
 10
-5.3367806675
 20
10.5238172739
 30
0.0
 10
-5.3349979902
 20
10.5222921421
 30
0.0
 10
-5.3320891981
 20
10.5203259753
 30
0.0
 10
-5.3290242371
 20
10.5186168888
 30
0.0
 10
-5.3258579547
 20
10.5171093312
 30
0.0
 10
-5.322618491
 20
10.5157678842
 30
0.0
 10
-5.3182288611
 20
10.5141628311
 30
0.0
 10
-5.3126402491
 20
10.5124507965
 30
0.0
 10
-5.3058338946
 20
10.5107673146
 30
0.0
 10
-5.2966659352
 20
10.5089465608
 30
0.0
 10
-5.2850790948
 20
10.5073772777
 30
0.0
 10
-5.2710808861
 20
10.506487206
 30
0.0
 10
-5.2570543931
 20
10.5065276492
 30
0.0
 10
-5.243058713
 20
10.5074620295
 30
0.0
 10
-5.2245176368
 20
10.5098660331
 30
0.0
 10
-5.2016675425
 20
10.514998363
 30
0.0
 10
-5.17519853
 20
10.524415988
 30
0.0
 10
-5.1500485634
 20
10.5369389447
 30
0.0
 10
-5.1343957081
 20
10.5472461387
 30
0.0
 10
-5.1269162761
 20
10.5528476867
 30
0.0
  0
SPLINE
  5
2C6
100
AcDbEntity
  8
0
100
AcDbSpline
 62
7
  6
CONTINUOUS
 70
0
 71
3
 72
25
 73
21
 74
0
 42
0.0000001
 43
0.0000001
 44
0.0000000001
 40
0.0
 40
0.0
 40
0.0
 40
0.0
 40
0.1250048889
 40
0.2499982136
 40
0.3749771283
 40
0.499941067
 40
0.5624480728
 40
0.6249527105
 40
0.6874550809
 40
0.749955053
 40
0.8124516874
 40
0.8437051737
 40
0.874958206
 40
0.9062103076
 40
0.9218384817
 40
0.9374684435
 40
0.9530972563
 40
0.968726911
 40
0.984368931
 40
1.0
 40
1.0
 40
1.0
 40
1.0
 10
27.0855140615
 20
10.5459179335
 30
0.0
 10
27.0772140508
 20
10.5416268652
 30
0.0
 10
27.0600773967
 20
10.5340426094
 30
0.0
 10
27.0332092507
 20
10.5258387306
 30
0.0
 10
27.0055522735
 20
10.5209145866
 30
0.0
 10
26.9821708513
 20
10.5196198678
 30
0.0
 10
26.9634888554
 20
10.520305451
 30
0.0
 10
26.949531912
 20
10.5216910891
 30
0.0
 10
26.9356919433
 20
10.5239634416
 30
0.0
 10
26.9220332789
 20
10.5271489037
 30
0.0
 10
26.9108647838
 20
10.5306068717
 30
0.0
 10
26.9021234118
 20
10.5339143181
 30
0.0
 10
26.8956885634
 20
10.5366971969
 30
0.0
 10
26.890459531
 20
10.5393077154
 30
0.0
 10
26.8863955082
 20
10.5416152787
 30
0.0
 10
26.883422399
 20
10.5434732506
 30
0.0
 10
26.8805491549
 20
10.5454833299
 30
0.0
 10
26.8778095202
 20
10.5476758958
 30
0.0
 10
26.8752671095
 20
10.5500968677
 30
0.0
 10
26.873762683
 20
10.5518968533
 30
0.0
 10
26.8730837239
 20
10.5528476867
 30
0.0
  0
SPLINE
  5
2C7
100
AcDbEntity
  8
0
100
AcDbSpline
 62
7
  6
CONTINUOUS
 70
0
 71
3
 72
24
 73
20
 74
0
 42
0.0000001
 43
0.0000001
 44
0.0000000001
 40
0.0
 40
0.0
 40
0.0
 40
0.0
 40
0.1250061957
 40
0.2500009603
 40
0.3749806903
 40
0.4999455587
 40
0.5624529869
 40
0.6249580411
 40
0.687460817
 40
0.7499611985
 40
0.8124582609
 40
0.8437119571
 40
0.8749652046
 40
0.9062175104
 40
0.9374686478
 40
0.9530975068
 40
0.9687270254
 40
0.9843688644
 40
1.0
 40
1.0
 40
1.0
 40
1.0
 10
27.2938889255
 20
10.5041541593
 30
0.0
 10
27.284997392
 20
10.5012882417
 30
0.0
 10
27.2668493768
 20
10.4966286297
 30
0.0
 10
27.2390024153
 20
10.492958713
 30
0.0
 10
27.2109171736
 20
10.4926524515
 30
0.0
 10
27.1876455279
 20
10.4952216021
 30
0.0
 10
27.1693340937
 20
10.4989703898
 30
0.0
 10
27.1557976102
 20
10.5026322568
 30
0.0
 10
27.142522241
 20
10.5071491662
 30
0.0
 10
27.1295757679
 20
10.5125365459
 30
0.0
 10
27.1191296762
 20
10.5177829132
 30
0.0
 10
27.111052563
 20
10.5224815521
 30
0.0
 10
27.1051631553
 20
10.5262834503
 30
0.0
 10
27.0994913635
 20
10.5304036386
 30
0.0
 10
27.0950132127
 20
10.5341633014
 30
0.0
 10
27.0916742679
 20
10.5374337275
 30
0.0
 10
27.0893313422
 20
10.5400450495
 30
0.0
 10
27.0872193736
 20
10.5428485312
 30
0.0
 10
27.0860289909
 20
10.5448694003
 30
0.0
 10
27.0855140615
 20
10.5459179335
 30
0.0
  0
SPLINE
  5
2C8
100
AcDbEntity
  8
0
100
AcDbSpline
 62
7
  6
CONTINUOUS
 70
0
 71
3
 72
24
 73
20
 74
0
 42
0.0000001
 43
0.0000001
 44
0.0000000001
 40
0.0
 40
0.0
 40
0.0
 40
0.0
 40
0.1250061932
 40
0.2500009587
 40
0.3749806892
 40
0.4999455588
 40
0.5624529877
 40
0.6249580426
 40
0.6874608193
 40
0.7499612016
 40
0.8124582648
 40
0.8437119612
 40
0.874965209
 40
0.9062175156
 40
0.9374686525
 40
0.9530975115
 40
0.9687270294
 40
0.9843688647
 40
1.0
 40
1.0
 40
1.0
 40
1.0
 10
27.4925478475
 20
10.4286629051
 30
0.0
 10
27.4833058707
 20
10.4272995596
 30
0.0
 10
27.4646384263
 20
10.4256905364
 30
0.0
 10
27.4365672112
 20
10.4266540905
 30
0.0
 10
27.4088146002
 20
10.430974644
 30
0.0
 10
27.386283208
 20
10.4373391086
 30
0.0
 10
27.3688385381
 20
10.4440507052
 30
0.0
 10
27.3560893893
 20
10.4498906424
 30
0.0
 10
27.3437385278
 20
10.4565309829
 30
0.0
 10
27.3318553503
 20
10.4639757879
 30
0.0
 10
27.3224152431
 20
10.470869958
 30
0.0
 10
27.3152216529
 20
10.4768339524
 30
0.0
 10
27.310038334
 20
10.4815533547
 30
0.0
 10
27.3051220514
 20
10.4865508881
 30
0.0
 10
27.3013237906
 20
10.4909963481
 30
0.0
 10
27.2985686735
 20
10.4947717378
 30
0.0
 10
27.2966875076
 20
10.4977330747
 30
0.0
 10
27.295065777
 20
10.5008459365
 30
0.0
 10
27.2942242506
 20
10.5030351726
 30
0.0
 10
27.2938889255
 20
10.5041541593
 30
0.0
  0
SPLINE
  5
2C9
100
AcDbEntity
  8
0
100
AcDbSpline
 62
7
  6
CONTINUOUS
 70
0
 71
3
 72
24
 73
20
 74
0
 42
0.0000001
 43
0.0000001
 44
0.0000000001
 40
0.0
 40
0.0
 40
0.0
 40
0.0
 40
0.1250061932
 40
0.2500009587
 40
0.3749806892
 40
0.4999455588
 40
0.5624529877
 40
0.6249580426
 40
0.6874608193
 40
0.7499612016
 40
0.8124582647
 40
0.8437119612
 40
0.874965209
 40
0.9062175156
 40
0.9374686525
 40
0.9530975115
 40
0.9687270294
 40
0.9843688647
 40
1.0
 40
1.0
 40
1.0
 40
1.0
 10
27.6760720262
 20
10.3215033391
 30
0.0
 10
27.6667316983
 20
10.3216797535
 30
0.0
 10
27.6480540149
 20
10.3231652082
 30
0.0
 10
27.6205242422
 20
10.3287359503
 30
0.0
 10
27.5938612674
 20
10.3375654676
 30
0.0
 10
27.5726847158
 20
10.3475516433
 30
0.0
 10
27.556582647
 20
10.3570429772
 30
0.0
 10
27.5449685905
 20
10.364901689
 30
0.0
 10
27.5338791302
 20
10.3734843327
 30
0.0
 10
27.5233833846
 20
10.3827834916
 30
0.0
 10
27.515206759
 20
10.3911374127
 30
0.0
 10
27.5090929109
 20
10.398204083
 30
0.0
 10
27.5047570657
 20
10.4037122587
 30
0.0
 10
27.5007303933
 20
10.4094508199
 30
0.0
 10
27.4977156271
 20
10.4144608183
 30
0.0
 10
27.4956194888
 20
10.4186381909
 30
0.0
 10
27.4942513949
 20
10.4218687668
 30
0.0
 10
27.4931641378
 20
10.4252060997
 30
0.0
 10
27.4926944218
 20
10.4275039875
 30
0.0
 10
27.4925478475
 20
10.4286629051
 30
0.0
  0
SPLINE
  5
2CA
100
AcDbEntity
  8
0
100
AcDbSpline
 62
7
  6
CONTINUOUS
 70
0
 71
3
 72
24
 73
20
 74
0
 42
0.0000001
 43
0.0000001
 44
0.0000000001
 40
0.0
 40
0.0
 40
0.0
 40
0.0
 40
0.1250061932
 40
0.2500009587
 40
0.3749806891
 40
0.4999455588
 40
0.5624529877
 40
0.6249580426
 40
0.6874608193
 40
0.7499612016
 40
0.8124582648
 40
0.8437119613
 40
0.8749652091
 40
0.9062175157
 40
0.9374686526
 40
0.9530975116
 40
0.9687270295
 40
0.9843688647
 40
1.0
 40
1.0
 40
1.0
 40
1.0
 10
27.8394554892
 20
10.185598443
 30
0.0
 10
27.8302715856
 20
10.1873098053
 30
0.0
 10
27.8120931325
 20
10.1918492192
 30
0.0
 10
27.7858557294
 20
10.2018751968
 30
0.0
 10
27.7610096743
 20
10.2149728359
 30
0.0
 10
27.7417655942
 20
10.2283083308
 30
0.0
 10
27.7274453411
 20
10.2403205075
 30
0.0
 10
27.7172831725
 20
10.2499836328
 30
0.0
 10
27.7077575996
 20
10.2602744715
 30
0.0
 10
27.6989355775
 20
10.271174332
 30
0.0
 10
27.6922454666
 20
10.280760135
 30
0.0
 10
27.6873781273
 20
10.2887367243
 30
0.0
 10
27.6840080243
 20
10.2948834274
 30
0.0
 10
27.6809807973
 20
10.3012064862
 30
0.0
 10
27.6788317592
 20
10.3066443658
 30
0.0
 10
27.6774517759
 20
10.3111097754
 30
0.0
 10
27.6766340713
 20
10.3145214701
 30
0.0
 10
27.6761109449
 20
10.317992242
 30
0.0
 10
27.6760258516
 20
10.3203361022
 30
0.0
 10
27.6760720262
 20
10.3215033391
 30
0.0
  0
SPLINE
  5
2CB
100
AcDbEntity
  8
0
100
AcDbSpline
 62
7
  6
CONTINUOUS
 70
0
 71
3
 72
24
 73
20
 74
0
 42
0.0000001
 43
0.0000001
 44
0.0000000001
 40
0.0
 40
0.0
 40
0.0
 40
0.0
 40
0.1250061932
 40
0.2500009587
 40
0.3749806892
 40
0.4999455588
 40
0.5624529877
 40
0.6249580426
 40
0.6874608193
 40
0.7499612016
 40
0.8124582647
 40
0.8437119612
 40
0.874965209
 40
0.9062175156
 40
0.9374686525
 40
0.9530975115
 40
0.9687270294
 40
0.9843688647
 40
1.0
 40
1.0
 40
1.0
 40
1.0
 10
27.9782416406
 20
10.0246552824
 30
0.0
 10
27.9694646698
 20
10.0278549119
 30
0.0
 10
27.9522812991
 20
10.0353244639
 30
0.0
 10
27.9280519407
 20
10.0495321993
 30
0.0
 10
27.9057005289
 20
10.0665406971
 30
0.0
 10
27.8889138393
 20
10.0828617599
 30
0.0
 10
27.8767660143
 20
10.0970671246
 30
0.0
 10
27.8683329261
 20
10.108271083
 30
0.0
 10
27.8606310687
 20
10.1199894145
 30
0.0
 10
27.8537234077
 20
10.1321926621
 30
0.0
 10
27.8487022969
 20
10.1427488759
 30
0.0
 10
27.8452142326
 20
10.1514178075
 30
0.0
 10
27.8429017977
 20
10.158035375
 30
0.0
 10
27.8409565895
 20
10.1647704577
 30
0.0
 10
27.8397318986
 20
10.17048789
 30
0.0
 10
27.8391057119
 20
10.1751195342
 30
0.0
 10
27.8388607011
 20
10.1786192872
 30
0.0
 10
27.8389159746
 20
10.1821288261
 30
0.0
 10
27.8392178251
 20
10.1844547254
 30
0.0
 10
27.8394554892
 20
10.185598443
 30
0.0
  0
SPLINE
  5
2CC
100
AcDbEntity
  8
0
100
AcDbSpline
 62
7
  6
CONTINUOUS
 70
0
 71
3
 72
24
 73
20
 74
0
 42
0.0000001
 43
0.0000001
 44
0.0000000001
 40
0.0
 40
0.0
 40
0.0
 40
0.0
 40
0.1250061932
 40
0.2500009587
 40
0.3749806892
 40
0.4999455588
 40
0.5624529877
 40
0.6249580426
 40
0.6874608193
 40
0.7499612016
 40
0.8124582648
 40
0.8437119612
 40
0.8749652091
 40
0.9062175157
 40
0.9374686525
 40
0.9530975115
 40
0.9687270294
 40
0.9843688647
 40
1.0
 40
1.0
 40
1.0
 40
1.0
 10
28.0886448231
 20
9.8430638893
 30
0.0
 10
28.0805141936
 20
9.84766451
 30
0.0
 10
28.0647946146
 20
9.8578604538
 30
0.0
 10
28.043234203
 20
9.8758624038
 30
0.0
 10
28.023987112
 20
9.896317821
 30
0.0
 10
28.0101157019
 20
9.9151792637
 30
0.0
 10
28.0004716601
 20
9.9311903379
 30
0.0
 10
27.9939976808
 20
9.94362952
 30
0.0
 10
27.9883296219
 20
9.9564557046
 30
0.0
 10
27.9835247415
 20
9.9696294723
 30
0.0
 10
27.9803095914
 20
9.9808681561
 30
0.0
 10
27.9782959454
 20
9.9899929683
 30
0.0
 10
27.9771042548
 20
9.9969008933
 30
0.0
 10
27.9762941246
 20
10.0038642879
 30
0.0
 10
27.9760271868
 20
10.0097053189
 30
0.0
 10
27.9761718772
 20
10.0143768606
 30
0.0
 10
27.9765062433
 20
10.0178692095
 30
0.0
 10
27.977138409
 20
10.0213217862
 30
0.0
 10
27.9778189698
 20
10.0235662813
 30
0.0
 10
27.9782416406
 20
10.0246552824
 30
0.0
  0
SPLINE
  5
2CD
100
AcDbEntity
  8
0
100
AcDbSpline
 62
7
  6
CONTINUOUS
 70
0
 71
3
 72
24
 73
20
 74
0
 42
0.0000001
 43
0.0000001
 44
0.0000000001
 40
0.0
 40
0.0
 40
0.0
 40
0.0
 40
0.1250061932
 40
0.2500009587
 40
0.3749806892
 40
0.4999455588
 40
0.5624529877
 40
0.6249580426
 40
0.6874608193
 40
0.7499612016
 40
0.8124582648
 40
0.8437119612
 40
0.874965209
 40
0.9062175156
 40
0.9374686525
 40
0.9530975115
 40
0.9687270294
 40
0.9843688647
 40
1.0
 40
1.0
 40
1.0
 40
1.0
 10
28.1676535791
 20
9.6457775156
 30
0.0
 10
28.1603910695
 20
9.6516536368
 30
0.0
 10
28.1465640636
 20
9.6642978586
 30
0.0
 10
28.1282607002
 20
9.6856029856
 30
0.0
 10
28.1126429312
 20
9.7089473617
 30
0.0
 10
28.1020651698
 20
9.7298347025
 30
0.0
 10
28.0951879707
 20
9.7472147534
 30
0.0
 10
28.0908496906
 20
9.760549857
 30
0.0
 10
28.0873700372
 20
9.7741340358
 30
0.0
 10
28.0847989997
 20
9.787918984
 30
0.0
 10
28.0834775096
 20
9.7995335812
 30
0.0
 10
28.0829932082
 20
9.8088653774
 30
0.0
 10
28.0829547674
 20
9.815875233
 30
0.0
 10
28.0833018132
 20
9.8228769995
 30
0.0
 10
28.0839999096
 20
9.8286823041
 30
0.0
 10
28.0849115304
 20
9.8332663182
 30
0.0
 10
28.0858161529
 20
9.8366560025
 30
0.0
 10
28.0870079672
 20
9.8399574411
 30
0.0
 10
28.0880486748
 20
9.8420593091
 30
0.0
 10
28.0886448231
 20
9.8430638893
 30
0.0
  0
SPLINE
  5
2CE
100
AcDbEntity
  8
0
100
AcDbSpline
 62
7
  6
CONTINUOUS
 70
0
 71
3
 72
24
 73
20
 74
0
 42
0.0000001
 43
0.0000001
 44
0.0000000001
 40
0.0
 40
0.0
 40
0.0
 40
0.0
 40
0.1250061932
 40
0.2500009587
 40
0.3749806892
 40
0.4999455588
 40
0.5624529877
 40
0.6249580426
 40
0.6874608193
 40
0.7499612016
 40
0.8124582648
 40
0.8437119612
 40
0.874965209
 40
0.9062175156
 40
0.9374686525
 40
0.9530975115
 40
0.9687270294
 40
0.9843688647
 40
1.0
 40
1.0
 40
1.0
 40
1.0
 10
28.213112794
 20
9.4381775239
 30
0.0
 10
28.206916503
 20
9.4451688632
 30
0.0
 10
28.1953592283
 20
9.4599164676
 30
0.0
 10
28.1808121722
 20
9.4839436337
 30
0.0
 10
28.1692497296
 20
9.5095402063
 30
0.0
 10
28.1622541455
 20
9.5318837029
 30
0.0
 10
28.158331378
 20
9.5501586567
 30
0.0
 10
28.1562471319
 20
9.5640259411
 30
0.0
 10
28.1550507982
 20
9.5779975798
 30
0.0
 10
28.1547837337
 20
9.5920176978
 30
0.0
 10
28.1553919496
 20
9.603691398
 30
0.0
 10
28.156450203
 20
9.6129756356
 30
0.0
 10
28.1575660607
 20
9.6198962148
 30
0.0
 10
28.159060816
 20
9.6267453666
 30
0.0
 10
28.1607049048
 20
9.6323565939
 30
0.0
 10
28.1623585897
 20
9.6367280426
 30
0.0
 10
28.1638087934
 20
9.6399226022
 30
0.0
 10
28.1655277474
 20
9.6429828499
 30
0.0
 10
28.1669002143
 20
9.6448847583
 30
0.0
 10
28.1676535791
 20
9.6457775156
 30
0.0
  0
SPLINE
  5
2CF
100
AcDbEntity
  8
0
100
AcDbSpline
 62
7
  6
CONTINUOUS
 70
0
 71
3
 72
24
 73
20
 74
0
 42
0.0000001
 43
0.0000001
 44
0.0000000001
 40
0.0
 40
0.0
 40
0.0
 40
0.0
 40
0.1250061932
 40
0.2500009587
 40
0.3749806892
 40
0.4999455588
 40
0.5624529877
 40
0.6249580426
 40
0.6874608193
 40
0.7499612016
 40
0.8124582648
 40
0.8437119612
 40
0.874965209
 40
0.9062175156
 40
0.9374686525
 40
0.9530975115
 40
0.9687270294
 40
0.9843688647
 40
1.0
 40
1.0
 40
1.0
 40
1.0
 10
28.2237824807
 20
9.2259266004
 30
0.0
 10
28.218821424
 20
9.2338424556
 30
0.0
 10
28.2098491272
 20
9.2502911736
 30
0.0
 10
28.1994551773
 20
9.276384992
 30
0.0
 10
28.1922634488
 20
9.3035355655
 30
0.0
 10
28.18904086
 20
9.3267257566
 30
0.0
 10
28.1881795249
 20
9.3453971288
 30
0.0
 10
28.1884061646
 20
9.3594183375
 30
0.0
 10
28.189525783
 20
9.373396333
 30
0.0
 10
28.1915699761
 20
9.3872691952
 30
0.0
 10
28.1940913079
 20
9.3986835761
 30
0.0
 10
28.1966632501
 20
9.4076670098
 30
0.0
 10
28.1989029691
 20
9.4143095404
 30
0.0
 10
28.2015046617
 20
9.4208192539
 30
0.0
 10
28.2040498971
 20
9.426083347
 30
0.0
 10
28.2064005389
 20
9.4301229907
 30
0.0
 10
28.2083567666
 20
9.4330352878
 30
0.0
 10
28.2105559724
 20
9.4357708704
 30
0.0
 10
28.2122227622
 20
9.4374209411
 30
0.0
 10
28.213112794
 20
9.4381775239
 30
0.0
  0
SPLINE
  5
2D0
100
AcDbEntity
  8
0
100
AcDbSpline
 62
7
  6
CONTINUOUS
 70
0
 71
3
 72
24
 73
20
 74
0
 42
0.0000001
 43
0.0000001
 44
0.0000000001
 40
0.0
 40
0.0
 40
0.0
 40
0.0
 40
0.1250061946
 40
0.2500009596
 40
0.3749806898
 40
0.4999455587
 40
0.5624529873
 40
0.6249580418
 40
0.687460818
 40
0.7499611999
 40
0.8124582626
 40
0.8437119589
 40
0.8749652065
 40
0.9062175127
 40
0.9374686499
 40
0.9530975089
 40
0.9687270271
 40
0.9843688645
 40
1.0
 40
1.0
 40
1.0
 40
1.0
 10
28.1993716034
 20
9.0148142942
 30
0.0
 10
28.1957811033
 20
9.0234387453
 30
0.0
 10
28.1896385209
 20
9.0411399069
 30
0.0
 10
28.1836811918
 20
9.0685886188
 30
0.0
 10
28.1810563456
 20
9.0965526095
 30
0.0
 10
28.1816946543
 20
9.1199569382
 30
0.0
 10
28.1839182463
 20
9.1385154314
 30
0.0
 10
28.1864495898
 20
9.1523081091
 30
0.0
 10
28.1898546204
 20
9.1659111847
 30
0.0
 10
28.1941543117
 20
9.1792583823
 30
0.0
 10
28.1985199852
 20
9.1901020946
 30
0.0
 10
28.2025354616
 20
9.1985396841
 30
0.0
 10
28.2058379492
 20
9.2047229785
 30
0.0
 10
28.2094756129
 20
9.2107156888
 30
0.0
 10
28.2128525688
 20
9.2154890595
 30
0.0
 10
28.2158360491
 20
9.2190867092
 30
0.0
 10
28.2182449411
 20
9.2216373057
 30
0.0
 10
28.2208644115
 20
9.2239736051
 30
0.0
 10
28.2227800592
 20
9.2253268293
 30
0.0
 10
28.2237824807
 20
9.2259266004
 30
0.0
  0
SPLINE
  5
2D1
100
AcDbEntity
  8
0
100
AcDbSpline
 62
7
  6
CONTINUOUS
 70
0
 71
3
 72
24
 73
20
 74
0
 42
0.0000001
 43
0.0000001
 44
0.0000000001
 40
0.0
 40
0.0
 40
0.0
 40
0.0
 40
0.1250061932
 40
0.2500009587
 40
0.3749806892
 40
0.4999455588
 40
0.5624529877
 40
0.6249580426
 40
0.6874608193
 40
0.7499612016
 40
0.8124582648
 40
0.8437119612
 40
0.874965209
 40
0.9062175156
 40
0.9374686525
 40
0.9530975115
 40
0.9687270294
 40
0.9843688647
 40
1.0
 40
1.0
 40
1.0
 40
1.0
 10
28.1405460152
 20
8.8105990966
 30
0.0
 10
28.1384240094
 20
8.8196968951
 30
0.0
 10
28.1352786922
 20
8.838167667
 30
0.0
 10
28.1339204816
 20
8.8662225564
 30
0.0
 10
28.1359341152
 20
8.8942371933
 30
0.0
 10
28.1404159103
 20
8.9172172619
 30
0.0
 10
28.1456637767
 20
8.9351566581
 30
0.0
 10
28.1504307767
 20
8.9483445833
 30
0.0
 10
28.156028341
 20
8.9612016894
 30
0.0
 10
28.1624662484
 20
8.9736591522
 30
0.0
 10
28.1685571816
 20
8.9836364132
 30
0.0
 10
28.1739066625
 20
8.9912980071
 30
0.0
 10
28.1781818372
 20
8.9968534041
 30
0.0
 10
28.1827562478
 20
9.0021656487
 30
0.0
 10
28.1868728114
 20
9.0063180941
 30
0.0
 10
28.1904077501
 20
9.0093756171
 30
0.0
 10
28.1932035991
 20
9.01149494
 30
0.0
 10
28.1961718826
 20
9.013368229
 30
0.0
 10
28.1982841352
 20
9.0143876948
 30
0.0
 10
28.1993716034
 20
9.0148142942
 30
0.0
  0
SPLINE
  5
2D2
100
AcDbEntity
  8
0
100
AcDbSpline
 62
7
  6
CONTINUOUS
 70
0
 71
3
 72
24
 73
20
 74
0
 42
0.0000001
 43
0.0000001
 44
0.0000000001
 40
0.0
 40
0.0
 40
0.0
 40
0.0
 40
0.1250062024
 40
0.2500009597
 40
0.3749806907
 40
0.4999455598
 40
0.5624529886
 40
0.6249580434
 40
0.6874608199
 40
0.7499612021
 40
0.8124582651
 40
0.8437119615
 40
0.8749652093
 40
0.9062175158
 40
0.9374686526
 40
0.9530975116
 40
0.9687270294
 40
0.9843688647
 40
1.0
 40
1.0
 40
1.0
 40
1.0
 10
28.0489102963
 20
8.618851367
 30
0.0
 10
28.0483146667
 20
8.6281743539
 30
0.0
 10
28.0482524091
 20
8.6469109107
 30
0.0
 10
28.0515303649
 20
8.674806727
 30
0.0
 10
28.0581275526
 20
8.7021078567
 30
0.0
 10
28.0663305847
 20
8.7240368399
 30
0.0
 10
28.0744595799
 20
8.7408678076
 30
0.0
 10
28.0813322074
 20
8.7530912544
 30
0.0
 10
28.088969621
 20
8.7648516886
 30
0.0
 10
28.0973701382
 20
8.7760796155
 30
0.0
 10
28.1050201892
 20
8.7849182762
 30
0.0
 10
28.1115577573
 20
8.79159489
 30
0.0
 10
28.1166890054
 20
8.7963708555
 30
0.0
 10
28.1220753871
 20
8.8008577326
 30
0.0
 10
28.1268192712
 20
8.804275987
 30
0.0
 10
28.130809246
 20
8.8067099834
 30
0.0
 10
28.13391579
 20
8.8083402245
 30
0.0
 10
28.1371519212
 20
8.8096994055
 30
0.0
 10
28.139403163
 20
8.8103573051
 30
0.0
 10
28.1405460152
 20
8.8105990966
 30
0.0
  0
SPLINE
  5
2D3
100
AcDbEntity
  8
0
100
AcDbSpline
 62
7
  6
CONTINUOUS
 70
0
 71
3
 72
24
 73
20
 74
0
 42
0.0000001
 43
0.0000001
 44
0.0000000001
 40
0.0
 40
0.0
 40
0.0
 40
0.0
 40
0.1250061932
 40
0.2500009587
 40
0.3749806892
 40
0.4999455588
 40
0.5624529877
 40
0.6249580426
 40
0.6874608193
 40
0.7499612016
 40
0.8124582648
 40
0.8437119612
 40
0.874965209
 40
0.9062175156
 40
0.9374686525
 40
0.9530975115
 40
0.9687270294
 40
0.9843688647
 40
1.0
 40
1.0
 40
1.0
 40
1.0
 10
27.9269639861
 20
8.4448013909
 30
0.0
 10
27.9279109795
 20
8.4540952625
 30
0.0
 10
27.9309334797
 20
8.4725865288
 30
0.0
 10
27.9387581891
 20
8.4995623601
 30
0.0
 10
27.9497589803
 20
8.5254052933
 30
0.0
 10
27.9614594959
 20
8.5456850363
 30
0.0
 10
27.9722478859
 20
8.5609484788
 30
0.0
 10
27.9810386769
 20
8.5718740293
 30
0.0
 10
27.9905076149
 20
8.5822170036
 30
0.0
 10
28.0006416017
 20
8.5919091314
 30
0.0
 10
28.0096421008
 20
8.5993681006
 30
0.0
 10
28.0171894314
 20
8.6048776168
 30
0.0
 10
28.0230367884
 20
8.6087438773
 30
0.0
 10
28.0290882174
 20
8.6122829989
 30
0.0
 10
28.0343300235
 20
8.6148738227
 30
0.0
 10
28.0386662003
 20
8.6166179007
 30
0.0
 10
28.0419987023
 20
8.617714592
 30
0.0
 10
28.0454144096
 20
8.6185225909
 30
0.0
 10
28.0477432337
 20
8.6188009788
 30
0.0
 10
28.0489102963
 20
8.618851367
 30
0.0
  0
SPLINE
  5
2D4
100
AcDbEntity
  8
0
100
AcDbSpline
 62
7
  6
CONTINUOUS
 70
0
 71
3
 72
24
 73
20
 74
0
 42
0.0000001
 43
0.0000001
 44
0.0000000001
 40
0.0
 40
0.0
 40
0.0
 40
0.0
 40
0.125006189
 40
0.2500009504
 40
0.3749806767
 40
0.4999455423
 40
0.5624529692
 40
0.6249580221
 40
0.6874607967
 40
0.749961177
 40
0.8124582382
 40
0.8437119333
 40
0.874965181
 40
0.9062174841
 40
0.9374686309
 40
0.9530974826
 40
0.9687269544
 40
0.9843688507
 40
1.0
 40
1.0
 40
1.0
 40
1.0
 10
27.7780334029
 20
8.2931967137
 30
0.0
 10
27.7804971883
 20
8.3022079623
 30
0.0
 10
27.7865220015
 20
8.3199495529
 30
0.0
 10
27.7986800302
 20
8.3452695813
 30
0.0
 10
27.8137843564
 20
8.3689494014
 30
0.0
 10
27.8286632009
 20
8.3870267351
 30
0.0
 10
27.8418167112
 20
8.4003063126
 30
0.0
 10
27.8522858796
 20
8.4096359515
 30
0.0
 10
27.8633280579
 20
8.4182793413
 30
0.0
 10
27.87491909
 20
8.4261712988
 30
0.0
 10
27.8850245308
 20
8.4320471189
 30
0.0
 10
27.8933757557
 20
8.4362392551
 30
0.0
 10
27.8997797232
 20
8.4390903511
 30
0.0
 10
27.9063311356
 20
8.4415851813
 30
0.0
 10
27.911927883
 20
8.4432779052
 30
0.0
 10
27.9164919809
 20
8.4442844936
 30
0.0
 10
27.9199595421
 20
8.4448177125
 30
0.0
 10
27.9234616569
 20
8.4450525027
 30
0.0
 10
27.9258045458
 20
8.4449437806
 30
0.0
 10
27.9269639861
 20
8.4448013909
 30
0.0
  0
SPLINE
  5
2D5
100
AcDbEntity
  8
0
100
AcDbSpline
 62
7
  6
CONTINUOUS
 70
0
 71
3
 72
24
 73
20
 74
0
 42
0.0000001
 43
0.0000001
 44
0.0000000001
 40
0.0
 40
0.0
 40
0.0
 40
0.0
 40
0.1250061932
 40
0.2500009587
 40
0.3749806892
 40
0.4999455588
 40
0.5624529877
 40
0.6249580426
 40
0.6874608193
 40
0.7499612016
 40
0.8124582648
 40
0.8437119612
 40
0.874965209
 40
0.9062175156
 40
0.9374686525
 40
0.9530975115
 40
0.9687270294
 40
0.9843688647
 40
1.0
 40
1.0
 40
1.0
 40
1.0
 10
27.6061809128
 20
8.1681726424
 30
0.0
 10
27.6100942858
 20
8.1766554697
 30
0.0
 10
27.6189570743
 20
8.19316345
 30
0.0
 10
27.63511679
 20
8.2161370249
 30
0.0
 10
27.6539126533
 20
8.2370078208
 30
0.0
 10
27.6715639792
 20
8.2523896521
 30
0.0
 10
27.6867238241
 20
8.2633231393
 30
0.0
 10
27.6985858043
 20
8.270802383
 30
0.0
 10
27.7109000276
 20
8.2775104235
 30
0.0
 10
27.7236319386
 20
8.2833869423
 30
0.0
 10
27.7345666769
 20
8.2875193388
 30
0.0
 10
27.7434940012
 20
8.2902797462
 30
0.0
 10
27.7502798998
 20
8.2920379083
 30
0.0
 10
27.7571525926
 20
8.293420395
 30
0.0
 10
27.7629516201
 20
8.2941688463
 30
0.0
 10
27.7676191514
 20
8.2944104847
 30
0.0
 10
27.7711271845
 20
8.2943657029
 30
0.0
 10
27.7746201772
 20
8.2940208541
 30
0.0
 10
27.776913213
 20
8.293527997
 30
0.0
 10
27.7780334029
 20
8.2931967137
 30
0.0
  0
SPLINE
  5
2D6
100
AcDbEntity
  8
0
100
AcDbSpline
 62
7
  6
CONTINUOUS
 70
0
 71
3
 72
24
 73
20
 74
0
 42
0.0000001
 43
0.0000001
 44
0.0000000001
 40
0.0
 40
0.0
 40
0.0
 40
0.0
 40
0.1250061932
 40
0.2500009587
 40
0.3749806892
 40
0.4999455588
 40
0.5624529877
 40
0.6249580426
 40
0.6874608193
 40
0.7499612016
 40
0.8124582647
 40
0.8437119612
 40
0.874965209
 40
0.9062175156
 40
0.9374686525
 40
0.9530975115
 40
0.9687270294
 40
0.9843688647
 40
1.0
 40
1.0
 40
1.0
 40
1.0
 10
27.4160941205
 20
8.0731394473
 30
0.0
 10
27.4213503363
 20
8.0808624676
 30
0.0
 10
27.4328093505
 20
8.0956865503
 30
0.0
 10
27.4525299654
 20
8.1156870228
 30
0.0
 10
27.4745046721
 20
8.1331795032
 30
0.0
 10
27.4944470051
 20
8.1454462629
 30
0.0
 10
27.5111996701
 20
8.1537354277
 30
0.0
 10
27.5241309034
 20
8.1591602656
 30
0.0
 10
27.5373812772
 20
8.163749982
 30
0.0
 10
27.5509067793
 20
8.167450769
 30
0.0
 10
27.5623725488
 20
8.1697270231
 30
0.0
 10
27.5716324623
 20
8.1709804065
 30
0.0
 10
27.5786151932
 20
8.1715976776
 30
0.0
 10
27.5856217008
 20
8.1718301112
 30
0.0
 10
27.5914648285
 20
8.1716138746
 30
0.0
 10
27.5961084739
 20
8.1710839738
 30
0.0
 10
27.5995612921
 20
8.1704624046
 30
0.0
 10
27.602949886
 20
8.1695473364
 30
0.0
 10
27.6051305275
 20
8.1686837831
 30
0.0
 10
27.6061809128
 20
8.1681726424
 30
0.0
  0
SPLINE
  5
2D7
100
AcDbEntity
  8
0
100
AcDbSpline
 62
7
  6
CONTINUOUS
 70
0
 71
3
 72
24
 73
20
 74
0
 42
0.0000001
 43
0.0000001
 44
0.0000000001
 40
0.0
 40
0.0
 40
0.0
 40
0.0
 40
0.1250061932
 40
0.2500009587
 40
0.3749806892
 40
0.4999455588
 40
0.5624529877
 40
0.6249580426
 40
0.6874608193
 40
0.7499612016
 40
0.8124582648
 40
0.8437119612
 40
0.874965209
 40
0.9062175156
 40
0.9374686525
 40
0.9530975115
 40
0.9687270294
 40
0.9843688647
 40
1.0
 40
1.0
 40
1.0
 40
1.0
 10
27.2129580063
 20
8.0106893403
 30
0.0
 10
27.2194136916
 20
8.0174418934
 30
0.0
 10
27.2331563649
 20
8.0301777235
 30
0.0
 10
27.2558999616
 20
8.0466595425
 30
0.0
 10
27.2804541096
 20
8.0602965665
 30
0.0
 10
27.3021434845
 20
8.0691136553
 30
0.0
 10
27.3200320087
 20
8.0745323949
 30
0.0
 10
27.3336797711
 20
8.0777548541
 30
0.0
 10
27.3475048661
 20
8.0801010533
 30
0.0
 10
27.3614550254
 20
8.0815251624
 30
0.0
 10
27.3731390753
 20
8.0818831849
 30
0.0
 10
27.3824789962
 20
8.0815953558
 30
0.0
 10
27.389468092
 20
8.0810548987
 30
0.0
 10
27.3964172987
 20
8.0801309391
 30
0.0
 10
27.4021451441
 20
8.078955913
 30
0.0
 10
27.4066382393
 20
8.077668927
 30
0.0
 10
27.4099416604
 20
8.0764875248
 30
0.0
 10
27.4131334252
 20
8.0750271974
 30
0.0
 10
27.4151421911
 20
8.0738165031
 30
0.0
 10
27.4160941205
 20
8.0731394473
 30
0.0
  0
SPLINE
  5
2D8
100
AcDbEntity
  8
0
100
AcDbSpline
 62
7
  6
CONTINUOUS
 70
0
 71
3
 72
24
 73
20
 74
0
 42
0.0000001
 43
0.0000001
 44
0.0000000001
 40
0.0
 40
0.0
 40
0.0
 40
0.0
 40
0.1250061932
 40
0.2500009587
 40
0.3749806892
 40
0.4999455588
 40
0.5624529877
 40
0.6249580426
 40
0.6874608193
 40
0.7499612016
 40
0.8124582648
 40
0.8437119612
 40
0.874965209
 40
0.9062175156
 40
0.9374686525
 40
0.9530975115
 40
0.9687270294
 40
0.9843688647
 40
1.0
 40
1.0
 40
1.0
 40
1.0
 10
27.0023134955
 20
7.9825257672
 30
0.0
 10
27.0097925592
 20
7.9881236644
 30
0.0
 10
27.0254440339
 20
7.9984238477
 30
0.0
 10
27.0505902375
 20
8.0109374401
 30
0.0
 10
27.0770540654
 20
8.0203470319
 30
0.0
 10
27.0998988631
 20
8.0254739469
 30
0.0
 10
27.1184353029
 20
8.0278744549
 30
0.0
 10
27.1324273255
 20
8.0288066366
 30
0.0
 10
27.1464500359
 20
8.0288453215
 30
0.0
 10
27.1604443352
 20
8.0279539074
 30
0.0
 10
27.1720279608
 20
8.0263839326
 30
0.0
 10
27.1811931249
 20
8.0245627421
 30
0.0
 10
27.1879979447
 20
8.0228792988
 30
0.0
 10
27.1947002976
 20
8.0208241488
 30
0.0
 10
27.2001566227
 20
8.0187223841
 30
0.0
 10
27.20437661
 20
8.016713418
 30
0.0
 10
27.2074405268
 20
8.0150044079
 30
0.0
 10
27.210348401
 20
8.0130386546
 30
0.0
 10
27.2121304985
 20
8.0115138431
 30
0.0
 10
27.2129580063
 20
8.0106893403
 30
0.0
  0
SPLINE
  5
2D9
100
AcDbEntity
  8
0
100
AcDbSpline
 62
7
  6
CONTINUOUS
 70
0
 71
3
 72
24
 73
20
 74
0
 42
0.0000001
 43
0.0000001
 44
0.0000000001
 40
0.0
 40
0.0
 40
0.0
 40
0.0
 40
0.1250061935
 40
0.2500009589
 40
0.3749806893
 40
0.4999455588
 40
0.5624529876
 40
0.6249580425
 40
0.6874608191
 40
0.7499612013
 40
0.8124582644
 40
0.8437119608
 40
0.8749652086
 40
0.9062175152
 40
0.9374686521
 40
0.9530975111
 40
0.968727029
 40
0.9843688647
 40
1.0
 40
1.0
 40
1.0
 40
1.0
 10
26.7899063194
 20
7.9894169433
 30
0.0
 10
26.7982047557
 20
7.9937074913
 30
0.0
 10
26.815338108
 20
8.0012910706
 30
0.0
 10
26.8422010078
 20
8.0094951043
 30
0.0
 10
26.8698526642
 20
8.0144205992
 30
0.0
 10
26.8932297492
 20
8.0157174941
 30
0.0
 10
26.9119084877
 20
8.015034292
 30
0.0
 10
26.9258631115
 20
8.0136507693
 30
0.0
 10
26.939700941
 20
8.0113808846
 30
0.0
 10
26.953357659
 20
8.0081982624
 30
0.0
 10
26.9645248948
 20
8.0047431143
 30
0.0
 10
26.9732653048
 20
8.0014382389
 30
0.0
 10
26.9797002341
 20
7.9986577285
 30
0.0
 10
26.9859729136
 20
7.9955274463
 30
0.0
 10
26.9910088869
 20
7.9925562728
 30
0.0
 10
26.9948406581
 20
7.9898801248
 30
0.0
 10
26.9975814964
 20
7.9876901233
 30
0.0
 10
27.0001261622
 20
7.9852725636
 30
0.0
 10
27.0016329811
 20
7.9834752272
 30
0.0
 10
27.0023134955
 20
7.9825257672
 30
0.0
  0
SPLINE
  5
2DA
100
AcDbEntity
  8
0
100
AcDbSpline
 62
7
  6
CONTINUOUS
 70
0
 71
3
 72
24
 73
20
 74
0
 42
0.0000001
 43
0.0000001
 44
0.0000000001
 40
0.0
 40
0.0
 40
0.0
 40
0.0
 40
0.1250061957
 40
0.2500009603
 40
0.3749806903
 40
0.4999455587
 40
0.5624529869
 40
0.6249580411
 40
0.687460817
 40
0.7499611985
 40
0.8124582609
 40
0.8437119571
 40
0.8749652046
 40
0.9062175104
 40
0.9374686478
 40
0.9530975068
 40
0.9687270254
 40
0.9843688644
 40
1.0
 40
1.0
 40
1.0
 40
1.0
 10
26.5815302893
 20
8.0311748986
 30
0.0
 10
26.5904217427
 20
8.0340410645
 30
0.0
 10
26.6085696278
 20
8.0387011832
 30
0.0
 10
26.6364164868
 20
8.0423718776
 30
0.0
 10
26.6645017199
 20
8.0426789234
 30
0.0
 10
26.6877734374
 20
8.0401104227
 30
0.0
 10
26.7060849763
 20
8.0363621463
 30
0.0
 10
26.7196215621
 20
8.0327006574
 30
0.0
 10
26.7328970574
 20
8.0281841187
 30
0.0
 10
26.7458436809
 20
8.0227971005
 30
0.0
 10
26.7562899191
 20
8.0175510249
 30
0.0
 10
26.7643671635
 20
8.0128526115
 30
0.0
 10
26.7702566774
 20
8.0090508778
 30
0.0
 10
26.7759285843
 20
8.0049308479
 30
0.0
 10
26.78040684
 20
8.0011713101
 30
0.0
 10
26.7837458761
 20
7.9979009773
 30
0.0
 10
26.7860888748
 20
7.9952897207
 30
0.0
 10
26.7882009217
 20
7.992486298
 30
0.0
 10
26.7893913608
 20
7.9904654621
 30
0.0
 10
26.7899063194
 20
7.9894169433
 30
0.0
  0
SPLINE
  5
2DB
100
AcDbEntity
  8
0
100
AcDbSpline
 62
7
  6
CONTINUOUS
 70
0
 71
3
 72
24
 73
20
 74
0
 42
0.0000001
 43
0.0000001
 44
0.0000000001
 40
0.0
 40
0.0
 40
0.0
 40
0.0
 40
0.1250061932
 40
0.2500009587
 40
0.3749806892
 40
0.4999455588
 40
0.5624529877
 40
0.6249580426
 40
0.6874608193
 40
0.7499612016
 40
0.8124582648
 40
0.8437119612
 40
0.874965209
 40
0.9062175156
 40
0.9374686525
 40
0.9530975115
 40
0.9687270294
 40
0.9843688647
 40
1.0
 40
1.0
 40
1.0
 40
1.0
 10
26.3828692592
 20
8.1066606051
 30
0.0
 10
26.392111198
 20
8.1080242087
 30
0.0
 10
26.4107785974
 20
8.1096337533
 30
0.0
 10
26.4388498394
 20
8.1086709831
 30
0.0
 10
26.4666025711
 20
8.1043512045
 30
0.0
 10
26.4891341409
 20
8.0979873691
 30
0.0
 10
26.5065789983
 20
8.0912762596
 30
0.0
 10
26.5193283101
 20
8.0854366785
 30
0.0
 10
26.5316793571
 20
8.0787966829
 30
0.0
 10
26.5435627425
 20
8.0713522097
 30
0.0
 10
26.5530030422
 20
8.0644583032
 30
0.0
 10
26.5601967989
 20
8.0584945098
 30
0.0
 10
26.5653802496
 20
8.0537752522
 30
0.0
 10
26.5702966718
 20
8.0487778561
 30
0.0
 10
26.5740950568
 20
8.0443325022
 30
0.0
 10
26.5768502793
 20
8.0405571894
 30
0.0
 10
26.5787315278
 20
8.037595905
 30
0.0
 10
26.5803533454
 20
8.0344830885
 30
0.0
 10
26.5811949329
 20
8.0322938759
 30
0.0
 10
26.5815302893
 20
8.0311748986
 30
0.0
  0
SPLINE
  5
2DC
100
AcDbEntity
  8
0
100
AcDbSpline
 62
7
  6
CONTINUOUS
 70
0
 71
3
 72
24
 73
20
 74
0
 42
0.0000001
 43
0.0000001
 44
0.0000000001
 40
0.0
 40
0.0
 40
0.0
 40
0.0
 40
0.1250061932
 40
0.2500009587
 40
0.3749806892
 40
0.4999455588
 40
0.5624529877
 40
0.6249580426
 40
0.6874608193
 40
0.7499612016
 40
0.8124582647
 40
0.8437119612
 40
0.874965209
 40
0.9062175156
 40
0.9374686525
 40
0.9530975115
 40
0.9687270294
 40
0.9843688647
 40
1.0
 40
1.0
 40
1.0
 40
1.0
 10
26.1993420881
 20
8.2138150462
 30
0.0
 10
26.2086824209
 20
8.2136388926
 30
0.0
 10
26.2273601459
 20
8.2121539595
 30
0.0
 10
26.2548900741
 20
8.2065839861
 30
0.0
 10
26.2815532955
 20
8.1977552134
 30
0.0
 10
26.3027301259
 20
8.187769629
 30
0.0
 10
26.3188324598
 20
8.1782787449
 30
0.0
 10
26.3304467357
 20
8.1704203573
 30
0.0
 10
26.3415364357
 20
8.1618380234
 30
0.0
 10
26.352032441
 20
8.1525391576
 30
0.0
 10
26.3602092998
 20
8.1441854648
 30
0.0
 10
26.3663233453
 20
8.1371189652
 30
0.0
 10
26.3706593443
 20
8.1316109106
 30
0.0
 10
26.374686177
 20
8.1258724618
 30
0.0
 10
26.3777010831
 20
8.1208625476
 30
0.0
 10
26.379797338
 20
8.1166852336
 30
0.0
 10
26.3811655221
 20
8.1134546959
 30
0.0
 10
26.3822528724
 20
8.1101173933
 30
0.0
 10
26.3827226526
 20
8.1078195187
 30
0.0
 10
26.3828692592
 20
8.1066606051
 30
0.0
  0
SPLINE
  5
2DD
100
AcDbEntity
  8
0
100
AcDbSpline
 62
7
  6
CONTINUOUS
 70
0
 71
3
 72
24
 73
20
 74
0
 42
0.0000001
 43
0.0000001
 44
0.0000000001
 40
0.0
 40
0.0
 40
0.0
 40
0.0
 40
0.1250061932
 40
0.2500009587
 40
0.3749806891
 40
0.4999455588
 40
0.5624529877
 40
0.6249580426
 40
0.6874608193
 40
0.7499612016
 40
0.8124582648
 40
0.8437119613
 40
0.8749652091
 40
0.9062175157
 40
0.9374686526
 40
0.9530975116
 40
0.9687270295
 40
0.9843688647
 40
1.0
 40
1.0
 40
1.0
 40
1.0
 10
26.03595483
 20
8.3497153796
 30
0.0
 10
26.0451387814
 20
8.3480042738
 30
0.0
 10
26.0633173613
 20
8.3434653675
 30
0.0
 10
26.0895550444
 20
8.3334401226
 30
0.0
 10
26.1144014652
 20
8.3203431774
 30
0.0
 10
26.1336459177
 20
8.3070082199
 30
0.0
 10
26.1479665062
 20
8.2949964431
 30
0.0
 10
26.1581289447
 20
8.2853336016
 30
0.0
 10
26.167654805
 20
8.2750430289
 30
0.0
 10
26.1764771314
 20
8.2641434148
 30
0.0
 10
26.18316751
 20
8.2545577986
 30
0.0
 10
26.188035072
 20
8.2465813452
 30
0.0
 10
26.1914053467
 20
8.2404347362
 30
0.0
 10
26.1944327503
 20
8.234111762
 30
0.0
 10
26.1965819402
 20
8.2286739424
 30
0.0
 10
26.1979620482
 20
8.2242085713
 30
0.0
 10
26.1987798481
 20
8.2207968994
 30
0.0
 10
26.1993030714
 20
8.2173261421
 30
0.0
 10
26.1993882302
 20
8.2149822844
 30
0.0
 10
26.1993420881
 20
8.2138150462
 30
0.0
  0
SPLINE
  5
2DE
100
AcDbEntity
  8
0
100
AcDbSpline
 62
7
  6
CONTINUOUS
 70
0
 71
3
 72
24
 73
20
 74
0
 42
0.0000001
 43
0.0000001
 44
0.0000000001
 40
0.0
 40
0.0
 40
0.0
 40
0.0
 40
0.1250061932
 40
0.2500009587
 40
0.3749806892
 40
0.4999455588
 40
0.5624529877
 40
0.6249580426
 40
0.6874608193
 40
0.7499612016
 40
0.8124582647
 40
0.8437119612
 40
0.874965209
 40
0.9062175156
 40
0.9374686525
 40
0.9530975115
 40
0.9687270294
 40
0.9843688647
 40
1.0
 40
1.0
 40
1.0
 40
1.0
 10
25.8971641843
 20
8.5106546645
 30
0.0
 10
25.9059412445
 20
8.5074552801
 30
0.0
 10
25.9231248238
 20
8.499986208
 30
0.0
 10
25.9473545789
 20
8.4857791493
 30
0.0
 10
25.9697064656
 20
8.4687712756
 30
0.0
 10
25.986493611
 20
8.4524506816
 30
0.0
 10
25.9986418327
 20
8.4382456561
 30
0.0
 10
26.0070752338
 20
8.4270419333
 30
0.0
 10
26.0147774184
 20
8.4153238168
 30
0.0
 10
26.0216854202
 20
8.4031207622
 30
0.0
 10
26.0267068257
 20
8.3925646885
 30
0.0
 10
26.0301951322
 20
8.3838958543
 30
0.0
 10
26.0325077519
 20
8.3772783515
 30
0.0
 10
26.0344531482
 20
8.370543323
 30
0.0
 10
26.0356779986
 20
8.364825925
 30
0.0
 10
26.0363043147
 20
8.3601942983
 30
0.0
 10
26.0365494232
 20
8.3566945521
 30
0.0
 10
26.0364942478
 20
8.3531850116
 30
0.0
 10
26.0361924622
 20
8.3508591039
 30
0.0
 10
26.03595483
 20
8.3497153796
 30
0.0
  0
SPLINE
  5
2DF
100
AcDbEntity
  8
0
100
AcDbSpline
 62
7
  6
CONTINUOUS
 70
0
 71
3
 72
21
 73
17
 74
0
 42
0.0000001
 43
0.0000001
 44
0.0000000001
 40
0.0
 40
0.0
 40
0.0
 40
0.0
 40
0.1250077304
 40
0.2500079487
 40
0.3750010932
 40
0.4999873148
 40
0.6249653267
 40
0.6874680938
 40
0.7499694444
 40
0.8124685438
 40
0.8437219163
 40
0.8749758472
 40
0.9062318422
 40
0.9374849067
 40
0.9687445954
 40
1.0
 40
1.0
 40
1.0
 40
1.0
 10
25.8474710047
 20
8.6427434708
 30
0.0
 10
25.8514601473
 20
8.6381756727
 30
0.0
 10
25.8590837225
 20
8.6287235443
 30
0.0
 10
25.8693636903
 20
8.6136921078
 30
0.0
 10
25.8784126411
 20
8.5978878253
 30
0.0
 10
25.8861415753
 20
8.5813990931
 30
0.0
 10
25.8913929309
 20
8.567155612
 30
0.0
 10
25.8947824983
 20
8.5555071647
 30
0.0
 10
25.896875429
 20
8.5466505484
 30
0.0
 10
25.8981878081
 20
8.5391786016
 30
0.0
 10
25.8989084286
 20
8.5331557171
 30
0.0
 10
25.8992545828
 20
8.5286184394
 30
0.0
 10
25.8993608672
 20
8.5240684561
 30
0.0
 10
25.8991579759
 20
8.5195189936
 30
0.0
 10
25.8985326224
 20
8.5150056175
 30
0.0
 10
25.8977127832
 20
8.5120682336
 30
0.0
 10
25.8971641843
 20
8.5106546645
 30
0.0
  0
ENDSEC
  0
SECTION
  2
OBJECTS
  0
DICTIONARY
  5
C
100
AcDbDictionary
280
0
281
1
  3
ACAD_GROUP
350
D
  3
ACAD_MLINESTYLE
350
17
  3
ACAD_LAYOUT
350
1A
  3
ACAD_PLOTSETTINGS
350
19
  3
ACAD_PLOTSTYLENAME
350
E
  0
DICTIONARY
  5
D
102
{ACAD_REACTORS
330
C
102
}
100
AcDbDictionary
280
0
281
1
  0
ACDBDICTIONARYWDFLT
  5
E
102
{ACAD_REACTORS
330
C
102
}
100
AcDbDictionary
281
1
  3
Normal
350
F
100
AcDbDictionaryWithDefault
340
F
  0
DICTIONARY
  5
17
102
{ACAD_REACTORS
330
C
102
}
100
AcDbDictionary
280
0
281
1
  3
Standard
350
18
  0
DICTIONARY
  5
19
102
{ACAD_REACTORS
330
C
102
}
100
AcDbDictionary
281
1
  0
DICTIONARY
  5
1A
102
{ACAD_REACTORS
330
C
102
}
100
AcDbDictionary
281
1
  3
Model
350
2E0
  3
Layout1
350
2E1
  0
ACDBPLACEHOLDER
  5
F
102
{ACAD_REACTORS
330
E
102
}
  0
MLINESTYLE
  5
18
102
{ACAD_REACTORS
330
17
102
}
100
AcDbMlineStyle
  2
STANDARD
 70
0
  3

 62
256
 51
90.0
 52
90.0
 71
2
 49
0.5
 62
256
  6
BYLAYER
 49
-0.5
 62
256
  6
BYLAYER
  0
LAYOUT
  5
2E0
102
{ACAD_REACTORS
330
1A
102
}
100
AcDbPlotSettings
  1

  2
none_device
  4
ANSI_C_(22.00_x_17.00_Inches)
  6

 40
0.0
 41
0.0
 42
0.0
 43
0.0
 44
558.8
 45
431.8
 46
0.0
 47
0.0
 48
0.0
 49
0.0
140
0.0
141
0.0
142
1.0
143
1.0
 70
1024
 72
0
 73
0
 74
0
  7

 75
0
147
1.0
148
0.0
149
0.0
100
AcDbLayout
  1
Model
 70
0
 71
0
 10
0.0
 20
0.0
 11
22.0
 21
17.0
 12
0.0
 22
0.0
 32
0.0
 14
0.0
 24
0.0
 34
0.0
 15
0.0
 25
0.0
 35
0.0
146
0.0
 13
0.0
 23
0.0
 33
0.0
 16
1.0
 26
0.0
 36
0.0
 17
0.0
 27
1.0
 37
0.0
 76
0
330
205
345
0
346
0
  0
LAYOUT
  5
2E1
102
{ACAD_REACTORS
330
1A
102
}
100
AcDbPlotSettings
  1

  2
none_device
  4
ANSI_C_(22.00_x_17.00_Inches)
  6

 40
0.0
 41
0.0
 42
0.0
 43
0.0
 44
558.8
 45
431.8
 46
0.0
 47
0.0
 48
0.0
 49
0.0
140
0.0
141
0.0
142
1.0
143
1.0
 70
0
 72
0
 73
0
 74
0
  7

 75
0
147
1.0
148
0.0
149
0.0
100
AcDbLayout
  1
Layout1
 70
0
 71
1
 10
0.0
 20
0.0
 11
22.0
 21
17.0
 12
0.0
 22
0.0
 32
0.0
 14
0.0
 24
0.0
 34
0.0
 15
0.0
 25
0.0
 35
0.0
146
0.0
 13
0.0
 23
0.0
 33
0.0
 16
1.0
 26
0.0
 36
0.0
 17
0.0
 27
1.0
 37
0.0
 76
0
330
206
345
0
346
0
  0
ENDSEC
  0
EOF
