999
DXF file: E:\BT Custom\CADOUTPUT\_RIGHT.dxf
999
Pro/ENGINEER 2018400 by Parametric Technology Corporation
  0
SECTION
  2
HEADER
  9
$ACADVER
  1
AC1018
  9
$DWGCODEPAGE
  3
ANSI_1252
  9
$EXTMAX
 10
22.0
 20
17.0
 30
0.0
  9
$EXTMIN
 10
0.0
 20
0.0
 30
0.0
  9
$LIMMIN
 10
0.0
 20
0.0
  9
$LIMMAX
 10
22.0
 20
17.0
  9
$VIEWCTR
 10
11.0
 20
8.5
  9
$VIEWSIZE
 40
17.0
  9
$CLAYER
  8
0
  9
$LTSCALE
 40
1.21
  9
$CELTYPE
  6
BYLAYER
  9
$DIMSCALE
 40
1.0
  9
$DIMASZ
 40
0.1
  9
$DIMEXO
 40
0.0625
  9
$DIMDLI
 40
0.836
  9
$DIMEXE
 40
0.125
  9
$DIMCEN
 40
0.198
  9
$DIMLFAC
 40
1.0
  9
$DIMBLK
  1
_FILLED
  9
$DIMALT
 70
1
  9
$DIMALTD
 70
2
  9
$DIMALTTD
 70
2
  9
$DIMALTF
 40
25.4
  9
$DIMTXT
 40
0.08
  9
$DIMTOL
 70
1
  9
$DIMLIM
 70
0
  9
$DIMTFAC
 40
1.0
  9
$DIMTP
 40
0.001
  9
$DIMTM
 40
0.001
  9
$DIMGAP
 40
0.09
  9
$DIMDSEP
 70
46
  9
$AUNITS
 70
0
  9
$PDMODE
 70
3
  9
$PDSIZE
 40
0.06
  9
$HANDSEED
  5
249
  9
$TILEMODE
 70
1
  9
$MEASUREMENT
 70
0
  9
$INSUNITS
 70
1
  0
ENDSEC
  0
SECTION
  2
CLASSES
  0
CLASS
  1
ACDBDICTIONARYWDFLT
  2
AcDbDictionaryWithDefault
  3
AutoCAD 2000
 90
0
 91
1
280
0
281
0
  0
CLASS
  1
ACDBPLACEHOLDER
  2
AcDbPlaceHolder
  3
AutoCAD 2000
 90
0
 91
1
280
0
281
0
  0
CLASS
  1
LAYOUT
  2
AcDbLayout
  3
AutoCAD 2000
 90
0
 91
0
280
0
281
0
  0
ENDSEC
  0
SECTION
  2
TABLES
  0
TABLE
  2
VPORT
  5
8
100
AcDbSymbolTable
 70
2
  0
VPORT
  5
1F4
100
AcDbSymbolTableRecord
100
AcDbViewportTableRecord
  2
*ACTIVE
 70
0
 10
0.0
 20
0.0
 11
1.0
 21
1.0
 12
11.0
 22
8.5
 13
0.0
 23
0.0
 14
1.0
 24
1.0
 15
0.0
 25
0.0
 16
0.0
 26
0.0
 36
1.0
 17
0.0
 27
0.0
 37
0.0
 40
17.0
 41
1.2941176471
 42
50.0
 43
0.0
 44
0.0
 50
0.0
 51
0.0
 71
0
 72
100
 73
1
 74
1
 75
0
 76
0
 77
0
 78
0
  0
ENDTAB
  0
TABLE
  2
LTYPE
  5
5
100
AcDbSymbolTable
 70
6
  0
LTYPE
  5
14
100
AcDbSymbolTableRecord
100
AcDbLinetypeTableRecord
  2
BYBLOCK
 70
0
  3

 72
65
 73
0
 40
0.0
  0
LTYPE
  5
15
100
AcDbSymbolTableRecord
100
AcDbLinetypeTableRecord
  2
BYLAYER
 70
0
  3

 72
65
 73
0
 40
0.0
  0
LTYPE
  5
16
100
AcDbSymbolTableRecord
100
AcDbLinetypeTableRecord
  2
CONTINUOUS
 70
64
  3
Solid line
 72
65
 73
0
 40
0.0
  0
LTYPE
  5
1F5
100
AcDbSymbolTableRecord
100
AcDbLinetypeTableRecord
  2
CENTER
 70
64
  3
____ _ ____ _ ____ _ ____ _ ____ _ ____ _ ____
 72
65
 73
4
 40
0.6
 49
0.375
 74
0
 49
-0.075
 74
0
 49
0.075
 74
0
 49
-0.075
 74
0
  0
LTYPE
  5
1F6
100
AcDbSymbolTableRecord
100
AcDbLinetypeTableRecord
  2
HIDDEN
 70
64
  3
- - - - - - - - - - - - - - - - - - - -
 72
65
 73
2
 40
0.2
 49
0.1
 74
0
 49
-0.1
 74
0
  0
LTYPE
  5
1F7
100
AcDbSymbolTableRecord
100
AcDbLinetypeTableRecord
  2
PHANTOM
 70
64
  3
_____ _ _ _____ _ _ _____ _ _ _____
 72
65
 73
6
 40
0.8
 49
0.45
 74
0
 49
-0.05
 74
0
 49
0.1
 74
0
 49
-0.05
 74
0
 49
0.1
 74
0
 49
-0.05
 74
0
  0
LTYPE
  5
1F8
100
AcDbSymbolTableRecord
100
AcDbLinetypeTableRecord
  2
DOT
 70
64
  3
. . . . . . . . . . . . . . . . . . . .
 72
65
 73
2
 40
0.2
 49
0.1
 74
0
 49
-0.1
 74
0
  0
LTYPE
  5
1F9
100
AcDbSymbolTableRecord
100
AcDbLinetypeTableRecord
  2
DASHED
 70
64
  3
- - - - - - - - - - - - - - - - - - - -
 72
65
 73
2
 40
0.2
 49
0.1
 74
0
 49
-0.1
 74
0
  0
ENDTAB
  0
TABLE
  2
LAYER
  5
2
100
AcDbSymbolTable
 70
36
  0
LAYER
  5
10
100
AcDbSymbolTableRecord
100
AcDbLayerTableRecord
  2
0
 70
0
 62
7
  6
CONTINUOUS
370
-3
390
F
  0
LAYER
  5
1FA
100
AcDbSymbolTableRecord
100
AcDbLayerTableRecord
  2
DEFAULT_1
 70
0
 62
7
  6
CENTER
370
-3
390
F
  0
LAYER
  5
1FB
100
AcDbSymbolTableRecord
100
AcDbLayerTableRecord
  2
DEFAULT_2
 70
0
 62
8
  6
HIDDEN
370
-3
390
F
  0
LAYER
  5
1FC
100
AcDbSymbolTableRecord
100
AcDbLayerTableRecord
  2
DEFAULT_3
 70
0
 62
7
  6
PHANTOM
370
-3
390
F
  0
LAYER
  5
1FD
100
AcDbSymbolTableRecord
100
AcDbLayerTableRecord
  2
ALL_FEATURES
 70
0
 62
7
  6
CONTINUOUS
370
-3
390
F
  0
LAYER
  5
1FE
100
AcDbSymbolTableRecord
100
AcDbLayerTableRecord
  2
AXES_FEATURES
 70
0
 62
7
  6
CONTINUOUS
370
-3
390
F
  0
LAYER
  5
1FF
100
AcDbSymbolTableRecord
100
AcDbLayerTableRecord
  2
DEFAULT_COORDINATE_SYSTEM
 70
0
 62
7
  6
CONTINUOUS
370
-3
390
F
  0
LAYER
  5
200
100
AcDbSymbolTableRecord
100
AcDbLayerTableRecord
  2
DEFAULT_DATUM_AXES
 70
0
 62
7
  6
CONTINUOUS
370
-3
390
F
  0
LAYER
  5
201
100
AcDbSymbolTableRecord
100
AcDbLayerTableRecord
  2
DEFAULT_DATUM_PLANES
 70
0
 62
7
  6
CONTINUOUS
370
-3
390
F
  0
LAYER
  5
202
100
AcDbSymbolTableRecord
100
AcDbLayerTableRecord
  2
DIMENSIONS
 70
0
 62
7
  6
CONTINUOUS
370
-3
390
F
  0
ENDTAB
  0
TABLE
  2
STYLE
  5
3
100
AcDbSymbolTable
 70
1
  0
STYLE
  5
11
100
AcDbSymbolTableRecord
100
AcDbTextStyleTableRecord
  2
STANDARD
 70
0
 40
0.0
 41
0.8
 50
0.0
 71
0
 42
0.2
  3
txt
  4

  0
STYLE
  5
203
100
AcDbSymbolTableRecord
100
AcDbTextStyleTableRecord
  2
TEXTSTYLE_1
 70
0
 40
0.0
 41
0.8
 50
0.0
 71
0
 42
0.2
  3
gdt
  4

  0
ENDTAB
  0
TABLE
  2
VIEW
  5
6
100
AcDbSymbolTable
 70
0
  0
ENDTAB
  0
TABLE
  2
UCS
  5
7
100
AcDbSymbolTable
 70
0
  0
ENDTAB
  0
TABLE
  2
APPID
  5
9
100
AcDbSymbolTable
 70
1
  0
APPID
  5
204
100
AcDbSymbolTableRecord
100
AcDbRegAppTableRecord
  2
ACAD
 70
0
  0
ENDTAB
  0
TABLE
  2
BLOCK_RECORD
  5
1
100
AcDbSymbolTable
 70
0
  0
BLOCK_RECORD
  5
205
100
AcDbSymbolTableRecord
100
AcDbBlockTableRecord
  2
*Model_Space
  0
BLOCK_RECORD
  5
206
100
AcDbSymbolTableRecord
100
AcDbBlockTableRecord
  2
*Paper_Space
  0
BLOCK_RECORD
  5
207
100
AcDbSymbolTableRecord
100
AcDbBlockTableRecord
  2
_FILLED
  0
ENDTAB
  0
TABLE
  2
DIMSTYLE
  5
A
100
AcDbSymbolTable
 70
1
100
AcDbDimStyleTable
 71
0
  0
DIMSTYLE
105
208
100
AcDbSymbolTableRecord
100
AcDbDimStyleTableRecord
  2
STANDARD
 70
0
  3

  4

 40
1.0
 41
0.1
 42
0.0625
 43
0.38
 44
0.125
 45
0.0
 46
0.0
 47
0.001
 48
0.001
140
0.08
141
0.09
142
0.0
143
25.4
144
1.0
145
0.0
146
1.0
147
0.09
 71
1.0
 72
0.0
 73
1
 74
1
 75
0
 76
0
 77
0
 78
4
 79
1
170
1
171
2
172
0
173
0
174
0
175
0
176
0
177
0
178
0
270
2
179
3
271
3
272
3
273
2
274
2
275
0
280
0
281
0
282
0
283
1
284
4
285
0
286
0
287
3
288
0
340
11
278
46
341
207
342
207
343
207
344
207
  0
ENDTAB
  0
ENDSEC
  0
SECTION
  2
BLOCKS
  0
BLOCK
  5
20
100
AcDbEntity
  8
0
100
AcDbBlockBegin
  2
*Model_Space
 70
0
 10
0.0
 20
0.0
 30
0.0
  3
*Model_Space
  1

  0
ENDBLK
  5
21
100
AcDbEntity
  8
0
100
AcDbBlockEnd
  0
BLOCK
  5
1C
100
AcDbEntity
  8
0
100
AcDbBlockBegin
  2
*Paper_Space
 70
0
 10
0.0
 20
0.0
 30
0.0
  3
*Paper_Space
  1

  0
ENDBLK
  5
1D
100
AcDbEntity
  8
0
100
AcDbBlockEnd
  0
BLOCK
  5
209
100
AcDbEntity
  8
0
100
AcDbBlockBegin
  2
_FILLED
 70
64
 10
0.0
 20
0.0
  3
_FILLED
  1

  0
SOLID
  5
20A
100
AcDbEntity
  8
0
  6
BYBLOCK
 62
0
100
AcDbTrace
 10
0.0
 20
0.0
 11
-1.0
 21
0.2
 12
-1.0
 22
-0.2
 13
-1.0
 23
-0.2
  0
ENDBLK
  5
20B
100
AcDbEntity
  8
0
  6
BYBLOCK
 62
0
100
AcDbBlockEnd
  0
ENDSEC
  0
SECTION
  2
ENTITIES
  0
LINE
  5
20C
100
AcDbEntity
  8
0
100
AcDbLine
 62
7
  6
CONTINUOUS
 10
11.6049834891
 20
7.509891804
 11
12.0849834891
 21
7.509891804
  0
LINE
  5
20D
100
AcDbEntity
  8
0
100
AcDbLine
 62
7
  6
CONTINUOUS
 10
9.9599834891
 20
8.384891804
 11
11.4849834891
 21
8.384891804
  0
LINE
  5
20E
100
AcDbEntity
  8
0
100
AcDbLine
 62
7
  6
CONTINUOUS
 10
9.9599834891
 20
9.634891804
 11
11.4849834891
 21
9.634891804
  0
LINE
  5
20F
100
AcDbEntity
  8
0
100
AcDbLine
 62
7
  6
CONTINUOUS
 10
11.4849834891
 20
8.194891804
 11
11.4849834891
 21
9.8248822389
  0
LINE
  5
210
100
AcDbEntity
  8
0
100
AcDbLine
 62
9
  6
CONTINUOUS
 10
11.5449834891
 20
8.4903576516
 11
11.5449834891
 21
8.5042980749
  0
LINE
  5
211
100
AcDbEntity
  8
0
100
AcDbLine
 62
9
  6
CONTINUOUS
 10
11.5449834891
 20
8.6943757857
 11
11.5449834891
 21
8.7203453178
  0
LINE
  5
212
100
AcDbEntity
  8
0
100
AcDbLine
 62
9
  6
CONTINUOUS
 10
11.5449834891
 20
8.9087743275
 11
11.5449834891
 21
8.9444521499
  0
LINE
  5
213
100
AcDbEntity
  8
0
100
AcDbLine
 62
9
  6
CONTINUOUS
 10
11.5449834891
 20
9.1263460156
 11
11.5449834891
 21
9.1695328077
  0
LINE
  5
214
100
AcDbEntity
  8
0
100
AcDbLine
 62
9
  6
CONTINUOUS
 10
11.5449834891
 20
9.3413064242
 11
11.5449834891
 21
9.3887558638
  0
LINE
  5
215
100
AcDbEntity
  8
0
100
AcDbLine
 62
9
  6
CONTINUOUS
 10
11.5449834891
 20
9.5485322945
 11
11.5449834891
 21
9.5965814828
  0
LINE
  5
216
100
AcDbEntity
  8
0
100
AcDbLine
 62
9
  6
CONTINUOUS
 10
11.5449834891
 20
9.7426986437
 11
11.5449834891
 21
9.7863919924
  0
LINE
  5
217
100
AcDbEntity
  8
0
100
AcDbLine
 62
7
  6
CONTINUOUS
 10
11.5849834891
 20
10.489891804
 11
11.5849834891
 21
7.529891804
  0
LINE
  5
218
100
AcDbEntity
  8
0
100
AcDbLine
 62
9
  6
CONTINUOUS
 10
11.6049834891
 20
7.509891804
 11
11.6049834891
 21
10.509891804
  0
LINE
  5
219
100
AcDbEntity
  8
0
100
AcDbLine
 62
7
  6
CONTINUOUS
 10
12.0849834891
 20
7.509891804
 11
12.0849834891
 21
10.509891804
  0
LINE
  5
21A
100
AcDbEntity
  8
0
100
AcDbLine
 62
7
  6
CONTINUOUS
 10
11.6049834891
 20
10.509891804
 11
12.0849834891
 21
10.509891804
  0
ARC
  5
21B
100
AcDbEntity
  8
0
100
AcDbCircle
 62
7
  6
CONTINUOUS
 10
9.9599834891
 20
9.009891804
 40
0.625
100
AcDbArc
 50
90.0
 51
270.0
  0
ARC
  5
21C
100
AcDbEntity
  8
0
100
AcDbCircle
 62
7
  6
CONTINUOUS
 10
11.7656482285
 20
8.5994235025
 40
0.240665767
100
AcDbArc
 50
153.1086142852
 51
221.3495504275
  0
ARC
  5
21D
100
AcDbEntity
  8
0
100
AcDbCircle
 62
7
  6
CONTINUOUS
 10
11.7338444203
 20
9.9773665846
 40
0.2088654162
100
AcDbArc
 50
174.1361370943
 51
200.0177958476
  0
ARC
  5
21E
100
AcDbEntity
  8
0
100
AcDbCircle
 62
7
  6
CONTINUOUS
 10
11.6692490823
 20
9.4840459845
 40
0.1400918914
100
AcDbArc
 50
139.9506970258
 51
140.1639262692
  0
ARC
  5
21F
100
AcDbEntity
  8
0
100
AcDbCircle
 62
7
  6
CONTINUOUS
 10
11.6585307443
 20
10.3012247576
 40
0.1335486845
100
AcDbArc
 50
177.0358596795
 51
193.6411267704
  0
ARC
  5
220
100
AcDbEntity
  8
0
100
AcDbCircle
 62
7
  6
CONTINUOUS
 10
11.6413097652
 20
8.1661142895
 40
0.1161476271
100
AcDbArc
 50
194.4537505051
 51
206.8328102028
  0
ARC
  5
221
100
AcDbEntity
  8
0
100
AcDbCircle
 62
7
  6
CONTINUOUS
 10
11.6358273821
 20
10.3417979853
 40
0.1108438514
100
AcDbArc
 50
178.3903716613
 51
187.8654677155
  0
ARC
  5
222
100
AcDbEntity
  8
0
100
AcDbCircle
 62
7
  6
CONTINUOUS
 10
11.6376395871
 20
9.6485237532
 40
0.1061241921
100
AcDbArc
 50
224.3182636573
 51
227.0570517603
  0
ARC
  5
223
100
AcDbEntity
  8
0
100
AcDbCircle
 62
7
  6
CONTINUOUS
 10
11.611531257
 20
7.8752753845
 40
0.0865498836
100
AcDbArc
 50
171.7812641083
 51
203.3350698175
  0
ARC
  5
224
100
AcDbEntity
  8
0
100
AcDbCircle
 62
7
  6
CONTINUOUS
 10
11.6073894588
 20
7.7059834271
 40
0.0824059745
100
AcDbArc
 50
176.0489991654
 51
189.0100115259
  0
ARC
  5
225
100
AcDbEntity
  8
0
100
AcDbCircle
 62
7
  6
CONTINUOUS
 10
11.6052608015
 20
7.773772112
 40
0.0802773257
100
AcDbArc
 50
173.1973808475
 51
197.2626629654
  0
ARC
  5
226
100
AcDbEntity
  8
0
100
AcDbCircle
 62
7
  6
CONTINUOUS
 10
11.6064999411
 20
10.3695575721
 40
0.0687227469
100
AcDbArc
 50
108.2454541974
 51
110.1131434665
  0
ARC
  5
227
100
AcDbEntity
  8
0
100
AcDbCircle
 62
7
  6
CONTINUOUS
 10
11.5449834891
 20
9.824891804
 40
0.06
100
AcDbArc
 50
105.3976634921
 51
180.0
  0
ARC
  5
228
100
AcDbEntity
  8
0
100
AcDbCircle
 62
7
  6
CONTINUOUS
 10
11.5449834891
 20
8.194891804
 40
0.06
100
AcDbArc
 50
180.0
 51
262.5164837939
  0
ARC
  5
229
100
AcDbEntity
  8
0
100
AcDbCircle
 62
7
  6
CONTINUOUS
 10
11.6049834891
 20
10.489891804
 40
0.02
100
AcDbArc
 50
90.0
 51
180.0
  0
ARC
  5
22A
100
AcDbEntity
  8
0
100
AcDbCircle
 62
7
  6
CONTINUOUS
 10
11.6049834891
 20
7.529891804
 40
0.02
100
AcDbArc
 50
180.0
 51
270.0
  0
SPLINE
  5
22B
100
AcDbEntity
  8
0
100
AcDbSpline
 62
7
  6
CONTINUOUS
 70
0
 71
3
 72
17
 73
13
 74
0
 42
0.0000001
 43
0.0000001
 44
0.0000000001
 40
0.0
 40
0.0
 40
0.0
 40
0.0
 40
0.1223502889
 40
0.244690628
 40
0.3672573632
 40
0.4903666068
 40
0.6144338926
 40
0.7401252113
 40
0.8039082065
 40
0.8684454431
 40
0.9338004113
 40
1.0
 40
1.0
 40
1.0
 40
1.0
 10
11.5264508293
 20
10.3295721042
 30
0.0
 10
11.5255330659
 20
10.3346696516
 30
0.0
 10
11.5245539788
 20
10.3450394992
 30
0.0
 10
11.5256941656
 20
10.3606141759
 30
0.0
 10
11.5294304952
 20
10.3758163809
 30
0.0
 10
11.5357339441
 20
10.3902298897
 30
0.0
 10
11.5445490298
 20
10.4034244286
 30
0.0
 10
11.5538945353
 20
10.4129745401
 30
0.0
 10
11.5624723268
 20
10.4194844722
 30
0.0
 10
11.5694879825
 20
10.4237574104
 30
0.0
 10
11.5770073829
 20
10.4273098484
 30
0.0
 10
11.5822865085
 20
10.4291265002
 30
0.0
 10
11.5849835203
 20
10.4298879986
 30
0.0
  0
SPLINE
  5
22C
100
AcDbEntity
  8
0
100
AcDbSpline
 62
7
  6
CONTINUOUS
 70
0
 71
3
 72
23
 73
19
 74
0
 42
0.0000001
 43
0.0000001
 44
0.0000000001
 40
0.0
 40
0.0
 40
0.0
 40
0.0
 40
0.0621917146
 40
0.1242878024
 40
0.1863189522
 40
0.2483175244
 40
0.3103159771
 40
0.372346665
 40
0.4344419029
 40
0.4966326179
 40
0.5589474347
 40
0.6214117437
 40
0.6840472715
 40
0.7468693415
 40
0.8098839934
 40
0.8730843181
 40
0.9364752197
 40
1.0
 40
1.0
 40
1.0
 40
1.0
 10
11.5324442942
 20
10.279548416
 30
0.0
 10
11.5312212244
 20
10.2822179503
 30
0.0
 10
11.529063045
 20
10.2876893307
 30
0.0
 10
11.5267257252
 20
10.296186763
 30
0.0
 10
11.525309728
 20
10.304877009
 30
0.0
 10
11.5248274972
 20
10.3136636838
 30
0.0
 10
11.5252825226
 20
10.3224518525
 30
0.0
 10
11.5266712874
 20
10.3311461951
 30
0.0
 10
11.5289824234
 20
10.3396515411
 30
0.0
 10
11.5321958977
 20
10.3478731782
 30
0.0
 10
11.5362835713
 20
10.3557169554
 30
0.0
 10
11.541208593
 20
10.3630895354
 30
0.0
 10
11.5469236939
 20
10.3698997291
 30
0.0
 10
11.5533714378
 20
10.3760590491
 30
0.0
 10
11.5604834199
 20
10.3814822644
 30
0.0
 10
11.5681798625
 20
10.3860919631
 30
0.0
 10
11.5763673293
 20
10.389815851
 30
0.0
 10
11.5820822673
 20
10.3916681275
 30
0.0
 10
11.5849834904
 20
10.3924289257
 30
0.0
  0
SPLINE
  5
22D
100
AcDbEntity
  8
0
100
AcDbSpline
 62
7
  6
CONTINUOUS
 70
0
 71
3
 72
23
 73
19
 74
0
 42
0.0000001
 43
0.0000001
 44
0.0000000001
 40
0.0
 40
0.0
 40
0.0
 40
0.0
 40
0.0625019476
 40
0.1249796373
 40
0.1874369132
 40
0.2498789591
 40
0.3123118831
 40
0.3747422411
 40
0.4371765722
 40
0.4996212693
 40
0.5620822398
 40
0.6245644778
 40
0.6870716125
 40
0.7496058135
 40
0.8121687074
 40
0.8747535105
 40
0.9373731313
 40
1.0
 40
1.0
 40
1.0
 40
1.0
 10
11.5423648442
 20
10.1961189013
 30
0.0
 10
11.5403019166
 20
10.1987182625
 30
0.0
 10
11.5364956789
 20
10.204178446
 30
0.0
 10
11.5318496748
 20
10.2130067512
 30
0.0
 10
11.5283325547
 20
10.2223405724
 30
0.0
 10
11.5259978925
 20
10.2320350904
 30
0.0
 10
11.5248798986
 20
10.2419425351
 30
0.0
 10
11.5249952605
 20
10.251911758
 30
0.0
 10
11.5263423862
 20
10.2617908637
 30
0.0
 10
11.5289012285
 20
10.2714291508
 30
0.0
 10
11.5326338121
 20
10.2806792098
 30
0.0
 10
11.5374846017
 20
10.2893988959
 30
0.0
 10
11.5433810327
 20
10.2974533274
 30
0.0
 10
11.5502342508
 20
10.3047171338
 30
0.0
 10
11.5579398915
 20
10.3110758771
 30
0.0
 10
11.5663803004
 20
10.3164303632
 30
0.0
 10
11.5754234651
 20
10.3206929934
 30
0.0
 10
11.581764323
 20
10.3227634145
 30
0.0
 10
11.5849834892
 20
10.3235961104
 30
0.0
  0
SPLINE
  5
22E
100
AcDbEntity
  8
0
100
AcDbSpline
 62
7
  6
CONTINUOUS
 70
0
 71
3
 72
24
 73
20
 74
0
 42
0.0000001
 43
0.0000001
 44
0.0000000001
 40
0.0
 40
0.0
 40
0.0
 40
0.0
 40
0.0630095201
 40
0.1255247524
 40
0.1876486046
 40
0.2494802932
 40
0.3111113154
 40
0.3726279816
 40
0.4341117654
 40
0.4956409885
 40
0.5572969719
 40
0.619168659
 40
0.6813457858
 40
0.7439296431
 40
0.8070224803
 40
0.8707037745
 40
0.9028057855
 40
0.9350698829
 40
1.0
 40
1.0
 40
1.0
 40
1.0
 10
11.5533482513
 20
10.0807752123
 30
0.0
 10
11.5505155421
 20
10.0832748373
 30
0.0
 10
11.5452134185
 20
10.0886564194
 30
0.0
 10
11.5384652879
 20
10.0976995551
 30
0.0
 10
11.5330161796
 20
10.1074999237
 30
0.0
 10
11.5289160773
 20
10.117877937
 30
0.0
 10
11.5261972455
 20
10.1286619586
 30
0.0
 10
11.5248805312
 20
10.1396836767
 30
0.0
 10
11.5249755464
 20
10.1507771217
 30
0.0
 10
11.5264817892
 20
10.1617768693
 30
0.0
 10
11.5293881631
 20
10.172516757
 30
0.0
 10
11.5336727386
 20
10.1828279514
 30
0.0
 10
11.5393003974
 20
10.1925377686
 30
0.0
 10
11.5462219256
 20
10.2014673038
 30
0.0
 10
11.5543650968
 20
10.2094297857
 30
0.0
 10
11.56207284
 20
10.2150870772
 30
0.0
 10
11.5687228296
 20
10.218936134
 30
0.0
 10
11.5757028112
 20
10.2223204708
 30
0.0
 10
11.5812251569
 20
10.2242703499
 30
0.0
 10
11.5849835038
 20
10.2252854996
 30
0.0
  0
SPLINE
  5
22F
100
AcDbEntity
  8
0
100
AcDbSpline
 62
7
  6
CONTINUOUS
 70
0
 71
3
 72
21
 73
17
 74
0
 42
0.0000001
 43
0.0000001
 44
0.0000000001
 40
0.0
 40
0.0
 40
0.0
 40
0.0
 40
0.0634109487
 40
0.1261430046
 40
0.188491377
 40
0.2506424187
 40
0.3126904193
 40
0.3746909208
 40
0.4984553443
 40
0.6222487864
 40
0.6843143988
 40
0.7464949994
 40
0.8088894583
 40
0.8717013134
 40
0.9352303749
 40
1.0
 40
1.0
 40
1.0
 40
1.0
 10
11.560894589
 20
9.9363542541
 30
0.0
 10
11.5577535717
 20
9.9387459812
 30
0.0
 10
11.5518425486
 20
9.9439640567
 30
0.0
 10
11.5441611967
 20
9.952878826
 30
0.0
 10
11.537732087
 20
9.9626401899
 30
0.0
 10
11.5325738966
 20
9.9730776344
 30
0.0
 10
11.5287040276
 20
9.9840350837
 30
0.0
 10
11.5252881014
 20
9.9991107822
 30
0.0
 10
11.5243031195
 20
10.0185378195
 30
0.0
 10
11.5277518514
 20
10.0376897342
 30
0.0
 10
11.5331048467
 20
10.0522078406
 30
0.0
 10
11.5384125675
 20
10.0625784927
 30
0.0
 10
11.5449883903
 20
10.0722525805
 30
0.0
 10
11.5528194119
 20
10.0810607587
 30
0.0
 10
11.5618949107
 20
10.088813447
 30
0.0
 10
11.5686993093
 20
10.0930692517
 30
0.0
 10
11.572276776
 20
10.0949302079
 30
0.0
  0
SPLINE
  5
230
100
AcDbEntity
  8
0
100
AcDbSpline
 62
7
  6
CONTINUOUS
 70
0
 71
3
 72
17
 73
13
 74
0
 42
0.0000001
 43
0.0000001
 44
0.0000000001
 40
0.0
 40
0.0
 40
0.0
 40
0.0
 40
0.1227178175
 40
0.1848768103
 40
0.2474766715
 40
0.3734838476
 40
0.5002169901
 40
0.626918188
 40
0.7528282702
 40
0.8153533764
 40
0.8774258065
 40
1.0
 40
1.0
 40
1.0
 40
1.0
 10
11.5631698162
 20
9.7660009787
 30
0.0
 10
11.5569691648
 20
9.7711152954
 30
0.0
 10
11.5486464269
 20
9.7801390164
 30
0.0
 10
11.5398761034
 20
9.7937937648
 30
0.0
 10
11.5325721526
 20
9.8085403305
 30
0.0
 10
11.5264517684
 20
9.8284389325
 30
0.0
 10
11.5241409429
 20
9.8533538162
 30
0.0
 10
11.5269057793
 20
9.8782162916
 30
0.0
 10
11.5333945433
 20
9.8979850588
 30
0.0
 10
11.5409793227
 20
9.9125706808
 30
0.0
 10
11.5500163499
 20
9.926026333
 30
0.0
 10
11.5585308617
 20
9.9348548997
 30
0.0
 10
11.5648488808
 20
9.9398082637
 30
0.0
  0
SPLINE
  5
231
100
AcDbEntity
  8
0
100
AcDbSpline
 62
7
  6
CONTINUOUS
 70
0
 71
3
 72
16
 73
12
 74
0
 42
0.0000001
 43
0.0000001
 44
0.0000000001
 40
0.0
 40
0.0
 40
0.0
 40
0.0
 40
0.1204231568
 40
0.2451556584
 40
0.372257046
 40
0.5004087477
 40
0.6285121234
 40
0.755461615
 40
0.8181779919
 40
0.8800638081
 40
1.0
 40
1.0
 40
1.0
 40
1.0
 10
11.561710904
 20
9.5743807885
 30
0.0
 10
11.5558015099
 20
9.5804291843
 30
0.0
 10
11.5451673008
 20
9.594163191
 30
0.0
 10
11.5335415984
 20
9.6177464396
 30
0.0
 10
11.526425903
 20
9.6436264911
 30
0.0
 10
11.5241618209
 20
9.6706020562
 30
0.0
 10
11.5268404096
 20
9.697525261
 30
0.0
 10
11.5331333936
 20
9.7190814957
 30
0.0
 10
11.540474544
 20
9.7351766918
 30
0.0
 10
11.5491039132
 20
9.750041223
 30
0.0
 10
11.5571776045
 20
9.760097874
 30
0.0
 10
11.5631778408
 20
9.7660075331
 30
0.0
  0
SPLINE
  5
232
100
AcDbEntity
  8
0
100
AcDbSpline
 62
7
  6
CONTINUOUS
 70
0
 71
3
 72
18
 73
14
 74
0
 42
0.0000001
 43
0.0000001
 44
0.0000000001
 40
0.0
 40
0.0
 40
0.0
 40
0.0
 40
0.0576299893
 40
0.1174427251
 40
0.1787797913
 40
0.2412028897
 40
0.3680009595
 40
0.4962793829
 40
0.6248636704
 40
0.7526817607
 40
0.8159785417
 40
0.8785374727
 40
1.0
 40
1.0
 40
1.0
 40
1.0
 10
11.5726110347
 20
9.3519678027
 30
0.0
 10
11.5692133758
 20
9.3551635296
 30
0.0
 10
11.5626499623
 20
9.3620687669
 30
0.0
 10
11.5537970709
 20
9.3735432886
 30
0.0
 10
11.54591112
 20
9.3861647674
 30
0.0
 10
11.5368441514
 20
9.404332754
 30
0.0
 10
11.5286565127
 20
9.4288589622
 30
0.0
 10
11.5242761286
 20
9.4597672375
 30
0.0
 10
11.5254815637
 20
9.4910437849
 30
0.0
 10
11.5311245224
 20
9.5164547152
 30
0.0
 10
11.5383013678
 20
9.5357205805
 30
0.0
 10
11.5470097514
 20
9.5537649724
 30
0.0
 10
11.55537769
 20
9.5662390034
 30
0.0
 10
11.561675271
 20
9.5737879098
 30
0.0
  0
SPLINE
  5
233
100
AcDbEntity
  8
0
100
AcDbSpline
 62
7
  6
CONTINUOUS
 70
0
 71
3
 72
17
 73
13
 74
0
 42
0.0000001
 43
0.0000001
 44
0.0000000001
 40
0.0
 40
0.0
 40
0.0
 40
0.0
 40
0.1163670111
 40
0.1774253185
 40
0.2395727965
 40
0.3657726183
 40
0.4934372092
 40
0.6215827673
 40
0.7494116919
 40
0.8129964198
 40
0.8761282348
 40
1.0
 40
1.0
 40
1.0
 40
1.0
 10
11.584983636
 20
9.1158406317
 30
0.0
 10
11.5769975512
 20
9.1228712414
 30
0.0
 10
11.5659386625
 20
9.1349286362
 30
0.0
 10
11.5535116552
 20
9.1529910733
 30
0.0
 10
11.5423695687
 20
9.1729230691
 30
0.0
 10
11.5318017321
 20
9.199998424
 30
0.0
 10
11.5250490204
 20
9.2344520897
 30
0.0
 10
11.5244556098
 20
9.2697046753
 30
0.0
 10
11.5291377627
 20
9.2987140988
 30
0.0
 10
11.5358898702
 20
9.321017153
 30
0.0
 10
11.5444768541
 20
9.3422819915
 30
0.0
 10
11.5530232661
 20
9.357239144
 30
0.0
 10
11.5595564834
 20
9.3664910015
 30
0.0
  0
SPLINE
  5
234
100
AcDbEntity
  8
0
100
AcDbSpline
 62
7
  6
CONTINUOUS
 70
0
 71
3
 72
15
 73
11
 74
0
 42
0.0000001
 43
0.0000001
 44
0.0000000001
 40
0.0
 40
0.0
 40
0.0
 40
0.0
 40
0.1207837811
 40
0.2447744748
 40
0.3703078802
 40
0.4965795669
 40
0.6231089997
 40
0.7495141868
 40
0.8753641434
 40
1.0
 40
1.0
 40
1.0
 40
1.0
 10
11.5849835157
 20
8.8858947536
 30
0.0
 10
11.5769497166
 20
8.8940414189
 30
0.0
 10
11.562111168
 20
8.9120340853
 30
0.0
 10
11.544570939
 20
8.9425911595
 30
0.0
 10
11.5321317228
 20
8.9761209623
 30
0.0
 10
11.525305997
 20
9.0114674604
 30
0.0
 10
11.5243310216
 20
9.0475360981
 30
0.0
 10
11.5292425376
 20
9.0832443725
 30
0.0
 10
11.5398644511
 20
9.1174907044
 30
0.0
 10
11.5505892785
 20
9.1388026845
 30
0.0
 10
11.556768234
 20
9.1488631913
 30
0.0
  0
SPLINE
  5
235
100
AcDbEntity
  8
0
100
AcDbSpline
 62
7
  6
CONTINUOUS
 70
0
 71
3
 72
15
 73
11
 74
0
 42
0.0000001
 43
0.0000001
 44
0.0000000001
 40
0.0
 40
0.0
 40
0.0
 40
0.0
 40
0.1236991314
 40
0.2483614579
 40
0.3735025052
 40
0.4988766987
 40
0.6243382192
 40
0.7497723119
 40
0.8750539624
 40
1.0
 40
1.0
 40
1.0
 40
1.0
 10
11.5849834903
 20
8.6586404393
 30
0.0
 10
11.5769826453
 20
8.6674367648
 30
0.0
 10
11.5622935111
 20
8.6864035592
 30
0.0
 10
11.5449206107
 20
8.7179813336
 30
0.0
 10
11.532578254
 20
8.7520238586
 30
0.0
 10
11.5256198962
 20
8.7876356571
 30
0.0
 10
11.524226522
 20
8.8239222438
 30
0.0
 10
11.528437185
 20
8.8599838158
 30
0.0
 10
11.5381357621
 20
8.8949107436
 30
0.0
 10
11.5481219531
 20
8.9169190649
 30
0.0
 10
11.5539209154
 20
8.9274369404
 30
0.0
  0
SPLINE
  5
236
100
AcDbEntity
  8
0
100
AcDbSpline
 62
7
  6
CONTINUOUS
 70
0
 71
3
 72
15
 73
11
 74
0
 42
0.0000001
 43
0.0000001
 44
0.0000000001
 40
0.0
 40
0.0
 40
0.0
 40
0.0
 40
0.1250257189
 40
0.2501456221
 40
0.3753070573
 40
0.5004702181
 40
0.6255957211
 40
0.7506319499
 40
0.8754876308
 40
1.0
 40
1.0
 40
1.0
 40
1.0
 10
11.5479231524
 20
8.4972904622
 30
0.0
 10
11.5429614752
 20
8.4868222176
 30
0.0
 10
11.5345562535
 20
8.4651171685
 30
0.0
 10
11.5268310702
 20
8.4310900599
 30
0.0
 10
11.5241366204
 20
8.3962810678
 30
0.0
 10
11.5265362362
 20
8.3614517869
 30
0.0
 10
11.5339758838
 20
8.3273536364
 30
0.0
 10
11.5462929375
 20
8.2947274973
 30
0.0
 10
11.56320009
 20
8.2642997182
 30
0.0
 10
11.5773124739
 20
8.2458804405
 30
0.0
 10
11.5849834893
 20
8.2372631255
 30
0.0
  0
SPLINE
  5
237
100
AcDbEntity
  8
0
100
AcDbSpline
 62
7
  6
CONTINUOUS
 70
0
 71
3
 72
15
 73
11
 74
0
 42
0.0000001
 43
0.0000001
 44
0.0000000001
 40
0.0
 40
0.0
 40
0.0
 40
0.0
 40
0.1252864373
 40
0.250999798
 40
0.3768885679
 40
0.5027557255
 40
0.6283975273
 40
0.7535390206
 40
0.8777081963
 40
1.0
 40
1.0
 40
1.0
 40
1.0
 10
11.5447812453
 20
8.3006402702
 30
0.0
 10
11.5402717834
 20
8.2905882933
 30
0.0
 10
11.5327142732
 20
8.2697507164
 30
0.0
 10
11.5260587874
 20
8.2371691602
 30
0.0
 10
11.5242084086
 20
8.2039081233
 30
0.0
 10
11.5272127656
 20
8.1707394463
 30
0.0
 10
11.5349963345
 20
8.1384246091
 30
0.0
 10
11.5473602819
 20
8.1077290657
 30
0.0
 10
11.563940941
 20
8.0794395161
 30
0.0
 10
11.5776108119
 20
8.0624973585
 30
0.0
 10
11.5849834966
 20
8.0546686964
 30
0.0
  0
SPLINE
  5
238
100
AcDbEntity
  8
0
100
AcDbSpline
 62
7
  6
CONTINUOUS
 70
0
 71
3
 72
17
 73
13
 74
0
 42
0.0000001
 43
0.0000001
 44
0.0000000001
 40
0.0
 40
0.0
 40
0.0
 40
0.0
 40
0.1260569557
 40
0.189475815
 40
0.2530287933
 40
0.3802176965
 40
0.5072757987
 40
0.6337299404
 40
0.7589214707
 40
0.8207691112
 40
0.8818178135
 40
1.0
 40
1.0
 40
1.0
 40
1.0
 10
11.5413789914
 20
8.1234614261
 30
0.0
 10
11.5373730081
 20
8.1140166048
 30
0.0
 10
11.5324196222
 20
8.0993328448
 30
0.0
 10
11.5280491244
 20
8.0791953289
 30
0.0
 10
11.5251701589
 20
8.058694168
 30
0.0
 10
11.524435719
 20
8.0327376702
 30
0.0
 10
11.5281526755
 20
8.0018649582
 30
0.0
 10
11.5363536761
 20
7.9720382629
 30
0.0
 10
11.5467593513
 20
7.9486272415
 30
0.0
 10
11.5570278745
 20
7.9312210222
 30
0.0
 10
11.5682770357
 20
7.9151300757
 30
0.0
 10
11.5780158532
 20
7.9041606332
 30
0.0
 10
11.5849836232
 20
7.8975301549
 30
0.0
  0
SPLINE
  5
239
100
AcDbEntity
  8
0
100
AcDbSpline
 62
7
  6
CONTINUOUS
 70
0
 71
3
 72
17
 73
13
 74
0
 42
0.0000001
 43
0.0000001
 44
0.0000000001
 40
0.0
 40
0.0
 40
0.0
 40
0.0
 40
0.1275517887
 40
0.1918320146
 40
0.2562777589
 40
0.3852205829
 40
0.5137828369
 40
0.6411763126
 40
0.7662709018
 40
0.8274653808
 40
0.8872447842
 40
1.0
 40
1.0
 40
1.0
 40
1.0
 10
11.5377002918
 20
7.9706859587
 30
0.0
 10
11.5342710672
 20
7.9619878475
 30
0.0
 10
11.5301352439
 20
7.9484710461
 30
0.0
 10
11.5267300709
 20
7.9299838328
 30
0.0
 10
11.5247320214
 20
7.9111857024
 30
0.0
 10
11.5249282784
 20
7.8874886641
 30
0.0
 10
11.5294535807
 20
7.8595308056
 30
0.0
 10
11.5381104586
 20
7.8328598798
 30
0.0
 10
11.5485730876
 20
7.8122665871
 30
0.0
 10
11.5586545811
 20
7.7972862844
 30
0.0
 10
11.5693709718
 20
7.7839043688
 30
0.0
 10
11.5785120739
 20
7.7750351799
 30
0.0
 10
11.5849842869
 20
7.7698949373
 30
0.0
  0
SPLINE
  5
23A
100
AcDbEntity
  8
0
100
AcDbSpline
 62
7
  6
CONTINUOUS
 70
0
 71
3
 72
18
 73
14
 74
0
 42
0.0000001
 43
0.0000001
 44
0.0000000001
 40
0.0
 40
0.0
 40
0.0
 40
0.0
 40
0.1290211645
 40
0.1940097756
 40
0.2591317221
 40
0.389265037
 40
0.5186764226
 40
0.6463843207
 40
0.770978493
 40
0.8315217568
 40
0.8903579584
 40
0.9467674824
 40
1.0
 40
1.0
 40
1.0
 40
1.0
 10
11.5339061154
 20
7.8468566246
 30
0.0
 10
11.5311477646
 20
7.8390332183
 30
0.0
 10
11.5279491972
 20
7.8269043972
 30
0.0
 10
11.5256274073
 20
7.810394006
 30
0.0
 10
11.524601979
 20
7.7936774637
 30
0.0
 10
11.5257790926
 20
7.7727436802
 30
0.0
 10
11.5310724422
 20
7.7483090549
 30
0.0
 10
11.540057456
 20
7.7253582791
 30
0.0
 10
11.5504218931
 20
7.7079946162
 30
0.0
 10
11.5601873235
 20
7.6956953806
 30
0.0
 10
11.5680141866
 20
7.6875171172
 30
0.0
 10
11.5762359267
 20
7.6804387824
 30
0.0
 10
11.5820510389
 20
7.6764212363
 30
0.0
 10
11.5849844785
 20
7.6746579828
 30
0.0
  0
SPLINE
  5
23B
100
AcDbEntity
  8
0
100
AcDbSpline
 62
7
  6
CONTINUOUS
 70
0
 71
3
 72
17
 73
13
 74
0
 42
0.0000001
 43
0.0000001
 44
0.0000000001
 40
0.0
 40
0.0
 40
0.0
 40
0.0
 40
0.1281537687
 40
0.256791356
 40
0.3852543133
 40
0.5128702922
 40
0.6389001672
 40
0.7624532095
 40
0.8230792657
 40
0.8827752268
 40
0.9415836475
 40
1.0
 40
1.0
 40
1.0
 40
1.0
 10
11.5299883492
 20
7.7547510938
 30
0.0
 10
11.5280736666
 20
7.7479936864
 30
0.0
 10
11.5253297123
 20
7.7341181695
 30
0.0
 10
11.524543765
 20
7.7129359266
 30
0.0
 10
11.5270854018
 20
7.69191585
 30
0.0
 10
11.532891471
 20
7.6717002394
 30
0.0
 10
11.5418013436
 20
7.6529433867
 30
0.0
 10
11.5516798425
 20
7.6389823736
 30
0.0
 10
11.560877197
 20
7.6292597707
 30
0.0
 10
11.5683189986
 20
7.6228279898
 30
0.0
 10
11.5763205253
 20
7.6173173194
 30
0.0
 10
11.5820415384
 20
7.6143427592
 30
0.0
 10
11.5849834655
 20
7.6130799804
 30
0.0
  0
SPLINE
  5
23C
100
AcDbEntity
  8
0
100
AcDbSpline
 62
7
  6
CONTINUOUS
 70
0
 71
3
 72
17
 73
13
 74
0
 42
0.0000001
 43
0.0000001
 44
0.0000000001
 40
0.0
 40
0.0
 40
0.0
 40
0.0
 40
0.1245560453
 40
0.249139362
 40
0.3735601473
 40
0.4976920506
 40
0.6215040751
 40
0.7453084787
 40
0.8075823221
 40
0.8704069571
 40
0.9343225083
 40
1.0
 40
1.0
 40
1.0
 40
1.0
 10
11.5265867415
 20
7.6967594746
 30
0.0
 10
11.5256231389
 20
7.691167453
 30
0.0
 10
11.5245614874
 20
7.6798137025
 30
0.0
 10
11.525591191
 20
7.6627626267
 30
0.0
 10
11.5292249095
 20
7.6460854961
 30
0.0
 10
11.5354204997
 20
7.6302149
 30
0.0
 10
11.5441066534
 20
7.6155864707
 30
0.0
 10
11.5533664286
 20
7.604815621
 30
0.0
 10
11.5619215445
 20
7.59734918
 30
0.0
 10
11.5689648081
 20
7.5923660785
 30
0.0
 10
11.5766508525
 20
7.5881136221
 30
0.0
 10
11.5821418684
 20
7.585892887
 30
0.0
 10
11.5849836421
 20
7.5849564471
 30
0.0
  0
SPLINE
  5
23D
100
AcDbEntity
  8
0
100
AcDbSpline
 62
7
  6
CONTINUOUS
 70
0
 71
3
 72
11
 73
7
 74
0
 42
0.0000001
 43
0.0000001
 44
0.0000000001
 40
0.0
 40
0.0
 40
0.0
 40
0.0
 40
0.2491866327
 40
0.4986518846
 40
0.7487697911
 40
1.0
 40
1.0
 40
1.0
 40
1.0
 10
11.524990163
 20
7.674872919
 30
0.0
 10
11.5249406508
 20
7.6707358296
 30
0.0
 10
11.5253953012
 20
7.6624398688
 30
0.0
 10
11.5277343078
 20
7.6501927112
 30
0.0
 10
11.5317163268
 20
7.6383402742
 30
0.0
 10
11.5354443049
 20
7.6308615026
 30
0.0
 10
11.5375648314
 20
7.6272693936
 30
0.0
  0
SPLINE
  5
23E
100
AcDbEntity
  8
0
100
AcDbSpline
 62
7
  6
CONTINUOUS
 70
0
 71
3
 72
11
 73
7
 74
0
 42
0.0000001
 43
0.0000001
 44
0.0000000001
 40
0.0
 40
0.0
 40
0.0
 40
0.0
 40
0.2498651547
 40
0.4997423516
 40
0.7497156367
 40
1.0
 40
1.0
 40
1.0
 40
1.0
 10
11.5258687259
 20
8.021095912
 30
0.0
 10
11.5252207797
 20
8.0162311566
 30
0.0
 10
11.5246346819
 20
8.0063920818
 30
0.0
 10
11.5259016413
 20
7.9916707706
 30
0.0
 10
11.5293008846
 20
7.9772818293
 30
0.0
 10
11.5329736657
 20
7.968120255
 30
0.0
 10
11.5351482061
 20
7.963711407
 30
0.0
  0
SPLINE
  5
23F
100
AcDbEntity
  8
0
100
AcDbSpline
 62
7
  6
CONTINUOUS
 70
0
 71
3
 72
11
 73
7
 74
0
 42
0.0000001
 43
0.0000001
 44
0.0000000001
 40
0.0
 40
0.0
 40
0.0
 40
0.0
 40
0.2484737098
 40
0.4984338334
 40
0.7491539768
 40
1.0
 40
1.0
 40
1.0
 40
1.0
 10
11.5352001445
 20
10.0558112665
 30
0.0
 10
11.533087556
 20
10.0618720535
 30
0.0
 10
11.5294965872
 20
10.0742659372
 30
0.0
 10
11.5260880116
 20
10.093349769
 30
0.0
 10
11.5246833204
 20
10.1127459577
 30
0.0
 10
11.5250984758
 20
10.1257231759
 30
0.0
 10
11.5256432257
 20
10.1321799411
 30
0.0
  0
SPLINE
  5
240
100
AcDbEntity
  8
0
100
AcDbSpline
 62
7
  6
CONTINUOUS
 70
0
 71
3
 72
9
 73
5
 74
0
 42
0.0000001
 43
0.0000001
 44
0.0000000001
 40
0.0
 40
0.0
 40
0.0
 40
0.0
 40
0.4985947492
 40
1.0
 40
1.0
 40
1.0
 40
1.0
 10
11.5320250138
 20
10.1785967239
 30
0.0
 10
11.5291474138
 20
10.1878965601
 30
0.0
 10
11.5251269491
 20
10.2071320336
 30
0.0
 10
11.5246902414
 20
10.2267746754
 30
0.0
 10
11.5253676149
 20
10.2365409486
 30
0.0
  0
SPLINE
  5
241
100
AcDbEntity
  8
0
100
AcDbSpline
 62
7
  6
CONTINUOUS
 70
0
 71
3
 72
13
 73
9
 74
0
 42
0.0000001
 43
0.0000001
 44
0.0000000001
 40
0.0
 40
0.0
 40
0.0
 40
0.0
 40
0.2467211641
 40
0.4935739797
 40
0.6177247954
 40
0.7428794403
 40
0.86992362
 40
1.0
 40
1.0
 40
1.0
 40
1.0
 10
11.5374699975
 20
10.3925652957
 30
0.0
 10
11.5398976648
 20
10.3971281293
 30
0.0
 10
11.545455943
 20
10.4059029384
 30
0.0
 10
11.5540905434
 20
10.4156284366
 30
0.0
 10
11.5619623884
 20
10.4224346734
 30
0.0
 10
11.5683913604
 20
10.4270202963
 30
0.0
 10
11.575356252
 20
10.4309999188
 30
0.0
 10
11.5803091206
 20
10.433152361
 30
0.0
 10
11.5828678989
 20
10.4340892893
 30
0.0
  0
SPLINE
  5
242
100
AcDbEntity
  8
0
100
AcDbSpline
 62
7
  6
CONTINUOUS
 70
0
 71
3
 72
9
 73
5
 74
0
 42
0.0000001
 43
0.0000001
 44
0.0000000001
 40
0.0
 40
0.0
 40
0.0
 40
0.0
 40
0.4631644899
 40
1.0
 40
1.0
 40
1.0
 40
1.0
 10
11.5722820144
 20
10.0949333823
 30
0.0
 10
11.574100463
 20
10.0958784876
 30
0.0
 10
11.5782650664
 20
10.0974680542
 30
0.0
 10
11.5826271542
 20
10.0983125509
 30
0.0
 10
11.5849834891
 20
10.0986125911
 30
0.0
  0
SPLINE
  5
243
100
AcDbEntity
  8
0
100
AcDbSpline
 62
7
  6
CONTINUOUS
 70
0
 71
3
 72
14
 73
10
 74
0
 42
0.0000001
 43
0.0000001
 44
0.0000000001
 40
0.0
 40
0.0
 40
0.0
 40
0.0
 40
0.0753418212
 40
0.1637248691
 40
0.2660700666
 40
0.3828789165
 40
0.514434461
 40
0.6609400961
 40
1.0
 40
1.0
 40
1.0
 40
1.0
 10
11.5648511808
 20
9.9398099762
 30
0.0
 10
11.5652599689
 20
9.9401303786
 30
0.0
 10
11.5662267327
 20
9.9407272962
 30
0.0
 10
11.5679211707
 20
9.941441701
 30
0.0
 10
11.5699625435
 20
9.9420293318
 30
0.0
 10
11.5723419483
 20
9.9424740981
 30
0.0
 10
11.5750513668
 20
9.9427614593
 30
0.0
 10
11.5793050069
 20
9.9429239249
 30
0.0
 10
11.5826556271
 20
9.9427466599
 30
0.0
 10
11.5849834891
 20
9.9425356878
 30
0.0
  0
SPLINE
  5
244
100
AcDbEntity
  8
0
100
AcDbSpline
 62
7
  6
CONTINUOUS
 70
0
 71
3
 72
27
 73
23
 74
0
 42
0.0000001
 43
0.0000001
 44
0.0000000001
 40
0.0
 40
0.0
 40
0.0
 40
0.0
 40
0.0005144543
 40
0.0015051011
 40
0.0029912652
 40
0.0049770149
 40
0.0104498143
 40
0.0179225783
 40
0.0273895579
 40
0.0388438928
 40
0.0522765097
 40
0.0676769392
 40
0.1043395945
 40
0.1487511133
 40
0.2008217974
 40
0.2604585748
 40
0.3275682943
 40
0.4020559515
 40
0.4838320641
 40
0.5728143064
 40
0.7721513799
 40
1.0
 40
1.0
 40
1.0
 40
1.0
 10
11.5631734018
 20
9.7660031391
 30
0.0
 10
11.5631761026
 20
9.7660058747
 30
0.0
 10
11.5631878511
 20
9.7660086235
 30
0.0
 10
11.5632094362
 20
9.7660117285
 30
0.0
 10
11.563243045
 20
9.7660134395
 30
0.0
 10
11.5633097198
 20
9.766014486
 30
0.0
 10
11.5634214075
 20
9.7660114001
 30
0.0
 10
11.5635885892
 20
9.7660023801
 30
0.0
 10
11.5638002123
 20
9.7659866266
 30
0.0
 10
11.5640558817
 20
9.7659635762
 30
0.0
 10
11.564355334
 20
9.7659325515
 30
0.0
 10
11.5648415217
 20
9.765876401
 30
0.0
 10
11.5655562261
 20
9.7657816778
 30
0.0
 10
11.566539947
 20
9.7656325259
 30
0.0
 10
11.5676901904
 20
9.765437598
 30
0.0
 10
11.5690037868
 20
9.7651925633
 30
0.0
 10
11.5704774762
 20
9.7648933047
 30
0.0
 10
11.5721079901
 20
9.7645360019
 30
0.0
 10
11.5738921091
 20
9.7641170542
 30
0.0
 10
11.5765750901
 20
9.7634461494
 30
0.0
 10
11.5802965059
 20
9.7624305464
 30
0.0
 10
11.5833554808
 20
9.7615175072
 30
0.0
 10
11.5849834891
 20
9.7610191418
 30
0.0
  0
SPLINE
  5
245
100
AcDbEntity
  8
0
100
AcDbSpline
 62
7
  6
CONTINUOUS
 70
0
 71
3
 72
14
 73
10
 74
0
 42
0.0000001
 43
0.0000001
 44
0.0000000001
 40
0.0
 40
0.0
 40
0.0
 40
0.0
 40
0.0787694817
 40
0.170636142
 40
0.2758307793
 40
0.3943764224
 40
0.5261858217
 40
0.6711210832
 40
1.0
 40
1.0
 40
1.0
 40
1.0
 10
11.5653494484
 20
9.5708288701
 30
0.0
 10
11.5657906548
 20
9.5704179841
 30
0.0
 10
11.5667962982
 20
9.5695814917
 30
0.0
 10
11.5685089012
 20
9.5683454867
 30
0.0
 10
11.5705326143
 20
9.5670251526
 30
0.0
 10
11.5728594694
 20
9.5656133187
 30
0.0
 10
11.5754817322
 20
9.5641037022
 30
0.0
 10
11.5795374387
 20
9.5618588017
 30
0.0
 10
11.5827440053
 20
9.5601636013
 30
0.0
 10
11.5849834891
 20
9.5590141635
 30
0.0
  0
SPLINE
  5
246
100
AcDbEntity
  8
0
100
AcDbSpline
 62
7
  6
CONTINUOUS
 70
0
 71
3
 72
9
 73
5
 74
0
 42
0.0000001
 43
0.0000001
 44
0.0000000001
 40
0.0
 40
0.0
 40
0.0
 40
0.0
 40
0.4657058653
 40
1.0
 40
1.0
 40
1.0
 40
1.0
 10
11.5726112466
 20
9.3519676116
 30
0.0
 10
11.5744067479
 20
9.3502790582
 30
0.0
 10
11.5784378608
 20
9.3468402907
 30
0.0
 10
11.5826738607
 20
9.3436623471
 30
0.0
 10
11.5849834891
 20
9.3420308244
 30
0.0
  0
ENDSEC
  0
SECTION
  2
OBJECTS
  0
DICTIONARY
  5
C
100
AcDbDictionary
280
0
281
1
  3
ACAD_GROUP
350
D
  3
ACAD_MLINESTYLE
350
17
  3
ACAD_LAYOUT
350
1A
  3
ACAD_PLOTSETTINGS
350
19
  3
ACAD_PLOTSTYLENAME
350
E
  0
DICTIONARY
  5
D
102
{ACAD_REACTORS
330
C
102
}
100
AcDbDictionary
280
0
281
1
  0
ACDBDICTIONARYWDFLT
  5
E
102
{ACAD_REACTORS
330
C
102
}
100
AcDbDictionary
281
1
  3
Normal
350
F
100
AcDbDictionaryWithDefault
340
F
  0
DICTIONARY
  5
17
102
{ACAD_REACTORS
330
C
102
}
100
AcDbDictionary
280
0
281
1
  3
Standard
350
18
  0
DICTIONARY
  5
19
102
{ACAD_REACTORS
330
C
102
}
100
AcDbDictionary
281
1
  0
DICTIONARY
  5
1A
102
{ACAD_REACTORS
330
C
102
}
100
AcDbDictionary
281
1
  3
Model
350
247
  3
Layout1
350
248
  0
ACDBPLACEHOLDER
  5
F
102
{ACAD_REACTORS
330
E
102
}
  0
MLINESTYLE
  5
18
102
{ACAD_REACTORS
330
17
102
}
100
AcDbMlineStyle
  2
STANDARD
 70
0
  3

 62
256
 51
90.0
 52
90.0
 71
2
 49
0.5
 62
256
  6
BYLAYER
 49
-0.5
 62
256
  6
BYLAYER
  0
LAYOUT
  5
247
102
{ACAD_REACTORS
330
1A
102
}
100
AcDbPlotSettings
  1

  2
none_device
  4
ANSI_C_(22.00_x_17.00_Inches)
  6

 40
0.0
 41
0.0
 42
0.0
 43
0.0
 44
558.8
 45
431.8
 46
0.0
 47
0.0
 48
0.0
 49
0.0
140
0.0
141
0.0
142
1.0
143
1.0
 70
1024
 72
0
 73
0
 74
0
  7

 75
0
147
1.0
148
0.0
149
0.0
100
AcDbLayout
  1
Model
 70
0
 71
0
 10
0.0
 20
0.0
 11
22.0
 21
17.0
 12
0.0
 22
0.0
 32
0.0
 14
0.0
 24
0.0
 34
0.0
 15
0.0
 25
0.0
 35
0.0
146
0.0
 13
0.0
 23
0.0
 33
0.0
 16
1.0
 26
0.0
 36
0.0
 17
0.0
 27
1.0
 37
0.0
 76
0
330
205
345
0
346
0
  0
LAYOUT
  5
248
102
{ACAD_REACTORS
330
1A
102
}
100
AcDbPlotSettings
  1

  2
none_device
  4
ANSI_C_(22.00_x_17.00_Inches)
  6

 40
0.0
 41
0.0
 42
0.0
 43
0.0
 44
558.8
 45
431.8
 46
0.0
 47
0.0
 48
0.0
 49
0.0
140
0.0
141
0.0
142
1.0
143
1.0
 70
0
 72
0
 73
0
 74
0
  7

 75
0
147
1.0
148
0.0
149
0.0
100
AcDbLayout
  1
Layout1
 70
0
 71
1
 10
0.0
 20
0.0
 11
22.0
 21
17.0
 12
0.0
 22
0.0
 32
0.0
 14
0.0
 24
0.0
 34
0.0
 15
0.0
 25
0.0
 35
0.0
146
0.0
 13
0.0
 23
0.0
 33
0.0
 16
1.0
 26
0.0
 36
0.0
 17
0.0
 27
1.0
 37
0.0
 76
0
330
206
345
0
346
0
  0
ENDSEC
  0
EOF
