999
DXF file: E:\BT Custom\CADOUTPUT\_FRONT.dxf
999
Pro/ENGINEER 2018400 by Parametric Technology Corporation
  0
SECTION
  2
HEADER
  9
$ACADVER
  1
AC1018
  9
$DWGCODEPAGE
  3
ANSI_1252
  9
$EXTMAX
 10
22.0
 20
17.0
 30
0.0
  9
$EXTMIN
 10
0.0
 20
0.0
 30
0.0
  9
$LIMMIN
 10
0.0
 20
0.0
  9
$LIMMAX
 10
22.0
 20
17.0
  9
$VIEWCTR
 10
11.0
 20
8.5
  9
$VIEWSIZE
 40
17.0
  9
$CLAYER
  8
0
  9
$LTSCALE
 40
1.21
  9
$CELTYPE
  6
BYLAYER
  9
$DIMSCALE
 40
1.0
  9
$DIMASZ
 40
0.1
  9
$DIMEXO
 40
0.0625
  9
$DIMDLI
 40
0.836
  9
$DIMEXE
 40
0.125
  9
$DIMCEN
 40
0.198
  9
$DIMLFAC
 40
1.0
  9
$DIMBLK
  1
_FILLED
  9
$DIMALT
 70
1
  9
$DIMALTD
 70
2
  9
$DIMALTTD
 70
2
  9
$DIMALTF
 40
25.4
  9
$DIMTXT
 40
0.08
  9
$DIMTOL
 70
1
  9
$DIMLIM
 70
0
  9
$DIMTFAC
 40
1.0
  9
$DIMTP
 40
0.001
  9
$DIMTM
 40
0.001
  9
$DIMGAP
 40
0.09
  9
$DIMDSEP
 70
46
  9
$AUNITS
 70
0
  9
$PDMODE
 70
3
  9
$PDSIZE
 40
0.06
  9
$HANDSEED
  5
2E2
  9
$TILEMODE
 70
1
  9
$MEASUREMENT
 70
0
  9
$INSUNITS
 70
1
  0
ENDSEC
  0
SECTION
  2
CLASSES
  0
CLASS
  1
ACDBDICTIONARYWDFLT
  2
AcDbDictionaryWithDefault
  3
AutoCAD 2000
 90
0
 91
1
280
0
281
0
  0
CLASS
  1
ACDBPLACEHOLDER
  2
AcDbPlaceHolder
  3
AutoCAD 2000
 90
0
 91
1
280
0
281
0
  0
CLASS
  1
LAYOUT
  2
AcDbLayout
  3
AutoCAD 2000
 90
0
 91
0
280
0
281
0
  0
ENDSEC
  0
SECTION
  2
TABLES
  0
TABLE
  2
VPORT
  5
8
100
AcDbSymbolTable
 70
2
  0
VPORT
  5
1F4
100
AcDbSymbolTableRecord
100
AcDbViewportTableRecord
  2
*ACTIVE
 70
0
 10
0.0
 20
0.0
 11
1.0
 21
1.0
 12
11.0
 22
8.5
 13
0.0
 23
0.0
 14
1.0
 24
1.0
 15
0.0
 25
0.0
 16
0.0
 26
0.0
 36
1.0
 17
0.0
 27
0.0
 37
0.0
 40
17.0
 41
1.2941176471
 42
50.0
 43
0.0
 44
0.0
 50
0.0
 51
0.0
 71
0
 72
100
 73
1
 74
1
 75
0
 76
0
 77
0
 78
0
  0
ENDTAB
  0
TABLE
  2
LTYPE
  5
5
100
AcDbSymbolTable
 70
6
  0
LTYPE
  5
14
100
AcDbSymbolTableRecord
100
AcDbLinetypeTableRecord
  2
BYBLOCK
 70
0
  3

 72
65
 73
0
 40
0.0
  0
LTYPE
  5
15
100
AcDbSymbolTableRecord
100
AcDbLinetypeTableRecord
  2
BYLAYER
 70
0
  3

 72
65
 73
0
 40
0.0
  0
LTYPE
  5
16
100
AcDbSymbolTableRecord
100
AcDbLinetypeTableRecord
  2
CONTINUOUS
 70
64
  3
Solid line
 72
65
 73
0
 40
0.0
  0
LTYPE
  5
1F5
100
AcDbSymbolTableRecord
100
AcDbLinetypeTableRecord
  2
CENTER
 70
64
  3
____ _ ____ _ ____ _ ____ _ ____ _ ____ _ ____
 72
65
 73
4
 40
0.6
 49
0.375
 74
0
 49
-0.075
 74
0
 49
0.075
 74
0
 49
-0.075
 74
0
  0
LTYPE
  5
1F6
100
AcDbSymbolTableRecord
100
AcDbLinetypeTableRecord
  2
HIDDEN
 70
64
  3
- - - - - - - - - - - - - - - - - - - -
 72
65
 73
2
 40
0.2
 49
0.1
 74
0
 49
-0.1
 74
0
  0
LTYPE
  5
1F7
100
AcDbSymbolTableRecord
100
AcDbLinetypeTableRecord
  2
PHANTOM
 70
64
  3
_____ _ _ _____ _ _ _____ _ _ _____
 72
65
 73
6
 40
0.8
 49
0.45
 74
0
 49
-0.05
 74
0
 49
0.1
 74
0
 49
-0.05
 74
0
 49
0.1
 74
0
 49
-0.05
 74
0
  0
LTYPE
  5
1F8
100
AcDbSymbolTableRecord
100
AcDbLinetypeTableRecord
  2
DOT
 70
64
  3
. . . . . . . . . . . . . . . . . . . .
 72
65
 73
2
 40
0.2
 49
0.1
 74
0
 49
-0.1
 74
0
  0
LTYPE
  5
1F9
100
AcDbSymbolTableRecord
100
AcDbLinetypeTableRecord
  2
DASHED
 70
64
  3
- - - - - - - - - - - - - - - - - - - -
 72
65
 73
2
 40
0.2
 49
0.1
 74
0
 49
-0.1
 74
0
  0
ENDTAB
  0
TABLE
  2
LAYER
  5
2
100
AcDbSymbolTable
 70
36
  0
LAYER
  5
10
100
AcDbSymbolTableRecord
100
AcDbLayerTableRecord
  2
0
 70
0
 62
7
  6
CONTINUOUS
370
-3
390
F
  0
LAYER
  5
1FA
100
AcDbSymbolTableRecord
100
AcDbLayerTableRecord
  2
DEFAULT_1
 70
0
 62
7
  6
CENTER
370
-3
390
F
  0
LAYER
  5
1FB
100
AcDbSymbolTableRecord
100
AcDbLayerTableRecord
  2
DEFAULT_2
 70
0
 62
8
  6
HIDDEN
370
-3
390
F
  0
LAYER
  5
1FC
100
AcDbSymbolTableRecord
100
AcDbLayerTableRecord
  2
DEFAULT_3
 70
0
 62
7
  6
PHANTOM
370
-3
390
F
  0
LAYER
  5
1FD
100
AcDbSymbolTableRecord
100
AcDbLayerTableRecord
  2
ALL_FEATURES
 70
0
 62
7
  6
CONTINUOUS
370
-3
390
F
  0
LAYER
  5
1FE
100
AcDbSymbolTableRecord
100
AcDbLayerTableRecord
  2
AXES_FEATURES
 70
0
 62
7
  6
CONTINUOUS
370
-3
390
F
  0
LAYER
  5
1FF
100
AcDbSymbolTableRecord
100
AcDbLayerTableRecord
  2
DEFAULT_COORDINATE_SYSTEM
 70
0
 62
7
  6
CONTINUOUS
370
-3
390
F
  0
LAYER
  5
200
100
AcDbSymbolTableRecord
100
AcDbLayerTableRecord
  2
DEFAULT_DATUM_AXES
 70
0
 62
7
  6
CONTINUOUS
370
-3
390
F
  0
LAYER
  5
201
100
AcDbSymbolTableRecord
100
AcDbLayerTableRecord
  2
DEFAULT_DATUM_PLANES
 70
0
 62
7
  6
CONTINUOUS
370
-3
390
F
  0
LAYER
  5
202
100
AcDbSymbolTableRecord
100
AcDbLayerTableRecord
  2
DIMENSIONS
 70
0
 62
7
  6
CONTINUOUS
370
-3
390
F
  0
ENDTAB
  0
TABLE
  2
STYLE
  5
3
100
AcDbSymbolTable
 70
1
  0
STYLE
  5
11
100
AcDbSymbolTableRecord
100
AcDbTextStyleTableRecord
  2
STANDARD
 70
0
 40
0.0
 41
0.8
 50
0.0
 71
0
 42
0.2
  3
txt
  4

  0
STYLE
  5
203
100
AcDbSymbolTableRecord
100
AcDbTextStyleTableRecord
  2
TEXTSTYLE_1
 70
0
 40
0.0
 41
0.8
 50
0.0
 71
0
 42
0.2
  3
gdt
  4

  0
ENDTAB
  0
TABLE
  2
VIEW
  5
6
100
AcDbSymbolTable
 70
0
  0
ENDTAB
  0
TABLE
  2
UCS
  5
7
100
AcDbSymbolTable
 70
0
  0
ENDTAB
  0
TABLE
  2
APPID
  5
9
100
AcDbSymbolTable
 70
1
  0
APPID
  5
204
100
AcDbSymbolTableRecord
100
AcDbRegAppTableRecord
  2
ACAD
 70
0
  0
ENDTAB
  0
TABLE
  2
BLOCK_RECORD
  5
1
100
AcDbSymbolTable
 70
0
  0
BLOCK_RECORD
  5
205
100
AcDbSymbolTableRecord
100
AcDbBlockTableRecord
  2
*Model_Space
  0
BLOCK_RECORD
  5
206
100
AcDbSymbolTableRecord
100
AcDbBlockTableRecord
  2
*Paper_Space
  0
BLOCK_RECORD
  5
207
100
AcDbSymbolTableRecord
100
AcDbBlockTableRecord
  2
_FILLED
  0
ENDTAB
  0
TABLE
  2
DIMSTYLE
  5
A
100
AcDbSymbolTable
 70
1
100
AcDbDimStyleTable
 71
0
  0
DIMSTYLE
105
208
100
AcDbSymbolTableRecord
100
AcDbDimStyleTableRecord
  2
STANDARD
 70
0
  3

  4

 40
1.0
 41
0.1
 42
0.0625
 43
0.38
 44
0.125
 45
0.0
 46
0.0
 47
0.001
 48
0.001
140
0.08
141
0.09
142
0.0
143
25.4
144
1.0
145
0.0
146
1.0
147
0.09
 71
1.0
 72
0.0
 73
1
 74
1
 75
0
 76
0
 77
0
 78
4
 79
1
170
1
171
2
172
0
173
0
174
0
175
0
176
0
177
0
178
0
270
2
179
3
271
3
272
3
273
2
274
2
275
0
280
0
281
0
282
0
283
1
284
4
285
0
286
0
287
3
288
0
340
11
278
46
341
207
342
207
343
207
344
207
  0
ENDTAB
  0
ENDSEC
  0
SECTION
  2
BLOCKS
  0
BLOCK
  5
20
100
AcDbEntity
  8
0
100
AcDbBlockBegin
  2
*Model_Space
 70
0
 10
0.0
 20
0.0
 30
0.0
  3
*Model_Space
  1

  0
ENDBLK
  5
21
100
AcDbEntity
  8
0
100
AcDbBlockEnd
  0
BLOCK
  5
1C
100
AcDbEntity
  8
0
100
AcDbBlockBegin
  2
*Paper_Space
 70
0
 10
0.0
 20
0.0
 30
0.0
  3
*Paper_Space
  1

  0
ENDBLK
  5
1D
100
AcDbEntity
  8
0
100
AcDbBlockEnd
  0
BLOCK
  5
209
100
AcDbEntity
  8
0
100
AcDbBlockBegin
  2
_FILLED
 70
64
 10
0.0
 20
0.0
  3
_FILLED
  1

  0
SOLID
  5
20A
100
AcDbEntity
  8
0
  6
BYBLOCK
 62
0
100
AcDbTrace
 10
0.0
 20
0.0
 11
-1.0
 21
0.2
 12
-1.0
 22
-0.2
 13
-1.0
 23
-0.2
  0
ENDBLK
  5
20B
100
AcDbEntity
  8
0
  6
BYBLOCK
 62
0
100
AcDbBlockEnd
  0
ENDSEC
  0
SECTION
  2
ENTITIES
  0
LINE
  5
20C
100
AcDbEntity
  8
0
100
AcDbLine
 62
9
  6
CONTINUOUS
 10
-5.4373076573
 20
9.8926695021
 11
-5.4373076573
 21
8.6426695021
  0
LINE
  5
20D
100
AcDbEntity
  8
0
100
AcDbLine
 62
7
  6
CONTINUOUS
 10
-7.0585803055
 20
8.6426695021
 11
28.933964991
 21
8.6426695021
  0
LINE
  5
20E
100
AcDbEntity
  8
0
100
AcDbLine
 62
7
  6
CONTINUOUS
 10
-7.0585803055
 20
9.8926695021
 11
28.933964991
 21
9.8926695021
  0
LINE
  5
20F
100
AcDbEntity
  8
0
100
AcDbLine
 62
9
  6
CONTINUOUS
 10
27.3126923427
 20
9.8926695021
 11
27.3126923427
 21
8.6426695021
  0
ARC
  5
210
100
AcDbEntity
  8
0
100
AcDbCircle
 62
7
  6
CONTINUOUS
 10
28.9376923427
 20
9.2676695021
 40
1.5
100
AcDbArc
 50
204.6312056399
 51
155.3687943614
  0
ARC
  5
211
100
AcDbEntity
  8
0
100
AcDbCircle
 62
7
  6
CONTINUOUS
 10
-7.0623076573
 20
9.2676695021
 40
1.5
100
AcDbArc
 50
24.6312056399
 51
335.3687943614
  0
ARC
  5
212
100
AcDbEntity
  8
0
100
AcDbCircle
 62
9
  6
CONTINUOUS
 10
28.9376923427
 20
9.2676695021
 40
1.48
100
AcDbArc
 50
204.9818073737
 51
155.0181937805
  0
ARC
  5
213
100
AcDbEntity
  8
0
100
AcDbCircle
 62
9
  6
CONTINUOUS
 10
-7.0623076573
 20
9.2676695021
 40
1.48
100
AcDbArc
 50
24.9818073737
 51
335.0181937805
  0
ARC
  5
214
100
AcDbEntity
  8
0
100
AcDbCircle
 62
7
  6
CONTINUOUS
 10
28.9376923427
 20
9.2676695021
 40
0.875
100
AcDbArc
 50
225.7334028339
 51
134.2665971598
  0
ARC
  5
215
100
AcDbEntity
  8
0
100
AcDbCircle
 62
7
  6
CONTINUOUS
 10
-7.0623076573
 20
9.2676695021
 40
0.875
100
AcDbArc
 50
45.6347633303
 51
314.3652366667
  0
ARC
  5
216
100
AcDbEntity
  8
0
100
AcDbCircle
 62
9
  6
CONTINUOUS
 10
-7.0623076573
 20
9.2676695021
 40
0.815
100
AcDbArc
 50
50.1263723226
 51
309.8736276834
  0
ARC
  5
217
100
AcDbEntity
  8
0
100
AcDbCircle
 62
9
  6
CONTINUOUS
 10
28.9376923427
 20
9.2676695021
 40
0.815
100
AcDbArc
 50
230.1691154926
 51
129.8308844891
  0
ARC
  5
218
100
AcDbEntity
  8
0
100
AcDbCircle
 62
7
  6
CONTINUOUS
 10
-5.7192143348
 20
8.6336542725
 40
0.2323473966
100
AcDbArc
 50
177.7746087069
 51
183.6528011205
  0
ARC
  5
219
100
AcDbEntity
  8
0
100
AcDbCircle
 62
7
  6
CONTINUOUS
 10
27.5945822063
 20
9.9016472667
 40
0.2323465052
100
AcDbArc
 50
357.7838336637
 51
3.6544049176
  0
SPLINE
  5
21A
100
AcDbEntity
  8
0
100
AcDbSpline
 62
7
  6
CONTINUOUS
 70
0
 71
3
 72
29
 73
25
 74
0
 42
0.0000001
 43
0.0000001
 44
0.0000000001
 40
0.0
 40
0.0
 40
0.0
 40
0.0
 40
0.0312558732
 40
0.0625117809
 40
0.0937676727
 40
0.1250235528
 40
0.1875165969
 40
0.2500096043
 40
0.2812654884
 40
0.312521384
 40
0.3750143629
 40
0.4375073141
 40
0.5000002611
 40
0.5624931714
 40
0.624986082
 40
0.6562419529
 40
0.6874978483
 40
0.7187537481
 40
0.7500096356
 40
0.812502445
 40
0.8749955413
 40
0.9062506258
 40
0.9375067325
 40
1.0
 40
1.0
 40
1.0
 40
1.0
 10
-7.0585803055
 20
9.8926693989
 30
0.0
 10
-7.0688146921
 20
9.8926693996
 30
0.0
 10
-7.0892870505
 20
9.892168921
 30
0.0
 10
-7.1199190788
 20
9.8899171181
 30
0.0
 10
-7.150405799
 20
9.8861699819
 30
0.0
 10
-7.1907519322
 20
9.8791926488
 30
0.0
 10
-7.2404727704
 20
9.8667792403
 30
0.0
 10
-7.2887398095
 20
9.8495596834
 30
0.0
 10
-7.3261901792
 20
9.8330057717
 30
0.0
 10
-7.3627846003
 20
9.8146378177
 30
0.0
 10
-7.4067738385
 20
9.7883432773
 30
0.0
 10
-7.4562030723
 20
9.7517776583
 30
0.0
 10
-7.5018130234
 20
9.7105407673
 30
0.0
 10
-7.5431572678
 20
9.6650330483
 30
0.0
 10
-7.5737309611
 20
9.6239020186
 30
0.0
 10
-7.5956712422
 20
9.5893316549
 30
0.0
 10
-7.61083629
 20
9.5626203535
 30
0.0
 10
-7.624670686
 20
9.535196303
 30
0.0
 10
-7.6412933662
 20
9.4977771676
 30
0.0
 10
-7.6585921976
 20
9.4495373624
 30
0.0
 10
-7.6710675718
 20
9.399832346
 30
0.0
 10
-7.6780816012
 20
9.3594911935
 30
0.0
 10
-7.6831045599
 20
9.3188574377
 30
0.0
 10
-7.6846171598
 20
9.2881322246
 30
0.0
 10
-7.6846171598
 20
9.2676695021
 30
0.0
  0
SPLINE
  5
21B
100
AcDbEntity
  8
0
100
AcDbSpline
 62
7
  6
CONTINUOUS
 70
0
 71
3
 72
29
 73
25
 74
0
 42
0.0000001
 43
0.0000001
 44
0.0000000001
 40
0.0
 40
0.0
 40
0.0
 40
0.0
 40
0.0624932632
 40
0.0937493681
 40
0.1250044532
 40
0.1874975505
 40
0.2499903592
 40
0.2812462478
 40
0.312502147
 40
0.3437580416
 40
0.3750139132
 40
0.4375068239
 40
0.4999997343
 40
0.5624926815
 40
0.6249856325
 40
0.687478612
 40
0.7187345072
 40
0.7499903911
 40
0.8124834
 40
0.874976445
 40
0.9062323252
 40
0.9374882177
 40
0.9687441263
 40
1.0
 40
1.0
 40
1.0
 40
1.0
 10
-7.6846171598
 20
9.2676695021
 30
0.0
 10
-7.6846171598
 20
9.2472067811
 30
0.0
 10
-7.6831045601
 20
9.2164815701
 30
0.0
 10
-7.6780816021
 20
9.175847816
 30
0.0
 10
-7.6710675727
 20
9.1355066635
 30
0.0
 10
-7.6585921993
 20
9.0858016465
 30
0.0
 10
-7.6412933676
 20
9.037561841
 30
0.0
 10
-7.624670688
 20
9.0001427054
 30
0.0
 10
-7.6108362923
 20
8.9727186548
 30
0.0
 10
-7.5956712446
 20
8.9460073536
 30
0.0
 10
-7.5737309638
 20
8.9114369898
 30
0.0
 10
-7.5431572709
 20
8.8703059594
 30
0.0
 10
-7.5018130266
 20
8.8247982402
 30
0.0
 10
-7.4562030758
 20
8.7835613488
 30
0.0
 10
-7.4067738421
 20
8.7469957293
 30
0.0
 10
-7.362784604
 20
8.7207011887
 30
0.0
 10
-7.3261901831
 20
8.7023332343
 30
0.0
 10
-7.2887398132
 20
8.6857793226
 30
0.0
 10
-7.2404727736
 20
8.6685597649
 30
0.0
 10
-7.1907519346
 20
8.656146356
 30
0.0
 10
-7.1504058008
 20
8.6491690226
 30
0.0
 10
-7.1199190801
 20
8.6454218865
 30
0.0
 10
-7.0892870511
 20
8.6431700833
 30
0.0
 10
-7.0688146923
 20
8.6426696047
 30
0.0
 10
-7.0585803055
 20
8.6426696054
 30
0.0
  0
SPLINE
  5
21C
100
AcDbEntity
  8
0
100
AcDbSpline
 62
7
  6
CONTINUOUS
 70
0
 71
3
 72
29
 73
25
 74
0
 42
0.0000001
 43
0.0000001
 44
0.0000000001
 40
0.0
 40
0.0
 40
0.0
 40
0.0
 40
0.0624932675
 40
0.0937493742
 40
0.1250044587
 40
0.187497555
 40
0.2499903644
 40
0.2812462519
 40
0.3125021517
 40
0.3437580471
 40
0.375013918
 40
0.4375068286
 40
0.4999997389
 40
0.5624926859
 40
0.6249856371
 40
0.687478616
 40
0.7187345116
 40
0.7499903957
 40
0.8124834031
 40
0.8749764472
 40
0.9062323273
 40
0.9374882191
 40
0.9687441268
 40
1.0
 40
1.0
 40
1.0
 40
1.0
 10
29.5600018452
 20
9.2676695021
 30
0.0
 10
29.5600018452
 20
9.2881322246
 30
0.0
 10
29.5584892454
 20
9.3188574377
 30
0.0
 10
29.5534662867
 20
9.3594911935
 30
0.0
 10
29.5464522572
 20
9.399832346
 30
0.0
 10
29.5339768831
 20
9.4495373624
 30
0.0
 10
29.5166780517
 20
9.4977771676
 30
0.0
 10
29.5000553715
 20
9.535196303
 30
0.0
 10
29.4862209754
 20
9.5626203535
 30
0.0
 10
29.4710559276
 20
9.5893316549
 30
0.0
 10
29.4491156466
 20
9.6239020186
 30
0.0
 10
29.4185419533
 20
9.6650330483
 30
0.0
 10
29.3771977089
 20
9.7105407673
 30
0.0
 10
29.3315877578
 20
9.7517776583
 30
0.0
 10
29.2821585239
 20
9.7883432773
 30
0.0
 10
29.2381692858
 20
9.8146378177
 30
0.0
 10
29.2015748646
 20
9.8330057717
 30
0.0
 10
29.164124495
 20
9.8495596834
 30
0.0
 10
29.1158574559
 20
9.8667792403
 30
0.0
 10
29.0661366177
 20
9.8791926488
 30
0.0
 10
29.0257904844
 20
9.8861699819
 30
0.0
 10
28.9953037643
 20
9.8899171181
 30
0.0
 10
28.9646717359
 20
9.892168921
 30
0.0
 10
28.9441993776
 20
9.8926693996
 30
0.0
 10
28.933964991
 20
9.8926693989
 30
0.0
  0
SPLINE
  5
21D
100
AcDbEntity
  8
0
100
AcDbSpline
 62
7
  6
CONTINUOUS
 70
0
 71
3
 72
24
 73
20
 74
0
 42
0.0000001
 43
0.0000001
 44
0.0000000001
 40
0.0
 40
0.0
 40
0.0
 40
0.0
 40
0.0156310315
 40
0.0312722955
 40
0.0469018542
 40
0.0625307215
 40
0.0937816838
 40
0.1250338661
 40
0.1562869757
 40
0.1875405699
 40
0.2500375359
 40
0.3125378306
 40
0.3750405871
 40
0.437545661
 40
0.5000531711
 40
0.6250183262
 40
0.7499989123
 40
0.8749944498
 40
1.0
 40
1.0
 40
1.0
 40
1.0
 10
28.6623915778
 20
10.5246419767
 30
0.0
 10
28.6632193261
 20
10.5238172802
 30
0.0
 10
28.6650019481
 20
10.5222921822
 30
0.0
 10
28.6679106868
 20
10.5203261024
 30
0.0
 10
28.670975533
 20
10.5186168953
 30
0.0
 10
28.6751968115
 20
10.5166077332
 30
0.0
 10
28.6806547684
 20
10.5145058799
 30
0.0
 10
28.6873590689
 20
10.5124507492
 30
0.0
 10
28.6941658437
 20
10.5107674552
 30
0.0
 10
28.7033336124
 20
10.5089465778
 30
0.0
 10
28.7149205014
 20
10.5073773558
 30
0.0
 10
28.7289186551
 20
10.5064872052
 30
0.0
 10
28.7429451379
 20
10.5065276314
 30
0.0
 10
28.7569408136
 20
10.5074619798
 30
0.0
 10
28.7754819174
 20
10.5098659535
 30
0.0
 10
28.7983320989
 20
10.5149982537
 30
0.0
 10
28.824801288
 20
10.5244158953
 30
0.0
 10
28.8499513794
 20
10.5369389089
 30
0.0
 10
28.8656043026
 20
10.5472461467
 30
0.0
 10
28.8730837239
 20
10.5528476867
 30
0.0
  0
SPLINE
  5
21E
100
AcDbEntity
  8
0
100
AcDbSpline
 62
7
  6
CONTINUOUS
 70
0
 71
3
 72
36
 73
32
 74
0
 42
0.0000001
 43
0.0000001
 44
0.0000000001
 40
0.0
 40
0.0
 40
0.0
 40
0.0
 40
0.0156262205
 40
0.0312566507
 40
0.046883441
 40
0.0547046316
 40
0.0625289779
 40
0.0703517366
 40
0.0781734872
 40
0.0938003442
 40
0.1016201715
 40
0.1094364505
 40
0.1250633977
 40
0.1406888395
 40
0.1563138154
 40
0.1875578939
 40
0.2188039836
 40
0.2500509891
 40
0.2812985836
 40
0.3125466811
 40
0.3437952649
 40
0.375044275
 40
0.4375328871
 40
0.500024406
 40
0.5625190364
 40
0.6250170788
 40
0.6875188606
 40
0.7500260743
 40
0.8125358976
 40
0.8750480128
 40
1.0
 40
1.0
 40
1.0
 40
1.0
 10
29.1741532029
 20
10.6335544215
 30
0.0
 10
29.1745953582
 20
10.6348484131
 30
0.0
 10
29.1753736081
 20
10.6374757054
 30
0.0
 10
29.1760856986
 20
10.6415278304
 30
0.0
 10
29.1761217438
 20
10.644970567
 30
0.0
 10
29.1757122447
 20
10.6476818977
 30
0.0
 10
29.1751695246
 20
10.6496675198
 30
0.0
 10
29.1744022641
 20
10.65157754
 30
0.0
 10
29.1731003836
 20
10.6539899544
 30
0.0
 10
29.171449642
 20
10.6561927325
 30
0.0
 10
29.1695755528
 20
10.6581870497
 30
0.0
 10
29.1675831654
 20
10.660064303
 30
0.0
 10
29.1649151861
 20
10.6622102376
 30
0.0
 10
29.1615332226
 20
10.6645366355
 30
0.0
 10
29.1568542722
 20
10.6673723621
 30
0.0
 10
29.150772132
 20
10.6705097015
 30
0.0
 10
29.1432466929
 20
10.6737845187
 30
0.0
 10
29.1355558792
 20
10.6766485279
 30
0.0
 10
29.1277390317
 20
10.6791460529
 30
0.0
 10
29.1198215522
 20
10.6813026514
 30
0.0
 10
29.1118225964
 20
10.6831340862
 30
0.0
 10
29.1010711985
 20
10.6851556417
 30
0.0
 10
29.0874989266
 20
10.686912773
 30
0.0
 10
29.0711041381
 20
10.6878203526
 30
0.0
 10
29.0546855971
 20
10.6875457197
 30
0.0
 10
29.0383277123
 20
10.6861037232
 30
0.0
 10
29.0221115009
 20
10.6835093359
 30
0.0
 10
29.0061176636
 20
10.6797795582
 30
0.0
 10
28.9904232071
 20
10.6749341336
 30
0.0
 10
28.9700154888
 20
10.6670239541
 30
0.0
 10
28.9553662078
 20
10.6594799422
 30
0.0
 10
28.9460267541
 20
10.6537932373
 30
0.0
  0
SPLINE
  5
21F
100
AcDbEntity
  8
0
100
AcDbSpline
 62
7
  6
CONTINUOUS
 70
0
 71
3
 72
36
 73
32
 74
0
 42
0.0000001
 43
0.0000001
 44
0.0000000001
 40
0.0
 40
0.0
 40
0.0
 40
0.0
 40
0.1249521301
 40
0.1874643984
 40
0.2499742642
 40
0.3124814668
 40
0.3749831829
 40
0.4374811611
 40
0.4999757243
 40
0.5624671687
 40
0.6249557021
 40
0.6562046734
 40
0.6874532156
 40
0.7187012733
 40
0.7499488334
 40
0.7811958075
 40
0.8124418706
 40
0.8436859073
 40
0.8593108625
 40
0.8749362726
 40
0.8905629968
 40
0.8983793896
 40
0.9061994095
 40
0.9218265136
 40
0.9296484533
 40
0.9374711801
 40
0.9452955972
 40
0.9531167399
 40
0.968743643
 40
0.9843740188
 40
1.0
 40
1.0
 40
1.0
 40
1.0
 10
28.7177665763
 20
10.6363140902
 30
0.0
 10
28.726043922
 20
10.6434559964
 30
0.0
 10
28.7392529451
 20
10.6533016762
 30
0.0
 10
28.7580808631
 20
10.664454444
 30
0.0
 10
28.7727635644
 20
10.671810781
 30
0.0
 10
28.7879246596
 20
10.6781161759
 30
0.0
 10
28.8034914845
 20
10.6833385091
 30
0.0
 10
28.8193872734
 20
10.6874477605
 30
0.0
 10
28.8355346168
 20
10.6904158436
 30
0.0
 10
28.8518527335
 20
10.692214221
 30
0.0
 10
28.8655267723
 20
10.6927111044
 30
0.0
 10
28.8764622288
 20
10.6924837461
 30
0.0
 10
28.8846519118
 20
10.6919916506
 30
0.0
 10
28.8928146541
 20
10.6911654101
 30
0.0
 10
28.9009341383
 20
10.6899862661
 30
0.0
 10
28.9089894788
 20
10.6884247271
 30
0.0
 10
28.9169490703
 20
10.6864304004
 30
0.0
 10
28.9234624311
 20
10.6843339722
 30
0.0
 10
28.9285419778
 20
10.6823038428
 30
0.0
 10
28.9322585007
 20
10.6805628187
 30
0.0
 10
28.9352407528
 20
10.6788819489
 30
0.0
 10
28.9375121921
 20
10.6773549688
 30
0.0
 10
28.9396855823
 20
10.6756925799
 30
0.0
 10
28.9416715522
 20
10.6737869504
 30
0.0
 10
28.9433462041
 20
10.6716172074
 30
0.0
 10
28.9444117025
 20
10.6698564675
 30
0.0
 10
28.9452676789
 20
10.6679848416
 30
0.0
 10
28.9461099202
 20
10.6653758451
 30
0.0
 10
28.9466322635
 20
10.6619735709
 30
0.0
 10
28.946589633
 20
10.6578604591
 30
0.0
 10
28.9462512479
 20
10.655141862
 30
0.0
 10
28.9460267541
 20
10.6537932373
 30
0.0
  0
SPLINE
  5
220
100
AcDbEntity
  8
0
100
AcDbSpline
 62
7
  6
CONTINUOUS
 70
0
 71
3
 72
35
 73
31
 74
0
 42
0.0000001
 43
0.0000001
 44
0.0000000001
 40
0.0
 40
0.0
 40
0.0
 40
0.0
 40
0.1249539512
 40
0.1874668729
 40
0.2499770799
 40
0.3124844781
 40
0.3749864871
 40
0.4374848796
 40
0.4999799222
 40
0.5624719102
 40
0.6249610508
 40
0.6874471117
 40
0.7186955154
 40
0.7499434385
 40
0.7811908038
 40
0.8124373362
 40
0.8280623663
 40
0.8436878041
 40
0.8593130323
 40
0.8749385288
 40
0.8905655606
 40
0.9061944093
 40
0.9218223216
 40
0.9296439751
 40
0.9374683156
 40
0.945293783
 40
0.9531156729
 40
0.9687435794
 40
0.9843732403
 40
1.0
 40
1.0
 40
1.0
 40
1.0
 10
28.4954965128
 20
10.5814496204
 30
0.0
 10
28.5024840391
 20
10.5898548078
 30
0.0
 10
28.5138898523
 20
10.6017380359
 30
0.0
 10
28.5306213523
 20
10.615835327
 30
0.0
 10
28.5438896936
 20
10.6255066378
 30
0.0
 10
28.557802651
 20
10.6342204941
 30
0.0
 10
28.5722938786
 20
10.6419333231
 30
0.0
 10
28.5872927356
 20
10.6486029161
 30
0.0
 10
28.602727307
 20
10.6541887702
 30
0.0
 10
28.6185235198
 20
10.6586497529
 30
0.0
 10
28.6346037811
 20
10.6619395428
 30
0.0
 10
28.6481768346
 20
10.663656005
 30
0.0
 10
28.659089518
 20
10.664362848
 30
0.0
 10
28.6672908012
 20
10.6645380313
 30
0.0
 10
28.6754912704
 20
10.6643255123
 30
0.0
 10
28.6823075949
 20
10.6637810888
 30
0.0
 10
28.6877297271
 20
10.6630745363
 30
0.0
 10
28.6917735817
 20
10.6623882877
 30
0.0
 10
28.6957819291
 20
10.6615154828
 30
0.0
 10
28.699734603
 20
10.6604133377
 30
0.0
 10
28.7035958064
 20
10.6590162334
 30
0.0
 10
28.7072970373
 20
10.6572282859
 30
0.0
 10
28.710140068
 20
10.6552958366
 30
0.0
 10
28.7121536902
 20
10.6534367186
 30
0.0
 10
28.7134982676
 20
10.6518790507
 30
0.0
 10
28.7146560179
 20
10.6501776717
 30
0.0
 10
28.7159226082
 20
10.6477465656
 30
0.0
 10
28.7170056123
 20
10.644479814
 30
0.0
 10
28.7176475063
 20
10.6404175578
 30
0.0
 10
28.7177645444
 20
10.6376810408
 30
0.0
 10
28.7177665763
 20
10.6363140902
 30
0.0
  0
SPLINE
  5
221
100
AcDbEntity
  8
0
100
AcDbSpline
 62
7
  6
CONTINUOUS
 70
0
 71
3
 72
35
 73
31
 74
0
 42
0.0000001
 43
0.0000001
 44
0.0000000001
 40
0.0
 40
0.0
 40
0.0
 40
0.0
 40
0.1249539512
 40
0.1874668729
 40
0.2499770799
 40
0.3124844781
 40
0.3749864871
 40
0.4374848796
 40
0.4999799222
 40
0.5624719102
 40
0.6249610508
 40
0.6874471117
 40
0.7186955153
 40
0.7499434385
 40
0.7811908038
 40
0.8124373362
 40
0.8280623662
 40
0.8436878041
 40
0.8593130323
 40
0.8749385288
 40
0.8905655606
 40
0.9061944093
 40
0.9218223216
 40
0.9296439751
 40
0.9374683156
 40
0.945293783
 40
0.9531156729
 40
0.9687435793
 40
0.9843732403
 40
1.0
 40
1.0
 40
1.0
 40
1.0
 10
28.2852881849
 20
10.4907492894
 30
0.0
 10
28.290796976
 20
10.5001899419
 30
0.0
 10
28.3000913337
 20
10.5137884197
 30
0.0
 10
28.3142743244
 20
10.5304473357
 30
0.0
 10
28.3257698747
 20
10.5421706228
 30
0.0
 10
28.3380588398
 20
10.5530556128
 30
0.0
 10
28.3510829507
 20
10.5630484075
 30
0.0
 10
28.3647794772
 20
10.5720957465
 30
0.0
 10
28.3790841517
 20
10.5801458427
 30
0.0
 10
28.3939306814
 20
10.5871459329
 30
0.0
 10
28.4092501559
 20
10.5930375558
 30
0.0
 10
28.4223555761
 20
10.5969646396
 30
0.0
 10
28.4330030858
 20
10.5994579952
 30
0.0
 10
28.4410636822
 20
10.6009806642
 30
0.0
 10
28.4491872889
 20
10.6021207847
 30
0.0
 10
28.4560002576
 20
10.6027057065
 30
0.0
 10
28.461464734
 20
10.602901236
 30
0.0
 10
28.4655663884
 20
10.6028899375
 30
0.0
 10
28.4696637259
 20
10.6026887828
 30
0.0
 10
28.4737438969
 20
10.6022522523
 30
0.0
 10
28.4777823933
 20
10.6015097299
 30
0.0
 10
28.481727429
 20
10.6003553645
 30
0.0
 10
28.4848497531
 20
10.5989172142
 30
0.0
 10
28.4871419106
 20
10.59741488
 30
0.0
 10
28.4887245316
 20
10.5960997646
 30
0.0
 10
28.4901465272
 20
10.5946121475
 30
0.0
 10
28.4917959866
 20
10.59242267
 30
0.0
 10
28.4934019051
 20
10.5893787269
 30
0.0
 10
28.4947036641
 20
10.585477525
 30
0.0
 10
28.4952695179
 20
10.5827975934
 30
0.0
 10
28.4954965128
 20
10.5814496204
 30
0.0
  0
SPLINE
  5
222
100
AcDbEntity
  8
0
100
AcDbSpline
 62
7
  6
CONTINUOUS
 70
0
 71
3
 72
35
 73
31
 74
0
 42
0.0000001
 43
0.0000001
 44
0.0000000001
 40
0.0
 40
0.0
 40
0.0
 40
0.0
 40
0.1249539512
 40
0.1874668729
 40
0.2499770799
 40
0.3124844781
 40
0.3749864871
 40
0.4374848796
 40
0.4999799222
 40
0.5624719102
 40
0.6249610508
 40
0.6874471117
 40
0.7186955154
 40
0.7499434385
 40
0.7811908038
 40
0.8124373362
 40
0.8280623663
 40
0.8436878041
 40
0.8593130323
 40
0.8749385288
 40
0.8905655606
 40
0.9061944093
 40
0.9218223216
 40
0.9296439751
 40
0.9374683156
 40
0.945293783
 40
0.9531156729
 40
0.9687435794
 40
0.9843732403
 40
1.0
 40
1.0
 40
1.0
 40
1.0
 10
28.0928754261
 20
10.3666871219
 30
0.0
 10
28.0967552191
 20
10.3769057277
 30
0.0
 10
28.1036845999
 20
10.3918485308
 30
0.0
 10
28.1149322133
 20
10.4106146679
 30
0.0
 10
28.1243414094
 20
10.4240701562
 30
0.0
 10
28.1346711773
 20
10.4368293712
 30
0.0
 10
28.1458729141
 20
10.4488295588
 30
0.0
 10
28.1578935112
 20
10.4600078605
 30
0.0
 10
28.1706781014
 20
10.4703026171
 30
0.0
 10
28.1841699805
 20
10.4796508738
 30
0.0
 10
28.1983108003
 20
10.4879836245
 30
0.0
 10
28.2105911118
 20
10.4940142112
 30
0.0
 10
28.2206830167
 20
10.4982260684
 30
0.0
 10
28.2283830581
 20
10.5010546894
 30
0.0
 10
28.2362082154
 20
10.5035163503
 30
0.0
 10
28.2428319916
 20
10.5052146626
 30
0.0
 10
28.2481897582
 20
10.5063069408
 30
0.0
 10
28.2522373321
 20
10.5069709005
 30
0.0
 10
28.2563118968
 20
10.5074468829
 30
0.0
 10
28.2604082706
 20
10.5076878741
 30
0.0
 10
28.2645139022
 20
10.5076201875
 30
0.0
 10
28.2685951343
 20
10.5071308916
 30
0.0
 10
28.2719115844
 20
10.5062262686
 30
0.0
 10
28.2744197543
 20
10.5051216973
 30
0.0
 10
28.2761972498
 20
10.5040850066
 30
0.0
 10
28.2778447031
 20
10.5028517291
 30
0.0
 10
28.2798320395
 20
10.5009636023
 30
0.0
 10
28.2819170679
 20
10.498225497
 30
0.0
 10
28.283843184
 20
10.4945917621
 30
0.0
 10
28.2848424188
 20
10.4920415164
 30
0.0
 10
28.2852881849
 20
10.4907492894
 30
0.0
  0
SPLINE
  5
223
100
AcDbEntity
  8
0
100
AcDbSpline
 62
7
  6
CONTINUOUS
 70
0
 71
3
 72
35
 73
31
 74
0
 42
0.0000001
 43
0.0000001
 44
0.0000000001
 40
0.0
 40
0.0
 40
0.0
 40
0.0
 40
0.1249539514
 40
0.1874668734
 40
0.2499770805
 40
0.3124844787
 40
0.3749864875
 40
0.4374848799
 40
0.4999799224
 40
0.5624719102
 40
0.6249610506
 40
0.6874471114
 40
0.7186955149
 40
0.749943438
 40
0.7811908032
 40
0.8124373355
 40
0.8280623655
 40
0.8436878033
 40
0.8593130314
 40
0.8749385279
 40
0.8905655597
 40
0.9061944078
 40
0.9218223196
 40
0.9296439725
 40
0.9374683137
 40
0.945293781
 40
0.9531156713
 40
0.9687435786
 40
0.9843732402
 40
1.0
 40
1.0
 40
1.0
 40
1.0
 10
27.9235066617
 20
10.2126471504
 30
0.0
 10
27.9256516279
 20
10.2233649775
 30
0.0
 10
27.9300270199
 20
10.2392445125
 30
0.0
 10
27.9380324558
 20
10.2596059886
 30
0.0
 10
27.9450986439
 20
10.2744266539
 30
0.0
 10
27.9531874505
 20
10.2887120619
 30
0.0
 10
27.9622612643
 20
10.3023923145
 30
0.0
 10
27.9722780472
 20
10.3153966692
 30
0.0
 10
27.983193829
 20
10.3276552771
 30
0.0
 10
27.9949630408
 20
10.3390967087
 30
0.0
 10
28.0075394881
 20
10.3496432955
 30
0.0
 10
28.0186597218
 20
10.3576128893
 30
0.0
 10
28.0279207459
 20
10.3634283616
 30
0.0
 10
28.035050199
 20
10.3674857786
 30
0.0
 10
28.0423634607
 20
10.3712018334
 30
0.0
 10
28.0486173683
 20
10.3739672115
 30
0.0
 10
28.0537222817
 20
10.3759264443
 30
0.0
 10
28.0576053697
 20
10.3772475516
 30
0.0
 10
28.0615460202
 20
10.3783876878
 30
0.0
 10
28.0655468603
 20
10.3792996272
 30
0.0
 10
28.0696076381
 20
10.3799086225
 30
0.0
 10
28.0737137432
 20
10.3800977426
 30
0.0
 10
28.0771338566
 20
10.3797513226
 30
0.0
 10
28.0797896238
 20
10.3790746435
 30
0.0
 10
28.0817135091
 20
10.378344655
 30
0.0
 10
28.0835414831
 20
10.3773993574
 30
0.0
 10
28.0858124877
 20
10.3758640831
 30
0.0
 10
28.0883197534
 20
10.3735065032
 30
0.0
 10
28.090817688
 20
10.370239352
 30
0.0
 10
28.0922230478
 20
10.3678883548
 30
0.0
 10
28.0928754261
 20
10.3666871219
 30
0.0
  0
SPLINE
  5
224
100
AcDbEntity
  8
0
100
AcDbSpline
 62
7
  6
CONTINUOUS
 70
0
 71
3
 72
35
 73
31
 74
0
 42
0.0000001
 43
0.0000001
 44
0.0000000001
 40
0.0
 40
0.0
 40
0.0
 40
0.0
 40
0.1249539512
 40
0.1874668729
 40
0.2499770799
 40
0.3124844781
 40
0.3749864871
 40
0.4374848796
 40
0.4999799222
 40
0.5624719102
 40
0.6249610508
 40
0.6874471117
 40
0.7186955154
 40
0.7499434385
 40
0.7811908038
 40
0.8124373362
 40
0.8280623663
 40
0.8436878041
 40
0.8593130323
 40
0.8749385288
 40
0.8905655606
 40
0.9061944093
 40
0.9218223216
 40
0.9296439751
 40
0.9374683156
 40
0.945293783
 40
0.9531156729
 40
0.9687435794
 40
0.9843732403
 40
1.0
 40
1.0
 40
1.0
 40
1.0
 10
27.7818017483
 20
10.0328311092
 30
0.0
 10
27.7821533796
 20
10.0437558085
 30
0.0
 10
27.7838554355
 20
10.0601389305
 30
0.0
 10
27.7884003303
 20
10.0815403473
 30
0.0
 10
27.7929307666
 20
10.0973219278
 30
0.0
 10
27.7985579742
 20
10.1127438669
 30
0.0
 10
27.8052563595
 20
10.1277310296
 30
0.0
 10
27.8129961014
 20
10.1422067188
 30
0.0
 10
27.821745326
 20
10.156094801
 30
0.0
 10
27.8314708429
 20
10.1693173208
 30
0.0
 10
27.842139871
 20
10.1817900654
 30
0.0
 10
27.8517967015
 20
10.1914812805
 30
0.0
 10
27.8599742327
 20
10.1987417398
 30
0.0
 10
27.8663386281
 20
10.203917279
 30
0.0
 10
27.8729405111
 20
10.2087863653
 30
0.0
 10
27.8786539628
 20
10.2125433782
 30
0.0
 10
27.8833667768
 20
10.2153161238
 30
0.0
 10
27.8869794603
 20
10.2172583428
 30
0.0
 10
27.8906787079
 20
10.2190315333
 30
0.0
 10
27.8944748837
 20
10.2205895462
 30
0.0
 10
27.8983800424
 20
10.2218586119
 30
0.0
 10
27.9023990187
 20
10.2227209896
 30
0.0
 10
27.9058295057
 20
10.222942221
 30
0.0
 10
27.9085604291
 20
10.2227118919
 30
0.0
 10
27.9105782267
 20
10.2223085178
 30
0.0
 10
27.9125368592
 20
10.2216769841
 30
0.0
 10
27.9150295865
 20
10.220536441
 30
0.0
 10
27.917890698
 20
10.2186236931
 30
0.0
 10
27.9208923154
 20
10.2158122439
 30
0.0
 10
27.9226654662
 20
10.2137246233
 30
0.0
 10
27.9235066617
 20
10.2126471504
 30
0.0
  0
SPLINE
  5
225
100
AcDbEntity
  8
0
100
AcDbSpline
 62
7
  6
CONTINUOUS
 70
0
 71
3
 72
32
 73
28
 74
0
 42
0.0000001
 43
0.0000001
 44
0.0000000001
 40
0.0
 40
0.0
 40
0.0
 40
0.0
 40
0.1249816346
 40
0.2499483928
 40
0.3124510336
 40
0.3749512506
 40
0.4374493776
 40
0.4999455707
 40
0.5624398794
 40
0.6249321996
 40
0.6561818309
 40
0.6874313443
 40
0.7186805249
 40
0.7499293532
 40
0.7811777505
 40
0.8124249214
 40
0.8436692823
 40
0.8592986319
 40
0.8749322745
 40
0.8905650881
 40
0.9062032151
 40
0.9218403168
 40
0.9296669964
 40
0.937490431
 40
0.9531308002
 40
0.9687632243
 40
1.0
 40
1.0
 40
1.0
 40
1.0
 10
27.6715003117
 20
9.8927048696
 30
0.0
 10
27.6725761506
 20
9.9010392503
 30
0.0
 10
27.675630789
 20
9.9176037796
 30
0.0
 10
27.6816658083
 20
9.9377719647
 30
0.0
 10
27.6877872798
 20
9.9534327713
 30
0.0
 10
27.6930185495
 20
9.9649107524
 30
0.0
 10
27.6988798476
 20
9.976079481
 30
0.0
 10
27.7053635537
 20
9.9868988314
 30
0.0
 10
27.7124647685
 20
9.9973229659
 30
0.0
 10
27.7188992824
 20
10.0056364192
 30
0.0
 10
27.7243643454
 20
10.0120228425
 30
0.0
 10
27.7286277659
 20
10.0166676909
 30
0.0
 10
27.7330635083
 20
10.0211485329
 30
0.0
 10
27.7376844299
 20
10.0254386643
 30
0.0
 10
27.7425116151
 20
10.0294969651
 30
0.0
 10
27.7475789594
 20
10.0332522608
 30
0.0
 10
27.7520520528
 20
10.0360262611
 30
0.0
 10
27.7558204237
 20
10.0378950015
 30
0.0
 10
27.7587548036
 20
10.039061614
 30
0.0
 10
27.7618006499
 20
10.0399085907
 30
0.0
 10
27.7649385838
 20
10.0403323035
 30
0.0
 10
27.7675810073
 20
10.0402367429
 30
0.0
 10
27.7696568769
 20
10.03988098
 30
0.0
 10
27.7716926996
 20
10.0393402851
 30
0.0
 10
27.7741405639
 20
10.0383505717
 30
0.0
 10
27.7777897739
 20
10.036247242
 30
0.0
 10
27.7802544034
 20
10.0342513181
 30
0.0
 10
27.7818017483
 20
10.0328311092
 30
0.0
  0
SPLINE
  5
226
100
AcDbEntity
  8
0
100
AcDbSpline
 62
7
  6
CONTINUOUS
 70
0
 71
3
 72
15
 73
11
 74
0
 42
0.0000001
 43
0.0000001
 44
0.0000000001
 40
0.0
 40
0.0
 40
0.0
 40
0.0
 40
0.1250203744
 40
0.2500526804
 40
0.3750685604
 40
0.5000764526
 40
0.6250714913
 40
0.7500570394
 40
0.8750335662
 40
1.0
 40
1.0
 40
1.0
 40
1.0
 10
27.772654061
 20
8.5165096301
 30
0.0
 10
27.7660421284
 20
8.5196673745
 30
0.0
 10
27.7531116641
 20
8.5266206587
 30
0.0
 10
27.7347967931
 20
8.5388334853
 30
0.0
 10
27.7177126186
 20
8.5527176296
 30
0.0
 10
27.7020122742
 20
8.5681455773
 30
0.0
 10
27.6878383731
 20
8.5849846947
 30
0.0
 10
27.6753283882
 20
8.603093613
 30
0.0
 10
27.6646227038
 20
8.6223208853
 30
0.0
 10
27.6587889746
 20
8.6357913158
 30
0.0
 10
27.6562390457
 20
8.6426572132
 30
0.0
  0
SPLINE
  5
227
100
AcDbEntity
  8
0
100
AcDbSpline
 62
7
  6
CONTINUOUS
 70
0
 71
3
 72
35
 73
31
 74
0
 42
0.0000001
 43
0.0000001
 44
0.0000000001
 40
0.0
 40
0.0
 40
0.0
 40
0.0
 40
0.1249539512
 40
0.1874668729
 40
0.2499770799
 40
0.3124844781
 40
0.3749864871
 40
0.4374848796
 40
0.4999799222
 40
0.5624719102
 40
0.6249610508
 40
0.6874471117
 40
0.7186955154
 40
0.7499434386
 40
0.7811908038
 40
0.8124373362
 40
0.8280623663
 40
0.8436878041
 40
0.8593130323
 40
0.8749385288
 40
0.8905655606
 40
0.9061944093
 40
0.9218223216
 40
0.9296439752
 40
0.9374683156
 40
0.945293783
 40
0.9531156729
 40
0.9687435794
 40
0.9843732403
 40
1.0
 40
1.0
 40
1.0
 40
1.0
 10
27.9121791453
 20
8.3349969803
 30
0.0
 10
27.9016750948
 20
8.3380198304
 30
0.0
 10
27.8862111886
 20
8.3436918043
 30
0.0
 10
27.8665804688
 20
8.3533515946
 30
0.0
 10
27.8523940541
 20
8.3616177166
 30
0.0
 10
27.8388255286
 20
8.3708587549
 30
0.0
 10
27.8259414451
 20
8.3810314538
 30
0.0
 10
27.8138088325
 20
8.3920880759
 30
0.0
 10
27.8024936694
 20
8.4039790323
 30
0.0
 10
27.7920633775
 20
8.4166530102
 30
0.0
 10
27.7825915447
 20
8.4300575581
 30
0.0
 10
27.7755676279
 20
8.4417980274
 30
0.0
 10
27.7705369162
 20
8.4515077249
 30
0.0
 10
27.7670822013
 20
8.4589479318
 30
0.0
 10
27.7639828635
 20
8.4665431254
 30
0.0
 10
27.7617434596
 20
8.4730040655
 30
0.0
 10
27.7602125485
 20
8.4782533555
 30
0.0
 10
27.759216669
 20
8.4822322901
 30
0.0
 10
27.7584058965
 20
8.4862536438
 30
0.0
 10
27.7578275123
 20
8.4903161339
 30
0.0
 10
27.7575559876
 20
8.4944133362
 30
0.0
 10
27.7577066471
 20
8.4985210324
 30
0.0
 10
27.7583343598
 20
8.5019008491
 30
0.0
 10
27.7592280734
 20
8.504491654
 30
0.0
 10
27.7601144663
 20
8.5063486746
 30
0.0
 10
27.7612075115
 20
8.5080923282
 30
0.0
 10
27.7629251078
 20
8.5102287718
 30
0.0
 10
27.7654817147
 20
8.5125327522
 30
0.0
 10
27.7689440138
 20
8.5147523102
 30
0.0
 10
27.7714030507
 20
8.5159586936
 30
0.0
 10
27.772654061
 20
8.5165096301
 30
0.0
  0
SPLINE
  5
228
100
AcDbEntity
  8
0
100
AcDbSpline
 62
7
  6
CONTINUOUS
 70
0
 71
3
 72
35
 73
31
 74
0
 42
0.0000001
 43
0.0000001
 44
0.0000000001
 40
0.0
 40
0.0
 40
0.0
 40
0.0
 40
0.1249539513
 40
0.1874668731
 40
0.2499770801
 40
0.3124844784
 40
0.3749864873
 40
0.4374848797
 40
0.4999799223
 40
0.5624719102
 40
0.6249610507
 40
0.6874471116
 40
0.7186955152
 40
0.7499434383
 40
0.7811908036
 40
0.8124373359
 40
0.8280623659
 40
0.8436878038
 40
0.8593130319
 40
0.8749385284
 40
0.8905655602
 40
0.9061944087
 40
0.9218223208
 40
0.9296439741
 40
0.9374683148
 40
0.9452937822
 40
0.9531156722
 40
0.9687435791
 40
0.9843732403
 40
1.0
 40
1.0
 40
1.0
 40
1.0
 10
28.07967706
 20
8.1789247543
 30
0.0
 10
28.0688187282
 20
8.1801774828
 30
0.0
 10
28.0526321578
 20
8.1832268469
 30
0.0
 10
28.0316792354
 20
8.1895238107
 30
0.0
 10
28.0163257544
 20
8.195342209
 30
0.0
 10
28.0014212712
 20
8.2022239277
 30
0.0
 10
27.9870385503
 20
8.2101372548
 30
0.0
 10
27.9732515636
 20
8.219046137
 30
0.0
 10
27.9601335519
 20
8.2289125208
 30
0.0
 10
27.9477594633
 20
8.2396968908
 30
0.0
 10
27.936210515
 20
8.2513596226
 30
0.0
 10
27.927349993
 20
8.2617838815
 30
0.0
 10
27.9207897428
 20
8.2705331331
 30
0.0
 10
27.9161575378
 20
8.2773032447
 30
0.0
 10
27.9118503534
 20
8.2842847218
 30
0.0
 10
27.9085780652
 20
8.2902889541
 30
0.0
 10
27.9062040362
 20
8.2952146744
 30
0.0
 10
27.9045668335
 20
8.2989754276
 30
0.0
 10
27.9031052315
 20
8.3028084886
 30
0.0
 10
27.9018660775
 20
8.3067203746
 30
0.0
 10
27.9009238846
 20
8.3107170063
 30
0.0
 10
27.9003963908
 20
8.3147934773
 30
0.0
 10
27.9004592477
 20
8.3182305157
 30
0.0
 10
27.9009143438
 20
8.3209330851
 30
0.0
 10
27.9014829947
 20
8.322910673
 30
0.0
 10
27.902274139
 20
8.3248104538
 30
0.0
 10
27.9036166662
 20
8.3272004641
 30
0.0
 10
27.9057591853
 20
8.3298938218
 30
0.0
 10
27.9088089401
 20
8.3326529792
 30
0.0
 10
27.9110358771
 20
8.33424765
 30
0.0
 10
27.9121791453
 20
8.3349969803
 30
0.0
  0
SPLINE
  5
229
100
AcDbEntity
  8
0
100
AcDbSpline
 62
7
  6
CONTINUOUS
 70
0
 71
3
 72
35
 73
31
 74
0
 42
0.0000001
 43
0.0000001
 44
0.0000000001
 40
0.0
 40
0.0
 40
0.0
 40
0.0
 40
0.1249539512
 40
0.1874668729
 40
0.2499770799
 40
0.3124844781
 40
0.3749864871
 40
0.4374848796
 40
0.4999799222
 40
0.5624719102
 40
0.6249610508
 40
0.6874471117
 40
0.7186955154
 40
0.7499434386
 40
0.7811908038
 40
0.8124373362
 40
0.8280623663
 40
0.8436878042
 40
0.8593130323
 40
0.8749385288
 40
0.8905655606
 40
0.9061944093
 40
0.9218223216
 40
0.9296439752
 40
0.9374683157
 40
0.9452937831
 40
0.953115673
 40
0.9687435794
 40
0.9843732403
 40
1.0
 40
1.0
 40
1.0
 40
1.0
 10
28.2705789799
 20
8.0525501202
 30
0.0
 10
28.2596625485
 20
8.0519985565
 30
0.0
 10
28.2431948334
 20
8.0523421334
 30
0.0
 10
28.2214912395
 20
8.0551045091
 30
0.0
 10
28.2053894879
 20
8.0583164758
 30
0.0
 10
28.1895555951
 20
8.0626511628
 30
0.0
 10
28.1740665528
 20
8.0680892672
 30
0.0
 10
28.1590012584
 20
8.0746074025
 30
0.0
 10
28.1444382171
 20
8.0821800893
 30
0.0
 10
28.1304578585
 20
8.090780687
 30
0.0
 10
28.1171468144
 20
8.1003834796
 30
0.0
 10
28.1066913746
 20
8.1092071866
 30
0.0
 10
28.0987805294
 20
8.1167573397
 30
0.0
 10
28.0930971866
 20
8.1226726883
 30
0.0
 10
28.0876996423
 20
8.1288500159
 30
0.0
 10
28.0834837275
 20
8.1342337635
 30
0.0
 10
28.0803313368
 20
8.1387015558
 30
0.0
 10
28.0780974689
 20
8.1421415458
 30
0.0
 10
28.0760249054
 20
8.1456817601
 30
0.0
 10
28.0741587819
 20
8.1493363378
 30
0.0
 10
28.0725716209
 20
8.1531233831
 30
0.0
 10
28.0713803621
 20
8.1570574355
 30
0.0
 10
28.0708766489
 20
8.1604579439
 30
0.0
 10
28.0708807137
 20
8.1631985601
 30
0.0
 10
28.0711161117
 20
8.1652427729
 30
0.0
 10
28.0715837753
 20
8.1672468604
 30
0.0
 10
28.0725146129
 20
8.1698252454
 30
0.0
 10
28.0741846034
 20
8.1728345137
 30
0.0
 10
28.0767386258
 20
8.1760580092
 30
0.0
 10
28.078672719
 20
8.1779974697
 30
0.0
 10
28.07967706
 20
8.1789247543
 30
0.0
  0
SPLINE
  5
22A
100
AcDbEntity
  8
0
100
AcDbSpline
 62
7
  6
CONTINUOUS
 70
0
 71
3
 72
35
 73
31
 74
0
 42
0.0000001
 43
0.0000001
 44
0.0000000001
 40
0.0
 40
0.0
 40
0.0
 40
0.0
 40
0.1249539512
 40
0.1874668729
 40
0.2499770799
 40
0.3124844781
 40
0.3749864871
 40
0.4374848796
 40
0.4999799222
 40
0.5624719102
 40
0.6249610508
 40
0.6874471117
 40
0.7186955154
 40
0.7499434385
 40
0.7811908038
 40
0.8124373362
 40
0.8280623663
 40
0.8436878041
 40
0.8593130323
 40
0.8749385288
 40
0.8905655606
 40
0.9061944093
 40
0.9218223216
 40
0.9296439751
 40
0.9374683156
 40
0.945293783
 40
0.9531156729
 40
0.9687435794
 40
0.9843732403
 40
1.0
 40
1.0
 40
1.0
 40
1.0
 10
28.4796776905
 20
7.9593201873
 30
0.0
 10
28.4690009259
 20
7.9569793763
 30
0.0
 10
28.4527012547
 20
7.9546077945
 30
0.0
 10
28.4308389962
 20
7.953760233
 30
0.0
 10
28.4144281798
 20
7.9542781555
 30
0.0
 10
28.3980967771
 20
7.9559475739
 30
0.0
 10
28.3819239068
 20
7.9587621208
 30
0.0
 10
28.3659912394
 20
7.9627117147
 30
0.0
 10
28.3503804031
 20
7.9677841452
 30
0.0
 10
28.3351751156
 20
7.9739663729
 30
0.0
 10
28.3204650598
 20
7.9812472916
 30
0.0
 10
28.3086998945
 20
7.9882297632
 30
0.0
 10
28.2996542375
 20
7.994374873
 30
0.0
 10
28.2930747809
 20
7.9992741062
 30
0.0
 10
28.286734105
 20
8.0044787858
 30
0.0
 10
28.2816895608
 20
8.0090951968
 30
0.0
 10
28.2778447959
 20
8.0129831934
 30
0.0
 10
28.2750751958
 20
8.0160085879
 30
0.0
 10
28.2724482038
 20
8.0191593894
 30
0.0
 10
28.270006013
 20
8.0224569732
 30
0.0
 10
28.2678171767
 20
8.0259311332
 30
0.0
 10
28.2659946468
 20
8.0296154583
 30
0.0
 10
28.2649381031
 20
8.0328866812
 30
0.0
 10
28.2644910259
 20
8.0355905887
 30
0.0
 10
28.26438675
 20
8.0376456664
 30
0.0
 10
28.2645181763
 20
8.0396993955
 30
0.0
 10
28.2650119343
 20
8.0423958249
 30
0.0
 10
28.2661638437
 20
8.0456389204
 30
0.0
 10
28.2681524679
 20
8.0492388269
 30
0.0
 10
28.2697409612
 20
8.0514701746
 30
0.0
 10
28.2705789799
 20
8.0525501202
 30
0.0
  0
SPLINE
  5
22B
100
AcDbEntity
  8
0
100
AcDbSpline
 62
7
  6
CONTINUOUS
 70
0
 71
3
 72
35
 73
31
 74
0
 42
0.0000001
 43
0.0000001
 44
0.0000000001
 40
0.0
 40
0.0
 40
0.0
 40
0.0
 40
0.1249539495
 40
0.187466869
 40
0.2499770743
 40
0.3124844715
 40
0.3749864804
 40
0.4374848729
 40
0.4999799156
 40
0.5624719036
 40
0.6249610443
 40
0.6874471053
 40
0.718695509
 40
0.7499434323
 40
0.7811907977
 40
0.8124373302
 40
0.8280623601
 40
0.8436877981
 40
0.8593130264
 40
0.8749385228
 40
0.8905655547
 40
0.906194405
 40
0.9218223192
 40
0.9296439726
 40
0.9374683139
 40
0.9452937811
 40
0.9531156713
 40
0.9687435777
 40
0.9843732397
 40
1.0
 40
1.0
 40
1.0
 40
1.0
 10
28.7012696253
 20
7.9017779801
 30
0.0
 10
28.6911237569
 20
7.897711772
 30
0.0
 10
28.6754367344
 20
7.8926897209
 30
0.0
 10
28.6540121466
 20
7.8882553411
 30
0.0
 10
28.6377399024
 20
7.8860650921
 30
0.0
 10
28.6213564602
 20
7.8850237053
 30
0.0
 10
28.6049409078
 20
7.8851379225
 30
0.0
 10
28.5885754612
 20
7.8864112421
 30
0.0
 10
28.5723426454
 20
7.8888450557
 30
0.0
 10
28.5563271822
 20
7.8924402813
 30
0.0
 10
28.5406193595
 20
7.8972007251
 30
0.0
 10
28.5278653858
 20
7.902151501
 30
0.0
 10
28.5179316546
 20
7.9067239479
 30
0.0
 10
28.5106355514
 20
7.9104734296
 30
0.0
 10
28.5035246979
 20
7.9145634936
 30
0.0
 10
28.4977891238
 20
7.9182866463
 30
0.0
 10
28.4933568582
 20
7.9214887948
 30
0.0
 10
28.4901270718
 20
7.9240170703
 30
0.0
 10
28.4870173074
 20
7.9266925147
 30
0.0
 10
28.4840656647
 20
7.9295431568
 30
0.0
 10
28.4813348577
 20
7.9326096673
 30
0.0
 10
28.478930769
 20
7.9359437679
 30
0.0
 10
28.4773502141
 20
7.9389964768
 30
0.0
 10
28.4764641894
 20
7.9415899216
 30
0.0
 10
28.4760230842
 20
7.9435998082
 30
0.0
 10
28.4758146878
 20
7.9456471595
 30
0.0
 10
28.4758578985
 20
7.9483880829
 30
0.0
 10
28.4764603058
 20
7.9517765442
 30
0.0
 10
28.4778292885
 20
7.9556546676
 30
0.0
 10
28.4790288527
 20
7.9581170383
 30
0.0
 10
28.4796776905
 20
7.9593201873
 30
0.0
  0
SPLINE
  5
22C
100
AcDbEntity
  8
0
100
AcDbSpline
 62
7
  6
CONTINUOUS
 70
0
 71
3
 72
35
 73
31
 74
0
 42
0.0000001
 43
0.0000001
 44
0.0000000001
 40
0.0
 40
0.0
 40
0.0
 40
0.0
 40
0.1249539511
 40
0.1874668726
 40
0.2499770794
 40
0.3124844775
 40
0.3749864865
 40
0.437484879
 40
0.4999799216
 40
0.5624719096
 40
0.6249610502
 40
0.6874471111
 40
0.7186955148
 40
0.749943438
 40
0.7811908032
 40
0.8124373356
 40
0.8280623657
 40
0.8436878036
 40
0.8593130318
 40
0.8749385282
 40
0.89056556
 40
0.9061944088
 40
0.9218223213
 40
0.9296439749
 40
0.9374683154
 40
0.9452937828
 40
0.9531156727
 40
0.9687435792
 40
0.9843732402
 40
1.0
 40
1.0
 40
1.0
 40
1.0
 10
28.9293104411
 20
7.8814930722
 30
0.0
 10
28.9199722165
 20
7.8758123805
 30
0.0
 10
28.9053257356
 20
7.8682768459
 30
0.0
 10
28.8849232141
 20
7.8603766039
 30
0.0
 10
28.8692333978
 20
7.8555379267
 30
0.0
 10
28.8532448053
 20
7.8518141406
 30
0.0
 10
28.8370343362
 20
7.8492249129
 30
0.0
 10
28.8206825094
 20
7.8477872263
 30
0.0
 10
28.804270495
 20
7.8475160364
 30
0.0
 10
28.7878817086
 20
7.8484261934
 30
0.0
 10
28.7716045799
 20
7.8505363124
 30
0.0
 10
28.758209687
 20
7.8533203508
 30
0.0
 10
28.7476588432
 20
7.8561954126
 30
0.0
 10
28.7398451087
 20
7.8586928687
 30
0.0
 10
28.7321580398
 20
7.8615567529
 30
0.0
 10
28.7258878848
 20
7.8642850916
 30
0.0
 10
28.7209890166
 20
7.8667140471
 30
0.0
 10
28.7173871428
 20
7.8686762403
 30
0.0
 10
28.7138794311
 20
7.8708033501
 30
0.0
 10
28.7104988481
 20
7.8731292935
 30
0.0
 10
28.7073005586
 20
7.8757045095
 30
0.0
 10
28.7043804885
 20
7.8785974417
 30
0.0
 10
28.702319035
 20
7.8813483676
 30
0.0
 10
28.7010182313
 20
7.8837606081
 30
0.0
 10
28.7002523284
 20
7.8856704799
 30
0.0
 10
28.6997097947
 20
7.8876556079
 30
0.0
 10
28.6993012784
 20
7.8903662615
 30
0.0
 10
28.6993377528
 20
7.8938076615
 30
0.0
 10
28.7000497521
 20
7.8978582182
 30
0.0
 10
28.7008276667
 20
7.900484446
 30
0.0
 10
28.7012696253
 20
7.9017779801
 30
0.0
  0
SPLINE
  5
22D
100
AcDbEntity
  8
0
100
AcDbSpline
 62
7
  6
CONTINUOUS
 70
0
 71
3
 72
35
 73
31
 74
0
 42
0.0000001
 43
0.0000001
 44
0.0000000001
 40
0.0
 40
0.0
 40
0.0
 40
0.0
 40
0.1249539512
 40
0.1874668729
 40
0.2499770799
 40
0.3124844781
 40
0.3749864871
 40
0.4374848796
 40
0.4999799222
 40
0.5624719102
 40
0.6249610508
 40
0.6874471117
 40
0.7186955154
 40
0.7499434385
 40
0.7811908038
 40
0.8124373362
 40
0.8280623663
 40
0.8436878041
 40
0.8593130323
 40
0.8749385288
 40
0.8905655606
 40
0.9061944093
 40
0.9218223216
 40
0.9296439751
 40
0.9374683156
 40
0.945293783
 40
0.9531156729
 40
0.9687435794
 40
0.9843732403
 40
1.0
 40
1.0
 40
1.0
 40
1.0
 10
29.1575798893
 20
7.8990187731
 30
0.0
 10
29.1493040265
 20
7.8918785495
 30
0.0
 10
29.1360975983
 20
7.8820350777
 30
0.0
 10
29.1172736613
 20
7.8708844676
 30
0.0
 10
29.1025942428
 20
7.8635293464
 30
0.0
 10
29.0874366197
 20
7.8572247344
 30
0.0
 10
29.0718734054
 20
7.8520026877
 30
0.0
 10
29.0559812256
 20
7.8478932104
 30
0.0
 10
29.0398376817
 20
7.8449244141
 30
0.0
 10
29.0235226074
 20
7.8431246761
 30
0.0
 10
29.0071201625
 20
7.8425269127
 30
0.0
 10
28.9934497216
 20
7.8430682736
 30
0.0
 10
28.9825695596
 20
7.8441675275
 30
0.0
 10
28.9744513282
 20
7.8453448351
 30
0.0
 10
28.9663977233
 20
7.8469044215
 30
0.0
 10
28.9597640177
 20
7.8485635255
 30
0.0
 10
28.9545321731
 20
7.8501530336
 30
0.0
 10
28.9506564597
 20
7.8514956218
 30
0.0
 10
28.9468464802
 20
7.8530163758
 30
0.0
 10
28.9431291687
 20
7.8547541762
 30
0.0
 10
28.9395506361
 20
7.8567678537
 30
0.0
 10
28.9361942345
 20
7.8591407073
 30
0.0
 10
28.9337081125
 20
7.8615148137
 30
0.0
 10
28.9320280116
 20
7.8636800516
 30
0.0
 10
28.9309582026
 20
7.8654378134
 30
0.0
 10
28.9300963298
 20
7.86730657
 30
0.0
 10
28.9292472299
 20
7.8699130154
 30
0.0
 10
28.9287167762
 20
7.8733134834
 30
0.0
 10
28.928752371
 20
7.877425987
 30
0.0
 10
28.929087417
 20
7.8801444365
 30
0.0
 10
28.9293104411
 20
7.8814930722
 30
0.0
  0
SPLINE
  5
22E
100
AcDbEntity
  8
0
100
AcDbSpline
 62
7
  6
CONTINUOUS
 70
0
 71
3
 72
35
 73
31
 74
0
 42
0.0000001
 43
0.0000001
 44
0.0000000001
 40
0.0
 40
0.0
 40
0.0
 40
0.0
 40
0.1249539512
 40
0.1874668729
 40
0.2499770799
 40
0.3124844781
 40
0.3749864871
 40
0.4374848796
 40
0.4999799222
 40
0.5624719102
 40
0.6249610508
 40
0.6874471117
 40
0.7186955154
 40
0.7499434385
 40
0.7811908038
 40
0.8124373362
 40
0.8280623663
 40
0.8436878041
 40
0.8593130323
 40
0.8749385288
 40
0.8905655606
 40
0.9061944093
 40
0.9218223216
 40
0.9296439751
 40
0.9374683156
 40
0.945293783
 40
0.9531156729
 40
0.9687435794
 40
0.9843732403
 40
1.0
 40
1.0
 40
1.0
 40
1.0
 10
29.3798514848
 20
7.9538770359
 30
0.0
 10
29.3728637238
 20
7.9454720437
 30
0.0
 10
29.3614575788
 20
7.9335891342
 30
0.0
 10
29.3447256851
 20
7.9194923102
 30
0.0
 10
29.3314570737
 20
7.9098213699
 30
0.0
 10
29.3175438731
 20
7.9011079022
 30
0.0
 10
29.3030524301
 20
7.8933954779
 30
0.0
 10
29.2880533868
 20
7.8867263037
 30
0.0
 10
29.2726186594
 20
7.8811408807
 30
0.0
 10
29.256822322
 20
7.876680339
 30
0.0
 10
29.2407419689
 20
7.8733909982
 30
0.0
 10
29.2271688674
 20
7.871674915
 30
0.0
 10
29.2162561643
 20
7.8709683768
 30
0.0
 10
29.2080548763
 20
7.8707934225
 30
0.0
 10
29.1998544129
 20
7.8710061705
 30
0.0
 10
29.1930381037
 20
7.8715507843
 30
0.0
 10
29.1876159912
 20
7.8722574883
 30
0.0
 10
29.1835721558
 20
7.8729438498
 30
0.0
 10
29.1795638328
 20
7.8738167666
 30
0.0
 10
29.1756111897
 20
7.8749190221
 30
0.0
 10
29.1717500252
 20
7.8763162342
 30
0.0
 10
29.1680488443
 20
7.8781042851
 30
0.0
 10
29.1652058675
 20
7.8800368137
 30
0.0
 10
29.1631922973
 20
7.881895988
 30
0.0
 10
29.1618477633
 20
7.8834536934
 30
0.0
 10
29.1606900606
 20
7.8851551048
 30
0.0
 10
29.1594235381
 20
7.8875862463
 30
0.0
 10
29.1583406253
 20
7.8908530281
 30
0.0
 10
29.1576988447
 20
7.8949153022
 30
0.0
 10
29.1575818831
 20
7.8976518225
 30
0.0
 10
29.1575798893
 20
7.8990187731
 30
0.0
  0
SPLINE
  5
22F
100
AcDbEntity
  8
0
100
AcDbSpline
 62
7
  6
CONTINUOUS
 70
0
 71
3
 72
35
 73
31
 74
0
 42
0.0000001
 43
0.0000001
 44
0.0000000001
 40
0.0
 40
0.0
 40
0.0
 40
0.0
 40
0.1249539512
 40
0.1874668729
 40
0.2499770799
 40
0.3124844781
 40
0.3749864871
 40
0.4374848796
 40
0.4999799222
 40
0.5624719102
 40
0.6249610508
 40
0.6874471117
 40
0.7186955153
 40
0.7499434385
 40
0.7811908038
 40
0.8124373362
 40
0.8280623662
 40
0.8436878041
 40
0.8593130323
 40
0.8749385288
 40
0.8905655606
 40
0.9061944093
 40
0.9218223216
 40
0.9296439751
 40
0.9374683156
 40
0.945293783
 40
0.9531156729
 40
0.9687435793
 40
0.9843732403
 40
1.0
 40
1.0
 40
1.0
 40
1.0
 10
29.5900623455
 20
8.0445714968
 30
0.0
 10
29.5845532908
 20
8.0351309981
 30
0.0
 10
29.5752585534
 20
8.0215327799
 30
0.0
 10
29.5610750974
 20
8.0048742599
 30
0.0
 10
29.5495792198
 20
7.9931512939
 30
0.0
 10
29.5372899507
 20
7.982266647
 30
0.0
 10
29.5242655607
 20
7.9722742161
 30
0.0
 10
29.5105687816
 20
7.9632272595
 30
0.0
 10
29.4962638823
 20
7.9551775628
 30
0.0
 10
29.4814171571
 20
7.9481778872
 30
0.0
 10
29.4660975181
 20
7.9422866921
 30
0.0
 10
29.4529919883
 20
7.9383599743
 30
0.0
 10
29.4423444089
 20
7.935866916
 30
0.0
 10
29.43428377
 20
7.9343444721
 30
0.0
 10
29.4261601315
 20
7.9332045785
 30
0.0
 10
29.4193471465
 20
7.9326198469
 30
0.0
 10
29.4138826646
 20
7.93242447
 30
0.0
 10
29.4097810105
 20
7.9324358831
 30
0.0
 10
29.4056836787
 20
7.9326371522
 30
0.0
 10
29.4016035198
 20
7.9330737967
 30
0.0
 10
29.3975650442
 20
7.9338164318
 30
0.0
 10
29.3936200407
 20
7.9349709074
 30
0.0
 10
29.3904977568
 20
7.9364091448
 30
0.0
 10
29.3882056412
 20
7.937911543
 30
0.0
 10
29.386623057
 20
7.9392267027
 30
0.0
 10
29.3852011029
 20
7.9407143594
 30
0.0
 10
29.3835517046
 20
7.942903883
 30
0.0
 10
29.3819458711
 20
7.945947871
 30
0.0
 10
29.380644221
 20
7.9498491093
 30
0.0
 10
29.3800784421
 20
7.9525290566
 30
0.0
 10
29.3798514848
 20
7.9538770359
 30
0.0
  0
SPLINE
  5
230
100
AcDbEntity
  8
0
100
AcDbSpline
 62
7
  6
CONTINUOUS
 70
0
 71
3
 72
35
 73
31
 74
0
 42
0.0000001
 43
0.0000001
 44
0.0000000001
 40
0.0
 40
0.0
 40
0.0
 40
0.0
 40
0.1249539512
 40
0.1874668729
 40
0.2499770799
 40
0.3124844781
 40
0.3749864871
 40
0.4374848796
 40
0.4999799222
 40
0.5624719102
 40
0.6249610508
 40
0.6874471117
 40
0.7186955154
 40
0.7499434385
 40
0.7811908038
 40
0.8124373362
 40
0.8280623663
 40
0.8436878041
 40
0.8593130323
 40
0.8749385288
 40
0.8905655606
 40
0.9061944093
 40
0.9218223216
 40
0.9296439751
 40
0.9374683156
 40
0.945293783
 40
0.9531156729
 40
0.9687435794
 40
0.9843732403
 40
1.0
 40
1.0
 40
1.0
 40
1.0
 10
29.7824785687
 20
8.168628291
 30
0.0
 10
29.7785984903
 20
8.1584097936
 30
0.0
 10
29.7716686922
 20
8.143467184
 30
0.0
 10
29.7604205548
 20
8.124701361
 30
0.0
 10
29.751010983
 20
8.1112461355
 30
0.0
 10
29.7406808587
 20
8.098487209
 30
0.0
 10
29.7294787869
 20
8.0864873341
 30
0.0
 10
29.7174578776
 20
8.0753093681
 30
0.0
 10
29.704673
 20
8.0650149685
 30
0.0
 10
29.6911808598
 20
8.0556670886
 30
0.0
 10
29.6770398072
 20
8.0473347328
 30
0.0
 10
29.6647593274
 20
8.041304489
 30
0.0
 10
29.6546673048
 20
8.0370929137
 30
0.0
 10
29.6469671845
 20
8.0342645077
 30
0.0
 10
29.6391419585
 20
8.0318030653
 30
0.0
 10
29.6325181348
 20
8.030104938
 30
0.0
 10
29.6271603377
 20
8.0290128095
 30
0.0
 10
29.6231127453
 20
8.0283489627
 30
0.0
 10
29.6190381673
 20
8.0278730941
 30
0.0
 10
29.6149417868
 20
8.0276322173
 30
0.0
 10
29.6108361571
 20
8.0277000186
 30
0.0
 10
29.6067549386
 20
8.0281894284
 30
0.0
 10
29.6034385138
 20
8.0290941441
 30
0.0
 10
29.6009303747
 20
8.0301987854
 30
0.0
 10
29.5991529082
 20
8.0312355257
 30
0.0
 10
29.5975054893
 20
8.0324688493
 30
0.0
 10
29.5955182057
 20
8.0343570315
 30
0.0
 10
29.5934332537
 20
8.037095195
 30
0.0
 10
29.5915072391
 20
8.0407289837
 30
0.0
 10
29.5905080755
 20
8.0432792574
 30
0.0
 10
29.5900623455
 20
8.0445714968
 30
0.0
  0
SPLINE
  5
231
100
AcDbEntity
  8
0
100
AcDbSpline
 62
7
  6
CONTINUOUS
 70
0
 71
3
 72
35
 73
31
 74
0
 42
0.0000001
 43
0.0000001
 44
0.0000000001
 40
0.0
 40
0.0
 40
0.0
 40
0.0
 40
0.1249539514
 40
0.1874668734
 40
0.2499770805
 40
0.3124844787
 40
0.3749864875
 40
0.4374848799
 40
0.4999799224
 40
0.5624719102
 40
0.6249610506
 40
0.6874471114
 40
0.7186955149
 40
0.749943438
 40
0.7811908032
 40
0.8124373355
 40
0.8280623655
 40
0.8436878033
 40
0.8593130314
 40
0.8749385278
 40
0.8905655597
 40
0.9061944078
 40
0.9218223196
 40
0.9296439725
 40
0.9374683137
 40
0.945293781
 40
0.9531156713
 40
0.9687435786
 40
0.9843732402
 40
1.0
 40
1.0
 40
1.0
 40
1.0
 10
29.9518516346
 20
8.3226635328
 30
0.0
 10
29.9497063691
 20
8.3119457656
 30
0.0
 10
29.9453305337
 20
8.2960663529
 30
0.0
 10
29.9373245292
 20
8.2757051003
 30
0.0
 10
29.9302579272
 20
8.2608846323
 30
0.0
 10
29.9221687217
 20
8.2465994503
 30
0.0
 10
29.9130945259
 20
8.232919451
 30
0.0
 10
29.9030773798
 20
8.219915376
 30
0.0
 10
29.8921612557
 20
8.207657073
 30
0.0
 10
29.8803917244
 20
8.19621597
 30
0.0
 10
29.8678149826
 20
8.1856697345
 30
0.0
 10
29.8566945263
 20
8.1777004511
 30
0.0
 10
29.8474333398
 20
8.1718852375
 30
0.0
 10
29.8403037734
 20
8.1678280196
 30
0.0
 10
29.832990408
 20
8.164112169
 30
0.0
 10
29.8267364232
 20
8.1613469655
 30
0.0
 10
29.8216314551
 20
8.1593878753
 30
0.0
 10
29.8177483302
 20
8.1580668765
 30
0.0
 10
29.8138076478
 20
8.1569268503
 30
0.0
 10
29.8098067823
 20
8.1560150226
 30
0.0
 10
29.8057459875
 20
8.1554061407
 30
0.0
 10
29.8016398771
 20
8.1552171353
 30
0.0
 10
29.7982197733
 20
8.1555636508
 30
0.0
 10
29.795564025
 20
8.1562404041
 30
0.0
 10
29.7936401601
 20
8.1569704463
 30
0.0
 10
29.7918122126
 20
8.1579157949
 30
0.0
 10
29.7895412508
 20
8.1594511326
 30
0.0
 10
29.787034051
 20
8.1618087826
 30
0.0
 10
29.7845362075
 20
8.1650760035
 30
0.0
 10
29.7831309134
 20
8.1674270399
 30
0.0
 10
29.7824785687
 20
8.168628291
 30
0.0
  0
SPLINE
  5
232
100
AcDbEntity
  8
0
100
AcDbSpline
 62
7
  6
CONTINUOUS
 70
0
 71
3
 72
35
 73
31
 74
0
 42
0.0000001
 43
0.0000001
 44
0.0000000001
 40
0.0
 40
0.0
 40
0.0
 40
0.0
 40
0.1249539512
 40
0.1874668729
 40
0.2499770799
 40
0.3124844781
 40
0.3749864871
 40
0.4374848796
 40
0.4999799222
 40
0.5624719102
 40
0.6249610508
 40
0.6874471117
 40
0.7186955154
 40
0.7499434385
 40
0.7811908038
 40
0.8124373362
 40
0.8280623663
 40
0.8436878041
 40
0.8593130323
 40
0.8749385288
 40
0.8905655606
 40
0.9061944093
 40
0.9218223216
 40
0.9296439751
 40
0.9374683156
 40
0.945293783
 40
0.9531156729
 40
0.9687435794
 40
0.9843732403
 40
1.0
 40
1.0
 40
1.0
 40
1.0
 10
30.0935615694
 20
8.5024756168
 30
0.0
 10
30.093209633
 20
8.4915509274
 30
0.0
 10
30.0915071196
 20
8.4751678529
 30
0.0
 10
30.0869616272
 20
8.453766563
 30
0.0
 10
30.0824307501
 20
8.437985109
 30
0.0
 10
30.0768031119
 20
8.4225633271
 30
0.0
 10
30.0701043081
 20
8.4075763515
 30
0.0
 10
30.0623641619
 20
8.3931008784
 30
0.0
 10
30.0536145495
 20
8.3792130405
 30
0.0
 10
30.0438886634
 20
8.3659907923
 30
0.0
 10
30.033219287
 20
8.3535183456
 30
0.0
 10
30.0235621859
 20
8.3438274002
 30
0.0
 10
30.0153844519
 20
8.3365671693
 30
0.0
 10
30.009019912
 20
8.3313918078
 30
0.0
 10
30.002417893
 20
8.3265229059
 30
0.0
 10
29.9967043364
 20
8.3227660525
 30
0.0
 10
29.991991445
 20
8.3199934386
 30
0.0
 10
29.9883787072
 20
8.3180513204
 30
0.0
 10
29.9846794101
 20
8.3162782332
 30
0.0
 10
29.9808831908
 20
8.3147203263
 30
0.0
 10
29.9769779967
 20
8.3134513697
 30
0.0
 10
29.9729589963
 20
8.3125891043
 30
0.0
 10
29.9695285032
 20
8.3123679686
 30
0.0
 10
29.9667975862
 20
8.312598374
 30
0.0
 10
29.9647797998
 20
8.3130018044
 30
0.0
 10
29.962821185
 20
8.3136333928
 30
0.0
 10
29.9603284895
 20
8.3147740055
 30
0.0
 10
29.9574674314
 20
8.3166868334
 30
0.0
 10
29.9544658925
 20
8.3194983663
 30
0.0
 10
29.9526928
 20
8.3215860364
 30
0.0
 10
29.9518516346
 20
8.3226635328
 30
0.0
  0
SPLINE
  5
233
100
AcDbEntity
  8
0
100
AcDbSpline
 62
7
  6
CONTINUOUS
 70
0
 71
3
 72
35
 73
31
 74
0
 42
0.0000001
 43
0.0000001
 44
0.0000000001
 40
0.0
 40
0.0
 40
0.0
 40
0.0
 40
0.1249539512
 40
0.1874668729
 40
0.2499770799
 40
0.3124844781
 40
0.3749864871
 40
0.4374848796
 40
0.4999799223
 40
0.5624719102
 40
0.6249610508
 40
0.6874471117
 40
0.7186955154
 40
0.7499434386
 40
0.7811908038
 40
0.8124373362
 40
0.8280623663
 40
0.8436878042
 40
0.8593130323
 40
0.8749385288
 40
0.8905655606
 40
0.9061944093
 40
0.9218223217
 40
0.9296439753
 40
0.9374683157
 40
0.9452937831
 40
0.953115673
 40
0.9687435794
 40
0.9843732403
 40
1.0
 40
1.0
 40
1.0
 40
1.0
 10
30.2037429641
 20
8.7031598251
 30
0.0
 10
30.2051939564
 20
8.6923262052
 30
0.0
 10
30.2062112045
 20
8.6758863485
 30
0.0
 10
30.205250211
 20
8.6540287822
 30
0.0
 10
30.2033786472
 20
8.6377168117
 30
0.0
 10
30.2003660807
 20
8.6215790883
 30
0.0
 10
30.1962253917
 20
8.6056939347
 30
0.0
 10
30.1909733727
 20
8.5901419098
 30
0.0
 10
30.1846289343
 20
8.5750033543
 30
0.0
 10
30.1772119857
 20
8.5603606231
 30
0.0
 10
30.1687410022
 20
8.5463021751
 30
0.0
 10
30.1608106722
 20
8.5351539066
 30
0.0
 10
30.153939454
 20
8.5266466951
 30
0.0
 10
30.1485135456
 20
8.520494358
 30
0.0
 10
30.1428029559
 20
8.5146052133
 30
0.0
 10
30.1377856757
 20
8.5099591854
 30
0.0
 10
30.133593414
 20
8.5064486759
 30
0.0
 10
30.1303496077
 20
8.5039384134
 30
0.0
 10
30.1269926013
 20
8.5015806294
 30
0.0
 10
30.1235045774
 20
8.4994191384
 30
0.0
 10
30.1198615056
 20
8.4975247202
 30
0.0
 10
30.1160392411
 20
8.4960127148
 30
0.0
 10
30.112691932
 20
8.4952299595
 30
0.0
 10
30.1099603374
 20
8.4950077323
 30
0.0
 10
30.1079036687
 20
8.4950735468
 30
0.0
 10
30.1058678112
 20
8.4953741467
 30
0.0
 10
30.1032213751
 20
8.4960889226
 30
0.0
 10
30.1000844991
 20
8.4975047519
 30
0.0
 10
30.0966611376
 20
8.4997839072
 30
0.0
 10
30.0945686112
 20
8.5015512658
 30
0.0
 10
30.0935615694
 20
8.5024756168
 30
0.0
  0
SPLINE
  5
234
100
AcDbEntity
  8
0
100
AcDbSpline
 62
7
  6
CONTINUOUS
 70
0
 71
3
 72
35
 73
31
 74
0
 42
0.0000001
 43
0.0000001
 44
0.0000000001
 40
0.0
 40
0.0
 40
0.0
 40
0.0
 40
0.1249539512
 40
0.1874668729
 40
0.2499770799
 40
0.3124844781
 40
0.3749864871
 40
0.4374848796
 40
0.4999799222
 40
0.5624719102
 40
0.6249610508
 40
0.6874471117
 40
0.7186955154
 40
0.7499434385
 40
0.7811908038
 40
0.8124373362
 40
0.8280623663
 40
0.8436878041
 40
0.8593130323
 40
0.8749385288
 40
0.8905655606
 40
0.9061944093
 40
0.9218223216
 40
0.9296439751
 40
0.9374683156
 40
0.945293783
 40
0.9531156729
 40
0.9687435794
 40
0.9843732403
 40
1.0
 40
1.0
 40
1.0
 40
1.0
 10
30.2793904107
 20
8.9192421126
 30
0.0
 10
30.2826047533
 20
8.90879507
 30
0.0
 10
30.2863140153
 20
8.8927468595
 30
0.0
 10
30.2889637338
 20
8.8710292238
 30
0.0
 10
30.2898025336
 20
8.8546316767
 30
0.0
 10
30.2894872125
 20
8.8382181992
 30
0.0
 10
30.2880175834
 20
8.8218681655
 30
0.0
 10
30.2853969504
 20
8.8056637999
 30
0.0
 10
30.2816307428
 20
8.7896874599
 30
0.0
 10
30.2767250429
 20
8.774023654
 30
0.0
 10
30.2706835147
 20
8.7587626758
 30
0.0
 10
30.2646962707
 20
8.7464611745
 30
0.0
 10
30.259318994
 20
8.7369390329
 30
0.0
 10
30.2549797191
 20
8.7299775368
 30
0.0
 10
30.2503163258
 20
8.723228787
 30
0.0
 10
30.2461321778
 20
8.7178203138
 30
0.0
 10
30.2425748979
 20
8.7136676648
 30
0.0
 10
30.2397885041
 20
8.7106577301
 30
0.0
 10
30.2368653572
 20
8.7077795625
 30
0.0
 10
30.2337806711
 20
8.705073446
 30
0.0
 10
30.2304990934
 20
8.7026052401
 30
0.0
 10
30.2269778244
 20
8.7004847376
 30
0.0
 10
30.2238050036
 20
8.6991617138
 30
0.0
 10
30.2211472408
 20
8.6984929157
 30
0.0
 10
30.2191077892
 20
8.698219319
 30
0.0
 10
30.217050221
 20
8.698180731
 30
0.0
 10
30.2143222311
 20
8.6984501733
 30
0.0
 10
30.2109951014
 20
8.6993303846
 30
0.0
 10
30.2072432959
 20
8.7010149938
 30
0.0
 10
30.2048884132
 20
8.702413833
 30
0.0
 10
30.2037429641
 20
8.7031598251
 30
0.0
  0
SPLINE
  5
235
100
AcDbEntity
  8
0
100
AcDbSpline
 62
7
  6
CONTINUOUS
 70
0
 71
3
 72
35
 73
31
 74
0
 42
0.0000001
 43
0.0000001
 44
0.0000000001
 40
0.0
 40
0.0
 40
0.0
 40
0.0
 40
0.1249539503
 40
0.1874668708
 40
0.2499770768
 40
0.3124844745
 40
0.3749864834
 40
0.4374848759
 40
0.4999799185
 40
0.5624719065
 40
0.6249610472
 40
0.6874471081
 40
0.7186955118
 40
0.7499434351
 40
0.7811908004
 40
0.8124373328
 40
0.8280623628
 40
0.8436878007
 40
0.859313029
 40
0.8749385254
 40
0.8905655572
 40
0.9061944068
 40
0.9218223201
 40
0.9296439736
 40
0.9374683146
 40
0.9452937818
 40
0.9531156719
 40
0.9687435784
 40
0.98437324
 40
1.0
 40
1.0
 40
1.0
 40
1.0
 10
30.3184404807
 20
9.1448284225
 30
0.0
 10
30.3233304961
 20
9.1350529202
 30
0.0
 10
30.3296305948
 20
9.1198341018
 30
0.0
 10
30.3358187491
 20
9.0988487868
 30
0.0
 10
30.3393450328
 20
9.0828129379
 30
0.0
 10
30.341735558
 20
9.0665714153
 30
0.0
 10
30.3429770758
 20
9.05020248
 30
0.0
 10
30.3430593117
 20
9.0337877786
 30
0.0
 10
30.3419740654
 20
9.0174094393
 30
0.0
 10
30.3397134268
 20
9.0011518189
 30
0.0
 10
30.3362661481
 20
8.9851045827
 30
0.0
 10
30.3323853036
 20
8.9719853956
 30
0.0
 10
30.3286486439
 20
8.9617080584
 30
0.0
 10
30.3255143645
 20
8.9541272914
 30
0.0
 10
30.3220253706
 20
8.9467030216
 30
0.0
 10
30.3187884857
 20
8.9406796295
 30
0.0
 10
30.315963219
 20
8.9359981124
 30
0.0
 10
30.313710242
 20
8.9325706072
 30
0.0
 10
30.3113006891
 20
8.9292505633
 30
0.0
 10
30.3087034814
 20
8.9260736359
 30
0.0
 10
30.3058729092
 20
8.9230989673
 30
0.0
 10
30.3027486851
 20
8.9204278081
 30
0.0
 10
30.2998368971
 20
8.9186006037
 30
0.0
 10
30.2973254616
 20
8.9175034773
 30
0.0
 10
30.2953588571
 20
8.9168979324
 30
0.0
 10
30.2933357022
 20
8.9165212088
 30
0.0
 10
30.2906005695
 20
8.9163379682
 30
0.0
 10
30.2871739399
 20
8.9166585517
 30
0.0
 10
30.283196028
 20
8.9177026641
 30
0.0
 10
30.2806430228
 20
8.9186948277
 30
0.0
 10
30.2793904107
 20
8.9192421126
 30
0.0
  0
SPLINE
  5
236
100
AcDbEntity
  8
0
100
AcDbSpline
 62
7
  6
CONTINUOUS
 70
0
 71
3
 72
35
 73
31
 74
0
 42
0.0000001
 43
0.0000001
 44
0.0000000001
 40
0.0
 40
0.0
 40
0.0
 40
0.0
 40
0.1249539512
 40
0.1874668729
 40
0.2499770799
 40
0.3124844781
 40
0.3749864871
 40
0.4374848796
 40
0.4999799222
 40
0.5624719102
 40
0.6249610508
 40
0.6874471117
 40
0.7186955154
 40
0.7499434385
 40
0.7811908038
 40
0.8124373362
 40
0.8280623663
 40
0.8436878041
 40
0.8593130323
 40
0.8749385288
 40
0.8905655606
 40
0.9061944093
 40
0.9218223216
 40
0.9296439751
 40
0.9374683156
 40
0.945293783
 40
0.9531156729
 40
0.9687435794
 40
0.9843732403
 40
1.0
 40
1.0
 40
1.0
 40
1.0
 10
30.3198280089
 20
9.3737654573
 30
0.0
 10
30.3262603127
 20
9.3649281407
 30
0.0
 10
30.334979401
 20
9.3509538363
 30
0.0
 10
30.3445371974
 20
9.3312732561
 30
0.0
 10
30.3506547788
 20
9.3160365132
 30
0.0
 10
30.3556859441
 20
9.3004099638
 30
0.0
 10
30.359604744
 20
9.2844686208
 30
0.0
 10
30.3623876055
 20
9.2682913261
 30
0.0
 10
30.3640129225
 20
9.2519577378
 30
0.0
 10
30.3644590083
 20
9.2355497607
 30
0.0
 10
30.36370001
 20
9.2191539856
 30
0.0
 10
30.3620314224
 20
9.2055749635
 30
0.0
 10
30.3600373041
 20
9.1948227647
 30
0.0
 10
30.3581935137
 20
9.1868295069
 30
0.0
 10
30.3559740881
 20
9.1789322282
 30
0.0
 10
30.3537727582
 20
9.1724582169
 30
0.0
 10
30.3517565695
 20
9.1673755289
 30
0.0
 10
30.3500984634
 20
9.163623945
 30
0.0
 10
30.3482682293
 20
9.1599525856
 30
0.0
 10
30.3462293442
 20
9.156391504
 30
0.0
 10
30.3439269866
 20
9.1529915125
 30
0.0
 10
30.3412850264
 20
9.1498425583
 30
0.0
 10
30.3387136962
 20
9.1475610139
 30
0.0
 10
30.3364170923
 20
9.1460654857
 30
0.0
 10
30.3345769779
 20
9.1451445098
 30
0.0
 10
30.3326434218
 20
9.144439927
 30
0.0
 10
30.3299757522
 20
9.1438090011
 30
0.0
 10
30.3265430908
 20
9.143561213
 30
0.0
 10
30.3224475778
 20
9.1439363482
 30
0.0
 10
30.3197660884
 20
9.1444947731
 30
0.0
 10
30.3184404807
 20
9.1448284225
 30
0.0
  0
SPLINE
  5
237
100
AcDbEntity
  8
0
100
AcDbSpline
 62
7
  6
CONTINUOUS
 70
0
 71
3
 72
35
 73
31
 74
0
 42
0.0000001
 43
0.0000001
 44
0.0000000001
 40
0.0
 40
0.0
 40
0.0
 40
0.0
 40
0.1249539533
 40
0.187466876
 40
0.249977084
 40
0.3124844832
 40
0.3749864933
 40
0.4374848868
 40
0.4999799305
 40
0.5624719195
 40
0.6249610611
 40
0.687447123
 40
0.7186955272
 40
0.7499434509
 40
0.7811908167
 40
0.8124373496
 40
0.8280623799
 40
0.843687818
 40
0.8593130465
 40
0.8749385432
 40
0.8905655753
 40
0.9061944241
 40
0.921822337
 40
0.9296439905
 40
0.9374683304
 40
0.9452937982
 40
0.9531156907
 40
0.9687435873
 40
0.9843732096
 40
1.0
 40
1.0
 40
1.0
 40
1.0
 10
30.2835151477
 20
9.5998085225
 30
0.0
 10
30.2913142868
 20
9.5921504461
 30
0.0
 10
30.302214535
 20
9.5798018316
 30
0.0
 10
30.3148812664
 20
9.5619628115
 30
0.0
 10
30.3234232769
 20
9.5479407859
 30
0.0
 10
30.3309578478
 20
9.5333554535
 30
0.0
 10
30.337447037
 20
9.518276533
 30
0.0
 10
30.3428546164
 20
9.5027779112
 30
0.0
 10
30.347146163
 20
9.4869346036
 30
0.0
 10
30.3502868052
 20
9.4708238283
 30
0.0
 10
30.3522367905
 20
9.45452674
 30
0.0
 10
30.3528259736
 20
9.4408582765
 30
0.0
 10
30.35262879
 20
9.4299245027
 30
0.0
 10
30.3521257812
 20
9.4217367851
 30
0.0
 10
30.351236463
 20
9.4135819108
 30
0.0
 10
30.3501307334
 20
9.4068338711
 30
0.0
 10
30.3489786178
 20
9.4014886522
 30
0.0
 10
30.3479606106
 20
9.3975153213
 30
0.0
 10
30.3467596184
 20
9.3935927895
 30
0.0
 10
30.3453346699
 20
9.3897446891
 30
0.0
 10
30.3436233278
 20
9.386012116
 30
0.0
 10
30.3415356957
 20
9.3824712603
 30
0.0
 10
30.3393749606
 20
9.3797976096
 30
0.0
 10
30.3373558321
 20
9.3779444733
 30
0.0
 10
30.3356923999
 20
9.3767331883
 30
0.0
 10
30.3339011836
 20
9.3757199653
 30
0.0
 10
30.3313737437
 20
9.3746585638
 30
0.0
 10
30.3280286856
 20
9.3738491685
 30
0.0
 10
30.3239272868
 20
9.3735450862
 30
0.0
 10
30.3211904565
 20
9.3736545441
 30
0.0
 10
30.3198280089
 20
9.3737654573
 30
0.0
  0
SPLINE
  5
238
100
AcDbEntity
  8
0
100
AcDbSpline
 62
7
  6
CONTINUOUS
 70
0
 71
3
 72
35
 73
31
 74
0
 42
0.0000001
 43
0.0000001
 44
0.0000000001
 40
0.0
 40
0.0
 40
0.0
 40
0.0
 40
0.1249539512
 40
0.1874668729
 40
0.2499770799
 40
0.3124844781
 40
0.3749864871
 40
0.4374848796
 40
0.4999799222
 40
0.5624719102
 40
0.6249610508
 40
0.6874471117
 40
0.7186955154
 40
0.7499434385
 40
0.7811908038
 40
0.8124373362
 40
0.8280623663
 40
0.8436878041
 40
0.8593130323
 40
0.8749385288
 40
0.8905655606
 40
0.9061944093
 40
0.9218223216
 40
0.9296439751
 40
0.9374683156
 40
0.945293783
 40
0.9531156729
 40
0.9687435794
 40
0.9843732403
 40
1.0
 40
1.0
 40
1.0
 40
1.0
 10
30.2104923999
 20
9.8167918616
 30
0.0
 10
30.2194456374
 20
9.8105219145
 30
0.0
 10
30.2322297201
 20
9.8001358222
 30
0.0
 10
30.2476598771
 20
9.7846249562
 30
0.0
 10
30.2583933169
 20
9.772200126
 30
0.0
 10
30.2682257735
 20
9.7590538539
 30
0.0
 10
30.277108347
 20
9.7452486629
 30
0.0
 10
30.2849931421
 20
9.7308514691
 30
0.0
 10
30.2918338585
 20
9.7159305992
 30
0.0
 10
30.2975833903
 20
9.7005564785
 30
0.0
 10
30.3021891699
 20
9.6848026118
 30
0.0
 10
30.3050200529
 20
9.6714175407
 30
0.0
 10
30.3066251828
 20
9.6606004319
 30
0.0
 10
30.3074766767
 20
9.6524415905
 30
0.0
 10
30.3079417238
 20
9.6442515605
 30
0.0
 10
30.307961756
 20
9.6374135583
 30
0.0
 10
30.30770514
 20
9.6319516097
 30
0.0
 10
30.3073549999
 20
9.6278649119
 30
0.0
 10
30.3068160095
 20
9.6237982023
 30
0.0
 10
30.3060438662
 20
9.6197680473
 30
0.0
 10
30.3049702205
 20
9.6158047056
 30
0.0
 10
30.3034938615
 20
9.6119685317
 30
0.0
 10
30.3018026605
 20
9.6089757031
 30
0.0
 10
30.3001160838
 20
9.6068155056
 30
0.0
 10
30.2986747079
 20
9.6053469508
 30
0.0
 10
30.2970746911
 20
9.6040527243
 30
0.0
 10
30.2947564202
 20
9.6025897996
 30
0.0
 10
30.2915902025
 20
9.6012408633
 30
0.0
 10
30.2875947867
 20
9.6002658736
 30
0.0
 10
30.2848772665
 20
9.5999233712
 30
0.0
 10
30.2835151477
 20
9.5998085225
 30
0.0
  0
SPLINE
  5
239
100
AcDbEntity
  8
0
100
AcDbSpline
 62
7
  6
CONTINUOUS
 70
0
 71
3
 72
35
 73
31
 74
0
 42
0.0000001
 43
0.0000001
 44
0.0000000001
 40
0.0
 40
0.0
 40
0.0
 40
0.0
 40
0.1249539512
 40
0.1874668729
 40
0.2499770799
 40
0.3124844781
 40
0.3749864871
 40
0.4374848796
 40
0.4999799223
 40
0.5624719102
 40
0.6249610508
 40
0.6874471117
 40
0.7186955154
 40
0.7499434386
 40
0.7811908038
 40
0.8124373362
 40
0.8280623663
 40
0.8436878042
 40
0.8593130323
 40
0.8749385288
 40
0.8905655606
 40
0.9061944093
 40
0.9218223216
 40
0.9296439752
 40
0.9374683156
 40
0.945293783
 40
0.9531156729
 40
0.9687435794
 40
0.9843732403
 40
1.0
 40
1.0
 40
1.0
 40
1.0
 10
30.1027516003
 20
10.0187968399
 30
0.0
 10
30.1126147198
 20
10.0140860467
 30
0.0
 10
30.1269339269
 20
10.005945777
 30
0.0
 10
30.1447066225
 20
9.9931861532
 30
0.0
 10
30.1573387166
 20
9.982697429
 30
0.0
 10
30.1692008599
 20
9.9713488067
 30
0.0
 10
30.1802345285
 20
9.9591939079
 30
0.0
 10
30.1903814666
 20
9.9462908527
 30
0.0
 10
30.199584759
 20
9.9326994154
 30
0.0
 10
30.207786351
 20
9.9184813074
 30
0.0
 10
30.2149222932
 20
9.9037003789
 30
0.0
 10
30.2199176582
 20
9.8909638034
 30
0.0
 10
30.2232813186
 20
9.8805584166
 30
0.0
 10
30.2254640887
 20
9.8726509993
 30
0.0
 10
30.2272708161
 20
9.8646492122
 30
0.0
 10
30.2284160633
 20
9.8579077669
 30
0.0
 10
30.2290619464
 20
9.8524780736
 30
0.0
 10
30.2293892241
 20
9.8483894814
 30
0.0
 10
30.2295269372
 20
9.8442895213
 30
0.0
 10
30.2294286606
 20
9.8401872419
 30
0.0
 10
30.2290219966
 20
9.8361012394
 30
0.0
 10
30.2281971808
 20
9.8320743864
 30
0.0
 10
30.2270216443
 20
9.8288440152
 30
0.0
 10
30.2257136235
 20
9.8264356805
 30
0.0
 10
30.2245336198
 20
9.8247499139
 30
0.0
 10
30.2231684456
 20
9.8232099869
 30
0.0
 10
30.2211225797
 20
9.8213854428
 30
0.0
 10
30.21822157
 20
9.8195337662
 30
0.0
 10
30.214441122
 20
9.8179144557
 30
0.0
 10
30.2118170382
 20
9.8171293395
 30
0.0
 10
30.2104923999
 20
9.8167918616
 30
0.0
  0
SPLINE
  5
23A
100
AcDbEntity
  8
0
100
AcDbSpline
 62
7
  6
CONTINUOUS
 70
0
 71
3
 72
35
 73
31
 74
0
 42
0.0000001
 43
0.0000001
 44
0.0000000001
 40
0.0
 40
0.0
 40
0.0
 40
0.0
 40
0.1249539512
 40
0.1874668729
 40
0.2499770799
 40
0.3124844781
 40
0.3749864871
 40
0.4374848796
 40
0.4999799222
 40
0.5624719102
 40
0.6249610508
 40
0.6874471117
 40
0.7186955154
 40
0.7499434386
 40
0.7811908038
 40
0.8124373362
 40
0.8280623663
 40
0.8436878041
 40
0.8593130323
 40
0.8749385288
 40
0.8905655606
 40
0.9061944093
 40
0.9218223216
 40
0.9296439752
 40
0.9374683156
 40
0.945293783
 40
0.9531156729
 40
0.9687435794
 40
0.9843732403
 40
1.0
 40
1.0
 40
1.0
 40
1.0
 10
29.9632315849
 20
10.2003133859
 30
0.0
 10
29.9737355509
 20
10.1972902424
 30
0.0
 10
29.9891992988
 20
10.1916178367
 30
0.0
 10
30.0088297488
 20
10.1819574983
 30
0.0
 10
30.0230159327
 20
10.1736909801
 30
0.0
 10
30.0365842001
 20
10.1644495629
 30
0.0
 10
30.0494679995
 20
10.1542765042
 30
0.0
 10
30.0616003034
 20
10.1432195433
 30
0.0
 10
30.0729151345
 20
10.1313282709
 30
0.0
 10
30.0833450724
 20
10.1186540017
 30
0.0
 10
30.0928165309
 20
10.1052491894
 30
0.0
 10
30.0998401198
 20
10.0935085239
 30
0.0
 10
30.1048705603
 20
10.083798686
 30
0.0
 10
30.1083250675
 20
10.0763583825
 30
0.0
 10
30.1114241932
 20
10.0687631024
 30
0.0
 10
30.1136634166
 20
10.0623020998
 30
0.0
 10
30.1151941812
 20
10.0570527671
 30
0.0
 10
30.1161899496
 20
10.0530738046
 30
0.0
 10
30.1170006097
 20
10.0490524283
 30
0.0
 10
30.1175788806
 20
10.044989922
 30
0.0
 10
30.1178502908
 20
10.0408927121
 30
0.0
 10
30.1176995166
 20
10.0367850202
 30
0.0
 10
30.1170717095
 20
10.033405221
 30
0.0
 10
30.1161779235
 20
10.0308144411
 30
0.0
 10
30.1152914788
 20
10.0289574452
 30
0.0
 10
30.1141983849
 20
10.0272138221
 30
0.0
 10
30.1124807289
 20
10.0250774265
 30
0.0
 10
30.1099240578
 20
10.0227735175
 30
0.0
 10
30.1064616967
 20
10.0205540562
 30
0.0
 10
30.104002626
 20
10.0193477415
 30
0.0
 10
30.1027516003
 20
10.0187968399
 30
0.0
  0
SPLINE
  5
23B
100
AcDbEntity
  8
0
100
AcDbSpline
 62
7
  6
CONTINUOUS
 70
0
 71
3
 72
35
 73
31
 74
0
 42
0.0000001
 43
0.0000001
 44
0.0000000001
 40
0.0
 40
0.0
 40
0.0
 40
0.0
 40
0.1249539513
 40
0.1874668731
 40
0.2499770801
 40
0.3124844784
 40
0.3749864873
 40
0.4374848797
 40
0.4999799223
 40
0.5624719102
 40
0.6249610507
 40
0.6874471116
 40
0.7186955152
 40
0.7499434383
 40
0.7811908036
 40
0.8124373359
 40
0.8280623659
 40
0.8436878038
 40
0.8593130319
 40
0.8749385284
 40
0.8905655602
 40
0.9061944087
 40
0.9218223208
 40
0.9296439741
 40
0.9374683148
 40
0.9452937822
 40
0.9531156722
 40
0.9687435791
 40
0.9843732403
 40
1.0
 40
1.0
 40
1.0
 40
1.0
 10
29.7957380286
 20
10.3563902892
 30
0.0
 10
29.8065963254
 20
10.3551372575
 30
0.0
 10
29.8227828107
 20
10.3520874415
 30
0.0
 10
29.8437355572
 20
10.3457898925
 30
0.0
 10
29.8590888757
 20
10.3399710654
 30
0.0
 10
29.8739931667
 20
10.3330889306
 30
0.0
 10
29.8883756667
 20
10.3251752018
 30
0.0
 10
29.9021624046
 20
10.3162659346
 30
0.0
 10
29.9152801407
 20
10.3063991845
 30
0.0
 10
29.9276539282
 20
10.295614469
 30
0.0
 10
29.9392025508
 20
10.2839514147
 30
0.0
 10
29.9480627817
 20
10.2735269083
 30
0.0
 10
29.9546227876
 20
10.2647774735
 30
0.0
 10
29.9592548035
 20
10.2580072326
 30
0.0
 10
29.9635617929
 20
10.2510256352
 30
0.0
 10
29.9668339135
 20
10.2450213115
 30
0.0
 10
29.969207805
 20
10.2400955249
 30
0.0
 10
29.9708449026
 20
10.236334726
 30
0.0
 10
29.9723063976
 20
10.2325016242
 30
0.0
 10
29.9735454423
 20
10.2285897036
 30
0.0
 10
29.9744875236
 20
10.2245930456
 30
0.0
 10
29.9750149035
 20
10.2205165598
 30
0.0
 10
29.9749519507
 20
10.2170795232
 30
0.0
 10
29.9744967792
 20
10.2143769665
 30
0.0
 10
29.973928073
 20
10.2123993945
 30
0.0
 10
29.9731368757
 20
10.2104996358
 30
0.0
 10
29.9717942817
 20
10.208109663
 30
0.0
 10
29.9696516874
 20
10.2054163651
 30
0.0
 10
29.9666018556
 20
10.2026572929
 30
0.0
 10
29.964374874
 20
10.2010626843
 30
0.0
 10
29.9632315849
 20
10.2003133859
 30
0.0
  0
SPLINE
  5
23C
100
AcDbEntity
  8
0
100
AcDbSpline
 62
7
  6
CONTINUOUS
 70
0
 71
3
 72
35
 73
31
 74
0
 42
0.0000001
 43
0.0000001
 44
0.0000000001
 40
0.0
 40
0.0
 40
0.0
 40
0.0
 40
0.1249539512
 40
0.1874668729
 40
0.2499770799
 40
0.3124844781
 40
0.3749864871
 40
0.4374848796
 40
0.4999799222
 40
0.5624719102
 40
0.6249610508
 40
0.6874471117
 40
0.7186955154
 40
0.7499434386
 40
0.7811908038
 40
0.8124373362
 40
0.8280623663
 40
0.8436878042
 40
0.8593130323
 40
0.8749385288
 40
0.8905655606
 40
0.9061944093
 40
0.9218223216
 40
0.9296439752
 40
0.9374683157
 40
0.9452937831
 40
0.953115673
 40
0.9687435794
 40
0.9843732403
 40
1.0
 40
1.0
 40
1.0
 40
1.0
 10
29.6048396378
 20
10.4827702543
 30
0.0
 10
29.6157560847
 20
10.4833215132
 30
0.0
 10
29.6322237901
 20
10.4829774763
 30
0.0
 10
29.6539273069
 20
10.4802144946
 30
0.0
 10
29.6700289688
 20
10.4770020782
 30
0.0
 10
29.6858627406
 20
10.4726669491
 30
0.0
 10
29.701351631
 20
10.4672284122
 30
0.0
 10
29.7164167433
 20
10.4607098562
 30
0.0
 10
29.7309795732
 20
10.4531367627
 30
0.0
 10
29.7449596916
 20
10.4445357745
 30
0.0
 10
29.7582704675
 20
10.4349326103
 30
0.0
 10
29.7687256609
 20
10.4261086113
 30
0.0
 10
29.7766362953
 20
10.4185582373
 30
0.0
 10
29.7823194729
 20
10.41264273
 30
0.0
 10
29.7877168447
 20
10.4064652517
 30
0.0
 10
29.7919326091
 20
10.4010813863
 30
0.0
 10
29.7950848751
 20
10.396613506
 30
0.0
 10
29.7973186469
 20
10.3931734537
 30
0.0
 10
29.7993911116
 20
10.3896331815
 30
0.0
 10
29.801257133
 20
10.3859785517
 30
0.0
 10
29.8028441882
 20
10.382191462
 30
0.0
 10
29.8040353372
 20
10.3782573763
 30
0.0
 10
29.8045389554
 20
10.3748568539
 30
0.0
 10
29.8045348141
 20
10.3721162378
 30
0.0
 10
29.804299359
 20
10.3700720316
 30
0.0
 10
29.8038316395
 20
10.3680679572
 30
0.0
 10
29.8029007298
 20
10.3654895981
 30
0.0
 10
29.8012306553
 20
10.3624803764
 30
0.0
 10
29.7986765429
 20
10.3592569523
 30
0.0
 10
29.7967423956
 20
10.3573175459
 30
0.0
 10
29.7957380286
 20
10.3563902892
 30
0.0
  0
SPLINE
  5
23D
100
AcDbEntity
  8
0
100
AcDbSpline
 62
7
  6
CONTINUOUS
 70
0
 71
3
 72
35
 73
31
 74
0
 42
0.0000001
 43
0.0000001
 44
0.0000000001
 40
0.0
 40
0.0
 40
0.0
 40
0.0
 40
0.1249539512
 40
0.1874668729
 40
0.2499770799
 40
0.3124844781
 40
0.3749864871
 40
0.4374848796
 40
0.4999799222
 40
0.5624719102
 40
0.6249610508
 40
0.6874471117
 40
0.7186955154
 40
0.7499434385
 40
0.7811908038
 40
0.8124373362
 40
0.8280623663
 40
0.8436878041
 40
0.8593130323
 40
0.8749385288
 40
0.8905655606
 40
0.9061944093
 40
0.9218223216
 40
0.9296439751
 40
0.9374683156
 40
0.945293783
 40
0.9531156729
 40
0.9687435794
 40
0.9843732403
 40
1.0
 40
1.0
 40
1.0
 40
1.0
 10
29.3957435308
 20
10.5760060263
 30
0.0
 10
29.4064203607
 20
10.5783465391
 30
0.0
 10
29.4227200982
 20
10.5807176658
 30
0.0
 10
29.4445823804
 20
10.5815646168
 30
0.0
 10
29.4609931822
 20
10.5810462359
 30
0.0
 10
29.4773245383
 20
10.5793763615
 30
0.0
 10
29.49349733
 20
10.5765613629
 30
0.0
 10
29.5094298872
 20
10.5726113241
 30
0.0
 10
29.5250405818
 20
10.5675384578
 30
0.0
 10
29.5402456966
 20
10.5613558054
 30
0.0
 10
29.5549555491
 20
10.5540744759
 30
0.0
 10
29.5667205195
 20
10.5470916758
 30
0.0
 10
29.5757660049
 20
10.5409463134
 30
0.0
 10
29.5823453246
 20
10.5360468965
 30
0.0
 10
29.5886858552
 20
10.5308420398
 30
0.0
 10
29.5937302704
 20
10.5262254879
 30
0.0
 10
29.5975749267
 20
10.522337384
 30
0.0
 10
29.6003444424
 20
10.5193119122
 30
0.0
 10
29.6029713464
 20
10.5161610373
 30
0.0
 10
29.6054134451
 20
10.5128633853
 30
0.0
 10
29.6076021844
 20
10.5093891641
 30
0.0
 10
29.6094246114
 20
10.5057047882
 30
0.0
 10
29.6104810638
 20
10.5024335358
 30
0.0
 10
29.6109280655
 20
10.4997296158
 30
0.0
 10
29.6110322839
 20
10.4976745351
 30
0.0
 10
29.6109008003
 20
10.4956208097
 30
0.0
 10
29.610406967
 20
10.4929243942
 30
0.0
 10
29.609254967
 20
10.4896813308
 30
0.0
 10
29.6072662423
 20
10.4860814799
 30
0.0
 10
29.6056776867
 20
10.4838501765
 30
0.0
 10
29.6048396378
 20
10.4827702543
 30
0.0
  0
SPLINE
  5
23E
100
AcDbEntity
  8
0
100
AcDbSpline
 62
7
  6
CONTINUOUS
 70
0
 71
3
 72
35
 73
31
 74
0
 42
0.0000001
 43
0.0000001
 44
0.0000000001
 40
0.0
 40
0.0
 40
0.0
 40
0.0
 40
0.1249539495
 40
0.187466869
 40
0.2499770743
 40
0.3124844715
 40
0.3749864804
 40
0.4374848729
 40
0.4999799156
 40
0.5624719036
 40
0.6249610443
 40
0.6874471053
 40
0.718695509
 40
0.7499434323
 40
0.7811907977
 40
0.8124373302
 40
0.8280623601
 40
0.8436877981
 40
0.8593130264
 40
0.8749385228
 40
0.8905655547
 40
0.906194405
 40
0.9218223192
 40
0.9296439726
 40
0.9374683139
 40
0.9452937811
 40
0.9531156713
 40
0.9687435777
 40
0.9843732397
 40
1.0
 40
1.0
 40
1.0
 40
1.0
 10
29.1741532029
 20
10.6335544215
 30
0.0
 10
29.184299185
 20
10.6376203462
 30
0.0
 10
29.1999863477
 20
10.6426419593
 30
0.0
 10
29.2214110593
 20
10.6470757408
 30
0.0
 10
29.2376833647
 20
10.6492655354
 30
0.0
 10
29.2540668359
 20
10.6503064647
 30
0.0
 10
29.2704823851
 20
10.6501917891
 30
0.0
 10
29.2868477961
 20
10.6489180125
 30
0.0
 10
29.303080544
 20
10.6464837455
 30
0.0
 10
29.3190959067
 20
10.6428880727
 30
0.0
 10
29.3348035966
 20
10.6381271903
 30
0.0
 10
29.3475574319
 20
10.6331760582
 30
0.0
 10
29.3574910355
 20
10.628603334
 30
0.0
 10
29.364787034
 20
10.6248536485
 30
0.0
 10
29.3718977732
 20
10.6207633859
 30
0.0
 10
29.3776332433
 20
10.617040073
 30
0.0
 10
29.3820654196
 20
10.6138378007
 30
0.0
 10
29.3852951354
 20
10.611309435
 30
0.0
 10
29.3884048251
 20
10.6086339038
 30
0.0
 10
29.3913563881
 20
10.6057831793
 30
0.0
 10
29.3940871095
 20
10.6027165925
 30
0.0
 10
29.3964911051
 20
10.5993824249
 30
0.0
 10
29.3980715748
 20
10.5963296718
 30
0.0
 10
29.398957527
 20
10.5937362023
 30
0.0
 10
29.3993985761
 20
10.5917263033
 30
0.0
 10
29.3996069154
 20
10.5896789462
 30
0.0
 10
29.3995636281
 20
10.586938024
 30
0.0
 10
29.3989611261
 20
10.5835495796
 30
0.0
 10
29.3975920352
 20
10.5796714944
 30
0.0
 10
29.3963924022
 20
10.5772091571
 30
0.0
 10
29.3957435308
 20
10.5760060263
 30
0.0
  0
SPLINE
  5
23F
100
AcDbEntity
  8
0
100
AcDbSpline
 62
7
  6
CONTINUOUS
 70
0
 71
3
 72
24
 73
20
 74
0
 42
0.0000001
 43
0.0000001
 44
0.0000000001
 40
0.0
 40
0.0
 40
0.0
 40
0.0
 40
0.1250056356
 40
0.2500013679
 40
0.374981989
 40
0.4999473089
 40
0.562454845
 40
0.6249599368
 40
0.6874626966
 40
0.7499629971
 40
0.8124599792
 40
0.8437135826
 40
0.8749667069
 40
0.90621889
 40
0.9374697569
 40
0.9530985992
 40
0.9687279591
 40
0.9843689795
 40
1.0
 40
1.0
 40
1.0
 40
1.0
 10
28.6623915778
 20
10.5246419767
 30
0.0
 10
28.65593611
 20
10.5178892736
 30
0.0
 10
28.6421937749
 20
10.5051530356
 30
0.0
 10
28.6194505615
 20
10.4886705212
 30
0.0
 10
28.5948966314
 20
10.4750327484
 30
0.0
 10
28.5732073886
 20
10.4662150484
 30
0.0
 10
28.5553189656
 20
10.4607958228
 30
0.0
 10
28.5416712786
 20
10.4575730068
 30
0.0
 10
28.5278462504
 20
10.4552264383
 30
0.0
 10
28.5138961393
 20
10.4538020081
 30
0.0
 10
28.5022121188
 20
10.4534436344
 30
0.0
 10
28.492872214
 20
10.4537312671
 30
0.0
 10
28.4858831306
 20
10.4542715466
 30
0.0
 10
28.4789339408
 20
10.4551953419
 30
0.0
 10
28.4732060966
 20
10.4563702115
 30
0.0
 10
28.4687129923
 20
10.4576570479
 30
0.0
 10
28.4654096228
 20
10.4588383739
 30
0.0
 10
28.4622178875
 20
10.460298567
 30
0.0
 10
28.4602091489
 20
10.4615091728
 30
0.0
 10
28.4592572076
 20
10.462186197
 30
0.0
  0
SPLINE
  5
240
100
AcDbEntity
  8
0
100
AcDbSpline
 62
7
  6
CONTINUOUS
 70
0
 71
3
 72
24
 73
20
 74
0
 42
0.0000001
 43
0.0000001
 44
0.0000000001
 40
0.0
 40
0.0
 40
0.0
 40
0.0
 40
0.1250056356
 40
0.2500013679
 40
0.374981989
 40
0.4999473089
 40
0.5624548451
 40
0.6249599368
 40
0.6874626966
 40
0.7499629971
 40
0.8124599792
 40
0.8437135826
 40
0.8749667069
 40
0.90621889
 40
0.9374697569
 40
0.9530985992
 40
0.9687279591
 40
0.9843689795
 40
1.0
 40
1.0
 40
1.0
 40
1.0
 10
28.4592572076
 20
10.462186197
 30
0.0
 10
28.4540012311
 20
10.4544630647
 30
0.0
 10
28.4425426175
 20
10.4396386352
 30
0.0
 10
28.4228224952
 20
10.4196375399
 30
0.0
 10
28.4008481266
 20
10.4021443568
 30
0.0
 10
28.3809060245
 20
10.389877016
 30
0.0
 10
28.3641535394
 20
10.3815873885
 30
0.0
 10
28.3512224392
 20
10.3761622111
 30
0.0
 10
28.337972192
 20
10.3715721414
 30
0.0
 10
28.3244467903
 20
10.3678710456
 30
0.0
 10
28.3129811076
 20
10.3655944499
 30
0.0
 10
28.3037212424
 20
10.3643408755
 30
0.0
 10
28.2967385529
 20
10.3637234312
 30
0.0
 10
28.289732089
 20
10.3634908384
 30
0.0
 10
28.2838889883
 20
10.3637069207
 30
0.0
 10
28.2792453585
 20
10.3642366726
 30
0.0
 10
28.2757926037
 20
10.3648581751
 30
0.0
 10
28.272404061
 20
10.3657731157
 30
0.0
 10
28.270223461
 20
10.3666365861
 30
0.0
 10
28.2691730692
 20
10.3671476937
 30
0.0
  0
SPLINE
  5
241
100
AcDbEntity
  8
0
100
AcDbSpline
 62
7
  6
CONTINUOUS
 70
0
 71
3
 72
24
 73
20
 74
0
 42
0.0000001
 43
0.0000001
 44
0.0000000001
 40
0.0
 40
0.0
 40
0.0
 40
0.0
 40
0.1250056356
 40
0.2500013679
 40
0.374981989
 40
0.4999473089
 40
0.562454845
 40
0.6249599368
 40
0.6874626966
 40
0.7499629971
 40
0.8124599792
 40
0.8437135826
 40
0.8749667069
 40
0.90621889
 40
0.9374697569
 40
0.9530985992
 40
0.9687279591
 40
0.9843689795
 40
1.0
 40
1.0
 40
1.0
 40
1.0
 10
28.2691730692
 20
10.3671476937
 30
0.0
 10
28.2652599507
 20
10.3586647953
 30
0.0
 10
28.2563976144
 20
10.3421565389
 30
0.0
 10
28.2402384871
 20
10.3191824308
 30
0.0
 10
28.2214430729
 20
10.2983109974
 30
0.0
 10
28.2037920704
 20
10.2829286309
 30
0.0
 10
28.1886324791
 20
10.271994717
 30
0.0
 10
28.1767706861
 20
10.2645151603
 30
0.0
 10
28.1644566458
 20
10.2578067922
 30
0.0
 10
28.1517248847
 20
10.2519299853
 30
0.0
 10
28.1407902882
 20
10.2477972661
 30
0.0
 10
28.131863043
 20
10.2450366782
 30
0.0
 10
28.1250772137
 20
10.2432783522
 30
0.0
 10
28.1182045903
 20
10.2418957157
 30
0.0
 10
28.1124056148
 20
10.2411471166
 30
0.0
 10
28.1077381234
 20
10.2409053339
 30
0.0
 10
28.1042301638
 20
10.2409500603
 30
0.0
 10
28.1007372426
 20
10.2412947917
 30
0.0
 10
28.0984442614
 20
10.2417875739
 30
0.0
 10
28.0973240705
 20
10.2421188235
 30
0.0
  0
SPLINE
  5
242
100
AcDbEntity
  8
0
100
AcDbSpline
 62
7
  6
CONTINUOUS
 70
0
 71
3
 72
17
 73
13
 74
0
 42
0.0000001
 43
0.0000001
 44
0.0000000001
 40
0.0
 40
0.0
 40
0.0
 40
0.0
 40
0.1137193291
 40
0.2372442047
 40
0.3676393624
 40
0.5018742737
 40
0.6365113772
 40
0.7676324314
 40
0.8305165211
 40
0.8907852428
 40
0.9476553913
 40
1.0
 40
1.0
 40
1.0
 40
1.0
 10
28.9460267541
 20
10.6537932373
 30
0.0
 10
28.9425934659
 20
10.6505404355
 30
0.0
 10
28.9358204086
 20
10.6433402461
 30
0.0
 10
28.9262634826
 20
10.6313929434
 30
0.0
 10
28.9168942635
 20
10.6182398803
 30
0.0
 10
28.9077413241
 20
10.6043831346
 30
0.0
 10
28.8988055251
 20
10.5903515075
 30
0.0
 10
28.8914454632
 20
10.5788339156
 30
0.0
 10
28.8856009865
 20
10.570020197
 30
0.0
 10
28.8813560531
 20
10.5638522169
 30
0.0
 10
28.8772229382
 20
10.5581414981
 30
0.0
 10
28.8744475386
 20
10.5545445136
 30
0.0
 10
28.8730837239
 20
10.5528476867
 30
0.0
  0
SPLINE
  5
243
100
AcDbEntity
  8
0
100
AcDbSpline
 62
7
  6
CONTINUOUS
 70
0
 71
3
 72
17
 73
13
 74
0
 42
0.0000001
 43
0.0000001
 44
0.0000000001
 40
0.0
 40
0.0
 40
0.0
 40
0.0
 40
0.0523236407
 40
0.1091828786
 40
0.1694474933
 40
0.232331233
 40
0.3634581859
 40
0.4981060801
 40
0.6323554064
 40
0.7627589638
 40
0.8862847059
 40
1.0
 40
1.0
 40
1.0
 40
1.0
 10
28.6623915778
 20
10.5246419767
 30
0.0
 10
28.6634578201
 20
10.5265410967
 30
0.0
 10
28.6656041368
 20
10.5305483118
 30
0.0
 10
28.6687422081
 20
10.5368658651
 30
0.0
 10
28.6719156026
 20
10.5436540524
 30
0.0
 10
28.6762320329
 20
10.5533184654
 30
0.0
 10
28.6815990359
 20
10.5659025593
 30
0.0
 10
28.6881075319
 20
10.5812287408
 30
0.0
 10
28.6948597779
 20
10.5964179509
 30
0.0
 10
28.7019423121
 20
10.6109473151
 30
0.0
 10
28.7094098003
 20
10.6243158688
 30
0.0
 10
28.7149118512
 20
10.6325384488
 30
0.0
 10
28.7177665763
 20
10.6363140902
 30
0.0
  0
SPLINE
  5
244
100
AcDbEntity
  8
0
100
AcDbSpline
 62
7
  6
CONTINUOUS
 70
0
 71
3
 72
17
 73
13
 74
0
 42
0.0000001
 43
0.0000001
 44
0.0000000001
 40
0.0
 40
0.0
 40
0.0
 40
0.0
 40
0.0523236408
 40
0.1091828785
 40
0.1694474931
 40
0.2323312327
 40
0.3634581845
 40
0.4981060757
 40
0.6323554032
 40
0.7627589618
 40
0.886284705
 40
1.0
 40
1.0
 40
1.0
 40
1.0
 10
28.4592572076
 20
10.462186197
 30
0.0
 10
28.4599963259
 20
10.4642349122
 30
0.0
 10
28.46145381
 20
10.4685407441
 30
0.0
 10
28.463509257
 20
10.4752886407
 30
0.0
 10
28.4655220821
 20
10.4825065666
 30
0.0
 10
28.4681889469
 20
10.4927496267
 30
0.0
 10
28.4714114967
 20
10.5060454647
 30
0.0
 10
28.4753086425
 20
10.5222338744
 30
0.0
 10
28.4794687585
 20
10.5383273005
 30
0.0
 10
28.4840632643
 20
10.5538242433
 30
0.0
 10
28.4892285353
 20
10.5682395681
 30
0.0
 10
28.4933021664
 20
10.5772556047
 30
0.0
 10
28.4954965128
 20
10.5814496204
 30
0.0
  0
SPLINE
  5
245
100
AcDbEntity
  8
0
100
AcDbSpline
 62
7
  6
CONTINUOUS
 70
0
 71
3
 72
17
 73
13
 74
0
 42
0.0000001
 43
0.0000001
 44
0.0000000001
 40
0.0
 40
0.0
 40
0.0
 40
0.0
 40
0.0523236408
 40
0.1091828785
 40
0.1694474931
 40
0.2323312327
 40
0.3634581845
 40
0.4981060757
 40
0.6323554032
 40
0.7627589618
 40
0.886284705
 40
1.0
 40
1.0
 40
1.0
 40
1.0
 10
28.2691730692
 20
10.3671476937
 30
0.0
 10
28.2695649027
 20
10.3692901214
 30
0.0
 10
28.2702937986
 20
10.3737771203
 30
0.0
 10
28.2712105548
 20
10.3807712985
 30
0.0
 10
28.2720079071
 20
10.3882220802
 30
0.0
 10
28.2729524626
 20
10.3987643885
 30
0.0
 10
28.273942658
 20
10.4124093014
 30
0.0
 10
28.2751221516
 20
10.4290183697
 30
0.0
 10
28.2765766625
 20
10.4455770329
 30
0.0
 10
28.2785578158
 20
10.4616188455
 30
0.0
 10
28.2812799769
 20
10.4766877356
 30
0.0
 10
28.2838140722
 20
10.4862512992
 30
0.0
 10
28.2852881849
 20
10.4907492894
 30
0.0
  0
SPLINE
  5
246
100
AcDbEntity
  8
0
100
AcDbSpline
 62
7
  6
CONTINUOUS
 70
0
 71
3
 72
17
 73
13
 74
0
 42
0.0000001
 43
0.0000001
 44
0.0000000001
 40
0.0
 40
0.0
 40
0.0
 40
0.0
 40
0.0523236408
 40
0.1091828785
 40
0.1694474931
 40
0.2323312327
 40
0.3634581845
 40
0.4981060757
 40
0.6323554032
 40
0.7627589618
 40
0.886284705
 40
1.0
 40
1.0
 40
1.0
 40
1.0
 10
28.0973240705
 20
10.2421188235
 30
0.0
 10
28.097357931
 20
10.2442965248
 30
0.0
 10
28.0973383567
 20
10.2488422993
 30
0.0
 10
28.0970914161
 20
10.2558919795
 30
0.0
 10
28.0966515461
 20
10.2633723828
 30
0.0
 10
28.0958480277
 20
10.2739263776
 30
0.0
 10
28.0945788593
 20
10.2875481744
 30
0.0
 10
28.0930085277
 20
10.3041248572
 30
0.0
 10
28.0917177589
 20
10.3206970883
 30
0.0
 10
28.09103152
 20
10.3368461996
 30
0.0
 10
28.0912363191
 20
10.3521576225
 30
0.0
 10
28.0921617564
 20
10.3620078485
 30
0.0
 10
28.0928754261
 20
10.3666871219
 30
0.0
  0
SPLINE
  5
247
100
AcDbEntity
  8
0
100
AcDbSpline
 62
7
  6
CONTINUOUS
 70
0
 71
3
 72
17
 73
13
 74
0
 42
0.0000001
 43
0.0000001
 44
0.0000000001
 40
0.0
 40
0.0
 40
0.0
 40
0.0
 40
0.0523236408
 40
0.1091828785
 40
0.1694474931
 40
0.2323312327
 40
0.3634581845
 40
0.4981060757
 40
0.6323554032
 40
0.7627589618
 40
0.886284705
 40
1.0
 40
1.0
 40
1.0
 40
1.0
 10
27.948397721
 20
10.0905099874
 30
0.0
 10
27.948072685
 20
10.0926635615
 30
0.0
 10
27.9473051743
 20
10.0971441168
 30
0.0
 10
27.9459012726
 20
10.1040570055
 30
0.0
 10
27.9442361787
 20
10.1113629881
 30
0.0
 10
27.9417065039
 20
10.1216407891
 30
0.0
 10
27.9382125907
 20
10.1348679092
 30
0.0
 10
27.9339352677
 20
10.1509600459
 30
0.0
 10
27.9299344274
 20
10.1670938057
 30
0.0
 10
27.9265995148
 20
10.1829097179
 30
0.0
 10
27.9242813656
 20
10.1980460251
 30
0.0
 10
27.9235729017
 20
10.2079142299
 30
0.0
 10
27.9235066617
 20
10.2126471504
 30
0.0
  0
SPLINE
  5
248
100
AcDbEntity
  8
0
100
AcDbSpline
 62
7
  6
CONTINUOUS
 70
0
 71
3
 72
17
 73
13
 74
0
 42
0.0000001
 43
0.0000001
 44
0.0000000001
 40
0.0
 40
0.0
 40
0.0
 40
0.0
 40
0.0523236408
 40
0.1091828785
 40
0.1694474931
 40
0.2323312327
 40
0.3634581845
 40
0.4981060757
 40
0.6323554032
 40
0.7627589618
 40
0.886284705
 40
1.0
 40
1.0
 40
1.0
 40
1.0
 10
27.8264562712
 20
9.916456606
 30
0.0
 10
27.8257812047
 20
9.9185273099
 30
0.0
 10
27.824286693
 20
9.9228204304
 30
0.0
 10
27.8217641242
 20
9.9294079654
 30
0.0
 10
27.8189192251
 20
9.9363402427
 30
0.0
 10
27.8147323955
 20
9.9460615032
 30
0.0
 10
27.8091090407
 20
9.9585331517
 30
0.0
 10
27.8022413984
 20
9.9737017985
 30
0.0
 10
27.7956396173
 20
9.9889570079
 30
0.0
 10
27.7897469971
 20
10.0040083117
 30
0.0
 10
27.7849691315
 20
10.0185566316
 30
0.0
 10
27.7826460911
 20
10.0281736411
 30
0.0
 10
27.7818017483
 20
10.0328311092
 30
0.0
  0
SPLINE
  5
249
100
AcDbEntity
  8
0
100
AcDbSpline
 62
7
  6
CONTINUOUS
 70
0
 71
3
 72
17
 73
13
 74
0
 42
0.0000001
 43
0.0000001
 44
0.0000000001
 40
0.0
 40
0.0
 40
0.0
 40
0.0
 40
0.0523236408
 40
0.1091828785
 40
0.1694474931
 40
0.2323312327
 40
0.3634581845
 40
0.4981060757
 40
0.6323554032
 40
0.7627589618
 40
0.886284705
 40
1.0
 40
1.0
 40
1.0
 40
1.0
 10
27.8971641843
 20
8.5106546645
 30
0.0
 10
27.8949967199
 20
8.5108682713
 30
0.0
 10
27.8904648599
 20
8.5112242108
 30
0.0
 10
27.8834188701
 20
8.5115603648
 30
0.0
 10
27.8759276944
 20
8.5117398231
 30
0.0
 10
27.8653433938
 20
8.5118107311
 30
0.0
 10
27.8516633134
 20
8.5116709576
 30
0.0
 10
27.8350135688
 20
8.5114751013
 30
0.0
 10
27.8183913505
 20
8.511557485
 30
0.0
 10
27.802240736
 20
8.5122073867
 30
0.0
 10
27.786998541
 20
8.5136760952
 30
0.0
 10
27.7772584035
 20
8.5154119256
 30
0.0
 10
27.772654061
 20
8.5165096301
 30
0.0
  0
SPLINE
  5
24A
100
AcDbEntity
  8
0
100
AcDbSpline
 62
7
  6
CONTINUOUS
 70
0
 71
3
 72
17
 73
13
 74
0
 42
0.0000001
 43
0.0000001
 44
0.0000000001
 40
0.0
 40
0.0
 40
0.0
 40
0.0
 40
0.0523236408
 40
0.1091828785
 40
0.1694474931
 40
0.2323312327
 40
0.3634581845
 40
0.4981060757
 40
0.6323554032
 40
0.7627589618
 40
0.886284705
 40
1.0
 40
1.0
 40
1.0
 40
1.0
 10
28.03595483
 20
8.3497153796
 30
0.0
 10
28.0337817683
 20
8.3495693233
 30
0.0
 10
28.0292531306
 20
8.3491744953
 30
0.0
 10
28.0222479086
 20
8.3483463431
 30
0.0
 10
28.0148293634
 20
8.3472903578
 30
0.0
 10
28.0043777453
 20
8.3456181954
 30
0.0
 10
27.9909072458
 20
8.3432286808
 30
0.0
 10
27.9745168146
 20
8.3402950619
 30
0.0
 10
27.9581077379
 20
8.337640419
 30
0.0
 10
27.9420704234
 20
8.3356231766
 30
0.0
 10
27.9267943691
 20
8.3345630935
 30
0.0
 10
27.9169013662
 20
8.33467209
 30
0.0
 10
27.9121791453
 20
8.3349969803
 30
0.0
  0
SPLINE
  5
24B
100
AcDbEntity
  8
0
100
AcDbSpline
 62
7
  6
CONTINUOUS
 70
0
 71
3
 72
17
 73
13
 74
0
 42
0.0000001
 43
0.0000001
 44
0.0000000001
 40
0.0
 40
0.0
 40
0.0
 40
0.0
 40
0.0523236408
 40
0.1091828785
 40
0.1694474931
 40
0.2323312327
 40
0.3634581845
 40
0.4981060757
 40
0.6323554032
 40
0.7627589618
 40
0.886284705
 40
1.0
 40
1.0
 40
1.0
 40
1.0
 10
28.1993420881
 20
8.2138150462
 30
0.0
 10
28.1972227035
 20
8.2133133108
 30
0.0
 10
28.1928208154
 20
8.2121784849
 30
0.0
 10
28.186047442
 20
8.2102086159
 30
0.0
 10
28.1789038822
 20
8.2079459909
 30
0.0
 10
28.1688700345
 20
8.2045763696
 30
0.0
 10
28.1559765495
 20
8.2000022925
 30
0.0
 10
28.140292512
 20
8.1944109311
 30
0.0
 10
28.1245441657
 20
8.1890916719
 30
0.0
 10
28.1090575998
 20
8.1844623097
 30
0.0
 10
28.0941643696
 20
8.1809023506
 30
0.0
 10
28.0843883519
 20
8.1793815402
 30
0.0
 10
28.07967706
 20
8.1789247543
 30
0.0
  0
SPLINE
  5
24C
100
AcDbEntity
  8
0
100
AcDbSpline
 62
7
  6
CONTINUOUS
 70
0
 71
3
 72
17
 73
13
 74
0
 42
0.0000001
 43
0.0000001
 44
0.0000000001
 40
0.0
 40
0.0
 40
0.0
 40
0.0
 40
0.0523236408
 40
0.1091828785
 40
0.1694474931
 40
0.2323312327
 40
0.3634581845
 40
0.4981060757
 40
0.6323554032
 40
0.7627589618
 40
0.886284705
 40
1.0
 40
1.0
 40
1.0
 40
1.0
 10
28.3828692592
 20
8.1066606051
 30
0.0
 10
28.3808613619
 20
8.1058168765
 30
0.0
 10
28.3767062934
 20
8.1039730073
 30
0.0
 10
28.3703495252
 20
8.1009151535
 30
0.0
 10
28.3636758051
 20
8.0975076063
 30
0.0
 10
28.3543334201
 20
8.0925324389
 30
0.0
 10
28.342368644
 20
8.0858985659
 30
0.0
 10
28.3278188123
 20
8.077801977
 30
0.0
 10
28.3131607627
 20
8.0699631945
 30
0.0
 10
28.2986473709
 20
8.0628479871
 30
0.0
 10
28.2845432062
 20
8.0568852569
 30
0.0
 10
28.2751508332
 20
8.0537761226
 30
0.0
 10
28.2705789799
 20
8.0525501202
 30
0.0
  0
SPLINE
  5
24D
100
AcDbEntity
  8
0
100
AcDbSpline
 62
7
  6
CONTINUOUS
 70
0
 71
3
 72
17
 73
13
 74
0
 42
0.0000001
 43
0.0000001
 44
0.0000000001
 40
0.0
 40
0.0
 40
0.0
 40
0.0
 40
0.0523236408
 40
0.1091828785
 40
0.1694474931
 40
0.2323312327
 40
0.3634581845
 40
0.4981060757
 40
0.6323554032
 40
0.7627589618
 40
0.886284705
 40
1.0
 40
1.0
 40
1.0
 40
1.0
 10
28.5815302893
 20
8.0311748986
 30
0.0
 10
28.5796886486
 20
8.030012191
 30
0.0
 10
28.575893737
 20
8.0275095735
 30
0.0
 10
28.5701269671
 20
8.0234471437
 30
0.0
 10
28.564105125
 20
8.0189876216
 30
0.0
 10
28.5557090342
 20
8.0125426153
 30
0.0
 10
28.5449993292
 20
8.004029898
 30
0.0
 10
28.5319805776
 20
7.9936489316
 30
0.0
 10
28.518812651
 20
7.9835044436
 30
0.0
 10
28.5056683137
 20
7.9740974719
 30
0.0
 10
28.4927379326
 20
7.9658946154
 30
0.0
 10
28.4839853992
 20
7.9612819646
 30
0.0
 10
28.4796776905
 20
7.9593201873
 30
0.0
  0
SPLINE
  5
24E
100
AcDbEntity
  8
0
100
AcDbSpline
 62
7
  6
CONTINUOUS
 70
0
 71
3
 72
17
 73
13
 74
0
 42
0.0000001
 43
0.0000001
 44
0.0000000001
 40
0.0
 40
0.0
 40
0.0
 40
0.0
 40
0.0523236408
 40
0.1091828785
 40
0.1694474931
 40
0.2323312327
 40
0.3634581846
 40
0.4981060757
 40
0.6323554032
 40
0.7627589618
 40
0.886284705
 40
1.0
 40
1.0
 40
1.0
 40
1.0
 10
28.7899063194
 20
7.9894169433
 30
0.0
 10
28.7882811695
 20
7.9879669718
 30
0.0
 10
28.7849499283
 20
7.9848738697
 30
0.0
 10
28.7799304563
 20
7.9799176744
 30
0.0
 10
28.7747247497
 20
7.9745278194
 30
0.0
 10
28.7675039724
 20
7.9667887741
 30
0.0
 10
28.758341466
 20
7.9566294131
 30
0.0
 10
28.747208906
 20
7.9442472299
 30
0.0
 10
28.7358902827
 20
7.9320737466
 30
0.0
 10
28.7244735369
 20
7.9206316037
 30
0.0
 10
28.7130696401
 20
7.9104123694
 30
0.0
 10
28.7051956884
 20
7.9044220211
 30
0.0
 10
28.7012696253
 20
7.9017779801
 30
0.0
  0
SPLINE
  5
24F
100
AcDbEntity
  8
0
100
AcDbSpline
 62
7
  6
CONTINUOUS
 70
0
 71
3
 72
17
 73
13
 74
0
 42
0.0000001
 43
0.0000001
 44
0.0000000001
 40
0.0
 40
0.0
 40
0.0
 40
0.0
 40
0.0523236408
 40
0.1091828785
 40
0.1694474931
 40
0.2323312327
 40
0.3634581845
 40
0.4981060757
 40
0.6323554032
 40
0.7627589618
 40
0.886284705
 40
1.0
 40
1.0
 40
1.0
 40
1.0
 10
29.0023134955
 20
7.9825257672
 30
0.0
 10
29.0009491655
 20
7.9808280825
 30
0.0
 10
28.9981724607
 20
7.9772288662
 30
0.0
 10
28.9940372023
 20
7.971514095
 30
0.0
 10
28.9897896266
 20
7.9653409257
 30
0.0
 10
28.9839411233
 20
7.9565189385
 30
0.0
 10
28.9765757405
 20
7.9449900499
 30
0.0
 10
28.9676330338
 20
7.9309443975
 30
0.0
 10
28.9584724509
 20
7.9170739739
 30
0.0
 10
28.9490947101
 20
7.9039087661
 30
0.0
 10
28.9395283607
 20
7.8919519032
 30
0.0
 10
28.9327477678
 20
7.8847472556
 30
0.0
 10
28.9293104411
 20
7.8814930722
 30
0.0
  0
SPLINE
  5
250
100
AcDbEntity
  8
0
100
AcDbSpline
 62
7
  6
CONTINUOUS
 70
0
 71
3
 72
17
 73
13
 74
0
 42
0.0000001
 43
0.0000001
 44
0.0000000001
 40
0.0
 40
0.0
 40
0.0
 40
0.0
 40
0.0523236408
 40
0.1091828785
 40
0.1694474931
 40
0.2323312327
 40
0.3634581845
 40
0.4981060757
 40
0.6323554032
 40
0.7627589618
 40
0.886284705
 40
1.0
 40
1.0
 40
1.0
 40
1.0
 10
29.2129580063
 20
8.0106893403
 30
0.0
 10
29.2118917109
 20
8.00879025
 30
0.0
 10
29.2097452823
 20
8.0047830948
 30
0.0
 10
29.2066070346
 20
7.9984656292
 30
0.0
 10
29.2034334506
 20
7.9916775305
 30
0.0
 10
29.1991167504
 20
7.9820132381
 30
0.0
 10
29.1937493961
 20
7.9694292942
 30
0.0
 10
29.1872404721
 20
7.9541032946
 30
0.0
 10
29.180487802
 20
7.9389142731
 30
0.0
 10
29.173404862
 20
7.9243851066
 30
0.0
 10
29.1659370004
 20
7.9110167613
 30
0.0
 10
29.1604347199
 20
7.9027943349
 30
0.0
 10
29.1575798893
 20
7.8990187731
 30
0.0
  0
SPLINE
  5
251
100
AcDbEntity
  8
0
100
AcDbSpline
 62
7
  6
CONTINUOUS
 70
0
 71
3
 72
17
 73
13
 74
0
 42
0.0000001
 43
0.0000001
 44
0.0000000001
 40
0.0
 40
0.0
 40
0.0
 40
0.0
 40
0.0523236408
 40
0.1091828785
 40
0.1694474931
 40
0.2323312327
 40
0.3634581845
 40
0.4981060757
 40
0.6323554032
 40
0.7627589618
 40
0.886284705
 40
1.0
 40
1.0
 40
1.0
 40
1.0
 10
29.4160941205
 20
8.0731394473
 30
0.0
 10
29.415354945
 20
8.0710907528
 30
0.0
 10
29.4138973406
 20
8.0667849616
 30
0.0
 10
29.4118417052
 20
8.0600371224
 30
0.0
 10
29.4098286785
 20
8.0528192527
 30
0.0
 10
29.4071615277
 20
8.0425762671
 30
0.0
 10
29.4039386066
 20
8.0292805191
 30
0.0
 10
29.4000410087
 20
8.0130922182
 30
0.0
 10
29.3958804433
 20
7.9969989083
 30
0.0
 10
29.3912855048
 20
7.9815020937
 30
0.0
 10
29.3861198313
 20
7.9670869133
 30
0.0
 10
29.3820459483
 20
7.9580709904
 30
0.0
 10
29.3798514848
 20
7.9538770359
 30
0.0
  0
SPLINE
  5
252
100
AcDbEntity
  8
0
100
AcDbSpline
 62
7
  6
CONTINUOUS
 70
0
 71
3
 72
17
 73
13
 74
0
 42
0.0000001
 43
0.0000001
 44
0.0000000001
 40
0.0
 40
0.0
 40
0.0
 40
0.0
 40
0.0523236408
 40
0.1091828785
 40
0.1694474931
 40
0.2323312327
 40
0.3634581845
 40
0.4981060757
 40
0.6323554032
 40
0.7627589618
 40
0.886284705
 40
1.0
 40
1.0
 40
1.0
 40
1.0
 10
29.6061809128
 20
8.1681726424
 30
0.0
 10
29.6057890195
 20
8.1660302257
 30
0.0
 10
29.6050599983
 20
8.1615432472
 30
0.0
 10
29.6041430467
 20
8.1545490945
 30
0.0
 10
29.6033454864
 20
8.1470983351
 30
0.0
 10
29.6024006365
 20
8.1365560532
 30
0.0
 10
29.60141006
 20
8.1229111679
 30
0.0
 10
29.6002301027
 20
8.1063021326
 30
0.0
 10
29.5987751294
 20
8.08974351
 30
0.0
 10
29.5967935281
 20
8.0737017527
 30
0.0
 10
29.5940709462
 20
8.0586329386
 30
0.0
 10
29.5915365838
 20
8.0490694458
 30
0.0
 10
29.5900623455
 20
8.0445714968
 30
0.0
  0
SPLINE
  5
253
100
AcDbEntity
  8
0
100
AcDbSpline
 62
7
  6
CONTINUOUS
 70
0
 71
3
 72
17
 73
13
 74
0
 42
0.0000001
 43
0.0000001
 44
0.0000000001
 40
0.0
 40
0.0
 40
0.0
 40
0.0
 40
0.0523236408
 40
0.1091828785
 40
0.1694474931
 40
0.2323312327
 40
0.3634581845
 40
0.4981060757
 40
0.6323554032
 40
0.7627589618
 40
0.886284705
 40
1.0
 40
1.0
 40
1.0
 40
1.0
 10
29.7780334029
 20
8.2931967137
 30
0.0
 10
29.7779994815
 20
8.2910190133
 30
0.0
 10
29.778018929
 20
8.2864732383
 30
0.0
 10
29.7782656727
 20
8.2794235512
 30
0.0
 10
29.7787053337
 20
8.2719431356
 30
0.0
 10
29.7795085575
 20
8.2613891184
 30
0.0
 10
29.7807773454
 20
8.2477672861
 30
0.0
 10
29.7823472142
 20
8.2311905595
 30
0.0
 10
29.7836375201
 20
8.2146182923
 30
0.0
 10
29.7843233081
 20
8.1984691618
 30
0.0
 10
29.7841180814
 20
8.1831577447
 30
0.0
 10
29.7831923691
 20
8.1733075445
 30
0.0
 10
29.7824785687
 20
8.168628291
 30
0.0
  0
SPLINE
  5
254
100
AcDbEntity
  8
0
100
AcDbSpline
 62
7
  6
CONTINUOUS
 70
0
 71
3
 72
17
 73
13
 74
0
 42
0.0000001
 43
0.0000001
 44
0.0000000001
 40
0.0
 40
0.0
 40
0.0
 40
0.0
 40
0.0523236408
 40
0.1091828785
 40
0.1694474931
 40
0.2323312327
 40
0.3634581845
 40
0.4981060757
 40
0.6323554032
 40
0.7627589618
 40
0.886284705
 40
1.0
 40
1.0
 40
1.0
 40
1.0
 10
29.9269639861
 20
8.4448013909
 30
0.0
 10
29.9272889619
 20
8.4426478077
 30
0.0
 10
29.9280563475
 20
8.438167231
 30
0.0
 10
29.9294600562
 20
8.431254303
 30
0.0
 10
29.931124946
 20
8.423948274
 30
0.0
 10
29.9336543338
 20
8.4136704024
 30
0.0
 10
29.9371478776
 20
8.4004431847
 30
0.0
 10
29.9414247513
 20
8.3843509286
 30
0.0
 10
29.945425141
 20
8.368217057
 30
0.0
 10
29.9487596119
 20
8.3524010517
 30
0.0
 10
29.9510773384
 20
8.3372646798
 30
0.0
 10
29.9517855268
 20
8.3273964552
 30
0.0
 10
29.9518516346
 20
8.3226635328
 30
0.0
  0
SPLINE
  5
255
100
AcDbEntity
  8
0
100
AcDbSpline
 62
7
  6
CONTINUOUS
 70
0
 71
3
 72
17
 73
13
 74
0
 42
0.0000001
 43
0.0000001
 44
0.0000000001
 40
0.0
 40
0.0
 40
0.0
 40
0.0
 40
0.0523236408
 40
0.1091828785
 40
0.1694474931
 40
0.2323312327
 40
0.3634581845
 40
0.4981060757
 40
0.6323554032
 40
0.7627589618
 40
0.886284705
 40
1.0
 40
1.0
 40
1.0
 40
1.0
 10
30.0489102963
 20
8.618851367
 30
0.0
 10
30.049585305
 20
8.6167806442
 30
0.0
 10
30.0510796968
 20
8.612487482
 30
0.0
 10
30.0536020816
 20
8.6058998765
 30
0.0
 10
30.0564467872
 20
8.5989675198
 30
0.0
 10
30.0606333452
 20
8.5892461424
 30
0.0
 10
30.0662563518
 20
8.5767743369
 30
0.0
 10
30.0731235705
 20
8.5616054983
 30
0.0
 10
30.0797249256
 20
8.5463501046
 30
0.0
 10
30.0856171255
 20
8.5312986362
 30
0.0
 10
30.0903945848
 20
8.5167501829
 30
0.0
 10
30.0927173567
 20
8.5071331085
 30
0.0
 10
30.0935615694
 20
8.5024756168
 30
0.0
  0
SPLINE
  5
256
100
AcDbEntity
  8
0
100
AcDbSpline
 62
7
  6
CONTINUOUS
 70
0
 71
3
 72
17
 73
13
 74
0
 42
0.0000001
 43
0.0000001
 44
0.0000000001
 40
0.0
 40
0.0
 40
0.0
 40
0.0
 40
0.0523236408
 40
0.1091828785
 40
0.1694474931
 40
0.2323312327
 40
0.3634581845
 40
0.4981060757
 40
0.6323554032
 40
0.7627589618
 40
0.886284705
 40
1.0
 40
1.0
 40
1.0
 40
1.0
 10
30.1405460152
 20
8.8105990966
 30
0.0
 10
30.1415526445
 20
8.808667717
 30
0.0
 10
30.1437332802
 20
8.8046790736
 30
0.0
 10
30.1473055382
 20
8.7985964801
 30
0.0
 10
30.1512524647
 20
8.7922268891
 30
0.0
 10
30.1569819967
 20
8.7833271749
 30
0.0
 10
30.1645810878
 20
8.7719509739
 30
0.0
 10
30.173851335
 20
8.7581193119
 30
0.0
 10
30.182873591
 20
8.7441585159
 30
0.0
 10
30.1911627988
 20
8.730282142
 30
0.0
 10
30.1982696766
 20
8.7167184441
 30
0.0
 10
30.2021436739
 20
8.7076148442
 30
0.0
 10
30.2037429641
 20
8.7031598251
 30
0.0
  0
SPLINE
  5
257
100
AcDbEntity
  8
0
100
AcDbSpline
 62
7
  6
CONTINUOUS
 70
0
 71
3
 72
17
 73
13
 74
0
 42
0.0000001
 43
0.0000001
 44
0.0000000001
 40
0.0
 40
0.0
 40
0.0
 40
0.0
 40
0.0523236408
 40
0.1091828785
 40
0.1694474931
 40
0.2323312327
 40
0.3634581845
 40
0.4981060757
 40
0.6323554032
 40
0.7627589618
 40
0.886284705
 40
1.0
 40
1.0
 40
1.0
 40
1.0
 10
30.1993716034
 20
9.0148142942
 30
0.0
 10
30.2006823957
 20
9.0130749399
 30
0.0
 10
30.2034897942
 20
9.0094996131
 30
0.0
 10
30.2080144853
 20
9.004087946
 30
0.0
 10
30.2129559729
 20
8.9984548634
 30
0.0
 10
30.2200721947
 20
8.9906195692
 30
0.0
 10
30.2294400906
 20
8.9806492802
 30
0.0
 10
30.2408605027
 20
8.9685320799
 30
0.0
 10
30.2520575603
 20
8.956246689
 30
0.0
 10
30.2625176721
 20
8.9439239141
 30
0.0
 10
30.2717601147
 20
8.9317149475
 30
0.0
 10
30.2770796668
 20
8.9233731399
 30
0.0
 10
30.2793904107
 20
8.9192421126
 30
0.0
  0
SPLINE
  5
258
100
AcDbEntity
  8
0
100
AcDbSpline
 62
7
  6
CONTINUOUS
 70
0
 71
3
 72
17
 73
13
 74
0
 42
0.0000001
 43
0.0000001
 44
0.0000000001
 40
0.0
 40
0.0
 40
0.0
 40
0.0
 40
0.0523236408
 40
0.1091828785
 40
0.1694474931
 40
0.2323312327
 40
0.3634581845
 40
0.4981060757
 40
0.6323554032
 40
0.7627589618
 40
0.886284705
 40
1.0
 40
1.0
 40
1.0
 40
1.0
 10
30.2237824807
 20
9.2259266004
 30
0.0
 10
30.2253616816
 20
9.2244267157
 30
0.0
 10
30.2287192658
 20
9.2213622293
 30
0.0
 10
30.2340729705
 20
9.2167691021
 30
0.0
 10
30.2398742305
 20
9.212026181
 30
0.0
 10
30.2481830338
 20
9.2054690294
 30
0.0
 10
30.2590642072
 20
9.1971766112
 30
0.0
 10
30.2723232706
 20
9.1871043922
 30
0.0
 10
30.2853897087
 20
9.176829514
 30
0.0
 10
30.297735405
 20
9.1663964654
 30
0.0
 10
30.3088613071
 20
9.1558752528
 30
0.0
 10
30.315481313
 20
9.1485227764
 30
0.0
 10
30.3184404807
 20
9.1448284225
 30
0.0
  0
SPLINE
  5
259
100
AcDbEntity
  8
0
100
AcDbSpline
 62
7
  6
CONTINUOUS
 70
0
 71
3
 72
17
 73
13
 74
0
 42
0.0000001
 43
0.0000001
 44
0.0000000001
 40
0.0
 40
0.0
 40
0.0
 40
0.0
 40
0.0523236408
 40
0.1091828785
 40
0.1694474931
 40
0.2323312327
 40
0.3634581845
 40
0.4981060757
 40
0.6323554032
 40
0.7627589618
 40
0.886284705
 40
1.0
 40
1.0
 40
1.0
 40
1.0
 10
30.213112794
 20
9.4381775239
 30
0.0
 10
30.2149173278
 20
9.436958021
 30
0.0
 10
30.2187335131
 20
9.4344879648
 30
0.0
 10
30.2247701987
 20
9.4308386638
 30
0.0
 10
30.2312729908
 20
9.4271152764
 30
0.0
 10
30.240547737
 20
9.4220151263
 30
0.0
 10
30.2526453833
 20
9.4156267703
 30
0.0
 10
30.2673814316
 20
9.4078742717
 30
0.0
 10
30.2819608382
 20
9.3998901731
 30
0.0
 10
30.2958553665
 20
9.391631432
 30
0.0
 10
30.3085612479
 20
9.3830849597
 30
0.0
 10
30.3163011343
 20
9.3769223673
 30
0.0
 10
30.3198280089
 20
9.3737654573
 30
0.0
  0
SPLINE
  5
25A
100
AcDbEntity
  8
0
100
AcDbSpline
 62
7
  6
CONTINUOUS
 70
0
 71
3
 72
17
 73
13
 74
0
 42
0.0000001
 43
0.0000001
 44
0.0000000001
 40
0.0
 40
0.0
 40
0.0
 40
0.0
 40
0.0523236408
 40
0.1091828785
 40
0.1694474931
 40
0.2323312327
 40
0.3634581845
 40
0.4981060757
 40
0.6323554032
 40
0.7627589618
 40
0.886284705
 40
1.0
 40
1.0
 40
1.0
 40
1.0
 10
30.1676535791
 20
9.6457775156
 30
0.0
 10
30.1696342237
 20
9.6448716587
 30
0.0
 10
30.1738049165
 20
9.6430634082
 30
0.0
 10
30.180359921
 20
9.640457475
 30
0.0
 10
30.1873868691
 20
9.6378551839
 30
0.0
 10
30.1973745718
 20
9.6343511516
 30
0.0
 10
30.2103587044
 20
9.6300411125
 30
0.0
 10
30.2261697839
 20
9.6248197984
 30
0.0
 10
30.2418644778
 20
9.6193442609
 30
0.0
 10
30.2569288383
 20
9.6134851003
 30
0.0
 10
30.2708681218
 20
9.6071464896
 30
0.0
 10
30.2795167686
 20
9.6023418777
 30
0.0
 10
30.2835151477
 20
9.5998085225
 30
0.0
  0
SPLINE
  5
25B
100
AcDbEntity
  8
0
100
AcDbSpline
 62
7
  6
CONTINUOUS
 70
0
 71
3
 72
17
 73
13
 74
0
 42
0.0000001
 43
0.0000001
 44
0.0000000001
 40
0.0
 40
0.0
 40
0.0
 40
0.0
 40
0.0523236408
 40
0.1091828785
 40
0.1694474931
 40
0.2323312327
 40
0.3634581845
 40
0.4981060757
 40
0.6323554032
 40
0.7627589618
 40
0.886284705
 40
1.0
 40
1.0
 40
1.0
 40
1.0
 10
30.0886448231
 20
9.8430638893
 30
0.0
 10
30.0907475526
 20
9.8424963874
 30
0.0
 10
30.0951589892
 20
9.841399266
 30
0.0
 10
30.1020535123
 20
9.8399077825
 30
0.0
 10
30.1094129429
 20
9.8384975701
 30
0.0
 10
30.1198411685
 20
9.8366852347
 30
0.0
 10
30.1333576205
 20
9.834571077
 30
0.0
 10
30.1498124538
 20
9.8320233689
 30
0.0
 10
30.1661943322
 20
9.8292057482
 30
0.0
 10
30.1820176158
 20
9.8259059879
 30
0.0
 10
30.1968100809
 20
9.8219481365
 30
0.0
 10
30.2061315796
 20
9.81863256
 30
0.0
 10
30.2104923999
 20
9.8167918616
 30
0.0
  0
SPLINE
  5
25C
100
AcDbEntity
  8
0
100
AcDbSpline
 62
7
  6
CONTINUOUS
 70
0
 71
3
 72
17
 73
13
 74
0
 42
0.0000001
 43
0.0000001
 44
0.0000000001
 40
0.0
 40
0.0
 40
0.0
 40
0.0
 40
0.0523236408
 40
0.1091828785
 40
0.1694474931
 40
0.2323312327
 40
0.3634581845
 40
0.4981060757
 40
0.6323554032
 40
0.7627589618
 40
0.886284705
 40
1.0
 40
1.0
 40
1.0
 40
1.0
 10
29.9782416406
 20
10.0246552824
 30
0.0
 10
29.980409099
 20
10.0244416152
 30
0.0
 10
29.9849409491
 20
10.0240855491
 30
0.0
 10
29.9919869295
 20
10.0237491983
 30
0.0
 10
29.9994781002
 20
10.0235695308
 30
0.0
 10
30.0100623988
 20
10.0234983273
 30
0.0
 10
30.0237424831
 20
10.0236377187
 30
0.0
 10
30.0403922332
 20
10.0238331101
 30
0.0
 10
30.0570144492
 20
10.0237502622
 30
0.0
 10
30.0731650455
 20
10.0230999095
 30
0.0
 10
30.0884071995
 20
10.0216307754
 30
0.0
 10
30.0981472886
 20
10.0198946729
 30
0.0
 10
30.1027516003
 20
10.0187968399
 30
0.0
  0
SPLINE
  5
25D
100
AcDbEntity
  8
0
100
AcDbSpline
 62
7
  6
CONTINUOUS
 70
0
 71
3
 72
17
 73
13
 74
0
 42
0.0000001
 43
0.0000001
 44
0.0000000001
 40
0.0
 40
0.0
 40
0.0
 40
0.0
 40
0.0523236408
 40
0.1091828785
 40
0.1694474931
 40
0.2323312327
 40
0.3634581845
 40
0.4981060757
 40
0.6323554032
 40
0.7627589618
 40
0.886284705
 40
1.0
 40
1.0
 40
1.0
 40
1.0
 10
29.8394554892
 20
10.185598443
 30
0.0
 10
29.841628555
 20
10.1857444387
 30
0.0
 10
29.8461572037
 20
10.1861391402
 30
0.0
 10
29.8531624488
 20
10.1869670968
 30
0.0
 10
29.8605810236
 20
10.1880228749
 30
0.0
 10
29.8710326884
 20
10.1896947455
 30
0.0
 10
29.8845032546
 20
10.1920838839
 30
0.0
 10
29.9008937677
 20
10.1950170451
 30
0.0
 10
29.9173029185
 20
10.1976712298
 30
0.0
 10
29.9333402893
 20
10.1996880243
 30
0.0
 10
29.9486163732
 20
10.2007476809
 30
0.0
 10
29.9585093731
 20
10.200638408
 30
0.0
 10
29.9632315849
 20
10.2003133859
 30
0.0
  0
SPLINE
  5
25E
100
AcDbEntity
  8
0
100
AcDbSpline
 62
7
  6
CONTINUOUS
 70
0
 71
3
 72
17
 73
13
 74
0
 42
0.0000001
 43
0.0000001
 44
0.0000000001
 40
0.0
 40
0.0
 40
0.0
 40
0.0
 40
0.0523236408
 40
0.1091828785
 40
0.1694474931
 40
0.2323312327
 40
0.3634581845
 40
0.4981060757
 40
0.6323554032
 40
0.7627589618
 40
0.886284705
 40
1.0
 40
1.0
 40
1.0
 40
1.0
 10
29.6760720262
 20
10.3215033391
 30
0.0
 10
29.6781914249
 20
10.3220050153
 30
0.0
 10
29.6825933446
 20
10.3231397182
 30
0.0
 10
29.6893667731
 20
10.3251093981
 30
0.0
 10
29.6965103961
 20
10.3273718236
 30
0.0
 10
29.7065443379
 20
10.3307411647
 30
0.0
 10
29.7194379506
 20
10.3353148818
 30
0.0
 10
29.7351221442
 20
10.3409058052
 30
0.0
 10
29.750870639
 20
10.3462246246
 30
0.0
 10
29.7663573342
 20
10.3508535544
 30
0.0
 10
29.7812506638
 20
10.3544130975
 30
0.0
 10
29.791026724
 20
10.3559336349
 30
0.0
 10
29.7957380286
 20
10.3563902892
 30
0.0
  0
SPLINE
  5
25F
100
AcDbEntity
  8
0
100
AcDbSpline
 62
7
  6
CONTINUOUS
 70
0
 71
3
 72
17
 73
13
 74
0
 42
0.0000001
 43
0.0000001
 44
0.0000000001
 40
0.0
 40
0.0
 40
0.0
 40
0.0
 40
0.0523236408
 40
0.1091828785
 40
0.1694474931
 40
0.2323312327
 40
0.3634581845
 40
0.4981060757
 40
0.6323554032
 40
0.7627589618
 40
0.886284705
 40
1.0
 40
1.0
 40
1.0
 40
1.0
 10
29.4925478475
 20
10.4286629051
 30
0.0
 10
29.4945557684
 20
10.4295065777
 30
0.0
 10
29.4987108884
 20
10.4313503308
 30
0.0
 10
29.505067742
 20
10.4344080071
 30
0.0
 10
29.5117415573
 20
10.437815368
 30
0.0
 10
29.5210840812
 20
10.4427902745
 30
0.0
 10
29.5330490425
 20
10.4494238133
 30
0.0
 10
29.5475991003
 20
10.4575199959
 30
0.0
 10
29.5622573688
 20
10.4653583691
 30
0.0
 10
29.5767709593
 20
10.4724731712
 30
0.0
 10
29.5908752905
 20
10.4784355075
 30
0.0
 10
29.6002677503
 20
10.4815443796
 30
0.0
 10
29.6048396378
 20
10.4827702543
 30
0.0
  0
SPLINE
  5
260
100
AcDbEntity
  8
0
100
AcDbSpline
 62
7
  6
CONTINUOUS
 70
0
 71
3
 72
17
 73
13
 74
0
 42
0.0000001
 43
0.0000001
 44
0.0000000001
 40
0.0
 40
0.0
 40
0.0
 40
0.0
 40
0.0523236408
 40
0.1091828785
 40
0.1694474931
 40
0.2323312327
 40
0.3634581845
 40
0.4981060757
 40
0.6323554032
 40
0.7627589618
 40
0.886284705
 40
1.0
 40
1.0
 40
1.0
 40
1.0
 10
29.2938889255
 20
10.5041541593
 30
0.0
 10
29.2957305987
 20
10.5053168155
 30
0.0
 10
29.2995255802
 20
10.5078193269
 30
0.0
 10
29.3052924635
 20
10.5118815958
 30
0.0
 10
29.3113144301
 20
10.5163409497
 30
0.0
 10
29.3197107009
 20
10.5227857215
 30
0.0
 10
29.3304206436
 20
10.5312981397
 30
0.0
 10
29.3434396851
 20
10.5416787426
 30
0.0
 10
29.3566078949
 20
10.5518228628
 30
0.0
 10
29.3697524949
 20
10.5612294675
 30
0.0
 10
29.3826831051
 20
10.5694319629
 30
0.0
 10
29.3914357673
 20
10.5740443693
 30
0.0
 10
29.3957435308
 20
10.5760060263
 30
0.0
  0
SPLINE
  5
261
100
AcDbEntity
  8
0
100
AcDbSpline
 62
7
  6
CONTINUOUS
 70
0
 71
3
 72
17
 73
13
 74
0
 42
0.0000001
 43
0.0000001
 44
0.0000000001
 40
0.0
 40
0.0
 40
0.0
 40
0.0
 40
0.0523236408
 40
0.1091828785
 40
0.1694474931
 40
0.2323312327
 40
0.3634581846
 40
0.4981060757
 40
0.6323554032
 40
0.7627589618
 40
0.886284705
 40
1.0
 40
1.0
 40
1.0
 40
1.0
 10
29.0855140615
 20
10.5459179335
 30
0.0
 10
29.0871392519
 20
10.5473678597
 30
0.0
 10
29.0904705795
 20
10.5504608687
 30
0.0
 10
29.0954901899
 20
10.5554169238
 30
0.0
 10
29.1006960471
 20
10.5608066335
 30
0.0
 10
29.1079170405
 20
10.5685454772
 30
0.0
 10
29.1170798305
 20
10.5787045822
 30
0.0
 10
29.1282127363
 20
10.5910864546
 30
0.0
 10
29.1395316995
 20
10.6032596218
 30
0.0
 10
29.1509487649
 20
10.6147014459
 30
0.0
 10
29.1623529471
 20
10.6249203617
 30
0.0
 10
29.170227066
 20
10.6309104901
 30
0.0
 10
29.1741532029
 20
10.6335544215
 30
0.0
  0
SPLINE
  5
262
100
AcDbEntity
  8
0
100
AcDbSpline
 62
7
  6
CONTINUOUS
 70
0
 71
3
 72
29
 73
25
 74
0
 42
0.0000001
 43
0.0000001
 44
0.0000000001
 40
0.0
 40
0.0
 40
0.0
 40
0.0
 40
0.0312558737
 40
0.0625117823
 40
0.0937676748
 40
0.125023555
 40
0.1875166
 40
0.2500096089
 40
0.2812654928
 40
0.312521388
 40
0.3750143675
 40
0.4375073185
 40
0.5000002657
 40
0.5624931761
 40
0.6249860868
 40
0.6562419584
 40
0.687497853
 40
0.7187537522
 40
0.7500096408
 40
0.8125024495
 40
0.8749955468
 40
0.9062506319
 40
0.9375067368
 40
1.0
 40
1.0
 40
1.0
 40
1.0
 10
28.933964991
 20
8.6426696054
 30
0.0
 10
28.9441993777
 20
8.6426696047
 30
0.0
 10
28.9646717365
 20
8.6431700833
 30
0.0
 10
28.9953037656
 20
8.6454218865
 30
0.0
 10
29.0257904863
 20
8.6491690226
 30
0.0
 10
29.0661366201
 20
8.656146356
 30
0.0
 10
29.115857459
 20
8.6685597649
 30
0.0
 10
29.1641244986
 20
8.6857793226
 30
0.0
 10
29.2015748686
 20
8.7023332343
 30
0.0
 10
29.2381692895
 20
8.7207011887
 30
0.0
 10
29.2821585275
 20
8.7469957293
 30
0.0
 10
29.3315877613
 20
8.7835613488
 30
0.0
 10
29.377197712
 20
8.8247982402
 30
0.0
 10
29.4185419564
 20
8.8703059594
 30
0.0
 10
29.4491156493
 20
8.9114369898
 30
0.0
 10
29.4710559301
 20
8.9460073536
 30
0.0
 10
29.4862209778
 20
8.9727186548
 30
0.0
 10
29.5000553735
 20
9.0001427054
 30
0.0
 10
29.5166780531
 20
9.037561841
 30
0.0
 10
29.5339768848
 20
9.0858016465
 30
0.0
 10
29.5464522581
 20
9.1355066635
 30
0.0
 10
29.5534662876
 20
9.175847816
 30
0.0
 10
29.5584892456
 20
9.2164815701
 30
0.0
 10
29.5600018452
 20
9.2472067811
 30
0.0
 10
29.5600018452
 20
9.2676695021
 30
0.0
  0
SPLINE
  5
263
100
AcDbEntity
  8
0
100
AcDbSpline
 62
7
  6
CONTINUOUS
 70
0
 71
3
 72
24
 73
20
 74
0
 42
0.0000001
 43
0.0000001
 44
0.0000000001
 40
0.0
 40
0.0
 40
0.0
 40
0.0
 40
0.1250056314
 40
0.2500013596
 40
0.3749819768
 40
0.4999472928
 40
0.562454827
 40
0.6249599168
 40
0.6874626747
 40
0.7499629733
 40
0.8124599535
 40
0.8437135555
 40
0.8749666796
 40
0.9062188598
 40
0.9374697353
 40
0.9530985725
 40
0.9687278866
 40
0.9843689651
 40
1.0
 40
1.0
 40
1.0
 40
1.0
 10
28.0973240705
 20
10.2421188235
 30
0.0
 10
28.0948605478
 20
10.2331075465
 30
0.0
 10
28.0888362261
 20
10.215365758
 30
0.0
 10
28.0766788655
 20
10.1900453005
 30
0.0
 10
28.0615750872
 20
10.1663649256
 30
0.0
 10
28.0466966499
 20
10.1482871172
 30
0.0
 10
28.0335434598
 20
10.1350071605
 30
0.0
 10
28.0230745276
 20
10.1256772437
 30
0.0
 10
28.0120325837
 20
10.1170335608
 30
0.0
 10
28.0004417467
 20
10.1091413439
 30
0.0
 10
27.9903364991
 20
10.1032652289
 30
0.0
 10
27.9819853818
 20
10.0990729277
 30
0.0
 10
27.9755815096
 20
10.0962216814
 30
0.0
 10
27.9690301904
 20
10.0937267147
 30
0.0
 10
27.9634335184
 20
10.0920338539
 30
0.0
 10
27.9588694836
 20
10.0910271294
 30
0.0
 10
27.955402004
 20
10.0904938677
 30
0.0
 10
27.9518999793
 20
10.0902589742
 30
0.0
 10
27.9495571567
 20
10.0903676311
 30
0.0
 10
27.948397721
 20
10.0905099874
 30
0.0
  0
SPLINE
  5
264
100
AcDbEntity
  8
0
100
AcDbSpline
 62
7
  6
CONTINUOUS
 70
0
 71
3
 72
36
 73
32
 74
0
 42
0.0000001
 43
0.0000001
 44
0.0000000001
 40
0.0
 40
0.0
 40
0.0
 40
0.0
 40
0.0156262155
 40
0.0312566288
 40
0.0468834026
 40
0.0547045832
 40
0.0625289229
 40
0.0703516547
 40
0.0781734151
 40
0.0938002459
 40
0.1016200768
 40
0.1094363397
 40
0.1250632854
 40
0.1406887282
 40
0.1563136991
 40
0.1875577758
 40
0.218803864
 40
0.2500508698
 40
0.2812984652
 40
0.3125465638
 40
0.3437951498
 40
0.375044164
 40
0.4375327842
 40
0.5000243156
 40
0.5625189636
 40
0.6250170292
 40
0.6875188409
 40
0.7500260994
 40
0.8125359593
 40
0.8750480675
 40
1.0
 40
1.0
 40
1.0
 40
1.0
 10
-6.8258467971
 20
10.6335544215
 30
0.0
 10
-6.8254046419
 20
10.6348484127
 30
0.0
 10
-6.8246263923
 20
10.6374757034
 30
0.0
 10
-6.823914306
 20
10.6415278245
 30
0.0
 10
-6.8238782476
 20
10.6449705586
 30
0.0
 10
-6.8242877594
 20
10.6476818838
 30
0.0
 10
-6.8248304622
 20
10.6496675067
 30
0.0
 10
-6.8255977321
 20
10.6515775213
 30
0.0
 10
-6.8268996026
 20
10.6539899363
 30
0.0
 10
-6.8285503465
 20
10.6561927119
 30
0.0
 10
-6.8304244284
 20
10.6581870309
 30
0.0
 10
-6.8324168122
 20
10.6600642863
 30
0.0
 10
-6.8350847886
 20
10.6622102225
 30
0.0
 10
-6.8384667539
 20
10.6645366168
 30
0.0
 10
-6.8431457011
 20
10.6673723475
 30
0.0
 10
-6.8492278412
 20
10.6705096862
 30
0.0
 10
-6.8567532784
 20
10.6737845066
 30
0.0
 10
-6.8644440917
 20
10.6766485168
 30
0.0
 10
-6.8722609389
 20
10.6791460435
 30
0.0
 10
-6.8801784182
 20
10.6813026442
 30
0.0
 10
-6.8881773742
 20
10.6831340808
 30
0.0
 10
-6.8989287733
 20
10.6851556366
 30
0.0
 10
-6.9125010469
 20
10.686912771
 30
0.0
 10
-6.9288958388
 20
10.6878203523
 30
0.0
 10
-6.9453143845
 20
10.6875457207
 30
0.0
 10
-6.9616722755
 20
10.6861037248
 30
0.0
 10
-6.9778884955
 20
10.6835093371
 30
0.0
 10
-6.993882342
 20
10.6797795562
 30
0.0
 10
-7.0095768048
 20
10.6749341299
 30
0.0
 10
-7.0299845204
 20
10.6670239494
 30
0.0
 10
-7.0446337963
 20
10.6594799397
 30
0.0
 10
-7.0539732459
 20
10.6537932373
 30
0.0
  0
SPLINE
  5
265
100
AcDbEntity
  8
0
100
AcDbSpline
 62
7
  6
CONTINUOUS
 70
0
 71
3
 72
36
 73
32
 74
0
 42
0.0000001
 43
0.0000001
 44
0.0000000001
 40
0.0
 40
0.0
 40
0.0
 40
0.0
 40
0.1249520747
 40
0.1874643401
 40
0.2499742461
 40
0.3124814958
 40
0.374983242
 40
0.4374812438
 40
0.4999758253
 40
0.5624672827
 40
0.6249558246
 40
0.6562048003
 40
0.687453345
 40
0.718701404
 40
0.7499489651
 40
0.7811959399
 40
0.8124420017
 40
0.8436860371
 40
0.8593109871
 40
0.8749363989
 40
0.8905631218
 40
0.8983794947
 40
0.9061995197
 40
0.9218265946
 40
0.9296485481
 40
0.9374712452
 40
0.9452956572
 40
0.9531167895
 40
0.9687436735
 40
0.9843740252
 40
1.0
 40
1.0
 40
1.0
 40
1.0
 10
-7.2822334237
 20
10.6363140902
 30
0.0
 10
-7.2739560817
 20
10.6434559932
 30
0.0
 10
-7.260747063
 20
10.6533016702
 30
0.0
 10
-7.2419191473
 20
10.6644544388
 30
0.0
 10
-7.2272364393
 20
10.6718107789
 30
0.0
 10
-7.2120753349
 20
10.6781161786
 30
0.0
 10
-7.1965085013
 20
10.6833385134
 30
0.0
 10
-7.180612706
 20
10.6874477651
 30
0.0
 10
-7.1644653576
 20
10.6904158474
 30
0.0
 10
-7.1481472373
 20
10.6922142237
 30
0.0
 10
-7.1344731961
 20
10.6927111039
 30
0.0
 10
-7.1235377383
 20
10.6924837454
 30
0.0
 10
-7.1153480547
 20
10.6919916481
 30
0.0
 10
-7.1071853122
 20
10.6911654052
 30
0.0
 10
-7.0990658281
 20
10.6899862593
 30
0.0
 10
-7.0910104877
 20
10.6884247191
 30
0.0
 10
-7.0830508975
 20
10.6864303885
 30
0.0
 10
-7.0765375371
 20
10.684333961
 30
0.0
 10
-7.0714579928
 20
10.6823038267
 30
0.0
 10
-7.0677414686
 20
10.6805628065
 30
0.0
 10
-7.0647592192
 20
10.678881935
 30
0.0
 10
-7.062487784
 20
10.6773549512
 30
0.0
 10
-7.0603144013
 20
10.6756925593
 30
0.0
 10
-7.0583284288
 20
10.6737869329
 30
0.0
 10
-7.0566537884
 20
10.6716171868
 30
0.0
 10
-7.0555882796
 20
10.6698564548
 30
0.0
 10
-7.0547323238
 20
10.6679848238
 30
0.0
 10
-7.0538900668
 20
10.6653758362
 30
0.0
 10
-7.0533677413
 20
10.6619735623
 30
0.0
 10
-7.0534103671
 20
10.6578604564
 30
0.0
 10
-7.0537487522
 20
10.6551418614
 30
0.0
 10
-7.0539732459
 20
10.6537932373
 30
0.0
  0
SPLINE
  5
266
100
AcDbEntity
  8
0
100
AcDbSpline
 62
7
  6
CONTINUOUS
 70
0
 71
3
 72
35
 73
31
 74
0
 42
0.0000001
 43
0.0000001
 44
0.0000000001
 40
0.0
 40
0.0
 40
0.0
 40
0.0
 40
0.1249539002
 40
0.1874668022
 40
0.2499770286
 40
0.312484464
 40
0.3749865119
 40
0.4374849331
 40
0.4999799987
 40
0.5624720048
 40
0.6249611591
 40
0.6874472321
 40
0.7186956398
 40
0.7499435665
 40
0.7811909347
 40
0.8124374691
 40
0.8280625039
 40
0.8436879406
 40
0.859313164
 40
0.8749386627
 40
0.890565697
 40
0.906194531
 40
0.9218224076
 40
0.9296440709
 40
0.9374683762
 40
0.9452938426
 40
0.9531157207
 40
0.9687436074
 40
0.9843732463
 40
1.0
 40
1.0
 40
1.0
 40
1.0
 10
-7.5045034872
 20
10.5814496204
 30
0.0
 10
-7.4975159637
 20
10.5898548044
 30
0.0
 10
-7.4861101552
 20
10.6017380282
 30
0.0
 10
-7.4693786598
 20
10.6158353177
 30
0.0
 10
-7.4561103162
 20
10.625506631
 30
0.0
 10
-7.4421973523
 20
10.6342204925
 30
0.0
 10
-7.4277061165
 20
10.6419333257
 30
0.0
 10
-7.4127072519
 20
10.6486029213
 30
0.0
 10
-7.3972726744
 20
10.6541887763
 30
0.0
 10
-7.3814764566
 20
10.658649759
 30
0.0
 10
-7.365396191
 20
10.6619395468
 30
0.0
 10
-7.3518231348
 20
10.6636560088
 30
0.0
 10
-7.3409104494
 20
10.6643628491
 30
0.0
 10
-7.3327091654
 20
10.66453803
 30
0.0
 10
-7.3245086952
 20
10.6643255104
 30
0.0
 10
-7.3176923707
 20
10.6637810803
 30
0.0
 10
-7.3122702371
 20
10.6630745346
 30
0.0
 10
-7.3082263834
 20
10.6623882804
 30
0.0
 10
-7.3042180376
 20
10.6615154703
 30
0.0
 10
-7.3002653627
 20
10.6604133293
 30
0.0
 10
-7.2964041602
 20
10.6590162239
 30
0.0
 10
-7.2927029383
 20
10.6572282676
 30
0.0
 10
-7.2898599124
 20
10.6552958178
 30
0.0
 10
-7.2878462959
 20
10.6534367022
 30
0.0
 10
-7.2865017139
 20
10.6518790404
 30
0.0
 10
-7.2853439825
 20
10.6501776541
 30
0.0
 10
-7.2840773766
 20
10.6477465598
 30
0.0
 10
-7.2829943916
 20
10.6444798049
 30
0.0
 10
-7.2823524932
 20
10.6404175553
 30
0.0
 10
-7.2822354556
 20
10.6376810402
 30
0.0
 10
-7.2822334237
 20
10.6363140902
 30
0.0
  0
SPLINE
  5
267
100
AcDbEntity
  8
0
100
AcDbSpline
 62
7
  6
CONTINUOUS
 70
0
 71
3
 72
35
 73
31
 74
0
 42
0.0000001
 43
0.0000001
 44
0.0000000001
 40
0.0
 40
0.0
 40
0.0
 40
0.0
 40
0.1249539002
 40
0.1874668022
 40
0.2499770286
 40
0.3124844639
 40
0.3749865119
 40
0.4374849331
 40
0.4999799987
 40
0.5624720047
 40
0.6249611591
 40
0.687447232
 40
0.7186956398
 40
0.7499435665
 40
0.7811909347
 40
0.8124374691
 40
0.8280625039
 40
0.8436879405
 40
0.859313164
 40
0.8749386626
 40
0.890565697
 40
0.906194531
 40
0.9218224076
 40
0.9296440709
 40
0.9374683761
 40
0.9452938426
 40
0.9531157207
 40
0.9687436073
 40
0.9843732463
 40
1.0
 40
1.0
 40
1.0
 40
1.0
 10
-7.7147118151
 20
10.4907492894
 30
0.0
 10
-7.7092030263
 20
10.5001899381
 30
0.0
 10
-7.6999086725
 20
10.5137884109
 30
0.0
 10
-7.6857256859
 20
10.5304473246
 30
0.0
 10
-7.6742301339
 20
10.5421706145
 30
0.0
 10
-7.6619411632
 20
10.5530556107
 30
0.0
 10
-7.6489170449
 20
10.5630484109
 30
0.0
 10
-7.6352205113
 20
10.5720957537
 30
0.0
 10
-7.620915831
 20
10.5801458518
 30
0.0
 10
-7.6060692963
 20
10.5871459428
 30
0.0
 10
-7.5907498172
 20
10.5930375644
 30
0.0
 10
-7.5776443944
 20
10.5969646484
 30
0.0
 10
-7.5669968823
 20
10.5994580017
 30
0.0
 10
-7.5589362847
 20
10.6009806684
 30
0.0
 10
-7.550812677
 20
10.6021207884
 30
0.0
 10
-7.5439997071
 20
10.6027057037
 30
0.0
 10
-7.5385352304
 20
10.6029012403
 30
0.0
 10
-7.534433576
 20
10.602889936
 30
0.0
 10
-7.5303362393
 20
10.602688776
 30
0.0
 10
-7.5262560679
 20
10.6022522497
 30
0.0
 10
-7.5222175722
 20
10.6015097261
 30
0.0
 10
-7.518272544
 20
10.6003553504
 30
0.0
 10
-7.5151502245
 20
10.5989171988
 30
0.0
 10
-7.512858073
 20
10.5974148662
 30
0.0
 10
-7.5112754485
 20
10.5960997575
 30
0.0
 10
-7.5098534703
 20
10.59461213
 30
0.0
 10
-7.5082039974
 20
10.5924226668
 30
0.0
 10
-7.5065980973
 20
10.5893787173
 30
0.0
 10
-7.505296335
 20
10.5854775226
 30
0.0
 10
-7.504730482
 20
10.5827975929
 30
0.0
 10
-7.5045034872
 20
10.5814496204
 30
0.0
  0
SPLINE
  5
268
100
AcDbEntity
  8
0
100
AcDbSpline
 62
7
  6
CONTINUOUS
 70
0
 71
3
 72
35
 73
31
 74
0
 42
0.0000001
 43
0.0000001
 44
0.0000000001
 40
0.0
 40
0.0
 40
0.0
 40
0.0
 40
0.1249539002
 40
0.1874668022
 40
0.2499770286
 40
0.312484464
 40
0.3749865119
 40
0.4374849331
 40
0.4999799987
 40
0.5624720048
 40
0.6249611591
 40
0.6874472321
 40
0.7186956398
 40
0.7499435665
 40
0.7811909347
 40
0.8124374691
 40
0.8280625039
 40
0.8436879406
 40
0.859313164
 40
0.8749386627
 40
0.890565697
 40
0.906194531
 40
0.9218224076
 40
0.9296440709
 40
0.9374683762
 40
0.9452938426
 40
0.9531157207
 40
0.9687436074
 40
0.9843732463
 40
1.0
 40
1.0
 40
1.0
 40
1.0
 10
-7.9071245739
 20
10.3666871219
 30
0.0
 10
-7.9032447825
 20
10.3769057235
 30
0.0
 10
-7.8963154047
 20
10.3918485211
 30
0.0
 10
-7.885067795
 20
10.4106146552
 30
0.0
 10
-7.8756585977
 20
10.4240701466
 30
0.0
 10
-7.8653288253
 20
10.4368293686
 30
0.0
 10
-7.8541270822
 20
10.4488295629
 30
0.0
 10
-7.8421064787
 20
10.4600078694
 30
0.0
 10
-7.829321883
 20
10.470302629
 30
0.0
 10
-7.8158299991
 20
10.4796508872
 30
0.0
 10
-7.8016891746
 20
10.4879836374
 30
0.0
 10
-7.7894088605
 20
10.4940142248
 30
0.0
 10
-7.7793169529
 20
10.49822608
 30
0.0
 10
-7.7716169098
 20
10.501054699
 30
0.0
 10
-7.7637917516
 20
10.5035163597
 30
0.0
 10
-7.7571679731
 20
10.5052146657
 30
0.0
 10
-7.7518102074
 20
10.5063069509
 30
0.0
 10
-7.7477626326
 20
10.5069709049
 30
0.0
 10
-7.7436880677
 20
10.507446882
 30
0.0
 10
-7.7395916943
 20
10.5076878774
 30
0.0
 10
-7.7354860632
 20
10.5076201894
 30
0.0
 10
-7.7314048367
 20
10.5071308822
 30
0.0
 10
-7.728088391
 20
10.5062262571
 30
0.0
 10
-7.7255802272
 20
10.5051216864
 30
0.0
 10
-7.7238027294
 20
10.5040850029
 30
0.0
 10
-7.7221552915
 20
10.5028517122
 30
0.0
 10
-7.7201679443
 20
10.5009636018
 30
0.0
 10
-7.7180829329
 20
10.4982254872
 30
0.0
 10
-7.7161568147
 20
10.4945917599
 30
0.0
 10
-7.7151575811
 20
10.4920415159
 30
0.0
 10
-7.7147118151
 20
10.4907492894
 30
0.0
  0
SPLINE
  5
269
100
AcDbEntity
  8
0
100
AcDbSpline
 62
7
  6
CONTINUOUS
 70
0
 71
3
 72
35
 73
31
 74
0
 42
0.0000001
 43
0.0000001
 44
0.0000000001
 40
0.0
 40
0.0
 40
0.0
 40
0.0
 40
0.1249539004
 40
0.1874668027
 40
0.2499770292
 40
0.3124844646
 40
0.3749865124
 40
0.4374849334
 40
0.4999799988
 40
0.5624720047
 40
0.6249611589
 40
0.6874472317
 40
0.7186956394
 40
0.749943566
 40
0.7811909341
 40
0.8124374684
 40
0.8280625031
 40
0.8436879397
 40
0.8593131631
 40
0.8749386617
 40
0.8905656961
 40
0.9061945296
 40
0.9218224056
 40
0.9296440683
 40
0.9374683743
 40
0.9452938406
 40
0.9531157191
 40
0.9687436066
 40
0.9843732463
 40
1.0
 40
1.0
 40
1.0
 40
1.0
 10
-8.0764933383
 20
10.2126471504
 30
0.0
 10
-8.0743483729
 20
10.2233649732
 30
0.0
 10
-8.0699729831
 20
10.2392445022
 30
0.0
 10
-8.0619675504
 20
10.2596059746
 30
0.0
 10
-8.0549013615
 20
10.2744266433
 30
0.0
 10
-8.0468125516
 20
10.2887120589
 30
0.0
 10
-8.0377387327
 20
10.3023923191
 30
0.0
 10
-8.0277219443
 20
10.3153966797
 30
0.0
 10
-8.0168061576
 20
10.3276552913
 30
0.0
 10
-8.0050369413
 20
10.3390967253
 30
0.0
 10
-7.9924604893
 20
10.3496433123
 30
0.0
 10
-7.9813402531
 20
10.3576129073
 30
0.0
 10
-7.972079226
 20
10.363428378
 30
0.0
 10
-7.964949771
 20
10.3674857933
 30
0.0
 10
-7.9576365082
 20
10.3712018481
 30
0.0
 10
-7.9513825974
 20
10.3739672204
 30
0.0
 10
-7.946277686
 20
10.3759264599
 30
0.0
 10
-7.9423945962
 20
10.3772475617
 30
0.0
 10
-7.9384539446
 20
10.3783876927
 30
0.0
 10
-7.9344531056
 20
10.3792996362
 30
0.0
 10
-7.930392328
 20
10.3799086301
 30
0.0
 10
-7.9262862267
 20
10.3800977381
 30
0.0
 10
-7.9228661172
 20
10.3797513153
 30
0.0
 10
-7.9202103562
 20
10.3790746357
 30
0.0
 10
-7.9182864698
 20
10.3783446548
 30
0.0
 10
-7.9164585089
 20
10.3773993417
 30
0.0
 10
-7.9141874962
 20
10.3758640853
 30
0.0
 10
-7.9116802457
 20
10.3735064933
 30
0.0
 10
-7.9091823103
 20
10.3702393501
 30
0.0
 10
-7.9077769519
 20
10.3678883544
 30
0.0
 10
-7.9071245739
 20
10.3666871219
 30
0.0
  0
SPLINE
  5
26A
100
AcDbEntity
  8
0
100
AcDbSpline
 62
7
  6
CONTINUOUS
 70
0
 71
3
 72
35
 73
31
 74
0
 42
0.0000001
 43
0.0000001
 44
0.0000000001
 40
0.0
 40
0.0
 40
0.0
 40
0.0
 40
0.1249539002
 40
0.1874668022
 40
0.2499770286
 40
0.3124844639
 40
0.3749865119
 40
0.4374849331
 40
0.4999799987
 40
0.5624720048
 40
0.6249611591
 40
0.6874472321
 40
0.7186956398
 40
0.7499435665
 40
0.7811909347
 40
0.8124374691
 40
0.8280625039
 40
0.8436879406
 40
0.859313164
 40
0.8749386627
 40
0.890565697
 40
0.906194531
 40
0.9218224076
 40
0.9296440709
 40
0.9374683762
 40
0.9452938426
 40
0.9531157207
 40
0.9687436074
 40
0.9843732463
 40
1.0
 40
1.0
 40
1.0
 40
1.0
 10
-8.2181982517
 20
10.0328311092
 30
0.0
 10
-8.2178466205
 20
10.043755804
 30
0.0
 10
-8.2161445658
 20
10.0601389199
 30
0.0
 10
-8.2115996735
 20
10.0815403326
 30
0.0
 10
-8.207069237
 20
10.0973219164
 30
0.0
 10
-8.2014420274
 20
10.1127438636
 30
0.0
 10
-8.1947436383
 20
10.1277310347
 30
0.0
 10
-8.1870038919
 20
10.1422067305
 30
0.0
 10
-8.178254663
 20
10.1560948173
 30
0.0
 10
-8.1685291422
 20
10.1693173401
 30
0.0
 10
-8.1578601094
 20
10.1817900857
 30
0.0
 10
-8.1482032767
 20
10.1914813023
 30
0.0
 10
-8.1400257423
 20
10.1987417606
 30
0.0
 10
-8.1336613447
 20
10.2039172985
 30
0.0
 10
-8.1270594607
 20
10.2087863849
 30
0.0
 10
-8.1213460048
 20
10.2125433926
 30
0.0
 10
-8.1166331939
 20
10.2153161445
 30
0.0
 10
-8.1130205077
 20
10.2172583585
 30
0.0
 10
-8.1093212582
 20
10.219031544
 30
0.0
 10
-8.1055250841
 20
10.2205895607
 30
0.0
 10
-8.1016199254
 20
10.221858625
 30
0.0
 10
-8.0976009508
 20
10.22272099
 30
0.0
 10
-8.0941704673
 20
10.2229422181
 30
0.0
 10
-8.0914395499
 20
10.2227118875
 30
0.0
 10
-8.0894217525
 20
10.222308521
 30
0.0
 10
-8.0874631303
 20
10.2216769699
 30
0.0
 10
-8.0849703979
 20
10.2205364458
 30
0.0
 10
-8.0821092995
 20
10.2186236835
 30
0.0
 10
-8.0791076827
 20
10.2158122423
 30
0.0
 10
-8.0773345335
 20
10.2137246229
 30
0.0
 10
-8.0764933383
 20
10.2126471504
 30
0.0
  0
SPLINE
  5
26B
100
AcDbEntity
  8
0
100
AcDbSpline
 62
7
  6
CONTINUOUS
 70
0
 71
3
 72
35
 73
31
 74
0
 42
0.0000001
 43
0.0000001
 44
0.0000000001
 40
0.0
 40
0.0
 40
0.0
 40
0.0
 40
0.1249539002
 40
0.1874668022
 40
0.2499770286
 40
0.3124844639
 40
0.3749865119
 40
0.4374849331
 40
0.4999799987
 40
0.5624720048
 40
0.6249611591
 40
0.6874472321
 40
0.7186956398
 40
0.7499435665
 40
0.7811909347
 40
0.8124374691
 40
0.8280625039
 40
0.8436879406
 40
0.8593131641
 40
0.8749386627
 40
0.890565697
 40
0.9061945311
 40
0.9218224077
 40
0.929644071
 40
0.9374683762
 40
0.9452938427
 40
0.9531157208
 40
0.9687436074
 40
0.9843732463
 40
1.0
 40
1.0
 40
1.0
 40
1.0
 10
-8.3283740422
 20
9.8321438242
 30
0.0
 10
-8.3298253365
 20
9.8429773991
 30
0.0
 10
-8.3308430437
 20
9.8594172211
 30
0.0
 10
-8.3298826624
 20
9.8812748097
 30
0.0
 10
-8.3280115545
 20
9.8975868359
 30
0.0
 10
-8.3249994381
 20
9.9137246517
 30
0.0
 10
-8.3208591902
 20
9.9296099298
 30
0.0
 10
-8.3156076022
 20
9.9451621087
 30
0.0
 10
-8.3092635832
 20
9.9603008465
 30
0.0
 10
-8.30184704
 20
9.9749437885
 30
0.0
 10
-8.2933764447
 20
9.9890024748
 30
0.0
 10
-8.285446424
 20
10.0001509666
 30
0.0
 10
-8.2785754402
 20
10.0086583696
 30
0.0
 10
-8.2731497011
 20
10.0148108572
 30
0.0
 10
-8.2674392748
 20
10.0207001616
 30
0.0
 10
-8.2624221194
 20
10.0253463252
 30
0.0
 10
-8.2582299599
 20
10.0288569574
 30
0.0
 10
-8.2549862202
 20
10.031367306
 30
0.0
 10
-8.2516292769
 20
10.0337251791
 30
0.0
 10
-8.2481413157
 20
10.0358867711
 30
0.0
 10
-8.2444982966
 20
10.0377812896
 30
0.0
 10
-8.2406760739
 20
10.039293389
 30
0.0
 10
-8.2373287895
 20
10.0400762339
 30
0.0
 10
-8.2345972068
 20
10.040298535
 30
0.0
 10
-8.2325405376
 20
10.0402327854
 30
0.0
 10
-8.2305046791
 20
10.0399322234
 30
0.0
 10
-8.2278582213
 20
10.039217541
 30
0.0
 10
-8.2247213162
 20
10.0378017829
 30
0.0
 10
-8.2212978929
 20
10.035522731
 30
0.0
 10
-8.2192053189
 20
10.0337554317
 30
0.0
 10
-8.2181982517
 20
10.0328311092
 30
0.0
  0
SPLINE
  5
26C
100
AcDbEntity
  8
0
100
AcDbSpline
 62
7
  6
CONTINUOUS
 70
0
 71
3
 72
35
 73
31
 74
0
 42
0.0000001
 43
0.0000001
 44
0.0000000001
 40
0.0
 40
0.0
 40
0.0
 40
0.0
 40
0.1249539002
 40
0.1874668022
 40
0.2499770286
 40
0.312484464
 40
0.3749865119
 40
0.4374849331
 40
0.4999799987
 40
0.5624720048
 40
0.6249611591
 40
0.6874472321
 40
0.7186956398
 40
0.7499435665
 40
0.7811909347
 40
0.8124374691
 40
0.8280625039
 40
0.8436879406
 40
0.859313164
 40
0.8749386627
 40
0.890565697
 40
0.906194531
 40
0.9218224076
 40
0.9296440709
 40
0.9374683762
 40
0.9452938426
 40
0.9531157207
 40
0.9687436074
 40
0.9843732463
 40
1.0
 40
1.0
 40
1.0
 40
1.0
 10
-8.4040154546
 20
9.6160594243
 30
0.0
 10
-8.4072300876
 20
9.6265063729
 30
0.0
 10
-8.4109397968
 20
9.6425544735
 30
0.0
 10
-8.4135901228
 20
9.6642720305
 30
0.0
 10
-8.4144293815
 20
9.6806695574
 30
0.0
 10
-8.4141145195
 20
9.6970830521
 30
0.0
 10
-8.412645346
 20
9.7134331359
 30
0.0
 10
-8.4100251636
 20
9.7296375825
 30
0.0
 10
-8.4062593995
 20
9.7456140333
 30
0.0
 10
-8.4013541343
 20
9.7612779803
 30
0.0
 10
-8.3953130282
 20
9.7765391298
 30
0.0
 10
-8.389326126
 20
9.7888408004
 30
0.0
 10
-8.3839491119
 20
9.7983630923
 30
0.0
 10
-8.3796100289
 20
9.805324709
 30
0.0
 10
-8.3749468231
 20
9.8120735894
 30
0.0
 10
-8.3707628205
 20
9.8174821758
 30
0.0
 10
-8.3672056616
 20
9.8216349291
 30
0.0
 10
-8.3644193477
 20
9.8246449378
 30
0.0
 10
-8.3614962777
 20
9.8275231829
 30
0.0
 10
-8.35841167
 20
9.8302293886
 30
0.0
 10
-8.3551301608
 20
9.8326976848
 30
0.0
 10
-8.3516089485
 20
9.8348182732
 30
0.0
 10
-8.3484361669
 20
9.8361413813
 30
0.0
 10
-8.3457784279
 20
9.8368102503
 30
0.0
 10
-8.3437389866
 20
9.8370839111
 30
0.0
 10
-8.3416814236
 20
9.8371225366
 30
0.0
 10
-8.3389534276
 20
9.8368531902
 30
0.0
 10
-8.335626281
 20
9.8359730539
 30
0.0
 10
-8.3318744315
 20
9.8342885568
 30
0.0
 10
-8.3295195117
 20
9.832889784
 30
0.0
 10
-8.3283740422
 20
9.8321438242
 30
0.0
  0
SPLINE
  5
26D
100
AcDbEntity
  8
0
100
AcDbSpline
 62
7
  6
CONTINUOUS
 70
0
 71
3
 72
35
 73
31
 74
0
 42
0.0000001
 43
0.0000001
 44
0.0000000001
 40
0.0
 40
0.0
 40
0.0
 40
0.0
 40
0.1249538992
 40
0.1874668001
 40
0.2499770255
 40
0.3124844603
 40
0.3749865083
 40
0.4374849295
 40
0.499979995
 40
0.5624720011
 40
0.6249611555
 40
0.6874472285
 40
0.7186956363
 40
0.749943563
 40
0.7811909313
 40
0.8124374658
 40
0.8280625005
 40
0.8436879372
 40
0.8593131607
 40
0.8749386593
 40
0.8905656936
 40
0.9061945286
 40
0.9218224061
 40
0.9296440693
 40
0.9374683751
 40
0.9452938415
 40
0.9531157197
 40
0.9687436064
 40
0.984373246
 40
1.0
 40
1.0
 40
1.0
 40
1.0
 10
-8.443059225
 20
9.390472024
 30
0.0
 10
-8.4479495115
 20
9.4002473857
 30
0.0
 10
-8.4542500332
 20
9.4154660222
 30
0.0
 10
-8.4604387737
 20
9.4364511596
 30
0.0
 10
-8.4639655066
 20
9.4524869131
 30
0.0
 10
-8.4663564875
 20
9.468728377
 30
0.0
 10
-8.467598463
 20
9.4850972868
 30
0.0
 10
-8.4676811566
 20
9.5015119938
 30
0.0
 10
-8.466596366
 20
9.5178903694
 30
0.0
 10
-8.4643361794
 20
9.5341480575
 30
0.0
 10
-8.4608893452
 20
9.5501953931
 30
0.0
 10
-8.4570088658
 20
9.563314691
 30
0.0
 10
-8.4532724899
 20
9.5735921332
 30
0.0
 10
-8.4501384196
 20
9.5811729875
 30
0.0
 10
-8.4466496321
 20
9.5885973554
 30
0.0
 10
-8.4434129093
 20
9.5946208352
 30
0.0
 10
-8.4405877791
 20
9.5993024353
 30
0.0
 10
-8.4383348931
 20
9.6027300003
 30
0.0
 10
-8.4359254287
 20
9.606050108
 30
0.0
 10
-8.4333283132
 20
9.6092271104
 30
0.0
 10
-8.4304978233
 20
9.6122018568
 30
0.0
 10
-8.4273736693
 20
9.6148730914
 30
0.0
 10
-8.4244619338
 20
9.6167003726
 30
0.0
 10
-8.4219505335
 20
9.6177975649
 30
0.0
 10
-8.4199839497
 20
9.6184031713
 30
0.0
 10
-8.4179608061
 20
9.6187799312
 30
0.0
 10
-8.4152256831
 20
9.6189632673
 30
0.0
 10
-8.4117990492
 20
9.6186427606
 30
0.0
 10
-8.4078211124
 20
9.617598766
 30
0.0
 10
-8.4052680815
 20
9.6166066739
 30
0.0
 10
-8.4040154546
 20
9.6160594243
 30
0.0
  0
SPLINE
  5
26E
100
AcDbEntity
  8
0
100
AcDbSpline
 62
7
  6
CONTINUOUS
 70
0
 71
3
 72
35
 73
31
 74
0
 42
0.0000001
 43
0.0000001
 44
0.0000000001
 40
0.0
 40
0.0
 40
0.0
 40
0.0
 40
0.1249539002
 40
0.1874668022
 40
0.2499770286
 40
0.312484464
 40
0.3749865119
 40
0.4374849331
 40
0.4999799987
 40
0.5624720048
 40
0.6249611591
 40
0.6874472321
 40
0.7186956398
 40
0.7499435665
 40
0.7811909347
 40
0.8124374691
 40
0.8280625039
 40
0.8436879406
 40
0.859313164
 40
0.8749386627
 40
0.890565697
 40
0.906194531
 40
0.9218224076
 40
0.9296440709
 40
0.9374683762
 40
0.9452938426
 40
0.9531157207
 40
0.9687436074
 40
0.9843732463
 40
1.0
 40
1.0
 40
1.0
 40
1.0
 10
-8.4444403601
 20
9.1615349505
 30
0.0
 10
-8.4508729081
 20
9.1703720839
 30
0.0
 10
-8.4595923837
 20
9.1843461392
 30
0.0
 10
-8.4691507291
 20
9.2040264477
 30
0.0
 10
-8.4752687379
 20
9.2192630225
 30
0.0
 10
-8.4803003431
 20
9.2348894391
 30
0.0
 10
-8.4842195902
 20
9.2508306816
 30
0.0
 10
-8.4870029041
 20
9.2670079066
 30
0.0
 10
-8.4886286766
 20
9.2833414556
 30
0.0
 10
-8.4890752193
 20
9.2997494251
 30
0.0
 10
-8.4883166758
 20
9.3161452251
 30
0.0
 10
-8.4866484666
 20
9.3297242963
 30
0.0
 10
-8.4846546455
 20
9.340476552
 30
0.0
 10
-8.4828110756
 20
9.3484698616
 30
0.0
 10
-8.4805918698
 20
9.356367203
 30
0.0
 10
-8.4783907142
 20
9.3628412742
 30
0.0
 10
-8.4763746738
 20
9.3679240216
 30
0.0
 10
-8.4747166673
 20
9.3716756494
 30
0.0
 10
-8.4728865311
 20
9.3753470572
 30
0.0
 10
-8.4708477491
 20
9.3789081977
 30
0.0
 10
-8.4685454856
 20
9.3823082523
 30
0.0
 10
-8.465903607
 20
9.3854572693
 30
0.0
 10
-8.4633323412
 20
9.3877388808
 30
0.0
 10
-8.4610357829
 20
9.3892344683
 30
0.0
 10
-8.4591956989
 20
9.3901555015
 30
0.0
 10
-8.45726216
 20
9.3908601181
 30
0.0
 10
-8.4545945158
 20
9.3914911366
 30
0.0
 10
-8.4511618626
 20
9.3917390012
 30
0.0
 10
-8.4470663445
 20
9.3913639862
 30
0.0
 10
-8.4443848416
 20
9.3908056362
 30
0.0
 10
-8.443059225
 20
9.390472024
 30
0.0
  0
SPLINE
  5
26F
100
AcDbEntity
  8
0
100
AcDbSpline
 62
7
  6
CONTINUOUS
 70
0
 71
3
 72
35
 73
31
 74
0
 42
0.0000001
 43
0.0000001
 44
0.0000000001
 40
0.0
 40
0.0
 40
0.0
 40
0.0
 40
0.1249539022
 40
0.1874668053
 40
0.2499770327
 40
0.3124844691
 40
0.3749865181
 40
0.4374849403
 40
0.4999800069
 40
0.562472014
 40
0.6249611694
 40
0.6874472434
 40
0.7186956516
 40
0.7499435788
 40
0.7811909475
 40
0.8124374825
 40
0.8280625175
 40
0.8436879544
 40
0.8593131782
 40
0.874938677
 40
0.8905657116
 40
0.9061945459
 40
0.9218224229
 40
0.9296440862
 40
0.9374683909
 40
0.9452938578
 40
0.9531157385
 40
0.9687436153
 40
0.9843732157
 40
1.0
 40
1.0
 40
1.0
 40
1.0
 10
-8.4081211867
 20
8.9354928995
 30
0.0
 10
-8.4159205363
 20
8.9431507549
 30
0.0
 10
-8.4268211256
 20
8.95549906
 30
0.0
 10
-8.4394883539
 20
8.9733377218
 30
0.0
 10
-8.4480307583
 20
8.9873595112
 30
0.0
 10
-8.4555657412
 20
9.0019446402
 30
0.0
 10
-8.462055355
 20
9.017023388
 30
0.0
 10
-8.467463369
 20
9.0325218665
 30
0.0
 10
-8.4717553585
 20
9.0483650605
 30
0.0
 10
-8.4748964502
 20
9.0644757531
 30
0.0
 10
-8.4768468882
 20
9.080772791
 30
0.0
 10
-8.4774364525
 20
9.0944412407
 30
0.0
 10
-8.4772395714
 20
9.1053750217
 30
0.0
 10
-8.4767367888
 20
9.113562754
 30
0.0
 10
-8.4758476976
 20
9.121717654
 30
0.0
 10
-8.4747421499
 20
9.1284657241
 30
0.0
 10
-8.4735901903
 20
9.1338109771
 30
0.0
 10
-8.4725722884
 20
9.1377843351
 30
0.0
 10
-8.4713714008
 20
9.1417068984
 30
0.0
 10
-8.4699465637
 20
9.14555504
 30
0.0
 10
-8.4682353248
 20
9.1492876598
 30
0.0
 10
-8.4661477835
 20
9.152828564
 30
0.0
 10
-8.4639871229
 20
9.1555022703
 30
0.0
 10
-8.4619680492
 20
9.1573554576
 30
0.0
 10
-8.4603046566
 20
9.1585667941
 30
0.0
 10
-8.4585134627
 20
9.1595800476
 30
0.0
 10
-8.455986063
 20
9.1606415362
 30
0.0
 10
-8.4526410258
 20
9.1614510056
 30
0.0
 10
-8.4485396416
 20
9.1617552075
 30
0.0
 10
-8.4458028103
 20
9.1616458256
 30
0.0
 10
-8.4444403601
 20
9.1615349505
 30
0.0
  0
SPLINE
  5
270
100
AcDbEntity
  8
0
100
AcDbSpline
 62
7
  6
CONTINUOUS
 70
0
 71
3
 72
35
 73
31
 74
0
 42
0.0000001
 43
0.0000001
 44
0.0000000001
 40
0.0
 40
0.0
 40
0.0
 40
0.0
 40
0.1249539002
 40
0.1874668022
 40
0.2499770286
 40
0.312484464
 40
0.3749865119
 40
0.4374849331
 40
0.4999799987
 40
0.5624720048
 40
0.6249611591
 40
0.6874472321
 40
0.7186956398
 40
0.7499435665
 40
0.7811909347
 40
0.8124374691
 40
0.8280625039
 40
0.8436879406
 40
0.859313164
 40
0.8749386627
 40
0.890565697
 40
0.906194531
 40
0.9218224076
 40
0.9296440709
 40
0.9374683762
 40
0.9452938426
 40
0.9531157207
 40
0.9687436074
 40
0.9843732463
 40
1.0
 40
1.0
 40
1.0
 40
1.0
 10
-8.3350923796
 20
8.7185115996
 30
0.0
 10
-8.3440457885
 20
8.7247812941
 30
0.0
 10
-8.3568301566
 20
8.7351670251
 30
0.0
 10
-8.3722607447
 20
8.7506774559
 30
0.0
 10
-8.3829945341
 20
8.7631019883
 30
0.0
 10
-8.3928273636
 20
8.7762479919
 30
0.0
 10
-8.4017103275
 20
8.7900529427
 30
0.0
 10
-8.4095955278
 20
8.8044499236
 30
0.0
 10
-8.4164366623
 20
8.8193706085
 30
0.0
 10
-8.4221866239
 20
8.8347445737
 30
0.0
 10
-8.4267928417
 20
8.8504983162
 30
0.0
 10
-8.4296240984
 20
8.8638833109
 30
0.0
 10
-8.431229528
 20
8.874700377
 30
0.0
 10
-8.4320812472
 20
8.8828591957
 30
0.0
 10
-8.4325465226
 20
8.8910492137
 30
0.0
 10
-8.4325667391
 20
8.897887216
 30
0.0
 10
-8.4323102826
 20
8.9033491726
 30
0.0
 10
-8.431960251
 20
8.9074358797
 30
0.0
 10
-8.4314213689
 20
8.9115026031
 30
0.0
 10
-8.4306493423
 20
8.9155327804
 30
0.0
 10
-8.429575806
 20
8.9194961513
 30
0.0
 10
-8.4280995445
 20
8.9233323581
 30
0.0
 10
-8.4264084263
 20
8.9263252292
 30
0.0
 10
-8.4247219119
 20
8.928485468
 30
0.0
 10
-8.4232805835
 20
8.9299540671
 30
0.0
 10
-8.4216805939
 20
8.93124832
 30
0.0
 10
-8.419362377
 20
8.932711324
 30
0.0
 10
-8.4161961921
 20
8.93406033
 30
0.0
 10
-8.4122008104
 20
8.9350354352
 30
0.0
 10
-8.4094833017
 20
8.9353780127
 30
0.0
 10
-8.4081211867
 20
8.9354928995
 30
0.0
  0
SPLINE
  5
271
100
AcDbEntity
  8
0
100
AcDbSpline
 62
7
  6
CONTINUOUS
 70
0
 71
3
 72
35
 73
31
 74
0
 42
0.0000001
 43
0.0000001
 44
0.0000000001
 40
0.0
 40
0.0
 40
0.0
 40
0.0
 40
0.1249539002
 40
0.1874668022
 40
0.2499770286
 40
0.312484464
 40
0.3749865119
 40
0.4374849332
 40
0.4999799987
 40
0.5624720048
 40
0.6249611591
 40
0.6874472321
 40
0.7186956398
 40
0.7499435665
 40
0.7811909347
 40
0.8124374691
 40
0.8280625039
 40
0.8436879406
 40
0.8593131641
 40
0.8749386627
 40
0.890565697
 40
0.9061945311
 40
0.9218224076
 40
0.9296440709
 40
0.9374683762
 40
0.9452938426
 40
0.9531157208
 40
0.9687436074
 40
0.9843732463
 40
1.0
 40
1.0
 40
1.0
 40
1.0
 10
-8.227345939
 20
8.5165096301
 30
0.0
 10
-8.2372091859
 20
8.5212201459
 30
0.0
 10
-8.2515286151
 20
8.5293600122
 30
0.0
 10
-8.2693016644
 20
8.5421191358
 30
0.0
 10
-8.2819340543
 20
8.5526075087
 30
0.0
 10
-8.2937965212
 20
8.5639558049
 30
0.0
 10
-8.3048305353
 20
8.5761104025
 30
0.0
 10
-8.314977838
 20
8.589013181
 30
0.0
 10
-8.3241815124
 20
8.602604367
 30
0.0
 10
-8.3323835026
 20
8.6168222508
 30
0.0
 10
-8.3395198566
 20
8.6316029848
 30
0.0
 10
-8.3445155778
 20
8.6443394233
 30
0.0
 10
-8.3478795266
 20
8.6547447187
 30
0.0
 10
-8.3500625153
 20
8.6626520766
 30
0.0
 10
-8.3518694659
 20
8.6706538142
 30
0.0
 10
-8.3530148949
 20
8.6773952293
 30
0.0
 10
-8.3536609367
 20
8.6828249042
 30
0.0
 10
-8.3539883229
 20
8.6869134878
 30
0.0
 10
-8.3541261451
 20
8.6910134437
 30
0.0
 10
-8.3540279873
 20
8.6951157258
 30
0.0
 10
-8.353621436
 20
8.6992017391
 30
0.0
 10
-8.3527967218
 20
8.7032286086
 30
0.0
 10
-8.3516212739
 20
8.706459008
 30
0.0
 10
-8.3503133214
 20
8.7088673731
 30
0.0
 10
-8.3491333718
 20
8.7105531756
 30
0.0
 10
-8.3477682287
 20
8.7120931243
 30
0.0
 10
-8.3457224292
 20
8.7139177377
 30
0.0
 10
-8.3428214633
 20
8.7157694777
 30
0.0
 10
-8.3390410681
 20
8.7173888963
 30
0.0
 10
-8.3364170079
 20
8.7181740849
 30
0.0
 10
-8.3350923796
 20
8.7185115996
 30
0.0
  0
SPLINE
  5
272
100
AcDbEntity
  8
0
100
AcDbSpline
 62
7
  6
CONTINUOUS
 70
0
 71
3
 72
35
 73
31
 74
0
 42
0.0000001
 43
0.0000001
 44
0.0000000001
 40
0.0
 40
0.0
 40
0.0
 40
0.0
 40
0.1249539002
 40
0.1874668022
 40
0.2499770286
 40
0.3124844639
 40
0.3749865119
 40
0.4374849331
 40
0.4999799987
 40
0.5624720048
 40
0.6249611591
 40
0.6874472321
 40
0.7186956398
 40
0.7499435665
 40
0.7811909347
 40
0.8124374691
 40
0.8280625039
 40
0.8436879406
 40
0.859313164
 40
0.8749386627
 40
0.890565697
 40
0.9061945311
 40
0.9218224076
 40
0.9296440709
 40
0.9374683762
 40
0.9452938426
 40
0.9531157208
 40
0.9687436074
 40
0.9843732463
 40
1.0
 40
1.0
 40
1.0
 40
1.0
 10
-8.0878208547
 20
8.3349969803
 30
0.0
 10
-8.0983249009
 20
8.3380198292
 30
0.0
 10
-8.1137888013
 20
8.3436918005
 30
0.0
 10
-8.1334195178
 20
8.3533515873
 30
0.0
 10
-8.1476059357
 20
8.3616177103
 30
0.0
 10
-8.1611744686
 20
8.3708587525
 30
0.0
 10
-8.1740585592
 20
8.3810314572
 30
0.0
 10
-8.1861911772
 20
8.3920880853
 30
0.0
 10
-8.1975063437
 20
8.4039790469
 30
0.0
 10
-8.2079366376
 20
8.4166530294
 30
0.0
 10
-8.2174084702
 20
8.4300575821
 30
0.0
 10
-8.2244323879
 20
8.4417980539
 30
0.0
 10
-8.2294630979
 20
8.4515077542
 30
0.0
 10
-8.2329178109
 20
8.458947963
 30
0.0
 10
-8.2360171485
 20
8.4665431576
 30
0.0
 10
-8.2382565463
 20
8.4730041004
 30
0.0
 10
-8.2397874644
 20
8.4782533889
 30
0.0
 10
-8.2407833383
 20
8.482232325
 30
0.0
 10
-8.2415941055
 20
8.4862536792
 30
0.0
 10
-8.2421724939
 20
8.4903161687
 30
0.0
 10
-8.2424440172
 20
8.4944133706
 30
0.0
 10
-8.2422933458
 20
8.4985210621
 30
0.0
 10
-8.2416656308
 20
8.5019008746
 30
0.0
 10
-8.2407719172
 20
8.5044916733
 30
0.0
 10
-8.2398855318
 20
8.5063486956
 30
0.0
 10
-8.2387924721
 20
8.508092335
 30
0.0
 10
-8.237074893
 20
8.5102287881
 30
0.0
 10
-8.2345182754
 20
8.5125327523
 30
0.0
 10
-8.2310559842
 20
8.5147523117
 30
0.0
 10
-8.2285969488
 20
8.5159586938
 30
0.0
 10
-8.227345939
 20
8.5165096301
 30
0.0
  0
SPLINE
  5
273
100
AcDbEntity
  8
0
100
AcDbSpline
 62
7
  6
CONTINUOUS
 70
0
 71
3
 72
35
 73
31
 74
0
 42
0.0000001
 43
0.0000001
 44
0.0000000001
 40
0.0
 40
0.0
 40
0.0
 40
0.0
 40
0.1249539002
 40
0.1874668024
 40
0.2499770288
 40
0.3124844642
 40
0.3749865121
 40
0.4374849332
 40
0.4999799987
 40
0.5624720047
 40
0.624961159
 40
0.6874472319
 40
0.7186956396
 40
0.7499435663
 40
0.7811909345
 40
0.8124374688
 40
0.8280625036
 40
0.8436879402
 40
0.8593131637
 40
0.8749386623
 40
0.8905656966
 40
0.9061945305
 40
0.9218224068
 40
0.9296440698
 40
0.9374683754
 40
0.9452938418
 40
0.9531157201
 40
0.9687436071
 40
0.9843732463
 40
1.0
 40
1.0
 40
1.0
 40
1.0
 10
-7.92032294
 20
8.1789247543
 30
0.0
 10
-7.9311812673
 20
8.1801774823
 30
0.0
 10
-7.9473678317
 20
8.1832268447
 30
0.0
 10
-7.9683207502
 20
8.1895238057
 30
0.0
 10
-7.9836742345
 20
8.1953422045
 30
0.0
 10
-7.9985787257
 20
8.2022239258
 30
0.0
 10
-8.0129614546
 20
8.2101372575
 30
0.0
 10
-8.0267484476
 20
8.2190461446
 30
0.0
 10
-8.0398664634
 20
8.228912533
 30
0.0
 10
-8.0522405547
 20
8.2396969072
 30
0.0
 10
-8.0637895036
 20
8.2513596438
 30
0.0
 10
-8.072650027
 20
8.261783905
 30
0.0
 10
-8.0792102759
 20
8.2705331597
 30
0.0
 10
-8.0838424793
 20
8.2773032734
 30
0.0
 10
-8.0881496637
 20
8.2842847516
 30
0.0
 10
-8.0914219465
 20
8.2902889876
 30
0.0
 10
-8.0937959821
 20
8.2952147053
 30
0.0
 10
-8.0954331794
 20
8.2989754608
 30
0.0
 10
-8.0968947763
 20
8.3028085233
 30
0.0
 10
-8.0981339342
 20
8.3067204079
 30
0.0
 10
-8.0990761257
 20
8.3107170394
 30
0.0
 10
-8.0996036071
 20
8.3147935078
 30
0.0
 10
-8.0995407472
 20
8.3182305423
 30
0.0
 10
-8.0990856502
 20
8.3209331057
 30
0.0
 10
-8.0985170068
 20
8.3229106941
 30
0.0
 10
-8.097725846
 20
8.3248104631
 30
0.0
 10
-8.0963833373
 20
8.32720048
 30
0.0
 10
-8.094240805
 20
8.3298938235
 30
0.0
 10
-8.0911910581
 20
8.332652981
 30
0.0
 10
-8.0889641224
 20
8.3342476503
 30
0.0
 10
-8.0878208547
 20
8.3349969803
 30
0.0
  0
SPLINE
  5
274
100
AcDbEntity
  8
0
100
AcDbSpline
 62
7
  6
CONTINUOUS
 70
0
 71
3
 72
35
 73
31
 74
0
 42
0.0000001
 43
0.0000001
 44
0.0000000001
 40
0.0
 40
0.0
 40
0.0
 40
0.0
 40
0.1249539002
 40
0.1874668022
 40
0.2499770286
 40
0.3124844639
 40
0.3749865119
 40
0.4374849331
 40
0.4999799987
 40
0.5624720048
 40
0.6249611591
 40
0.6874472321
 40
0.7186956398
 40
0.7499435665
 40
0.7811909347
 40
0.8124374691
 40
0.8280625039
 40
0.8436879406
 40
0.8593131641
 40
0.8749386627
 40
0.890565697
 40
0.9061945311
 40
0.9218224076
 40
0.929644071
 40
0.9374683762
 40
0.9452938427
 40
0.9531157208
 40
0.9687436074
 40
0.9843732463
 40
1.0
 40
1.0
 40
1.0
 40
1.0
 10
-7.7294210201
 20
8.0525501202
 30
0.0
 10
-7.7403374471
 20
8.0519985567
 30
0.0
 10
-7.7568051558
 20
8.0523421331
 30
0.0
 10
-7.7785087455
 20
8.0551045066
 30
0.0
 10
-7.7946105004
 20
8.0583164732
 30
0.0
 10
-7.8104444015
 20
8.0626511614
 30
0.0
 10
-7.8259334524
 20
8.068089269
 30
0.0
 10
-7.8409987538
 20
8.0746074081
 30
0.0
 10
-7.8555618
 20
8.0821800989
 30
0.0
 10
-7.8695421619
 20
8.0907807003
 30
0.0
 10
-7.8828532075
 20
8.1003834974
 30
0.0
 10
-7.8933086489
 20
8.1092072065
 30
0.0
 10
-7.9012194935
 20
8.1167573629
 30
0.0
 10
-7.9069028351
 20
8.1226727138
 30
0.0
 10
-7.9123003796
 20
8.1288500424
 30
0.0
 10
-7.9165162895
 20
8.1342337946
 30
0.0
 10
-7.9196686863
 20
8.1387015832
 30
0.0
 10
-7.9219025493
 20
8.1421415764
 30
0.0
 10
-7.923975108
 20
8.145681793
 30
0.0
 10
-7.9258412352
 20
8.1493363686
 30
0.0
 10
-7.9274283948
 20
8.1531234141
 30
0.0
 10
-7.9286196409
 20
8.1570574659
 30
0.0
 10
-7.9291233505
 20
8.160457971
 30
0.0
 10
-7.9291192837
 20
8.1631985815
 30
0.0
 10
-7.9288838932
 20
8.1652427934
 30
0.0
 10
-7.9284162114
 20
8.167246872
 30
0.0
 10
-7.9274853931
 20
8.1698252605
 30
0.0
 10
-7.9258153872
 20
8.172834517
 30
0.0
 10
-7.9232613728
 20
8.1760580112
 30
0.0
 10
-7.9213272807
 20
8.17799747
 30
0.0
 10
-7.92032294
 20
8.1789247543
 30
0.0
  0
SPLINE
  5
275
100
AcDbEntity
  8
0
100
AcDbSpline
 62
7
  6
CONTINUOUS
 70
0
 71
3
 72
35
 73
31
 74
0
 42
0.0000001
 43
0.0000001
 44
0.0000000001
 40
0.0
 40
0.0
 40
0.0
 40
0.0
 40
0.1249539002
 40
0.1874668022
 40
0.2499770286
 40
0.312484464
 40
0.3749865119
 40
0.4374849331
 40
0.4999799987
 40
0.5624720048
 40
0.6249611591
 40
0.6874472321
 40
0.7186956398
 40
0.7499435665
 40
0.7811909347
 40
0.8124374691
 40
0.8280625039
 40
0.8436879406
 40
0.859313164
 40
0.8749386627
 40
0.890565697
 40
0.906194531
 40
0.9218224076
 40
0.9296440709
 40
0.9374683762
 40
0.9452938426
 40
0.9531157207
 40
0.9687436074
 40
0.9843732463
 40
1.0
 40
1.0
 40
1.0
 40
1.0
 10
-7.5203223095
 20
7.9593201873
 30
0.0
 10
-7.5309990697
 20
7.9569793773
 30
0.0
 10
-7.5472987346
 20
7.9546077959
 30
0.0
 10
-7.5691609886
 20
7.9537602329
 30
0.0
 10
-7.5855718082
 20
7.9542781549
 30
0.0
 10
-7.6019032193
 20
7.9559475731
 30
0.0
 10
-7.6180760987
 20
7.9587621218
 30
0.0
 10
-7.6340087736
 20
7.9627117183
 30
0.0
 10
-7.6496196153
 20
7.9677841518
 30
0.0
 10
-7.6648249067
 20
7.9739663826
 30
0.0
 10
-7.6795349647
 20
7.9812473056
 30
0.0
 10
-7.691300132
 20
7.988229779
 30
0.0
 10
-7.7003457889
 20
7.9943748921
 30
0.0
 10
-7.7069252447
 20
7.9992741278
 30
0.0
 10
-7.7132659209
 20
8.0044788084
 30
0.0
 10
-7.7183104611
 20
8.0090952247
 30
0.0
 10
-7.7221552313
 20
8.0129832166
 30
0.0
 10
-7.7249248272
 20
8.0160086151
 30
0.0
 10
-7.7275518148
 20
8.0191594197
 30
0.0
 10
-7.729994009
 20
8.0224570008
 30
0.0
 10
-7.7321828438
 20
8.0259311612
 30
0.0
 10
-7.7340053612
 20
8.0296154877
 30
0.0
 10
-7.7350619007
 20
8.0328867081
 30
0.0
 10
-7.7355089751
 20
8.0355906102
 30
0.0
 10
-7.7356132582
 20
8.0376456859
 30
0.0
 10
-7.7354818125
 20
8.0396994092
 30
0.0
 10
-7.7349880742
 20
8.0423958388
 30
0.0
 10
-7.7338361476
 20
8.0456389252
 30
0.0
 10
-7.7318475309
 20
8.0492388291
 30
0.0
 10
-7.7302590385
 20
8.051470175
 30
0.0
 10
-7.7294210201
 20
8.0525501202
 30
0.0
  0
SPLINE
  5
276
100
AcDbEntity
  8
0
100
AcDbSpline
 62
7
  6
CONTINUOUS
 70
0
 71
3
 72
35
 73
31
 74
0
 42
0.0000001
 43
0.0000001
 44
0.0000000001
 40
0.0
 40
0.0
 40
0.0
 40
0.0
 40
0.1249538985
 40
0.1874667983
 40
0.249977023
 40
0.3124844574
 40
0.3749865053
 40
0.4374849265
 40
0.4999799921
 40
0.5624719982
 40
0.6249611526
 40
0.6874472257
 40
0.7186956335
 40
0.7499435603
 40
0.7811909286
 40
0.8124374631
 40
0.8280624978
 40
0.8436879345
 40
0.8593131582
 40
0.8749386567
 40
0.8905656911
 40
0.9061945268
 40
0.9218224052
 40
0.9296440683
 40
0.9374683745
 40
0.9452938407
 40
0.9531157191
 40
0.9687436057
 40
0.9843732458
 40
1.0
 40
1.0
 40
1.0
 40
1.0
 10
-7.2987303747
 20
7.9017779801
 30
0.0
 10
-7.308876239
 20
7.8977117737
 30
0.0
 10
-7.3245632553
 20
7.892689724
 30
0.0
 10
-7.3459878384
 20
7.8882553435
 30
0.0
 10
-7.3622600857
 20
7.8860650934
 30
0.0
 10
-7.3786435362
 20
7.8850237051
 30
0.0
 10
-7.3950590978
 20
7.8851379225
 30
0.0
 10
-7.4114245522
 20
7.8864112435
 30
0.0
 10
-7.4276573739
 20
7.8888450592
 30
0.0
 10
-7.4436728414
 20
7.8924402872
 30
0.0
 10
-7.459380667
 20
7.8972007349
 30
0.0
 10
-7.4721346429
 20
7.9021515122
 30
0.0
 10
-7.4820683746
 20
7.9067239623
 30
0.0
 10
-7.4893644774
 20
7.9104734466
 30
0.0
 10
-7.4964753314
 20
7.9145635116
 30
0.0
 10
-7.5022109024
 20
7.9182866702
 30
0.0
 10
-7.5066431726
 20
7.9214888133
 30
0.0
 10
-7.5098729554
 20
7.9240170934
 30
0.0
 10
-7.512982716
 20
7.9266925415
 30
0.0
 10
-7.5159343615
 20
7.9295431805
 30
0.0
 10
-7.5186651671
 20
7.9326096916
 30
0.0
 10
-7.5210692437
 20
7.9359437956
 30
0.0
 10
-7.5226497942
 20
7.9389965027
 30
0.0
 10
-7.523535815
 20
7.9415899426
 30
0.0
 10
-7.5239769271
 20
7.943599826
 30
0.0
 10
-7.5241853035
 20
7.9456471748
 30
0.0
 10
-7.5241421122
 20
7.9483880952
 30
0.0
 10
-7.5235396864
 20
7.9517765503
 30
0.0
 10
-7.5221707108
 20
7.95565467
 30
0.0
 10
-7.520971147
 20
7.9581170388
 30
0.0
 10
-7.5203223095
 20
7.9593201873
 30
0.0
  0
SPLINE
  5
277
100
AcDbEntity
  8
0
100
AcDbSpline
 62
7
  6
CONTINUOUS
 70
0
 71
3
 72
35
 73
31
 74
0
 42
0.0000001
 43
0.0000001
 44
0.0000000001
 40
0.0
 40
0.0
 40
0.0
 40
0.0
 40
0.1249539
 40
0.1874668019
 40
0.2499770281
 40
0.3124844634
 40
0.3749865113
 40
0.4374849325
 40
0.4999799981
 40
0.5624720042
 40
0.6249611585
 40
0.6874472315
 40
0.7186956392
 40
0.7499435659
 40
0.7811909341
 40
0.8124374686
 40
0.8280625033
 40
0.84368794
 40
0.8593131635
 40
0.8749386621
 40
0.8905656964
 40
0.9061945306
 40
0.9218224073
 40
0.9296440706
 40
0.937468376
 40
0.9452938424
 40
0.9531157206
 40
0.9687436072
 40
0.9843732463
 40
1.0
 40
1.0
 40
1.0
 40
1.0
 10
-7.0706895589
 20
7.8814930722
 30
0.0
 10
-7.0800277797
 20
7.8758123828
 30
0.0
 10
-7.0946742548
 20
7.8682768507
 30
0.0
 10
-7.1150767714
 20
7.8603766088
 30
0.0
 10
-7.1307665907
 20
7.85553793
 30
0.0
 10
-7.1467551911
 20
7.851814141
 30
0.0
 10
-7.1629656693
 20
7.849224912
 30
0.0
 10
-7.1793175041
 20
7.8477872254
 30
0.0
 10
-7.1957295246
 20
7.8475160366
 30
0.0
 10
-7.2121183157
 20
7.8484261953
 30
0.0
 10
-7.2283954478
 20
7.8505363176
 30
0.0
 10
-7.2417903431
 20
7.8533203571
 30
0.0
 10
-7.2523411879
 20
7.8561954221
 30
0.0
 10
-7.2601549225
 20
7.8586928808
 30
0.0
 10
-7.267841992
 20
7.8615567659
 30
0.0
 10
-7.274112145
 20
7.8642851109
 30
0.0
 10
-7.2790110168
 20
7.8667140603
 30
0.0
 10
-7.2826128878
 20
7.8686762585
 30
0.0
 10
-7.2861205963
 20
7.8708033726
 30
0.0
 10
-7.2895011817
 20
7.8731293126
 30
0.0
 10
-7.2926994699
 20
7.8757045293
 30
0.0
 10
-7.2956195286
 20
7.8785974669
 30
0.0
 10
-7.2976809774
 20
7.8813483918
 30
0.0
 10
-7.2989817765
 20
7.8837606281
 30
0.0
 10
-7.2997476857
 20
7.8856704956
 30
0.0
 10
-7.3002901992
 20
7.8876556245
 30
0.0
 10
-7.3006987342
 20
7.8903662719
 30
0.0
 10
-7.3006622405
 20
7.8938076688
 30
0.0
 10
-7.2999502476
 20
7.8978582207
 30
0.0
 10
-7.2991723331
 20
7.9004844465
 30
0.0
 10
-7.2987303747
 20
7.9017779801
 30
0.0
  0
SPLINE
  5
278
100
AcDbEntity
  8
0
100
AcDbSpline
 62
7
  6
CONTINUOUS
 70
0
 71
3
 72
35
 73
31
 74
0
 42
0.0000001
 43
0.0000001
 44
0.0000000001
 40
0.0
 40
0.0
 40
0.0
 40
0.0
 40
0.1249539002
 40
0.1874668022
 40
0.2499770286
 40
0.312484464
 40
0.3749865119
 40
0.4374849331
 40
0.4999799987
 40
0.5624720048
 40
0.6249611591
 40
0.6874472321
 40
0.7186956398
 40
0.7499435665
 40
0.7811909347
 40
0.8124374691
 40
0.8280625039
 40
0.8436879406
 40
0.859313164
 40
0.8749386627
 40
0.890565697
 40
0.906194531
 40
0.9218224076
 40
0.9296440709
 40
0.9374683762
 40
0.9452938426
 40
0.9531157207
 40
0.9687436074
 40
0.9843732463
 40
1.0
 40
1.0
 40
1.0
 40
1.0
 10
-6.8424201107
 20
7.8990187731
 30
0.0
 10
-6.8506959701
 20
7.8918785524
 30
0.0
 10
-6.863902393
 20
7.882035084
 30
0.0
 10
-6.8827263253
 20
7.8708844748
 30
0.0
 10
-6.8974057464
 20
7.8635293515
 30
0.0
 10
-6.9125633768
 20
7.8572247354
 30
0.0
 10
-6.9281265999
 20
7.8520026859
 30
0.0
 10
-6.9440187876
 20
7.8478932073
 30
0.0
 10
-6.9601623376
 20
7.8449244112
 30
0.0
 10
-6.9764774169
 20
7.843124674
 30
0.0
 10
-6.9928798657
 20
7.8425269133
 30
0.0
 10
-7.0065503092
 20
7.8430682749
 30
0.0
 10
-7.0174304727
 20
7.8441675318
 30
0.0
 10
-7.0255487046
 20
7.8453448419
 30
0.0
 10
-7.0336023102
 20
7.8469044291
 30
0.0
 10
-7.0402360148
 20
7.8485635396
 30
0.0
 10
-7.045467862
 20
7.8501530411
 30
0.0
 10
-7.0493435735
 20
7.8514956347
 30
0.0
 10
-7.0531535506
 20
7.8530163936
 30
0.0
 10
-7.0568708637
 20
7.8547541901
 30
0.0
 10
-7.0604493953
 20
7.8567678685
 30
0.0
 10
-7.0638057865
 20
7.8591407294
 30
0.0
 10
-7.0662919037
 20
7.8615148355
 30
0.0
 10
-7.0679719994
 20
7.86368007
 30
0.0
 10
-7.0690418139
 20
7.8654378265
 30
0.0
 10
-7.0699036669
 20
7.8673065873
 30
0.0
 10
-7.0707527841
 20
7.8699130236
 30
0.0
 10
-7.0712832184
 20
7.8733134918
 30
0.0
 10
-7.0712476291
 20
7.8774259896
 30
0.0
 10
-7.0709125829
 20
7.8801444371
 30
0.0
 10
-7.0706895589
 20
7.8814930722
 30
0.0
  0
SPLINE
  5
279
100
AcDbEntity
  8
0
100
AcDbSpline
 62
7
  6
CONTINUOUS
 70
0
 71
3
 72
35
 73
31
 74
0
 42
0.0000001
 43
0.0000001
 44
0.0000000001
 40
0.0
 40
0.0
 40
0.0
 40
0.0
 40
0.1249539002
 40
0.1874668022
 40
0.2499770286
 40
0.312484464
 40
0.3749865119
 40
0.4374849331
 40
0.4999799987
 40
0.5624720048
 40
0.6249611591
 40
0.6874472321
 40
0.7186956398
 40
0.7499435665
 40
0.7811909347
 40
0.8124374691
 40
0.8280625039
 40
0.8436879406
 40
0.859313164
 40
0.8749386627
 40
0.890565697
 40
0.906194531
 40
0.9218224076
 40
0.9296440709
 40
0.9374683762
 40
0.9452938426
 40
0.9531157207
 40
0.9687436074
 40
0.9843732463
 40
1.0
 40
1.0
 40
1.0
 40
1.0
 10
-6.6201485152
 20
7.9538770359
 30
0.0
 10
-6.6271362733
 20
7.9454720471
 30
0.0
 10
-6.6385424137
 20
7.9335891418
 30
0.0
 10
-6.6552743028
 20
7.9194923196
 30
0.0
 10
-6.6685429164
 20
7.9098213767
 30
0.0
 10
-6.6824561237
 20
7.9011079038
 30
0.0
 10
-6.6969475748
 20
7.8933954752
 30
0.0
 10
-6.7119466257
 20
7.8867262985
 30
0.0
 10
-6.7273813592
 20
7.8811408746
 30
0.0
 10
-6.7431777016
 20
7.8766803329
 30
0.0
 10
-6.759258059
 20
7.8733909942
 30
0.0
 10
-6.7728311632
 20
7.8716749112
 30
0.0
 10
-6.7837438682
 20
7.8709683756
 30
0.0
 10
-6.7919451572
 20
7.8707934238
 30
0.0
 10
-6.8001456214
 20
7.8710061724
 30
0.0
 10
-6.8069619307
 20
7.8715507929
 30
0.0
 10
-6.8123840446
 20
7.8722574899
 30
0.0
 10
-6.8164278791
 20
7.8729438571
 30
0.0
 10
-6.8204362005
 20
7.8738167791
 30
0.0
 10
-6.8243888446
 20
7.8749190305
 30
0.0
 10
-6.8282500082
 20
7.8763162437
 30
0.0
 10
-6.8319511801
 20
7.8781043034
 30
0.0
 10
-6.834794152
 20
7.8800368326
 30
0.0
 10
-6.8368077166
 20
7.8818960044
 30
0.0
 10
-6.8381522551
 20
7.8834537037
 30
0.0
 10
-6.839309939
 20
7.8851551224
 30
0.0
 10
-6.8405764771
 20
7.887586252
 30
0.0
 10
-6.8416593708
 20
7.8908530372
 30
0.0
 10
-6.8423011558
 20
7.8949153047
 30
0.0
 10
-6.8424181169
 20
7.897651823
 30
0.0
 10
-6.8424201107
 20
7.8990187731
 30
0.0
  0
SPLINE
  5
27A
100
AcDbEntity
  8
0
100
AcDbSpline
 62
7
  6
CONTINUOUS
 70
0
 71
3
 72
35
 73
31
 74
0
 42
0.0000001
 43
0.0000001
 44
0.0000000001
 40
0.0
 40
0.0
 40
0.0
 40
0.0
 40
0.1249539002
 40
0.1874668022
 40
0.2499770286
 40
0.3124844639
 40
0.3749865119
 40
0.4374849331
 40
0.4999799987
 40
0.5624720047
 40
0.6249611591
 40
0.687447232
 40
0.7186956398
 40
0.7499435665
 40
0.7811909347
 40
0.8124374691
 40
0.8280625039
 40
0.8436879405
 40
0.859313164
 40
0.8749386626
 40
0.890565697
 40
0.906194531
 40
0.9218224076
 40
0.9296440709
 40
0.9374683761
 40
0.9452938426
 40
0.9531157207
 40
0.9687436073
 40
0.9843732463
 40
1.0
 40
1.0
 40
1.0
 40
1.0
 10
-6.4099376545
 20
8.0445714968
 30
0.0
 10
-6.4154467069
 20
8.035131002
 30
0.0
 10
-6.4247414404
 20
8.0215327887
 30
0.0
 10
-6.4389248922
 20
8.0048742711
 30
0.0
 10
-6.4504207716
 20
7.9931513022
 30
0.0
 10
-6.4627100463
 20
7.9822666491
 30
0.0
 10
-6.4757344437
 20
7.9722742127
 30
0.0
 10
-6.4894312299
 20
7.9632272524
 30
0.0
 10
-6.503736135
 20
7.9551775537
 30
0.0
 10
-6.5185828651
 20
7.9481778773
 30
0.0
 10
-6.5339025088
 20
7.9422866835
 30
0.0
 10
-6.5470080413
 20
7.9383599655
 30
0.0
 10
-6.557655623
 20
7.9358669095
 30
0.0
 10
-6.5657162631
 20
7.9343444679
 30
0.0
 10
-6.5738399026
 20
7.9332045747
 30
0.0
 10
-6.5806528889
 20
7.9326198497
 30
0.0
 10
-6.586117371
 20
7.9324244657
 30
0.0
 10
-6.5902190251
 20
7.9324358845
 30
0.0
 10
-6.5943163562
 20
7.932637159
 30
0.0
 10
-6.5983965154
 20
7.9330737992
 30
0.0
 10
-6.6024349903
 20
7.9338164356
 30
0.0
 10
-6.6063799864
 20
7.9349709214
 30
0.0
 10
-6.6095022656
 20
7.9364091602
 30
0.0
 10
-6.6117943752
 20
7.9379115569
 30
0.0
 10
-6.6133769629
 20
7.9392267098
 30
0.0
 10
-6.6147988996
 20
7.9407143769
 30
0.0
 10
-6.6164483113
 20
7.9429038862
 30
0.0
 10
-6.6180541265
 20
7.9459478806
 30
0.0
 10
-6.6193557799
 20
7.9498491116
 30
0.0
 10
-6.619921558
 20
7.9525290571
 30
0.0
 10
-6.6201485152
 20
7.9538770359
 30
0.0
  0
SPLINE
  5
27B
100
AcDbEntity
  8
0
100
AcDbSpline
 62
7
  6
CONTINUOUS
 70
0
 71
3
 72
35
 73
31
 74
0
 42
0.0000001
 43
0.0000001
 44
0.0000000001
 40
0.0
 40
0.0
 40
0.0
 40
0.0
 40
0.1249539002
 40
0.1874668022
 40
0.2499770286
 40
0.312484464
 40
0.3749865119
 40
0.4374849331
 40
0.4999799987
 40
0.5624720048
 40
0.6249611591
 40
0.6874472321
 40
0.7186956398
 40
0.7499435665
 40
0.7811909347
 40
0.8124374691
 40
0.8280625039
 40
0.8436879406
 40
0.859313164
 40
0.8749386627
 40
0.890565697
 40
0.906194531
 40
0.9218224076
 40
0.9296440709
 40
0.9374683762
 40
0.9452938426
 40
0.9531157207
 40
0.9687436074
 40
0.9843732463
 40
1.0
 40
1.0
 40
1.0
 40
1.0
 10
-6.2175214313
 20
8.168628291
 30
0.0
 10
-6.2214015081
 20
8.1584097978
 30
0.0
 10
-6.2283313031
 20
8.1434671937
 30
0.0
 10
-6.2395794369
 20
8.1247013737
 30
0.0
 10
-6.2489890099
 20
8.1112461451
 30
0.0
 10
-6.2593191387
 20
8.0984872115
 30
0.0
 10
-6.2705212169
 20
8.0864873301
 30
0.0
 10
-6.2825421325
 20
8.0753093592
 30
0.0
 10
-6.2953270156
 20
8.0650149567
 30
0.0
 10
-6.3088191606
 20
8.0556670752
 30
0.0
 10
-6.3229602179
 20
8.0473347199
 30
0.0
 10
-6.3352407003
 20
8.0413044755
 30
0.0
 10
-6.3453327255
 20
8.0370929021
 30
0.0
 10
-6.3530328476
 20
8.0342644981
 30
0.0
 10
-6.3608580746
 20
8.031803056
 30
0.0
 10
-6.3674819005
 20
8.0301049349
 30
0.0
 10
-6.3728396966
 20
8.0290127994
 30
0.0
 10
-6.37688729
 20
8.0283489583
 30
0.0
 10
-6.3809618682
 20
8.0278730951
 30
0.0
 10
-6.3850582483
 20
8.027632214
 30
0.0
 10
-6.3891638776
 20
8.0277000167
 30
0.0
 10
-6.3932450904
 20
8.0281894379
 30
0.0
 10
-6.3965615108
 20
8.0290941556
 30
0.0
 10
-6.3990696438
 20
8.0301987963
 30
0.0
 10
-6.4008471126
 20
8.0312355295
 30
0.0
 10
-6.4024945161
 20
8.0324688661
 30
0.0
 10
-6.4044818106
 20
8.034357032
 30
0.0
 10
-6.4065667455
 20
8.0370952049
 30
0.0
 10
-6.4084927622
 20
8.0407289859
 30
0.0
 10
-6.4094919246
 20
8.0432792579
 30
0.0
 10
-6.4099376545
 20
8.0445714968
 30
0.0
  0
SPLINE
  5
27C
100
AcDbEntity
  8
0
100
AcDbSpline
 62
7
  6
CONTINUOUS
 70
0
 71
3
 72
35
 73
31
 74
0
 42
0.0000001
 43
0.0000001
 44
0.0000000001
 40
0.0
 40
0.0
 40
0.0
 40
0.0
 40
0.1249539004
 40
0.1874668027
 40
0.2499770292
 40
0.3124844646
 40
0.3749865124
 40
0.4374849334
 40
0.4999799988
 40
0.5624720047
 40
0.6249611589
 40
0.6874472317
 40
0.7186956394
 40
0.749943566
 40
0.7811909341
 40
0.8124374684
 40
0.8280625031
 40
0.8436879397
 40
0.8593131631
 40
0.8749386617
 40
0.8905656961
 40
0.9061945296
 40
0.9218224056
 40
0.9296440683
 40
0.9374683743
 40
0.9452938406
 40
0.9531157191
 40
0.9687436066
 40
0.9843732463
 40
1.0
 40
1.0
 40
1.0
 40
1.0
 10
-6.0481483654
 20
8.3226635328
 30
0.0
 10
-6.05029363
 20
8.31194577
 30
0.0
 10
-6.0546694633
 20
8.2960663632
 30
0.0
 10
-6.0626754646
 20
8.2757051143
 30
0.0
 10
-6.0697420674
 20
8.260884643
 30
0.0
 10
-6.0778312762
 20
8.2465994532
 30
0.0
 10
-6.0869054772
 20
8.2329194464
 30
0.0
 10
-6.0969226287
 20
8.2199153656
 30
0.0
 10
-6.1078387577
 20
8.2076570588
 30
0.0
 10
-6.1196082935
 20
8.1962159535
 30
0.0
 10
-6.13218504
 20
8.1856697176
 30
0.0
 10
-6.1433054987
 20
8.1777004332
 30
0.0
 10
-6.1525666882
 20
8.1718852211
 30
0.0
 10
-6.1596962566
 20
8.1678280049
 30
0.0
 10
-6.1670096231
 20
8.1641121543
 30
0.0
 10
-6.1732636111
 20
8.1613469567
 30
0.0
 10
-6.1783685772
 20
8.1593878597
 30
0.0
 10
-6.182251704
 20
8.1580668663
 30
0.0
 10
-6.1861923873
 20
8.1569268454
 30
0.0
 10
-6.1901932518
 20
8.1560150136
 30
0.0
 10
-6.1942540464
 20
8.1554061331
 30
0.0
 10
-6.1983601531
 20
8.1552171398
 30
0.0
 10
-6.2017802528
 20
8.1555636581
 30
0.0
 10
-6.204435995
 20
8.1562404119
 30
0.0
 10
-6.206359861
 20
8.1569704465
 30
0.0
 10
-6.2081877955
 20
8.1579158106
 30
0.0
 10
-6.2104587653
 20
8.1594511304
 30
0.0
 10
-6.2129659499
 20
8.1618087924
 30
0.0
 10
-6.2154637941
 20
8.1650760055
 30
0.0
 10
-6.2168690868
 20
8.1674270404
 30
0.0
 10
-6.2175214313
 20
8.168628291
 30
0.0
  0
SPLINE
  5
27D
100
AcDbEntity
  8
0
100
AcDbSpline
 62
7
  6
CONTINUOUS
 70
0
 71
3
 72
35
 73
31
 74
0
 42
0.0000001
 43
0.0000001
 44
0.0000000001
 40
0.0
 40
0.0
 40
0.0
 40
0.0
 40
0.1249539002
 40
0.1874668022
 40
0.2499770286
 40
0.3124844639
 40
0.3749865119
 40
0.4374849331
 40
0.4999799987
 40
0.5624720048
 40
0.6249611591
 40
0.6874472321
 40
0.7186956398
 40
0.7499435665
 40
0.7811909347
 40
0.8124374691
 40
0.8280625039
 40
0.8436879406
 40
0.859313164
 40
0.8749386627
 40
0.890565697
 40
0.906194531
 40
0.9218224076
 40
0.9296440709
 40
0.9374683762
 40
0.9452938426
 40
0.9531157207
 40
0.9687436074
 40
0.9843732463
 40
1.0
 40
1.0
 40
1.0
 40
1.0
 10
-5.9064384306
 20
8.5024756168
 30
0.0
 10
-5.9067903669
 20
8.4915509319
 30
0.0
 10
-5.9084928791
 20
8.4751678635
 30
0.0
 10
-5.913038369
 20
8.4537665777
 30
0.0
 10
-5.9175692463
 20
8.4379851205
 30
0.0
 10
-5.9231968865
 20
8.4225633303
 30
0.0
 10
-5.9298956941
 20
8.4075763464
 30
0.0
 10
-5.9376358448
 20
8.3931008667
 30
0.0
 10
-5.9463854614
 20
8.3792130242
 30
0.0
 10
-5.9561113515
 20
8.365990773
 30
0.0
 10
-5.9667807326
 20
8.3535183253
 30
0.0
 10
-5.9764378359
 20
8.3438273784
 30
0.0
 10
-5.9846155731
 20
8.3365671484
 30
0.0
 10
-5.9909801152
 20
8.3313917884
 30
0.0
 10
-5.9975821352
 20
8.3265228863
 30
0.0
 10
-6.003295696
 20
8.3227660381
 30
0.0
 10
-6.0080085843
 20
8.3199934178
 30
0.0
 10
-6.0116213248
 20
8.3180513047
 30
0.0
 10
-6.0153206238
 20
8.3162782226
 30
0.0
 10
-6.0191168413
 20
8.3147203118
 30
0.0
 10
-6.0230220355
 20
8.3134513566
 30
0.0
 10
-6.0270410342
 20
8.3125891038
 30
0.0
 10
-6.0304715239
 20
8.3123679715
 30
0.0
 10
-6.0332024348
 20
8.3125983783
 30
0.0
 10
-6.035220221
 20
8.3130018012
 30
0.0
 10
-6.0371788255
 20
8.313633407
 30
0.0
 10
-6.0396715261
 20
8.3147740007
 30
0.0
 10
-6.0425325711
 20
8.316686843
 30
0.0
 10
-6.0455341094
 20
8.3194983679
 30
0.0
 10
-6.0473072003
 20
8.3215860368
 30
0.0
 10
-6.0481483654
 20
8.3226635328
 30
0.0
  0
SPLINE
  5
27E
100
AcDbEntity
  8
0
100
AcDbSpline
 62
7
  6
CONTINUOUS
 70
0
 71
3
 72
32
 73
28
 74
0
 42
0.0000001
 43
0.0000001
 44
0.0000000001
 40
0.0
 40
0.0
 40
0.0
 40
0.0
 40
0.1249817026
 40
0.2499485196
 40
0.3124511861
 40
0.3749514242
 40
0.4374495684
 40
0.4999457753
 40
0.5624400943
 40
0.6249324215
 40
0.6561820595
 40
0.6874315757
 40
0.7186807563
 40
0.7499295859
 40
0.7811779868
 40
0.8124251562
 40
0.8436694979
 40
0.8592988636
 40
0.8749324682
 40
0.8905652439
 40
0.9062033836
 40
0.9218404097
 40
0.9296670997
 40
0.9374905235
 40
0.953130855
 40
0.9687632554
 40
1.0
 40
1.0
 40
1.0
 40
1.0
 10
-5.7961285126
 20
8.6426341827
 30
0.0
 10
-5.7972034999
 20
8.6342981891
 30
0.0
 10
-5.800256768
 20
8.617730356
 30
0.0
 10
-5.8062909071
 20
8.5975579958
 30
0.0
 10
-5.8124121572
 20
8.5818938999
 30
0.0
 10
-5.8176434975
 20
8.5704134925
 30
0.0
 10
-5.8235050954
 20
8.559242396
 30
0.0
 10
-5.8299893222
 20
8.5484207517
 30
0.0
 10
-5.8370912676
 20
8.5379944111
 30
0.0
 10
-5.8435265579
 20
8.5296792043
 30
0.0
 10
-5.8489923262
 20
8.5232914265
 30
0.0
 10
-5.8532563211
 20
8.5186455907
 30
0.0
 10
-5.8576926771
 20
8.514163787
 30
0.0
 10
-5.8623142444
 20
8.5098727118
 30
0.0
 10
-5.8671421022
 20
8.5058134793
 30
0.0
 10
-5.8722101403
 20
8.5020572489
 30
0.0
 10
-5.8766838349
 20
8.499282465
 30
0.0
 10
-5.8804526843
 20
8.4974130234
 30
0.0
 10
-5.8833874548
 20
8.4962458999
 30
0.0
 10
-5.8864337136
 20
8.4953983446
 30
0.0
 10
-5.8895721336
 20
8.49497411
 30
0.0
 10
-5.8922150385
 20
8.4950692873
 30
0.0
 10
-5.8942913123
 20
8.4954248725
 30
0.0
 10
-5.8963275542
 20
8.4959654351
 30
0.0
 10
-5.898775911
 20
8.4969551848
 30
0.0
 10
-5.9024258218
 20
8.499058785
 30
0.0
 10
-5.9048908532
 20
8.501055115
 30
0.0
 10
-5.9064384306
 20
8.5024756168
 30
0.0
  0
SPLINE
  5
27F
100
AcDbEntity
  8
0
100
AcDbSpline
 62
7
  6
CONTINUOUS
 70
0
 71
3
 72
15
 73
11
 74
0
 42
0.0000001
 43
0.0000001
 44
0.0000000001
 40
0.0
 40
0.0
 40
0.0
 40
0.0
 40
0.1250203037
 40
0.2500525201
 40
0.3750683977
 40
0.5000763463
 40
0.6250714315
 40
0.7500570073
 40
0.875033551
 40
1.0
 40
1.0
 40
1.0
 40
1.0
 10
-5.8972483997
 20
10.0187968399
 30
0.0
 10
-5.8906379734
 20
10.0156395882
 30
0.0
 10
-5.8777104161
 20
10.0086875728
 30
0.0
 10
-5.8593994512
 20
9.9964774175
 30
0.0
 10
-5.8423186301
 20
9.9825966396
 30
0.0
 10
-5.8266209894
 20
9.9671726705
 30
0.0
 10
-5.812449058
 20
9.9503380582
 30
0.0
 10
-5.7999402218
 20
9.9322340819
 30
0.0
 10
-5.7892347621
 20
9.9130120867
 30
0.0
 10
-5.7834004699
 20
9.8995453421
 30
0.0
 10
-5.7808500211
 20
9.8926813083
 30
0.0
  0
SPLINE
  5
280
100
AcDbEntity
  8
0
100
AcDbSpline
 62
7
  6
CONTINUOUS
 70
0
 71
3
 72
35
 73
31
 74
0
 42
0.0000001
 43
0.0000001
 44
0.0000000001
 40
0.0
 40
0.0
 40
0.0
 40
0.0
 40
0.1249539002
 40
0.1874668022
 40
0.2499770286
 40
0.3124844639
 40
0.3749865119
 40
0.4374849331
 40
0.4999799987
 40
0.5624720048
 40
0.6249611591
 40
0.6874472321
 40
0.7186956398
 40
0.7499435665
 40
0.7811909347
 40
0.8124374691
 40
0.8280625039
 40
0.8436879406
 40
0.859313164
 40
0.8749386627
 40
0.890565697
 40
0.9061945311
 40
0.9218224076
 40
0.9296440709
 40
0.9374683762
 40
0.9452938426
 40
0.9531157208
 40
0.9687436074
 40
0.9843732463
 40
1.0
 40
1.0
 40
1.0
 40
1.0
 10
-6.0367684151
 20
10.2003133859
 30
0.0
 10
-6.0262644534
 20
10.1972902437
 30
0.0
 10
-6.0108007113
 20
10.1916178406
 30
0.0
 10
-5.9911702645
 20
10.1819575056
 30
0.0
 10
-5.9769840775
 20
10.1736909864
 30
0.0
 10
-5.9634158027
 20
10.1644495652
 30
0.0
 10
-5.9505319961
 20
10.1542765008
 30
0.0
 10
-5.9383996869
 20
10.1432195339
 30
0.0
 10
-5.9270848525
 20
10.1313282564
 30
0.0
 10
-5.9166549125
 20
10.1186539826
 30
0.0
 10
-5.9071834542
 20
10.1052491654
 30
0.0
 10
-5.9001598644
 20
10.0935084975
 30
0.0
 10
-5.8951294256
 20
10.0837986566
 30
0.0
 10
-5.8916749203
 20
10.0763583514
 30
0.0
 10
-5.8885757948
 20
10.0687630702
 30
0.0
 10
-5.8863365774
 20
10.0623020649
 30
0.0
 10
-5.8848058059
 20
10.0570527336
 30
0.0
 10
-5.8838100431
 20
10.0530737698
 30
0.0
 10
-5.8829993883
 20
10.0490523929
 30
0.0
 10
-5.8824211133
 20
10.0449898873
 30
0.0
 10
-5.8821497044
 20
10.0408926777
 30
0.0
 10
-5.8823004905
 20
10.0367849905
 30
0.0
 10
-5.8829282999
 20
10.0334051955
 30
0.0
 10
-5.8838220859
 20
10.0308144218
 30
0.0
 10
-5.8847085231
 20
10.0289574242
 30
0.0
 10
-5.8858016315
 20
10.0272138154
 30
0.0
 10
-5.8875192702
 20
10.0250774102
 30
0.0
 10
-5.8900759521
 20
10.0227735174
 30
0.0
 10
-5.8935383054
 20
10.0205540547
 30
0.0
 10
-5.8959973744
 20
10.0193477413
 30
0.0
 10
-5.8972483997
 20
10.0187968399
 30
0.0
  0
SPLINE
  5
281
100
AcDbEntity
  8
0
100
AcDbSpline
 62
7
  6
CONTINUOUS
 70
0
 71
3
 72
35
 73
31
 74
0
 42
0.0000001
 43
0.0000001
 44
0.0000000001
 40
0.0
 40
0.0
 40
0.0
 40
0.0
 40
0.1249539002
 40
0.1874668024
 40
0.2499770288
 40
0.3124844642
 40
0.3749865121
 40
0.4374849332
 40
0.4999799987
 40
0.5624720047
 40
0.624961159
 40
0.6874472319
 40
0.7186956396
 40
0.7499435663
 40
0.7811909345
 40
0.8124374688
 40
0.8280625036
 40
0.8436879402
 40
0.8593131637
 40
0.8749386623
 40
0.8905656966
 40
0.9061945305
 40
0.9218224068
 40
0.9296440698
 40
0.9374683754
 40
0.9452938418
 40
0.9531157201
 40
0.9687436071
 40
0.9843732463
 40
1.0
 40
1.0
 40
1.0
 40
1.0
 10
-6.2042619714
 20
10.3563902892
 30
0.0
 10
-6.193403679
 20
10.355137258
 30
0.0
 10
-6.1772171998
 20
10.3520874436
 30
0.0
 10
-6.1562644571
 20
10.3457898975
 30
0.0
 10
-6.1409111354
 20
10.33997107
 30
0.0
 10
-6.1260068364
 20
10.3330889325
 30
0.0
 10
-6.1116243284
 20
10.3251751991
 30
0.0
 10
-6.0978375842
 20
10.316265927
 30
0.0
 10
-6.084719844
 20
10.3063991723
 30
0.0
 10
-6.0723460538
 20
10.2956144526
 30
0.0
 10
-6.0607974306
 20
10.2839513935
 30
0.0
 10
-6.0519371983
 20
10.2735268848
 30
0.0
 10
-6.0453771937
 20
10.2647774469
 30
0.0
 10
-6.0407451793
 20
10.2580072039
 30
0.0
 10
-6.0364381899
 20
10.2510256054
 30
0.0
 10
-6.0331660748
 20
10.245021278
 30
0.0
 10
-6.0307921768
 20
10.240095494
 30
0.0
 10
-6.0291550845
 20
10.2363346928
 30
0.0
 10
-6.0276935947
 20
10.2325015895
 30
0.0
 10
-6.0264545459
 20
10.2285896703
 30
0.0
 10
-6.0255124661
 20
10.2245930124
 30
0.0
 10
-6.0249850985
 20
10.2205165294
 30
0.0
 10
-6.0250480544
 20
10.2170794966
 30
0.0
 10
-6.0255032269
 20
10.2143769459
 30
0.0
 10
-6.0260719255
 20
10.2123993734
 30
0.0
 10
-6.0268631393
 20
10.2104996265
 30
0.0
 10
-6.0282057147
 20
10.2081096471
 30
0.0
 10
-6.0303483223
 20
10.2054163634
 30
0.0
 10
-6.0333981462
 20
10.2026572911
 30
0.0
 10
-6.0356251265
 20
10.201062684
 30
0.0
 10
-6.0367684151
 20
10.2003133859
 30
0.0
  0
SPLINE
  5
282
100
AcDbEntity
  8
0
100
AcDbSpline
 62
7
  6
CONTINUOUS
 70
0
 71
3
 72
35
 73
31
 74
0
 42
0.0000001
 43
0.0000001
 44
0.0000000001
 40
0.0
 40
0.0
 40
0.0
 40
0.0
 40
0.1249539002
 40
0.1874668022
 40
0.2499770286
 40
0.3124844639
 40
0.3749865119
 40
0.4374849331
 40
0.4999799987
 40
0.5624720048
 40
0.6249611591
 40
0.6874472321
 40
0.7186956398
 40
0.7499435665
 40
0.7811909347
 40
0.8124374691
 40
0.8280625039
 40
0.8436879406
 40
0.8593131641
 40
0.8749386627
 40
0.890565697
 40
0.9061945311
 40
0.9218224076
 40
0.929644071
 40
0.9374683762
 40
0.9452938427
 40
0.9531157208
 40
0.9687436074
 40
0.9843732463
 40
1.0
 40
1.0
 40
1.0
 40
1.0
 10
-6.3951603622
 20
10.4827702543
 30
0.0
 10
-6.3842439198
 20
10.4833215129
 30
0.0
 10
-6.3677762206
 20
10.4829774767
 30
0.0
 10
-6.3460727081
 20
10.4802144971
 30
0.0
 10
-6.3299710429
 20
10.4770020809
 30
0.0
 10
-6.3141372628
 20
10.4726669505
 30
0.0
 10
-6.2986483638
 20
10.4672284104
 30
0.0
 10
-6.2835832444
 20
10.4607098505
 30
0.0
 10
-6.2690204097
 20
10.4531367531
 30
0.0
 10
-6.255040288
 20
10.4445357613
 30
0.0
 10
-6.2417295106
 20
10.4349325925
 30
0.0
 10
-6.2312743156
 20
10.4261085914
 30
0.0
 10
-6.2233636818
 20
10.4185582141
 30
0.0
 10
-6.2176805054
 20
10.4126427045
 30
0.0
 10
-6.2122831334
 20
10.4064652251
 30
0.0
 10
-6.2080673738
 20
10.4010813552
 30
0.0
 10
-6.2049151019
 20
10.3966134786
 30
0.0
 10
-6.2026813349
 20
10.3931734231
 30
0.0
 10
-6.200608875
 20
10.3896331486
 30
0.0
 10
-6.1987428499
 20
10.3859785208
 30
0.0
 10
-6.1971557961
 20
10.382191431
 30
0.0
 10
-6.1959646598
 20
10.378257346
 30
0.0
 10
-6.1954610452
 20
10.3748568268
 30
0.0
 10
-6.1954651885
 20
10.3721162165
 30
0.0
 10
-6.1957006361
 20
10.3700720111
 30
0.0
 10
-6.1961683738
 20
10.3680679455
 30
0.0
 10
-6.1970992641
 20
10.365489583
 30
0.0
 10
-6.1987693541
 20
10.3624803732
 30
0.0
 10
-6.2013234586
 20
10.3592569503
 30
0.0
 10
-6.2032576048
 20
10.3573175455
 30
0.0
 10
-6.2042619714
 20
10.3563902892
 30
0.0
  0
SPLINE
  5
283
100
AcDbEntity
  8
0
100
AcDbSpline
 62
7
  6
CONTINUOUS
 70
0
 71
3
 72
35
 73
31
 74
0
 42
0.0000001
 43
0.0000001
 44
0.0000000001
 40
0.0
 40
0.0
 40
0.0
 40
0.0
 40
0.1249539002
 40
0.1874668022
 40
0.2499770286
 40
0.312484464
 40
0.3749865119
 40
0.4374849331
 40
0.4999799987
 40
0.5624720048
 40
0.6249611591
 40
0.6874472321
 40
0.7186956398
 40
0.7499435665
 40
0.7811909347
 40
0.8124374691
 40
0.8280625039
 40
0.8436879406
 40
0.859313164
 40
0.8749386627
 40
0.890565697
 40
0.906194531
 40
0.9218224076
 40
0.9296440709
 40
0.9374683762
 40
0.9452938426
 40
0.9531157207
 40
0.9687436074
 40
0.9843732463
 40
1.0
 40
1.0
 40
1.0
 40
1.0
 10
-6.6042564692
 20
10.5760060263
 30
0.0
 10
-6.5935796436
 20
10.5783465381
 30
0.0
 10
-6.5772799125
 20
10.5807176644
 30
0.0
 10
-6.5554176348
 20
10.5815646168
 30
0.0
 10
-6.5390068297
 20
10.5810462366
 30
0.0
 10
-6.5226754653
 20
10.5793763623
 30
0.0
 10
-6.5065026645
 20
10.576561362
 30
0.0
 10
-6.4905700998
 20
10.5726113205
 30
0.0
 10
-6.4749593998
 20
10.5675384512
 30
0.0
 10
-6.459754281
 20
10.5613557958
 30
0.0
 10
-6.4450444264
 20
10.554074462
 30
0.0
 10
-6.433279454
 20
10.54709166
 30
0.0
 10
-6.4242339688
 20
10.5409462943
 30
0.0
 10
-6.4176546498
 20
10.5360468749
 30
0.0
 10
-6.4113141189
 20
10.5308420172
 30
0.0
 10
-6.4062697077
 20
10.5262254601
 30
0.0
 10
-6.402425046
 20
10.5223373607
 30
0.0
 10
-6.3996555346
 20
10.519311885
 30
0.0
 10
-6.397028635
 20
10.516161007
 30
0.0
 10
-6.3945865329
 20
10.5128633577
 30
0.0
 10
-6.3923977951
 20
10.5093891361
 30
0.0
 10
-6.3905753806
 20
10.5057047588
 30
0.0
 10
-6.3895189324
 20
10.5024335089
 30
0.0
 10
-6.3890719336
 20
10.4997295943
 30
0.0
 10
-6.3889677078
 20
10.4976745157
 30
0.0
 10
-6.3890992109
 20
10.495620796
 30
0.0
 10
-6.3895930245
 20
10.4929243803
 30
0.0
 10
-6.3907450417
 20
10.489681326
 30
0.0
 10
-6.3927337588
 20
10.4860814776
 30
0.0
 10
-6.3943223136
 20
10.4838501761
 30
0.0
 10
-6.3951603622
 20
10.4827702543
 30
0.0
  0
SPLINE
  5
284
100
AcDbEntity
  8
0
100
AcDbSpline
 62
7
  6
CONTINUOUS
 70
0
 71
3
 72
35
 73
31
 74
0
 42
0.0000001
 43
0.0000001
 44
0.0000000001
 40
0.0
 40
0.0
 40
0.0
 40
0.0
 40
0.1249538985
 40
0.1874667983
 40
0.249977023
 40
0.3124844574
 40
0.3749865053
 40
0.4374849265
 40
0.4999799921
 40
0.5624719982
 40
0.6249611526
 40
0.6874472257
 40
0.7186956335
 40
0.7499435603
 40
0.7811909286
 40
0.8124374631
 40
0.8280624978
 40
0.8436879345
 40
0.8593131582
 40
0.8749386567
 40
0.8905656911
 40
0.9061945268
 40
0.9218224052
 40
0.9296440683
 40
0.9374683745
 40
0.9452938407
 40
0.9531157191
 40
0.9687436057
 40
0.9843732458
 40
1.0
 40
1.0
 40
1.0
 40
1.0
 10
-6.8258467971
 20
10.6335544215
 30
0.0
 10
-6.8157008192
 20
10.6376203446
 30
0.0
 10
-6.8000136626
 20
10.6426419561
 30
0.0
 10
-6.7785889557
 20
10.6470757384
 30
0.0
 10
-6.7623166472
 20
10.6492655341
 30
0.0
 10
-6.7459331677
 20
10.6503064649
 30
0.0
 10
-6.7295176093
 20
10.6501917891
 30
0.0
 10
-6.7131521905
 20
10.6489180111
 30
0.0
 10
-6.6969194367
 20
10.6464837421
 30
0.0
 10
-6.6809040696
 20
10.6428880669
 30
0.0
 10
-6.665196377
 20
10.6381271805
 30
0.0
 10
-6.6524425393
 20
10.633176047
 30
0.0
 10
-6.6425089354
 20
10.6286033195
 30
0.0
 10
-6.6352129372
 20
10.6248536315
 30
0.0
 10
-6.6281021975
 20
10.6207633679
 30
0.0
 10
-6.6223667305
 20
10.6170400491
 30
0.0
 10
-6.6179345497
 20
10.6138377823
 30
0.0
 10
-6.6147048374
 20
10.611309412
 30
0.0
 10
-6.6115951516
 20
10.608633877
 30
0.0
 10
-6.6086435857
 20
10.6057831556
 30
0.0
 10
-6.6059128657
 20
10.6027165683
 30
0.0
 10
-6.6035088822
 20
10.5993823971
 30
0.0
 10
-6.601928417
 20
10.5963296459
 30
0.0
 10
-6.6010424686
 20
10.5937361813
 30
0.0
 10
-6.6006014126
 20
10.5917262855
 30
0.0
 10
-6.6003930934
 20
10.5896789309
 30
0.0
 10
-6.6004363613
 20
10.5869380117
 30
0.0
 10
-6.6010388816
 20
10.5835495735
 30
0.0
 10
-6.6024079655
 20
10.579671492
 30
0.0
 10
-6.6036075981
 20
10.5772091567
 30
0.0
 10
-6.6042564692
 20
10.5760060263
 30
0.0
  0
SPLINE
  5
285
100
AcDbEntity
  8
0
100
AcDbSpline
 62
7
  6
CONTINUOUS
 70
0
 71
3
 72
24
 73
20
 74
0
 42
0.0000001
 43
0.0000001
 44
0.0000000001
 40
0.0
 40
0.0
 40
0.0
 40
0.0
 40
0.1250056356
 40
0.2500013679
 40
0.374981989
 40
0.4999473089
 40
0.562454845
 40
0.6249599368
 40
0.6874626966
 40
0.7499629971
 40
0.8124599792
 40
0.8437135826
 40
0.8749667069
 40
0.90621889
 40
0.9374697569
 40
0.9530985992
 40
0.9687279591
 40
0.9843689795
 40
1.0
 40
1.0
 40
1.0
 40
1.0
 10
27.948397721
 20
10.0905099874
 30
0.0
 10
27.9474509913
 20
10.0812161311
 30
0.0
 10
27.9444290085
 20
10.0627247505
 30
0.0
 10
27.9366050288
 20
10.0357486059
 30
0.0
 10
27.9256048694
 20
10.0099052157
 30
0.0
 10
27.9139048335
 20
9.9896250715
 30
0.0
 10
27.9031168218
 20
9.9743613077
 30
0.0
 10
27.8943263094
 20
9.9634355219
 30
0.0
 10
27.884857651
 20
9.9530922971
 30
0.0
 10
27.8747238993
 20
9.9433999456
 30
0.0
 10
27.8657236393
 20
9.9359407173
 30
0.0
 10
27.858176442
 20
9.9304310561
 30
0.0
 10
27.8523292039
 20
9.926564663
 30
0.0
 10
27.8462778891
 20
9.9230254222
 30
0.0
 10
27.8410361802
 20
9.9204344755
 30
0.0
 10
27.836700088
 20
9.9186902739
 30
0.0
 10
27.8333676734
 20
9.9175935541
 30
0.0
 10
27.8299520719
 20
9.9167854674
 30
0.0
 10
27.8276233238
 20
9.9165070264
 30
0.0
 10
27.8264562712
 20
9.916456606
 30
0.0
  0
SPLINE
  5
286
100
AcDbEntity
  8
0
100
AcDbSpline
 62
7
  6
CONTINUOUS
 70
0
 71
3
 72
17
 73
13
 74
0
 42
0.0000001
 43
0.0000001
 44
0.0000000001
 40
0.0
 40
0.0
 40
0.0
 40
0.0
 40
0.1137193135
 40
0.2372441844
 40
0.3676393589
 40
0.5018743298
 40
0.6365114191
 40
0.7676324912
 40
0.8305165736
 40
0.8907852881
 40
0.9476554156
 40
1.0
 40
1.0
 40
1.0
 40
1.0
 10
-7.0539732459
 20
10.6537932373
 30
0.0
 10
-7.0574065336
 20
10.6505404359
 30
0.0
 10
-7.0641795904
 20
10.6433402472
 30
0.0
 10
-7.0737365164
 20
10.6313929448
 30
0.0
 10
-7.0831057373
 20
10.6182398792
 30
0.0
 10
-7.092258678
 20
10.6043831313
 30
0.0
 10
-7.1011944784
 20
10.5903515019
 30
0.0
 10
-7.1085545404
 20
10.5788339103
 30
0.0
 10
-7.1143990171
 20
10.5700201915
 30
0.0
 10
-7.1186439498
 20
10.5638522127
 30
0.0
 10
-7.1227770636
 20
10.5581414958
 30
0.0
 10
-7.125552462
 20
10.5545445128
 30
0.0
 10
-7.1269162761
 20
10.5528476867
 30
0.0
  0
SPLINE
  5
287
100
AcDbEntity
  8
0
100
AcDbSpline
 62
7
  6
CONTINUOUS
 70
0
 71
3
 72
17
 73
13
 74
0
 42
0.0000001
 43
0.0000001
 44
0.0000000001
 40
0.0
 40
0.0
 40
0.0
 40
0.0
 40
0.0523236165
 40
0.1091828343
 40
0.1694474406
 40
0.2323311774
 40
0.363458126
 40
0.4981060195
 40
0.6323554116
 40
0.7627589853
 40
0.8862847221
 40
1.0
 40
1.0
 40
1.0
 40
1.0
 10
-7.3376084222
 20
10.5246419767
 30
0.0
 10
-7.3365421804
 20
10.5265410958
 30
0.0
 10
-7.3343958645
 20
10.5305483093
 30
0.0
 10
-7.3312577941
 20
10.5368658606
 30
0.0
 10
-7.3280843999
 20
10.5436540466
 30
0.0
 10
-7.32376797
 20
10.553318459
 30
0.0
 10
-7.3184009669
 20
10.5659025525
 30
0.0
 10
-7.3118924699
 20
10.5812287364
 30
0.0
 10
-7.3051402228
 20
10.5964179496
 30
0.0
 10
-7.2980576871
 20
10.6109473167
 30
0.0
 10
-7.2905901988
 20
10.6243158701
 30
0.0
 10
-7.2850881484
 20
10.6325384493
 30
0.0
 10
-7.2822334237
 20
10.6363140902
 30
0.0
  0
SPLINE
  5
288
100
AcDbEntity
  8
0
100
AcDbSpline
 62
7
  6
CONTINUOUS
 70
0
 71
3
 72
17
 73
13
 74
0
 42
0.0000001
 43
0.0000001
 44
0.0000000001
 40
0.0
 40
0.0
 40
0.0
 40
0.0
 40
0.0523236165
 40
0.1091828342
 40
0.1694474405
 40
0.232331177
 40
0.3634581247
 40
0.498106015
 40
0.6323554084
 40
0.7627589833
 40
0.8862847212
 40
1.0
 40
1.0
 40
1.0
 40
1.0
 10
-7.5407427924
 20
10.462186197
 30
0.0
 10
-7.5400036744
 20
10.4642349112
 30
0.0
 10
-7.5385461909
 20
10.4685407414
 30
0.0
 10
-7.5364907445
 20
10.4752886359
 30
0.0
 10
-7.5344779193
 20
10.4825065604
 30
0.0
 10
-7.5318110549
 20
10.4927496199
 30
0.0
 10
-7.5285885049
 20
10.5060454575
 30
0.0
 10
-7.5246913585
 20
10.5222338697
 30
0.0
 10
-7.5205312419
 20
10.5383272992
 30
0.0
 10
-7.5159367352
 20
10.553824245
 30
0.0
 10
-7.5107714641
 20
10.5682395695
 30
0.0
 10
-7.5066978333
 20
10.5772556053
 30
0.0
 10
-7.5045034872
 20
10.5814496204
 30
0.0
  0
SPLINE
  5
289
100
AcDbEntity
  8
0
100
AcDbSpline
 62
7
  6
CONTINUOUS
 70
0
 71
3
 72
17
 73
13
 74
0
 42
0.0000001
 43
0.0000001
 44
0.0000000001
 40
0.0
 40
0.0
 40
0.0
 40
0.0
 40
0.0523236165
 40
0.1091828342
 40
0.1694474405
 40
0.232331177
 40
0.3634581247
 40
0.498106015
 40
0.6323554084
 40
0.7627589833
 40
0.8862847212
 40
1.0
 40
1.0
 40
1.0
 40
1.0
 10
-7.7308269308
 20
10.3671476937
 30
0.0
 10
-7.7304350975
 20
10.3692901204
 30
0.0
 10
-7.7297062019
 20
10.3737771175
 30
0.0
 10
-7.7287894458
 20
10.3807712935
 30
0.0
 10
-7.7279920933
 20
10.3882220739
 30
0.0
 10
-7.7270475381
 20
10.3987643815
 30
0.0
 10
-7.7260573424
 20
10.4124092941
 30
0.0
 10
-7.7248778487
 20
10.4290183649
 30
0.0
 10
-7.7234233377
 20
10.4455770315
 30
0.0
 10
-7.721442184
 20
10.4616188473
 30
0.0
 10
-7.7187200228
 20
10.4766877372
 30
0.0
 10
-7.7161859276
 20
10.4862512999
 30
0.0
 10
-7.7147118151
 20
10.4907492894
 30
0.0
  0
SPLINE
  5
28A
100
AcDbEntity
  8
0
100
AcDbSpline
 62
7
  6
CONTINUOUS
 70
0
 71
3
 72
17
 73
13
 74
0
 42
0.0000001
 43
0.0000001
 44
0.0000000001
 40
0.0
 40
0.0
 40
0.0
 40
0.0
 40
0.0523236165
 40
0.1091828342
 40
0.1694474405
 40
0.232331177
 40
0.3634581247
 40
0.498106015
 40
0.6323554084
 40
0.7627589833
 40
0.8862847212
 40
1.0
 40
1.0
 40
1.0
 40
1.0
 10
-7.9026759295
 20
10.2421188235
 30
0.0
 10
-7.902642069
 20
10.2442965238
 30
0.0
 10
-7.9026616433
 20
10.2488422964
 30
0.0
 10
-7.9029085837
 20
10.2558919745
 30
0.0
 10
-7.9033484533
 20
10.2633723765
 30
0.0
 10
-7.9041519719
 20
10.2739263706
 30
0.0
 10
-7.9054211399
 20
10.2875481671
 30
0.0
 10
-7.9069914718
 20
10.3041248524
 30
0.0
 10
-7.9082822411
 20
10.3206970869
 30
0.0
 10
-7.90896848
 20
10.3368462014
 30
0.0
 10
-7.9087636808
 20
10.352157624
 30
0.0
 10
-7.9078382435
 20
10.3620078492
 30
0.0
 10
-7.9071245739
 20
10.3666871219
 30
0.0
  0
SPLINE
  5
28B
100
AcDbEntity
  8
0
100
AcDbSpline
 62
7
  6
CONTINUOUS
 70
0
 71
3
 72
17
 73
13
 74
0
 42
0.0000001
 43
0.0000001
 44
0.0000000001
 40
0.0
 40
0.0
 40
0.0
 40
0.0
 40
0.0523236165
 40
0.1091828342
 40
0.1694474405
 40
0.232331177
 40
0.3634581247
 40
0.498106015
 40
0.6323554084
 40
0.7627589833
 40
0.8862847212
 40
1.0
 40
1.0
 40
1.0
 40
1.0
 10
-8.051602279
 20
10.0905099874
 30
0.0
 10
-8.0519273149
 20
10.0926635605
 30
0.0
 10
-8.0526948252
 20
10.097144114
 30
0.0
 10
-8.0540987264
 20
10.1040570006
 30
0.0
 10
-8.0557638196
 20
10.111362982
 30
0.0
 10
-8.0582934945
 20
10.1216407823
 30
0.0
 10
-8.0617874073
 20
10.1348679021
 30
0.0
 10
-8.066064731
 20
10.1509600413
 30
0.0
 10
-8.0700655723
 20
10.1670938043
 30
0.0
 10
-8.0734004855
 20
10.1829097196
 30
0.0
 10
-8.0757186346
 20
10.1980460266
 30
0.0
 10
-8.0764270983
 20
10.2079142306
 30
0.0
 10
-8.0764933383
 20
10.2126471504
 30
0.0
  0
SPLINE
  5
28C
100
AcDbEntity
  8
0
100
AcDbSpline
 62
7
  6
CONTINUOUS
 70
0
 71
3
 72
17
 73
13
 74
0
 42
0.0000001
 43
0.0000001
 44
0.0000000001
 40
0.0
 40
0.0
 40
0.0
 40
0.0
 40
0.0523236165
 40
0.1091828342
 40
0.1694474405
 40
0.232331177
 40
0.3634581247
 40
0.498106015
 40
0.6323554084
 40
0.7627589833
 40
0.8862847212
 40
1.0
 40
1.0
 40
1.0
 40
1.0
 10
-8.1735437288
 20
9.916456606
 30
0.0
 10
-8.174218795
 20
9.918527309
 30
0.0
 10
-8.1757133061
 20
9.9228204277
 30
0.0
 10
-8.178235874
 20
9.9294079607
 30
0.0
 10
-8.1810807723
 20
9.9363402369
 30
0.0
 10
-8.1852676018
 20
9.9460614967
 30
0.0
 10
-8.1908909562
 20
9.9585331451
 30
0.0
 10
-8.1977585995
 20
9.9737017941
 30
0.0
 10
-8.2043603823
 20
9.9889570065
 30
0.0
 10
-8.2102530036
 20
10.0040083134
 30
0.0
 10
-8.215030869
 20
10.0185566331
 30
0.0
 10
-8.2173539091
 20
10.0281736417
 30
0.0
 10
-8.2181982517
 20
10.0328311092
 30
0.0
  0
SPLINE
  5
28D
100
AcDbEntity
  8
0
100
AcDbSpline
 62
7
  6
CONTINUOUS
 70
0
 71
3
 72
17
 73
13
 74
0
 42
0.0000001
 43
0.0000001
 44
0.0000000001
 40
0.0
 40
0.0
 40
0.0
 40
0.0
 40
0.0523236165
 40
0.1091828342
 40
0.1694474405
 40
0.232331177
 40
0.3634581247
 40
0.498106015
 40
0.6323554084
 40
0.7627589833
 40
0.8862847212
 40
1.0
 40
1.0
 40
1.0
 40
1.0
 10
-8.265174093
 20
9.7247063175
 30
0.0
 10
-8.2661807759
 20
9.7266376681
 30
0.0
 10
-8.268361522
 20
9.730626249
 30
0.0
 10
-8.2719339487
 20
9.7367087409
 30
0.0
 10
-8.2758810521
 20
9.7430782208
 30
0.0
 10
-8.2816108324
 20
9.7519777743
 30
0.0
 10
-8.2892102407
 20
9.763353763
 30
0.0
 10
-8.2984808756
 20
9.7771851682
 30
0.0
 10
-8.3075035235
 20
9.7911457149
 30
0.0
 10
-8.3157931205
 20
9.8050218601
 30
0.0
 10
-8.3229003768
 20
9.8185853594
 30
0.0
 10
-8.3267746278
 20
9.8276888504
 30
0.0
 10
-8.3283740422
 20
9.8321438242
 30
0.0
  0
SPLINE
  5
28E
100
AcDbEntity
  8
0
100
AcDbSpline
 62
7
  6
CONTINUOUS
 70
0
 71
3
 72
17
 73
13
 74
0
 42
0.0000001
 43
0.0000001
 44
0.0000000001
 40
0.0
 40
0.0
 40
0.0
 40
0.0
 40
0.0523236165
 40
0.1091828342
 40
0.1694474405
 40
0.232331177
 40
0.3634581247
 40
0.498106015
 40
0.6323554084
 40
0.7627589833
 40
0.8862847212
 40
1.0
 40
1.0
 40
1.0
 40
1.0
 10
-8.3239939784
 20
9.5204894773
 30
0.0
 10
-8.3253048187
 20
9.5222287941
 30
0.0
 10
-8.3281123159
 20
9.5258040411
 30
0.0
 10
-8.3326371567
 20
9.5312155803
 30
0.0
 10
-8.3375788004
 20
9.5368485241
 30
0.0
 10
-8.3446952408
 20
9.5446836189
 30
0.0
 10
-8.3540634147
 20
9.5546536463
 30
0.0
 10
-8.3654841668
 20
9.5667705295
 30
0.0
 10
-8.37668157
 20
9.57905561
 30
0.0
 10
-8.387142028
 20
9.5913780953
 30
0.0
 10
-8.3963848112
 20
9.6035868038
 30
0.0
 10
-8.4017045957
 20
9.6119284621
 30
0.0
 10
-8.4040154546
 20
9.6160594243
 30
0.0
  0
SPLINE
  5
28F
100
AcDbEntity
  8
0
100
AcDbSpline
 62
7
  6
CONTINUOUS
 70
0
 71
3
 72
17
 73
13
 74
0
 42
0.0000001
 43
0.0000001
 44
0.0000000001
 40
0.0
 40
0.0
 40
0.0
 40
0.0
 40
0.0523236165
 40
0.1091828342
 40
0.1694474405
 40
0.232331177
 40
0.3634581247
 40
0.498106015
 40
0.6323554084
 40
0.7627589833
 40
0.8862847212
 40
1.0
 40
1.0
 40
1.0
 40
1.0
 10
-8.3483989604
 20
9.3093764895
 30
0.0
 10
-8.3499782025
 20
9.3108763294
 30
0.0
 10
-8.3533358709
 20
9.3139407208
 30
0.0
 10
-8.3586897021
 20
9.3185336972
 30
0.0
 10
-8.3644910933
 20
9.3232764557
 30
0.0
 10
-8.3728000793
 20
9.3298333746
 30
0.0
 10
-8.3836814839
 20
9.3381254891
 30
0.0
 10
-8.3969408305
 20
9.3481973393
 30
0.0
 10
-8.4100075584
 20
9.3584718545
 30
0.0
 10
-8.4223535484
 20
9.3689045605
 30
0.0
 10
-8.4334797441
 20
9.3794254623
 30
0.0
 10
-8.4400999546
 20
9.3867777533
 30
0.0
 10
-8.443059225
 20
9.390472024
 30
0.0
  0
SPLINE
  5
290
100
AcDbEntity
  8
0
100
AcDbSpline
 62
7
  6
CONTINUOUS
 70
0
 71
3
 72
17
 73
13
 74
0
 42
0.0000001
 43
0.0000001
 44
0.0000000001
 40
0.0
 40
0.0
 40
0.0
 40
0.0
 40
0.0523236165
 40
0.1091828342
 40
0.1694474405
 40
0.232331177
 40
0.3634581247
 40
0.498106015
 40
0.6323554084
 40
0.7627589833
 40
0.8862847212
 40
1.0
 40
1.0
 40
1.0
 40
1.0
 10
-8.3377233465
 20
9.097125864
 30
0.0
 10
-8.3395279135
 20
9.098345316
 30
0.0
 10
-8.3433441663
 20
9.1008152646
 30
0.0
 10
-8.3493809519
 20
9.104464396
 30
0.0
 10
-8.3558838467
 20
9.1081876014
 30
0.0
 10
-8.3651587348
 20
9.113287492
 30
0.0
 10
-8.377256559
 20
9.1196755103
 30
0.0
 10
-8.3919928261
 20
9.1274275985
 30
0.0
 10
-8.4065724587
 20
9.1354112915
 30
0.0
 10
-8.4204672203
 20
9.1436696462
 30
0.0
 10
-8.4331733402
 20
9.1522157637
 30
0.0
 10
-8.4409133979
 20
9.1583781395
 30
0.0
 10
-8.4444403601
 20
9.1615349505
 30
0.0
  0
SPLINE
  5
291
100
AcDbEntity
  8
0
100
AcDbSpline
 62
7
  6
CONTINUOUS
 70
0
 71
3
 72
17
 73
13
 74
0
 42
0.0000001
 43
0.0000001
 44
0.0000000001
 40
0.0
 40
0.0
 40
0.0
 40
0.0
 40
0.0523236165
 40
0.1091828342
 40
0.1694474405
 40
0.232331177
 40
0.3634581247
 40
0.498106015
 40
0.6323554084
 40
0.7627589833
 40
0.8862847212
 40
1.0
 40
1.0
 40
1.0
 40
1.0
 10
-8.2922583344
 20
8.8895271418
 30
0.0
 10
-8.2942390033
 20
8.890432943
 30
0.0
 10
-8.2984097449
 20
8.8922410763
 30
0.0
 10
-8.3049648201
 20
8.8948468257
 30
0.0
 10
-8.3119918395
 20
8.8974489205
 30
0.0
 10
-8.3219796395
 20
8.9009526735
 30
0.0
 10
-8.3349638921
 20
8.9052623502
 30
0.0
 10
-8.3507751198
 20
8.9104832235
 30
0.0
 10
-8.3664699699
 20
8.9159583236
 30
0.0
 10
-8.381534497
 20
8.9218170647
 30
0.0
 10
-8.3954739573
 20
8.9281552862
 30
0.0
 10
-8.4041227374
 20
8.9329596563
 30
0.0
 10
-8.4081211867
 20
8.9354928995
 30
0.0
  0
SPLINE
  5
292
100
AcDbEntity
  8
0
100
AcDbSpline
 62
7
  6
CONTINUOUS
 70
0
 71
3
 72
17
 73
13
 74
0
 42
0.0000001
 43
0.0000001
 44
0.0000000001
 40
0.0
 40
0.0
 40
0.0
 40
0.0
 40
0.0523236165
 40
0.1091828342
 40
0.1694474405
 40
0.232331177
 40
0.3634581247
 40
0.498106015
 40
0.6323554084
 40
0.7627589833
 40
0.8862847212
 40
1.0
 40
1.0
 40
1.0
 40
1.0
 10
-8.2132440692
 20
8.6922429746
 30
0.0
 10
-8.2153468135
 20
8.6928104175
 30
0.0
 10
-8.219758279
 20
8.6939074152
 30
0.0
 10
-8.2266528415
 20
8.6953987058
 30
0.0
 10
-8.2340123102
 20
8.6968087129
 30
0.0
 10
-8.2444405858
 20
8.6986207567
 30
0.0
 10
-8.2579570964
 20
8.7007345372
 30
0.0
 10
-8.2744120033
 20
8.7032817862
 30
0.0
 10
-8.2907939638
 20
8.7060989498
 30
0.0
 10
-8.3066173426
 20
8.7093982688
 30
0.0
 10
-8.321409918
 20
8.7133557072
 30
0.0
 10
-8.3307315085
 20
8.7166710233
 30
0.0
 10
-8.3350923796
 20
8.7185115996
 30
0.0
  0
SPLINE
  5
293
100
AcDbEntity
  8
0
100
AcDbSpline
 62
7
  6
CONTINUOUS
 70
0
 71
3
 72
17
 73
13
 74
0
 42
0.0000001
 43
0.0000001
 44
0.0000000001
 40
0.0
 40
0.0
 40
0.0
 40
0.0
 40
0.0523236165
 40
0.1091828342
 40
0.1694474405
 40
0.232331177
 40
0.3634581247
 40
0.498106015
 40
0.6323554084
 40
0.7627589833
 40
0.8862847212
 40
1.0
 40
1.0
 40
1.0
 40
1.0
 10
-8.1028358157
 20
8.5106546645
 30
0.0
 10
-8.1050032791
 20
8.5108682712
 30
0.0
 10
-8.1095351373
 20
8.5112242106
 30
0.0
 10
-8.1165811249
 20
8.5115603646
 30
0.0
 10
-8.1240722992
 20
8.5117398232
 30
0.0
 10
-8.1346565992
 20
8.511810731
 30
0.0
 10
-8.1483366793
 20
8.5116709578
 30
0.0
 10
-8.1649864264
 20
8.5114751014
 30
0.0
 10
-8.1816086481
 20
8.5115574849
 30
0.0
 10
-8.1977592658
 20
8.5122073868
 30
0.0
 10
-8.2130014605
 20
8.5136760954
 30
0.0
 10
-8.2227415972
 20
8.5154119258
 30
0.0
 10
-8.227345939
 20
8.5165096301
 30
0.0
  0
SPLINE
  5
294
100
AcDbEntity
  8
0
100
AcDbSpline
 62
7
  6
CONTINUOUS
 70
0
 71
3
 72
17
 73
13
 74
0
 42
0.0000001
 43
0.0000001
 44
0.0000000001
 40
0.0
 40
0.0
 40
0.0
 40
0.0
 40
0.0523236165
 40
0.1091828342
 40
0.1694474405
 40
0.232331177
 40
0.3634581247
 40
0.498106015
 40
0.6323554084
 40
0.7627589833
 40
0.8862847212
 40
1.0
 40
1.0
 40
1.0
 40
1.0
 10
-7.96404517
 20
8.3497153796
 30
0.0
 10
-7.9662182307
 20
8.3495693234
 30
0.0
 10
-7.9707468665
 20
8.3491744956
 30
0.0
 10
-7.9777520864
 20
8.3483463437
 30
0.0
 10
-7.9851706304
 20
8.3472903589
 30
0.0
 10
-7.9956222478
 20
8.3456181964
 30
0.0
 10
-8.009092747
 20
8.3432286822
 30
0.0
 10
-8.0254831807
 20
8.3402950628
 30
0.0
 10
-8.0418922607
 20
8.3376404191
 30
0.0
 10
-8.0579295783
 20
8.3356231764
 30
0.0
 10
-8.0732056324
 20
8.3345630934
 30
0.0
 10
-8.0830986345
 20
8.3346720901
 30
0.0
 10
-8.0878208547
 20
8.3349969803
 30
0.0
  0
SPLINE
  5
295
100
AcDbEntity
  8
0
100
AcDbSpline
 62
7
  6
CONTINUOUS
 70
0
 71
3
 72
17
 73
13
 74
0
 42
0.0000001
 43
0.0000001
 44
0.0000000001
 40
0.0
 40
0.0
 40
0.0
 40
0.0
 40
0.0523236165
 40
0.1091828342
 40
0.1694474405
 40
0.232331177
 40
0.3634581247
 40
0.498106015
 40
0.6323554084
 40
0.7627589833
 40
0.8862847212
 40
1.0
 40
1.0
 40
1.0
 40
1.0
 10
-7.8006579119
 20
8.2138150462
 30
0.0
 10
-7.8027772955
 20
8.213313311
 30
0.0
 10
-7.8071791818
 20
8.2121784856
 30
0.0
 10
-7.8139525532
 20
8.2102086173
 30
0.0
 10
-7.8210961118
 20
8.2079459931
 30
0.0
 10
-7.8311299589
 20
8.2045763718
 30
0.0
 10
-7.8440234436
 20
8.200002295
 30
0.0
 10
-7.8597074835
 20
8.1944109328
 30
0.0
 10
-7.8754558329
 20
8.1890916723
 30
0.0
 10
-7.890942402
 20
8.1844623091
 30
0.0
 10
-7.9058356319
 20
8.1809023503
 30
0.0
 10
-7.9156116488
 20
8.1793815402
 30
0.0
 10
-7.92032294
 20
8.1789247543
 30
0.0
  0
SPLINE
  5
296
100
AcDbEntity
  8
0
100
AcDbSpline
 62
7
  6
CONTINUOUS
 70
0
 71
3
 72
17
 73
13
 74
0
 42
0.0000001
 43
0.0000001
 44
0.0000000001
 40
0.0
 40
0.0
 40
0.0
 40
0.0
 40
0.0523236165
 40
0.1091828342
 40
0.1694474405
 40
0.232331177
 40
0.3634581247
 40
0.498106015
 40
0.6323554084
 40
0.7627589833
 40
0.8862847212
 40
1.0
 40
1.0
 40
1.0
 40
1.0
 10
-7.6171307408
 20
8.1066606051
 30
0.0
 10
-7.6191386371
 20
8.1058168769
 30
0.0
 10
-7.623293704
 20
8.1039730085
 30
0.0
 10
-7.6296504702
 20
8.1009151557
 30
0.0
 10
-7.6363241894
 20
8.0975076094
 30
0.0
 10
-7.6456665737
 20
8.0925324421
 30
0.0
 10
-7.6576313496
 20
8.0858985695
 30
0.0
 10
-7.6721811835
 20
8.0778019794
 30
0.0
 10
-7.686839236
 20
8.0699631951
 30
0.0
 10
-7.7013526308
 20
8.0628479863
 30
0.0
 10
-7.7154567953
 20
8.0568852564
 30
0.0
 10
-7.7248491675
 20
8.0537761224
 30
0.0
 10
-7.7294210201
 20
8.0525501202
 30
0.0
  0
SPLINE
  5
297
100
AcDbEntity
  8
0
100
AcDbSpline
 62
7
  6
CONTINUOUS
 70
0
 71
3
 72
17
 73
13
 74
0
 42
0.0000001
 43
0.0000001
 44
0.0000000001
 40
0.0
 40
0.0
 40
0.0
 40
0.0
 40
0.0523236165
 40
0.1091828342
 40
0.1694474405
 40
0.232331177
 40
0.3634581247
 40
0.498106015
 40
0.6323554084
 40
0.7627589833
 40
0.8862847212
 40
1.0
 40
1.0
 40
1.0
 40
1.0
 10
-7.4184697107
 20
8.0311748986
 30
0.0
 10
-7.4203113506
 20
8.0300121915
 30
0.0
 10
-7.4241062607
 20
8.0275095751
 30
0.0
 10
-7.4298730288
 20
8.0234471466
 30
0.0
 10
-7.43589487
 20
8.0189876256
 30
0.0
 10
-7.4442909602
 20
8.0125426195
 30
0.0
 10
-7.4550006652
 20
8.0040299027
 30
0.0
 10
-7.4680194187
 20
7.9936489347
 30
0.0
 10
-7.4811873478
 20
7.9835044444
 30
0.0
 10
-7.4943316877
 20
7.9740974708
 30
0.0
 10
-7.5072620688
 20
7.9658946146
 30
0.0
 10
-7.5160146014
 20
7.9612819643
 30
0.0
 10
-7.5203223095
 20
7.9593201873
 30
0.0
  0
SPLINE
  5
298
100
AcDbEntity
  8
0
100
AcDbSpline
 62
7
  6
CONTINUOUS
 70
0
 71
3
 72
17
 73
13
 74
0
 42
0.0000001
 43
0.0000001
 44
0.0000000001
 40
0.0
 40
0.0
 40
0.0
 40
0.0
 40
0.0523236165
 40
0.1091828342
 40
0.1694474405
 40
0.232331177
 40
0.3634581247
 40
0.498106015
 40
0.6323554084
 40
0.7627589833
 40
0.8862847212
 40
1.0
 40
1.0
 40
1.0
 40
1.0
 10
-7.2100936806
 20
7.9894169433
 30
0.0
 10
-7.2117188297
 20
7.9879669724
 30
0.0
 10
-7.2150500696
 20
7.9848738717
 30
0.0
 10
-7.2200695401
 20
7.9799176779
 30
0.0
 10
-7.2252752461
 20
7.9745278241
 30
0.0
 10
-7.2324960228
 20
7.9667887791
 30
0.0
 10
-7.2416585291
 20
7.9566294186
 30
0.0
 10
-7.2527910908
 20
7.9442472335
 30
0.0
 10
-7.2641097162
 20
7.9320737476
 30
0.0
 10
-7.2755264644
 20
7.9206316024
 30
0.0
 10
-7.2869303611
 20
7.9104123684
 30
0.0
 10
-7.2948043122
 20
7.9044220207
 30
0.0
 10
-7.2987303747
 20
7.9017779801
 30
0.0
  0
SPLINE
  5
299
100
AcDbEntity
  8
0
100
AcDbSpline
 62
7
  6
CONTINUOUS
 70
0
 71
3
 72
17
 73
13
 74
0
 42
0.0000001
 43
0.0000001
 44
0.0000000001
 40
0.0
 40
0.0
 40
0.0
 40
0.0
 40
0.0523236165
 40
0.1091828342
 40
0.1694474405
 40
0.232331177
 40
0.3634581247
 40
0.498106015
 40
0.6323554084
 40
0.7627589833
 40
0.8862847212
 40
1.0
 40
1.0
 40
1.0
 40
1.0
 10
-6.9976865045
 20
7.9825257672
 30
0.0
 10
-6.9990508338
 20
7.9808280833
 30
0.0
 10
-7.0018275376
 20
7.9772288684
 30
0.0
 10
-7.0059627948
 20
7.9715140991
 30
0.0
 10
-7.01021037
 20
7.965340931
 30
0.0
 10
-7.0160588728
 20
7.9565189443
 30
0.0
 10
-7.0234242556
 20
7.9449900561
 30
0.0
 10
-7.0323669636
 20
7.9309444016
 30
0.0
 10
-7.0415275482
 20
7.9170739751
 30
0.0
 10
-7.0509052909
 20
7.9039087647
 30
0.0
 10
-7.0604716403
 20
7.891951902
 30
0.0
 10
-7.0672522327
 20
7.8847472551
 30
0.0
 10
-7.0706895589
 20
7.8814930722
 30
0.0
  0
SPLINE
  5
29A
100
AcDbEntity
  8
0
100
AcDbSpline
 62
7
  6
CONTINUOUS
 70
0
 71
3
 72
17
 73
13
 74
0
 42
0.0000001
 43
0.0000001
 44
0.0000000001
 40
0.0
 40
0.0
 40
0.0
 40
0.0
 40
0.0523236165
 40
0.1091828342
 40
0.1694474405
 40
0.232331177
 40
0.3634581247
 40
0.498106015
 40
0.6323554084
 40
0.7627589833
 40
0.8862847212
 40
1.0
 40
1.0
 40
1.0
 40
1.0
 10
-6.7870419937
 20
8.0106893403
 30
0.0
 10
-6.7881082886
 20
8.0087902509
 30
0.0
 10
-6.7902547163
 20
8.0047830974
 30
0.0
 10
-6.7933929632
 20
7.9984656337
 30
0.0
 10
-6.7965665469
 20
7.9916775364
 30
0.0
 10
-6.8008832467
 20
7.9820132445
 30
0.0
 10
-6.8062506011
 20
7.969429301
 30
0.0
 10
-6.8127595261
 20
7.9541032991
 30
0.0
 10
-6.8195121974
 20
7.9389142744
 30
0.0
 10
-6.8265951388
 20
7.924385105
 30
0.0
 10
-6.8340630004
 20
7.91101676
 30
0.0
 10
-6.8395652805
 20
7.9027943343
 30
0.0
 10
-6.8424201107
 20
7.8990187731
 30
0.0
  0
SPLINE
  5
29B
100
AcDbEntity
  8
0
100
AcDbSpline
 62
7
  6
CONTINUOUS
 70
0
 71
3
 72
17
 73
13
 74
0
 42
0.0000001
 43
0.0000001
 44
0.0000000001
 40
0.0
 40
0.0
 40
0.0
 40
0.0
 40
0.0523236165
 40
0.1091828342
 40
0.1694474405
 40
0.232331177
 40
0.3634581247
 40
0.498106015
 40
0.6323554084
 40
0.7627589833
 40
0.8862847212
 40
1.0
 40
1.0
 40
1.0
 40
1.0
 10
-6.5839058795
 20
8.0731394473
 30
0.0
 10
-6.5846450547
 20
8.0710907537
 30
0.0
 10
-6.5861026585
 20
8.0667849643
 30
0.0
 10
-6.5881582933
 20
8.0600371272
 30
0.0
 10
-6.59017132
 20
8.0528192589
 30
0.0
 10
-6.5928384705
 20
8.0425762739
 30
0.0
 10
-6.5960613918
 20
8.0292805262
 30
0.0
 10
-6.5999589902
 20
8.0130922228
 30
0.0
 10
-6.6041195562
 20
7.9969989096
 30
0.0
 10
-6.6087144957
 20
7.981502092
 30
0.0
 10
-6.6138801693
 20
7.9670869118
 30
0.0
 10
-6.617954052
 20
7.9580709898
 30
0.0
 10
-6.6201485152
 20
7.9538770359
 30
0.0
  0
SPLINE
  5
29C
100
AcDbEntity
  8
0
100
AcDbSpline
 62
7
  6
CONTINUOUS
 70
0
 71
3
 72
17
 73
13
 74
0
 42
0.0000001
 43
0.0000001
 44
0.0000000001
 40
0.0
 40
0.0
 40
0.0
 40
0.0
 40
0.0523236165
 40
0.1091828342
 40
0.1694474405
 40
0.232331177
 40
0.3634581247
 40
0.498106015
 40
0.6323554084
 40
0.7627589833
 40
0.8862847212
 40
1.0
 40
1.0
 40
1.0
 40
1.0
 10
-6.3938190872
 20
8.1681726424
 30
0.0
 10
-6.3942109803
 20
8.1660302267
 30
0.0
 10
-6.3949400012
 20
8.16154325
 30
0.0
 10
-6.3958569527
 20
8.1545490995
 30
0.0
 10
-6.3966545132
 20
8.1470983414
 30
0.0
 10
-6.3975993628
 20
8.1365560602
 30
0.0
 10
-6.3985899395
 20
8.1229111753
 30
0.0
 10
-6.3997698971
 20
8.1063021374
 30
0.0
 10
-6.4012248704
 20
8.0897435114
 30
0.0
 10
-6.4032064721
 20
8.073701751
 30
0.0
 10
-6.4059290542
 20
8.0586329371
 30
0.0
 10
-6.4084634165
 20
8.0490694452
 30
0.0
 10
-6.4099376545
 20
8.0445714968
 30
0.0
  0
SPLINE
  5
29D
100
AcDbEntity
  8
0
100
AcDbSpline
 62
7
  6
CONTINUOUS
 70
0
 71
3
 72
17
 73
13
 74
0
 42
0.0000001
 43
0.0000001
 44
0.0000000001
 40
0.0
 40
0.0
 40
0.0
 40
0.0
 40
0.0523236165
 40
0.1091828342
 40
0.1694474405
 40
0.232331177
 40
0.3634581247
 40
0.498106015
 40
0.6323554084
 40
0.7627589833
 40
0.8862847212
 40
1.0
 40
1.0
 40
1.0
 40
1.0
 10
-6.2219665971
 20
8.2931967137
 30
0.0
 10
-6.2220005184
 20
8.2910190143
 30
0.0
 10
-6.2219810711
 20
8.2864732412
 30
0.0
 10
-6.2217343275
 20
8.2794235562
 30
0.0
 10
-6.2212946669
 20
8.2719431419
 30
0.0
 10
-6.220491443
 20
8.2613891254
 30
0.0
 10
-6.2192226553
 20
8.2477672934
 30
0.0
 10
-6.2176527863
 20
8.2311905642
 30
0.0
 10
-6.2163624799
 20
8.2146182937
 30
0.0
 10
-6.2156766919
 20
8.1984691601
 30
0.0
 10
-6.2158819187
 20
8.1831577432
 30
0.0
 10
-6.216807631
 20
8.1733075439
 30
0.0
 10
-6.2175214313
 20
8.168628291
 30
0.0
  0
SPLINE
  5
29E
100
AcDbEntity
  8
0
100
AcDbSpline
 62
7
  6
CONTINUOUS
 70
0
 71
3
 72
17
 73
13
 74
0
 42
0.0000001
 43
0.0000001
 44
0.0000000001
 40
0.0
 40
0.0
 40
0.0
 40
0.0
 40
0.0523236165
 40
0.1091828342
 40
0.1694474405
 40
0.232331177
 40
0.3634581247
 40
0.498106015
 40
0.6323554084
 40
0.7627589833
 40
0.8862847212
 40
1.0
 40
1.0
 40
1.0
 40
1.0
 10
-6.0730360139
 20
8.4448013909
 30
0.0
 10
-6.0727110382
 20
8.4426478087
 30
0.0
 10
-6.071943653
 20
8.4381672338
 30
0.0
 10
-6.0705399448
 20
8.431254308
 30
0.0
 10
-6.0688750556
 20
8.4239482801
 30
0.0
 10
-6.0663456678
 20
8.4136704092
 30
0.0
 10
-6.0628521243
 20
8.4004431917
 30
0.0
 10
-6.05857525
 20
8.3843509332
 30
0.0
 10
-6.0545748593
 20
8.3682170584
 30
0.0
 10
-6.0512403877
 20
8.35240105
 30
0.0
 10
-6.0489226614
 20
8.3372646782
 30
0.0
 10
-6.0482144732
 20
8.3273964545
 30
0.0
 10
-6.0481483654
 20
8.3226635328
 30
0.0
  0
SPLINE
  5
29F
100
AcDbEntity
  8
0
100
AcDbSpline
 62
7
  6
CONTINUOUS
 70
0
 71
3
 72
17
 73
13
 74
0
 42
0.0000001
 43
0.0000001
 44
0.0000000001
 40
0.0
 40
0.0
 40
0.0
 40
0.0
 40
0.0523236165
 40
0.1091828342
 40
0.1694474405
 40
0.232331177
 40
0.3634581247
 40
0.498106015
 40
0.6323554084
 40
0.7627589833
 40
0.8862847212
 40
1.0
 40
1.0
 40
1.0
 40
1.0
 10
-5.9510897037
 20
8.618851367
 30
0.0
 10
-5.9504146953
 20
8.6167806451
 30
0.0
 10
-5.9489203042
 20
8.6124874847
 30
0.0
 10
-5.9463979202
 20
8.6058998812
 30
0.0
 10
-5.9435532155
 20
8.5989675256
 30
0.0
 10
-5.9393666575
 20
8.5892461489
 30
0.0
 10
-5.9337436513
 20
8.5767743435
 30
0.0
 10
-5.9268764316
 20
8.5616055027
 30
0.0
 10
-5.9202750749
 20
8.5463501059
 30
0.0
 10
-5.9143828739
 20
8.5312986345
 30
0.0
 10
-5.9096054147
 20
8.5167501813
 30
0.0
 10
-5.9072826432
 20
8.5071331079
 30
0.0
 10
-5.9064384306
 20
8.5024756168
 30
0.0
  0
SPLINE
  5
2A0
100
AcDbEntity
  8
0
100
AcDbSpline
 62
7
  6
CONTINUOUS
 70
0
 71
3
 72
17
 73
13
 74
0
 42
0.0000001
 43
0.0000001
 44
0.0000000001
 40
0.0
 40
0.0
 40
0.0
 40
0.0
 40
0.0523236165
 40
0.1091828342
 40
0.1694474405
 40
0.232331177
 40
0.3634581247
 40
0.498106015
 40
0.6323554084
 40
0.7627589833
 40
0.8862847212
 40
1.0
 40
1.0
 40
1.0
 40
1.0
 10
-6.0217583594
 20
10.0246552824
 30
0.0
 10
-6.019590902
 20
10.0244416153
 30
0.0
 10
-6.0150590537
 20
10.0240855493
 30
0.0
 10
-6.0080130755
 20
10.0237491986
 30
0.0
 10
-6.0005219062
 20
10.0235695307
 30
0.0
 10
-5.9899376082
 20
10.0234983274
 30
0.0
 10
-5.9762575242
 20
10.0236377186
 30
0.0
 10
-5.9596077716
 20
10.02383311
 30
0.0
 10
-5.9429855522
 20
10.0237502623
 30
0.0
 10
-5.9268349527
 20
10.0230999094
 30
0.0
 10
-5.911592799
 20
10.0216307752
 30
0.0
 10
-5.9018527108
 20
10.0198946728
 30
0.0
 10
-5.8972483997
 20
10.0187968399
 30
0.0
  0
SPLINE
  5
2A1
100
AcDbEntity
  8
0
100
AcDbSpline
 62
7
  6
CONTINUOUS
 70
0
 71
3
 72
17
 73
13
 74
0
 42
0.0000001
 43
0.0000001
 44
0.0000000001
 40
0.0
 40
0.0
 40
0.0
 40
0.0
 40
0.0523236165
 40
0.1091828342
 40
0.1694474405
 40
0.232331177
 40
0.3634581247
 40
0.498106015
 40
0.6323554084
 40
0.7627589833
 40
0.8862847212
 40
1.0
 40
1.0
 40
1.0
 40
1.0
 10
-6.1605445108
 20
10.185598443
 30
0.0
 10
-6.158371446
 20
10.1857444386
 30
0.0
 10
-6.1538427991
 20
10.1861391399
 30
0.0
 10
-6.1468375562
 20
10.1869670962
 30
0.0
 10
-6.1394189827
 20
10.1880228738
 30
0.0
 10
-6.1289673186
 20
10.1896947444
 30
0.0
 10
-6.1154967526
 20
10.1920838825
 30
0.0
 10
-6.099106237
 20
10.1950170442
 30
0.0
 10
-6.0826970829
 20
10.1976712297
 30
0.0
 10
-6.0666597089
 20
10.1996880245
 30
0.0
 10
-6.0513836252
 20
10.2007476809
 30
0.0
 10
-6.0414906262
 20
10.200638408
 30
0.0
 10
-6.0367684151
 20
10.2003133859
 30
0.0
  0
SPLINE
  5
2A2
100
AcDbEntity
  8
0
100
AcDbSpline
 62
7
  6
CONTINUOUS
 70
0
 71
3
 72
17
 73
13
 74
0
 42
0.0000001
 43
0.0000001
 44
0.0000000001
 40
0.0
 40
0.0
 40
0.0
 40
0.0
 40
0.0523236165
 40
0.1091828342
 40
0.1694474405
 40
0.232331177
 40
0.3634581247
 40
0.498106015
 40
0.6323554084
 40
0.7627589833
 40
0.8862847212
 40
1.0
 40
1.0
 40
1.0
 40
1.0
 10
-6.3239279738
 20
10.3215033391
 30
0.0
 10
-6.3218085761
 20
10.3220050151
 30
0.0
 10
-6.3174066581
 20
10.3231397175
 30
0.0
 10
-6.3106332318
 20
10.3251093967
 30
0.0
 10
-6.3034896099
 20
10.3273718214
 30
0.0
 10
-6.2934556688
 20
10.3307411625
 30
0.0
 10
-6.2805620563
 20
10.3353148792
 30
0.0
 10
-6.2648778603
 20
10.3409058035
 30
0.0
 10
-6.2491293624
 20
10.3462246242
 30
0.0
 10
-6.233642664
 20
10.3508535549
 30
0.0
 10
-6.2187493347
 20
10.3544130978
 30
0.0
 10
-6.2089732753
 20
10.3559336349
 30
0.0
 10
-6.2042619714
 20
10.3563902892
 30
0.0
  0
SPLINE
  5
2A3
100
AcDbEntity
  8
0
100
AcDbSpline
 62
7
  6
CONTINUOUS
 70
0
 71
3
 72
17
 73
13
 74
0
 42
0.0000001
 43
0.0000001
 44
0.0000000001
 40
0.0
 40
0.0
 40
0.0
 40
0.0
 40
0.0523236165
 40
0.1091828342
 40
0.1694474405
 40
0.232331177
 40
0.3634581247
 40
0.498106015
 40
0.6323554084
 40
0.7627589833
 40
0.8862847212
 40
1.0
 40
1.0
 40
1.0
 40
1.0
 10
-6.5074521525
 20
10.4286629051
 30
0.0
 10
-6.5054442326
 20
10.4295065773
 30
0.0
 10
-6.5012891142
 20
10.4313503297
 30
0.0
 10
-6.4949322626
 20
10.4344080049
 30
0.0
 10
-6.4882584483
 20
10.4378153649
 30
0.0
 10
-6.478915925
 20
10.4427902713
 30
0.0
 10
-6.4669509639
 20
10.4494238097
 30
0.0
 10
-6.4524009038
 20
10.4575199935
 30
0.0
 10
-6.4377426325
 20
10.4653583685
 30
0.0
 10
-6.4232290391
 20
10.472473172
 30
0.0
 10
-6.409124708
 20
10.4784355081
 30
0.0
 10
-6.399732249
 20
10.4815443798
 30
0.0
 10
-6.3951603622
 20
10.4827702543
 30
0.0
  0
SPLINE
  5
2A4
100
AcDbEntity
  8
0
100
AcDbSpline
 62
7
  6
CONTINUOUS
 70
0
 71
3
 72
17
 73
13
 74
0
 42
0.0000001
 43
0.0000001
 44
0.0000000001
 40
0.0
 40
0.0
 40
0.0
 40
0.0
 40
0.0523236165
 40
0.1091828342
 40
0.1694474405
 40
0.232331177
 40
0.3634581247
 40
0.498106015
 40
0.6323554084
 40
0.7627589833
 40
0.8862847212
 40
1.0
 40
1.0
 40
1.0
 40
1.0
 10
-6.7061110745
 20
10.5041541593
 30
0.0
 10
-6.7042694022
 20
10.505316815
 30
0.0
 10
-6.7004744222
 20
10.5078193254
 30
0.0
 10
-6.6947075406
 20
10.5118815928
 30
0.0
 10
-6.6886855749
 20
10.5163409457
 30
0.0
 10
-6.6802893047
 20
10.5227857173
 30
0.0
 10
-6.6695793621
 20
10.5312981351
 30
0.0
 10
-6.6565603187
 20
10.5416787395
 30
0.0
 10
-6.6433921062
 20
10.5518228621
 30
0.0
 10
-6.6302475036
 20
10.5612294686
 30
0.0
 10
-6.6173168935
 20
10.5694319637
 30
0.0
 10
-6.6085642321
 20
10.5740443696
 30
0.0
 10
-6.6042564692
 20
10.5760060263
 30
0.0
  0
SPLINE
  5
2A5
100
AcDbEntity
  8
0
100
AcDbSpline
 62
7
  6
CONTINUOUS
 70
0
 71
3
 72
17
 73
13
 74
0
 42
0.0000001
 43
0.0000001
 44
0.0000000001
 40
0.0
 40
0.0
 40
0.0
 40
0.0
 40
0.0523236165
 40
0.1091828342
 40
0.1694474405
 40
0.232331177
 40
0.3634581247
 40
0.498106015
 40
0.6323554084
 40
0.7627589833
 40
0.8862847212
 40
1.0
 40
1.0
 40
1.0
 40
1.0
 10
-6.9144859385
 20
10.5459179335
 30
0.0
 10
-6.9128607488
 20
10.547367859
 30
0.0
 10
-6.9095294226
 20
10.5504608667
 30
0.0
 10
-6.9045098137
 20
10.5554169203
 30
0.0
 10
-6.8993039572
 20
10.5608066287
 30
0.0
 10
-6.8920829643
 20
10.5685454721
 30
0.0
 10
-6.8829201743
 20
10.5787045767
 30
0.0
 10
-6.8717872668
 20
10.591086451
 30
0.0
 10
-6.8604683015
 20
10.6032596208
 30
0.0
 10
-6.8490512338
 20
10.6147014472
 30
0.0
 10
-6.8376470517
 20
10.6249203627
 30
0.0
 10
-6.8297729334
 20
10.6309104905
 30
0.0
 10
-6.8258467971
 20
10.6335544215
 30
0.0
  0
SPLINE
  5
2A6
100
AcDbEntity
  8
0
100
AcDbSpline
 62
7
  6
CONTINUOUS
 70
0
 71
3
 72
24
 73
20
 74
0
 42
0.0000001
 43
0.0000001
 44
0.0000000001
 40
0.0
 40
0.0
 40
0.0
 40
0.0
 40
0.1250055695
 40
0.2500011688
 40
0.3749817861
 40
0.4999469451
 40
0.5624544463
 40
0.6249595065
 40
0.6874622455
 40
0.7499625165
 40
0.8124594548
 40
0.8437130358
 40
0.8749661289
 40
0.9062182925
 40
0.9374692264
 40
0.9530981091
 40
0.9687276956
 40
0.9843689518
 40
1.0
 40
1.0
 40
1.0
 40
1.0
 10
-6.9144859385
 20
10.5459179335
 30
0.0
 10
-6.9227859351
 20
10.5416268726
 30
0.0
 10
-6.9399226689
 20
10.534042582
 30
0.0
 10
-6.9667909594
 20
10.5258386641
 30
0.0
 10
-6.9944481319
 20
10.5209145333
 30
0.0
 10
-7.017829645
 20
10.5196198623
 30
0.0
 10
-7.0365116666
 20
10.5203054828
 30
0.0
 10
-7.0504686003
 20
10.5216911548
 30
0.0
 10
-7.064308555
 20
10.523963524
 30
0.0
 10
-7.0779671482
 20
10.5271490615
 30
0.0
 10
-7.0891357003
 20
10.530606974
 30
0.0
 10
-7.0978768579
 20
10.5339145169
 30
0.0
 10
-7.1043121512
 20
10.5366972789
 30
0.0
 10
-7.1105848536
 20
10.5398302522
 30
0.0
 10
-7.1156203765
 20
10.5428042659
 30
0.0
 10
-7.1194510916
 20
10.5454833884
 30
0.0
 10
-7.122190583
 20
10.5476760541
 30
0.0
 10
-7.1247329511
 20
10.5500969231
 30
0.0
 10
-7.1262373228
 20
10.5518968614
 30
0.0
 10
-7.1269162761
 20
10.5528476867
 30
0.0
  0
SPLINE
  5
2A7
100
AcDbEntity
  8
0
100
AcDbSpline
 62
7
  6
CONTINUOUS
 70
0
 71
3
 72
24
 73
20
 74
0
 42
0.0000001
 43
0.0000001
 44
0.0000000001
 40
0.0
 40
0.0
 40
0.0
 40
0.0
 40
0.1250055785
 40
0.2500013195
 40
0.3749819965
 40
0.4999473481
 40
0.562454894
 40
0.624959992
 40
0.6874627553
 40
0.7499630562
 40
0.8124600382
 40
0.8437136393
 40
0.8749667602
 40
0.9062189391
 40
0.9374697966
 40
0.9530986394
 40
0.9687279939
 40
0.9843689834
 40
1.0
 40
1.0
 40
1.0
 40
1.0
 10
-6.7061110745
 20
10.5041541593
 30
0.0
 10
-6.7150025637
 20
10.5012882559
 30
0.0
 10
-6.733150602
 20
10.4966286312
 30
0.0
 10
-6.7609976602
 20
10.492958697
 30
0.0
 10
-6.7890830826
 20
10.4926524566
 30
0.0
 10
-6.8123548387
 20
10.4952216582
 30
0.0
 10
-6.830666314
 20
10.498970483
 30
0.0
 10
-6.8442028002
 20
10.5026323795
 30
0.0
 10
-6.8574781611
 20
10.5071493037
 30
0.0
 10
-6.8704245936
 20
10.512536742
 30
0.0
 10
-6.8808706805
 20
10.5177830773
 30
0.0
 10
-6.8889477402
 20
10.5224817635
 30
0.0
 10
-6.8948371144
 20
10.5262836643
 30
0.0
 10
-6.9005088527
 20
10.5304038588
 30
0.0
 10
-6.9049869708
 20
10.5341635082
 30
0.0
 10
-6.9083259034
 20
10.5374338987
 30
0.0
 10
-6.9106687435
 20
10.5400451939
 30
0.0
 10
-6.9127806703
 20
10.5428485993
 30
0.0
 10
-6.9139710131
 20
10.5448694083
 30
0.0
 10
-6.9144859385
 20
10.5459179335
 30
0.0
  0
SPLINE
  5
2A8
100
AcDbEntity
  8
0
100
AcDbSpline
 62
7
  6
CONTINUOUS
 70
0
 71
3
 72
24
 73
20
 74
0
 42
0.0000001
 43
0.0000001
 44
0.0000000001
 40
0.0
 40
0.0
 40
0.0
 40
0.0
 40
0.1250055731
 40
0.2500013113
 40
0.37498199
 40
0.4999473438
 40
0.5624548909
 40
0.62495999
 40
0.6874627544
 40
0.7499630565
 40
0.8124600396
 40
0.8437136412
 40
0.8749667625
 40
0.9062189424
 40
0.9374697997
 40
0.9530986426
 40
0.9687279966
 40
0.9843689835
 40
1.0
 40
1.0
 40
1.0
 40
1.0
 10
-6.5074521525
 20
10.4286629051
 30
0.0
 10
-6.5166940832
 20
10.4272995664
 30
0.0
 10
-6.5353615519
 20
10.4256905343
 30
0.0
 10
-6.5634328647
 20
10.4266540871
 30
0.0
 10
-6.5911856506
 20
10.430974691
 30
0.0
 10
-6.6137171433
 20
10.437339224
 30
0.0
 10
-6.6311618479
 20
10.444050864
 30
0.0
 10
-6.6439109945
 20
10.4498908306
 30
0.0
 10
-6.6562618455
 20
10.4565311844
 30
0.0
 10
-6.6681449735
 20
10.4639760406
 30
0.0
 10
-6.6775850813
 20
10.4708701782
 30
0.0
 10
-6.6847786109
 20
10.4768342104
 30
0.0
 10
-6.6899618965
 20
10.4815536098
 30
0.0
 10
-6.6948781254
 20
10.4865511406
 30
0.0
 10
-6.6986763561
 20
10.4909965819
 30
0.0
 10
-6.7014314671
 20
10.4947719346
 30
0.0
 10
-6.703312553
 20
10.497733231
 30
0.0
 10
-6.704934255
 20
10.5008460107
 30
0.0
 10
-6.705775752
 20
10.5030351812
 30
0.0
 10
-6.7061110745
 20
10.5041541593
 30
0.0
  0
SPLINE
  5
2A9
100
AcDbEntity
  8
0
100
AcDbSpline
 62
7
  6
CONTINUOUS
 70
0
 71
3
 72
24
 73
20
 74
0
 42
0.0000001
 43
0.0000001
 44
0.0000000001
 40
0.0
 40
0.0
 40
0.0
 40
0.0
 40
0.1250055731
 40
0.2500013114
 40
0.37498199
 40
0.4999473438
 40
0.5624548909
 40
0.62495999
 40
0.6874627544
 40
0.7499630565
 40
0.8124600396
 40
0.8437136412
 40
0.8749667625
 40
0.9062189424
 40
0.9374697997
 40
0.9530986426
 40
0.9687279966
 40
0.9843689835
 40
1.0
 40
1.0
 40
1.0
 40
1.0
 10
-6.3239279738
 20
10.3215033391
 30
0.0
 10
-6.333268255
 20
10.3216797526
 30
0.0
 10
-6.3519459639
 20
10.3231652026
 30
0.0
 10
-6.3794758333
 20
10.3287359595
 30
0.0
 10
-6.4061389722
 20
10.3375655552
 30
0.0
 10
-6.4273156118
 20
10.3475518149
 30
0.0
 10
-6.4434177076
 20
10.3570431973
 30
0.0
 10
-6.4550317571
 20
10.3649019379
 30
0.0
 10
-6.4661212049
 20
10.3734845929
 30
0.0
 10
-6.4766168932
 20
10.382783794
 30
0.0
 10
-6.4847935247
 20
10.3911376833
 30
0.0
 10
-6.4909073069
 20
10.3982043809
 30
0.0
 10
-6.4952431197
 20
10.4037125483
 30
0.0
 10
-6.4992697395
 20
10.409451098
 30
0.0
 10
-6.5022844791
 20
10.4144610731
 30
0.0
 10
-6.5043806175
 20
10.4186384082
 30
0.0
 10
-6.5057486392
 20
10.421868931
 30
0.0
 10
-6.5068358815
 20
10.4252061782
 30
0.0
 10
-6.5073055793
 20
10.4275039963
 30
0.0
 10
-6.5074521525
 20
10.4286629051
 30
0.0
  0
SPLINE
  5
2AA
100
AcDbEntity
  8
0
100
AcDbSpline
 62
7
  6
CONTINUOUS
 70
0
 71
3
 72
24
 73
20
 74
0
 42
0.0000001
 43
0.0000001
 44
0.0000000001
 40
0.0
 40
0.0
 40
0.0
 40
0.0
 40
0.125005573
 40
0.2500013112
 40
0.37498199
 40
0.4999473438
 40
0.5624548908
 40
0.62495999
 40
0.6874627544
 40
0.7499630565
 40
0.8124600396
 40
0.8437136412
 40
0.8749667626
 40
0.9062189425
 40
0.9374697998
 40
0.9530986426
 40
0.9687279966
 40
0.9843689835
 40
1.0
 40
1.0
 40
1.0
 40
1.0
 10
-6.1605445108
 20
10.185598443
 30
0.0
 10
-6.1697283685
 20
10.1873097968
 30
0.0
 10
-6.1879068475
 20
10.1918492102
 30
0.0
 10
-6.2141443436
 20
10.2018752183
 30
0.0
 10
-6.2389905476
 20
10.2149729618
 30
0.0
 10
-6.2582347007
 20
10.2283085539
 30
0.0
 10
-6.2725549724
 20
10.240320783
 30
0.0
 10
-6.2827171294
 20
10.2499839354
 30
0.0
 10
-6.2922426881
 20
10.2602747833
 30
0.0
 10
-6.3010646467
 20
10.271174676
 30
0.0
 10
-6.3077547687
 20
10.2807604486
 30
0.0
 10
-6.3126220385
 20
10.288737054
 30
0.0
 10
-6.3159921109
 20
10.2948837436
 30
0.0
 10
-6.3190192879
 20
10.3012067823
 30
0.0
 10
-6.3211683036
 20
10.3066446346
 30
0.0
 10
-6.3225482932
 20
10.3111100073
 30
0.0
 10
-6.3233659353
 20
10.3145216377
 30
0.0
 10
-6.3238890613
 20
10.3179923226
 30
0.0
 10
-6.3239741481
 20
10.3203361111
 30
0.0
 10
-6.3239279738
 20
10.3215033391
 30
0.0
  0
SPLINE
  5
2AB
100
AcDbEntity
  8
0
100
AcDbSpline
 62
7
  6
CONTINUOUS
 70
0
 71
3
 72
24
 73
20
 74
0
 42
0.0000001
 43
0.0000001
 44
0.0000000001
 40
0.0
 40
0.0
 40
0.0
 40
0.0
 40
0.1250055731
 40
0.2500013114
 40
0.37498199
 40
0.4999473438
 40
0.5624548909
 40
0.62495999
 40
0.6874627544
 40
0.7499630565
 40
0.8124600396
 40
0.8437136412
 40
0.8749667625
 40
0.9062189424
 40
0.9374697997
 40
0.9530986426
 40
0.9687279966
 40
0.9843689835
 40
1.0
 40
1.0
 40
1.0
 40
1.0
 10
-6.0217583594
 20
10.0246552824
 30
0.0
 10
-6.0305352864
 20
10.0278548959
 30
0.0
 10
-6.0477186827
 20
10.0353244518
 30
0.0
 10
-6.0719481278
 20
10.0495322324
 30
0.0
 10
-6.0942996693
 20
10.0665408577
 30
0.0
 10
-6.1110864148
 20
10.0828620286
 30
0.0
 10
-6.1232342496
 20
10.0970674479
 30
0.0
 10
-6.1316673219
 20
10.1082714312
 30
0.0
 10
-6.1393691638
 20
10.1199897694
 30
0.0
 10
-6.1462767569
 20
10.1321930383
 30
0.0
 10
-6.1512978835
 20
10.142749224
 30
0.0
 10
-6.1547858767
 20
10.15141816
 30
0.0
 10
-6.1570982836
 20
10.158035709
 30
0.0
 10
-6.1590434458
 20
10.1647707639
 30
0.0
 10
-6.1602681191
 20
10.1704881655
 30
0.0
 10
-6.1608943181
 20
10.1751197742
 30
0.0
 10
-6.1611392778
 20
10.1786194535
 30
0.0
 10
-6.1610840182
 20
10.1821289066
 30
0.0
 10
-6.160782173
 20
10.1844547342
 30
0.0
 10
-6.1605445108
 20
10.185598443
 30
0.0
  0
SPLINE
  5
2AC
100
AcDbEntity
  8
0
100
AcDbSpline
 62
7
  6
CONTINUOUS
 70
0
 71
3
 72
21
 73
17
 74
0
 42
0.0000001
 43
0.0000001
 44
0.0000000001
 40
0.0
 40
0.0
 40
0.0
 40
0.0
 40
0.1250086073
 40
0.2500093954
 40
0.3750029275
 40
0.4999894018
 40
0.6249674878
 40
0.6874702464
 40
0.7499715579
 40
0.8124705588
 40
0.8437239122
 40
0.874977769
 40
0.9062334365
 40
0.9374863851
 40
0.9687450679
 40
1.0
 40
1.0
 40
1.0
 40
1.0
 10
-5.9721007585
 20
9.8926016145
 30
0.0
 10
-5.9760875212
 20
9.897168866
 30
0.0
 10
-5.9837064733
 20
9.9066196064
 30
0.0
 10
-5.9939800516
 20
9.9216481605
 30
0.0
 10
-6.0030232155
 20
9.9374488217
 30
0.0
 10
-6.0107470674
 20
9.9539332657
 30
0.0
 10
-6.0159947654
 20
9.9681727141
 30
0.0
 10
-6.0193818139
 20
9.9798176865
 30
0.0
 10
-6.0214730566
 20
9.9886715799
 30
0.0
 10
-6.0227841944
 20
9.9961411702
 30
0.0
 10
-6.0235039919
 20
10.0021621092
 30
0.0
 10
-6.023849581
 20
10.0066978899
 30
0.0
 10
-6.0239553422
 20
10.0112463467
 30
0.0
 10
-6.0237519927
 20
10.0157941956
 30
0.0
 10
-6.0231265658
 20
10.0203059503
 30
0.0
 10
-6.0223068068
 20
10.0232422208
 30
0.0
 10
-6.0217583594
 20
10.0246552824
 30
0.0
  0
SPLINE
  5
2AD
100
AcDbEntity
  8
0
100
AcDbSpline
 62
7
  6
CONTINUOUS
 70
0
 71
3
 72
24
 73
20
 74
0
 42
0.0000001
 43
0.0000001
 44
0.0000000001
 40
0.0
 40
0.0
 40
0.0
 40
0.0
 40
0.1250055731
 40
0.2500013113
 40
0.37498199
 40
0.4999473438
 40
0.5624548909
 40
0.62495999
 40
0.6874627544
 40
0.7499630565
 40
0.8124600396
 40
0.8437136412
 40
0.8749667625
 40
0.9062189424
 40
0.9374697997
 40
0.9530986426
 40
0.9687279966
 40
0.9843689835
 40
1.0
 40
1.0
 40
1.0
 40
1.0
 10
-6.0730360139
 20
8.4448013909
 30
0.0
 10
-6.0720890252
 20
8.4540952161
 30
0.0
 10
-6.0690665276
 20
8.4725865082
 30
0.0
 10
-6.0612417956
 20
8.4995624346
 30
0.0
 10
-6.0502409126
 20
8.5254055249
 30
0.0
 10
-6.0385403061
 20
8.5456853486
 30
0.0
 10
-6.0277518654
 20
8.560948814
 30
0.0
 10
-6.0189610464
 20
8.5718743552
 30
0.0
 10
-6.0094920982
 20
8.5822173161
 30
0.0
 10
-5.9993580739
 20
8.5919093832
 30
0.0
 10
-5.9903576061
 20
8.599368361
 30
0.0
 10
-5.9828102537
 20
8.6048778092
 30
0.0
 10
-5.9769629078
 20
8.6087440381
 30
0.0
 10
-5.9709114945
 20
8.6122831082
 30
0.0
 10
-5.9656697138
 20
8.6148739075
 30
0.0
 10
-5.9613335744
 20
8.6166179887
 30
0.0
 10
-5.9580011313
 20
8.6177146124
 30
0.0
 10
-5.9545855106
 20
8.6185226038
 30
0.0
 10
-5.9522567574
 20
8.6188009792
 30
0.0
 10
-5.9510897037
 20
8.618851367
 30
0.0
  0
SPLINE
  5
2AE
100
AcDbEntity
  8
0
100
AcDbSpline
 62
7
  6
CONTINUOUS
 70
0
 71
3
 72
24
 73
20
 74
0
 42
0.0000001
 43
0.0000001
 44
0.0000000001
 40
0.0
 40
0.0
 40
0.0
 40
0.0
 40
0.1250055689
 40
0.2500013031
 40
0.3749819779
 40
0.4999473278
 40
0.5624548729
 40
0.6249599701
 40
0.6874627326
 40
0.7499630327
 40
0.8124600139
 40
0.8437136142
 40
0.8749667353
 40
0.9062189123
 40
0.9374697781
 40
0.9530986159
 40
0.9687279242
 40
0.9843689691
 40
1.0
 40
1.0
 40
1.0
 40
1.0
 10
-6.2219665971
 20
8.2931967137
 30
0.0
 10
-6.219502824
 20
8.3022079173
 30
0.0
 10
-6.2134780091
 20
8.3199495338
 30
0.0
 10
-6.2013199424
 20
8.3452696523
 30
0.0
 10
-6.1862154998
 20
8.3689496122
 30
0.0
 10
-6.1713365523
 20
8.3870270106
 30
0.0
 10
-6.1581829883
 20
8.4003066024
 30
0.0
 10
-6.1477137938
 20
8.4096362275
 30
0.0
 10
-6.1366716075
 20
8.4182796024
 30
0.0
 10
-6.1250805484
 20
8.4261714939
 30
0.0
 10
-6.1149751371
 20
8.4320473276
 30
0.0
 10
-6.1066239019
 20
8.4362393932
 30
0.0
 10
-6.1002199504
 20
8.4390904598
 30
0.0
 10
-6.0936685621
 20
8.4415852419
 30
0.0
 10
-6.0880718436
 20
8.4432779455
 30
0.0
 10
-6.083507782
 20
8.4442845434
 30
0.0
 10
-6.0800402901
 20
8.4448177057
 30
0.0
 10
-6.0765382621
 20
8.4450525019
 30
0.0
 10
-6.0741954453
 20
8.4449437795
 30
0.0
 10
-6.0730360139
 20
8.4448013909
 30
0.0
  0
SPLINE
  5
2AF
100
AcDbEntity
  8
0
100
AcDbSpline
 62
7
  6
CONTINUOUS
 70
0
 71
3
 72
24
 73
20
 74
0
 42
0.0000001
 43
0.0000001
 44
0.0000000001
 40
0.0
 40
0.0
 40
0.0
 40
0.0
 40
0.1250055731
 40
0.2500013113
 40
0.37498199
 40
0.4999473438
 40
0.5624548909
 40
0.62495999
 40
0.6874627544
 40
0.7499630565
 40
0.8124600396
 40
0.8437136412
 40
0.8749667625
 40
0.9062189424
 40
0.9374697997
 40
0.9530986426
 40
0.9687279966
 40
0.9843689835
 40
1.0
 40
1.0
 40
1.0
 40
1.0
 10
-6.3938190872
 20
8.1681726424
 30
0.0
 10
-6.3899057338
 20
8.1766554273
 30
0.0
 10
-6.3810429393
 20
8.1931634328
 30
0.0
 10
-6.3648831713
 20
8.2161370903
 30
0.0
 10
-6.3460871702
 20
8.2370080051
 30
0.0
 10
-6.328435732
 20
8.2523898832
 30
0.0
 10
-6.3132758319
 20
8.2633233756
 30
0.0
 10
-6.3014138282
 20
8.2708026014
 30
0.0
 10
-6.2890995996
 20
8.2775106258
 30
0.0
 10
-6.2763676729
 20
8.2833870752
 30
0.0
 10
-6.2654329613
 20
8.28751949
 30
0.0
 10
-6.2565056385
 20
8.290279826
 30
0.0
 10
-6.2497197605
 20
8.2920379618
 30
0.0
 10
-6.2428470994
 20
8.2934204049
 30
0.0
 10
-6.2370481039
 20
8.2941688411
 30
0.0
 10
-6.2323806069
 20
8.2944104947
 30
0.0
 10
-6.2288726515
 20
8.2943656682
 30
0.0
 10
-6.2253797432
 20
8.2940208403
 30
0.0
 10
-6.2230867785
 20
8.2935279945
 30
0.0
 10
-6.2219665971
 20
8.2931967137
 30
0.0
  0
SPLINE
  5
2B0
100
AcDbEntity
  8
0
100
AcDbSpline
 62
7
  6
CONTINUOUS
 70
0
 71
3
 72
24
 73
20
 74
0
 42
0.0000001
 43
0.0000001
 44
0.0000000001
 40
0.0
 40
0.0
 40
0.0
 40
0.0
 40
0.1250055731
 40
0.2500013114
 40
0.3749819901
 40
0.4999473438
 40
0.5624548909
 40
0.62495999
 40
0.6874627544
 40
0.7499630565
 40
0.8124600396
 40
0.8437136412
 40
0.8749667625
 40
0.9062189424
 40
0.9374697997
 40
0.9530986425
 40
0.9687279966
 40
0.9843689835
 40
1.0
 40
1.0
 40
1.0
 40
1.0
 10
-6.5839058795
 20
8.0731394473
 30
0.0
 10
-6.5786496899
 20
8.080862429
 30
0.0
 10
-6.5671906658
 20
8.0956865357
 30
0.0
 10
-6.5474699857
 20
8.115687081
 30
0.0
 10
-6.5254951236
 20
8.1331796559
 30
0.0
 10
-6.5055526721
 20
8.1454464433
 30
0.0
 10
-6.4887999517
 20
8.1537356042
 30
0.0
 10
-6.4758686982
 20
8.1591604205
 30
0.0
 10
-6.4626183217
 20
8.1637501203
 30
0.0
 10
-6.4490928156
 20
8.1674508361
 30
0.0
 10
-6.4376270695
 20
8.1697271127
 30
0.0
 10
-6.4283671691
 20
8.1709804259
 30
0.0
 10
-6.421384463
 20
8.1715976744
 30
0.0
 10
-6.4143779937
 20
8.1718300702
 30
0.0
 10
-6.4085349001
 20
8.1716138241
 30
0.0
 10
-6.403891286
 20
8.1710839439
 30
0.0
 10
-6.4004385518
 20
8.1704623433
 30
0.0
 10
-6.3970500377
 20
8.1695473097
 30
0.0
 10
-6.3948694645
 20
8.1686837792
 30
0.0
 10
-6.3938190872
 20
8.1681726424
 30
0.0
  0
SPLINE
  5
2B1
100
AcDbEntity
  8
0
100
AcDbSpline
 62
7
  6
CONTINUOUS
 70
0
 71
3
 72
24
 73
20
 74
0
 42
0.0000001
 43
0.0000001
 44
0.0000000001
 40
0.0
 40
0.0
 40
0.0
 40
0.0
 40
0.1250055731
 40
0.2500013113
 40
0.37498199
 40
0.4999473438
 40
0.5624548909
 40
0.62495999
 40
0.6874627544
 40
0.7499630565
 40
0.8124600396
 40
0.8437136412
 40
0.8749667625
 40
0.9062189424
 40
0.9374697997
 40
0.9530986426
 40
0.9687279966
 40
0.9843689835
 40
1.0
 40
1.0
 40
1.0
 40
1.0
 10
-6.7870419937
 20
8.0106893403
 30
0.0
 10
-6.7805863406
 20
8.0174418597
 30
0.0
 10
-6.7668436536
 20
8.0301777117
 30
0.0
 10
-6.7440999805
 20
8.0466595918
 30
0.0
 10
-6.7195456637
 20
8.0602966834
 30
0.0
 10
-6.6978561674
 20
8.0691137801
 30
0.0
 10
-6.6799675892
 20
8.0745325068
 30
0.0
 10
-6.6663198104
 20
8.0777549413
 30
0.0
 10
-6.6524947156
 20
8.0801011236
 30
0.0
 10
-6.638544564
 20
8.0815251619
 30
0.0
 10
-6.6268605334
 20
8.0818832104
 30
0.0
 10
-6.6175206371
 20
8.0815953143
 30
0.0
 10
-6.6105315694
 20
8.081054839
 30
0.0
 10
-6.6035824067
 20
8.0801308485
 30
0.0
 10
-6.5978545965
 20
8.0789558185
 30
0.0
 10
-6.5933615288
 20
8.077668858
 30
0.0
 10
-6.5900581958
 20
8.0764874387
 30
0.0
 10
-6.586866504
 20
8.0750271585
 30
0.0
 10
-6.5848578016
 20
8.0738164979
 30
0.0
 10
-6.5839058795
 20
8.0731394473
 30
0.0
  0
SPLINE
  5
2B2
100
AcDbEntity
  8
0
100
AcDbSpline
 62
7
  6
CONTINUOUS
 70
0
 71
3
 72
24
 73
20
 74
0
 42
0.0000001
 43
0.0000001
 44
0.0000000001
 40
0.0
 40
0.0
 40
0.0
 40
0.0
 40
0.1250055731
 40
0.2500013113
 40
0.37498199
 40
0.4999473438
 40
0.5624548909
 40
0.62495999
 40
0.6874627544
 40
0.7499630565
 40
0.8124600396
 40
0.8437136412
 40
0.8749667625
 40
0.9062189424
 40
0.9374697997
 40
0.9530986426
 40
0.9687279966
 40
0.9843689835
 40
1.0
 40
1.0
 40
1.0
 40
1.0
 10
-6.9976865045
 20
7.9825257672
 30
0.0
 10
-6.9902074782
 20
7.9881236364
 30
0.0
 10
-6.9745559862
 20
7.9984238391
 30
0.0
 10
-6.9494096973
 20
8.0109374793
 30
0.0
 10
-6.9229456917
 20
8.0203471099
 30
0.0
 10
-6.9001007729
 20
8.0254740127
 30
0.0
 10
-6.8815642821
 20
8.027874499
 30
0.0
 10
-6.8675722473
 20
8.0288066538
 30
0.0
 10
-6.8535495399
 20
8.028845322
 30
0.0
 10
-6.8395552599
 20
8.0279538394
 30
0.0
 10
-6.8279716491
 20
8.0263838933
 30
0.0
 10
-6.8188065202
 20
8.0245626408
 30
0.0
 10
-6.8120017311
 20
8.0228791841
 30
0.0
 10
-6.8052994268
 20
8.0208240109
 30
0.0
 10
-6.799843137
 20
8.0187222483
 30
0.0
 10
-6.7956231726
 20
8.0167133119
 30
0.0
 10
-6.7925593455
 20
8.0150042993
 30
0.0
 10
-6.7896515355
 20
8.0130386045
 30
0.0
 10
-6.7878694952
 20
8.0115138368
 30
0.0
 10
-6.7870419937
 20
8.0106893403
 30
0.0
  0
SPLINE
  5
2B3
100
AcDbEntity
  8
0
100
AcDbSpline
 62
7
  6
CONTINUOUS
 70
0
 71
3
 72
24
 73
20
 74
0
 42
0.0000001
 43
0.0000001
 44
0.0000000001
 40
0.0
 40
0.0
 40
0.0
 40
0.0
 40
0.1250055736
 40
0.2500013121
 40
0.3749819907
 40
0.4999473442
 40
0.5624548912
 40
0.6249599902
 40
0.6874627545
 40
0.7499630565
 40
0.8124600395
 40
0.843713641
 40
0.8749667623
 40
0.9062189421
 40
0.9374697994
 40
0.9530986423
 40
0.9687279963
 40
0.9843689835
 40
1.0
 40
1.0
 40
1.0
 40
1.0
 10
-7.2100936806
 20
7.9894169433
 30
0.0
 10
-7.2017952857
 20
7.9937074699
 30
0.0
 10
-7.1846619132
 20
8.0012910655
 30
0.0
 10
-7.1577989214
 20
8.0094951322
 30
0.0
 10
-7.1301470833
 20
8.0144206363
 30
0.0
 10
-7.1067698809
 20
8.0157174991
 30
0.0
 10
-7.0880910956
 20
8.0150342673
 30
0.0
 10
-7.0741364643
 20
8.0136507159
 30
0.0
 10
-7.0602986404
 20
8.0113808153
 30
0.0
 10
-7.0466419527
 20
8.0081981286
 30
0.0
 10
-7.0354747269
 20
8.0047430113
 30
0.0
 10
-7.0267343618
 20
8.0014380805
 30
0.0
 10
-7.020299465
 20
7.998657562
 30
0.0
 10
-7.0140268372
 20
7.9955272649
 30
0.0
 10
-7.0089908984
 20
7.9925560992
 30
0.0
 10
-7.005159145
 20
7.9898799843
 30
0.0
 10
-7.0024183954
 20
7.9876899952
 30
0.0
 10
-6.9998737834
 20
7.9852725038
 30
0.0
 10
-6.9983670137
 20
7.9834752199
 30
0.0
 10
-6.9976865045
 20
7.9825257672
 30
0.0
  0
SPLINE
  5
2B4
100
AcDbEntity
  8
0
100
AcDbSpline
 62
7
  6
CONTINUOUS
 70
0
 71
3
 72
24
 73
20
 74
0
 42
0.0000001
 43
0.0000001
 44
0.0000000001
 40
0.0
 40
0.0
 40
0.0
 40
0.0
 40
0.1250055785
 40
0.2500013195
 40
0.3749819965
 40
0.4999473481
 40
0.562454894
 40
0.624959992
 40
0.6874627553
 40
0.7499630562
 40
0.8124600382
 40
0.8437136393
 40
0.8749667602
 40
0.9062189391
 40
0.9374697966
 40
0.9530986394
 40
0.9687279939
 40
0.9843689834
 40
1.0
 40
1.0
 40
1.0
 40
1.0
 10
-7.4184697107
 20
8.0311748986
 30
0.0
 10
-7.4095783015
 20
8.0340410503
 30
0.0
 10
-7.3914303933
 20
8.0387011818
 30
0.0
 10
-7.3635834377
 20
8.0423718936
 30
0.0
 10
-7.3354980238
 20
8.0426789182
 30
0.0
 10
-7.312226196
 20
8.0401103666
 30
0.0
 10
-7.293914616
 20
8.0363620531
 30
0.0
 10
-7.2803780276
 20
8.0327005347
 30
0.0
 10
-7.2671025405
 20
8.0281839811
 30
0.0
 10
-7.2541559576
 20
8.0227969044
 30
0.0
 10
-7.2437097242
 20
8.0175508608
 30
0.0
 10
-7.2356325333
 20
8.0128524002
 30
0.0
 10
-7.2297430529
 20
8.0090506639
 30
0.0
 10
-7.2240711995
 20
8.0049306277
 30
0.0
 10
-7.2195929765
 20
8.0011711034
 30
0.0
 10
-7.2162539526
 20
7.9979008061
 30
0.0
 10
-7.2139110395
 20
7.9952895764
 30
0.0
 10
-7.2117990345
 20
7.9924862299
 30
0.0
 10
-7.2106086353
 20
7.9904654541
 30
0.0
 10
-7.2100936806
 20
7.9894169433
 30
0.0
  0
SPLINE
  5
2B5
100
AcDbEntity
  8
0
100
AcDbSpline
 62
7
  6
CONTINUOUS
 70
0
 71
3
 72
24
 73
20
 74
0
 42
0.0000001
 43
0.0000001
 44
0.0000000001
 40
0.0
 40
0.0
 40
0.0
 40
0.0
 40
0.1250055731
 40
0.2500013113
 40
0.37498199
 40
0.4999473438
 40
0.5624548909
 40
0.62495999
 40
0.6874627544
 40
0.7499630565
 40
0.8124600396
 40
0.8437136412
 40
0.8749667625
 40
0.9062189424
 40
0.9374697997
 40
0.9530986426
 40
0.9687279966
 40
0.9843689835
 40
1.0
 40
1.0
 40
1.0
 40
1.0
 10
-7.6171307408
 20
8.1066606051
 30
0.0
 10
-7.6078888482
 20
8.1080242019
 30
0.0
 10
-7.5892214244
 20
8.1096337553
 30
0.0
 10
-7.5611500846
 20
8.1086709865
 30
0.0
 10
-7.5333971781
 20
8.1043511575
 30
0.0
 10
-7.5108655077
 20
8.0979872538
 30
0.0
 10
-7.4934206157
 20
8.0912761009
 30
0.0
 10
-7.480671306
 20
8.0854364903
 30
0.0
 10
-7.4683202696
 20
8.0787964814
 30
0.0
 10
-7.4564369337
 20
8.0713519571
 30
0.0
 10
-7.4469966334
 20
8.0644580831
 30
0.0
 10
-7.4398029372
 20
8.0584942518
 30
0.0
 10
-7.4346195198
 20
8.0537749971
 30
0.0
 10
-7.4297031514
 20
8.0487776036
 30
0.0
 10
-7.4259047966
 20
8.0443322683
 30
0.0
 10
-7.4231495801
 20
8.0405569926
 30
0.0
 10
-7.4212684115
 20
8.0375957487
 30
0.0
 10
-7.4196466226
 20
8.0344830143
 30
0.0
 10
-7.4188050645
 20
8.0322938674
 30
0.0
 10
-7.4184697107
 20
8.0311748986
 30
0.0
  0
SPLINE
  5
2B6
100
AcDbEntity
  8
0
100
AcDbSpline
 62
7
  6
CONTINUOUS
 70
0
 71
3
 72
24
 73
20
 74
0
 42
0.0000001
 43
0.0000001
 44
0.0000000001
 40
0.0
 40
0.0
 40
0.0
 40
0.0
 40
0.1250055731
 40
0.2500013114
 40
0.37498199
 40
0.4999473438
 40
0.5624548909
 40
0.62495999
 40
0.6874627544
 40
0.7499630565
 40
0.8124600396
 40
0.8437136412
 40
0.8749667625
 40
0.9062189424
 40
0.9374697997
 40
0.9530986426
 40
0.9687279966
 40
0.9843689835
 40
1.0
 40
1.0
 40
1.0
 40
1.0
 10
-7.8006579119
 20
8.2138150462
 30
0.0
 10
-7.7913176257
 20
8.2136388934
 30
0.0
 10
-7.7726398753
 20
8.2121539651
 30
0.0
 10
-7.7451098504
 20
8.206583977
 30
0.0
 10
-7.7184464649
 20
8.1977551258
 30
0.0
 10
-7.6972695465
 20
8.1877694574
 30
0.0
 10
-7.6811671856
 20
8.1782785248
 30
0.0
 10
-7.6695529167
 20
8.1704201085
 30
0.0
 10
-7.6584632292
 20
8.1618377632
 30
0.0
 10
-7.6479672813
 20
8.1525388551
 30
0.0
 10
-7.6397904165
 20
8.1441851942
 30
0.0
 10
-7.6336764369
 20
8.1371186673
 30
0.0
 10
-7.6293404703
 20
8.131610621
 30
0.0
 10
-7.6253136902
 20
8.1258721838
 30
0.0
 10
-7.6222988107
 20
8.1208622928
 30
0.0
 10
-7.6202025557
 20
8.1166850163
 30
0.0
 10
-7.6188344438
 20
8.1134545317
 30
0.0
 10
-7.6177471083
 20
8.1101173149
 30
0.0
 10
-7.6172773463
 20
8.1078195098
 30
0.0
 10
-7.6171307408
 20
8.1066606051
 30
0.0
  0
SPLINE
  5
2B7
100
AcDbEntity
  8
0
100
AcDbSpline
 62
7
  6
CONTINUOUS
 70
0
 71
3
 72
24
 73
20
 74
0
 42
0.0000001
 43
0.0000001
 44
0.0000000001
 40
0.0
 40
0.0
 40
0.0
 40
0.0
 40
0.125005573
 40
0.2500013112
 40
0.37498199
 40
0.4999473438
 40
0.5624548908
 40
0.62495999
 40
0.6874627544
 40
0.7499630565
 40
0.8124600396
 40
0.8437136412
 40
0.8749667626
 40
0.9062189425
 40
0.9374697998
 40
0.9530986426
 40
0.9687279966
 40
0.9843689835
 40
1.0
 40
1.0
 40
1.0
 40
1.0
 10
-7.96404517
 20
8.3497153796
 30
0.0
 10
-7.9548612645
 20
8.3480042823
 30
0.0
 10
-7.9366826587
 20
8.3434653765
 30
0.0
 10
-7.9104448827
 20
8.3334401012
 30
0.0
 10
-7.8855983129
 20
8.3203430516
 30
0.0
 10
-7.8663537874
 20
8.3070079968
 30
0.0
 10
-7.8520331803
 20
8.2949961676
 30
0.0
 10
-7.8418707534
 20
8.285333299
 30
0.0
 10
-7.8323449073
 20
8.2750427171
 30
0.0
 10
-7.8235226444
 20
8.2641430707
 30
0.0
 10
-7.8168322547
 20
8.254557485
 30
0.0
 10
-7.8119647622
 20
8.2465810155
 30
0.0
 10
-7.8085945181
 20
8.2404344201
 30
0.0
 10
-7.8055671645
 20
8.2341114659
 30
0.0
 10
-7.803417997
 20
8.2286736736
 30
0.0
 10
-7.8020378826
 20
8.2242083395
 30
0.0
 10
-7.8012201453
 20
8.2207967319
 30
0.0
 10
-7.8006969224
 20
8.2173260616
 30
0.0
 10
-7.8006117702
 20
8.2149822754
 30
0.0
 10
-7.8006579119
 20
8.2138150462
 30
0.0
  0
SPLINE
  5
2B8
100
AcDbEntity
  8
0
100
AcDbSpline
 62
7
  6
CONTINUOUS
 70
0
 71
3
 72
24
 73
20
 74
0
 42
0.0000001
 43
0.0000001
 44
0.0000000001
 40
0.0
 40
0.0
 40
0.0
 40
0.0
 40
0.1250055731
 40
0.2500013114
 40
0.37498199
 40
0.4999473438
 40
0.5624548909
 40
0.62495999
 40
0.6874627544
 40
0.7499630565
 40
0.8124600396
 40
0.8437136412
 40
0.8749667625
 40
0.9062189424
 40
0.9374697997
 40
0.9530986426
 40
0.9687279966
 40
0.9843689835
 40
1.0
 40
1.0
 40
1.0
 40
1.0
 10
-8.1028358157
 20
8.5106546645
 30
0.0
 10
-8.0940587993
 20
8.5074552961
 30
0.0
 10
-8.0768751944
 20
8.4999862201
 30
0.0
 10
-8.0526453527
 20
8.4857791161
 30
0.0
 10
-8.0302933362
 20
8.468771115
 30
0.0
 10
-8.0135061349
 20
8.4524504129
 30
0.0
 10
-8.0013579034
 20
8.4382453328
 30
0.0
 10
-7.9929245182
 20
8.4270415851
 30
0.0
 10
-7.9852223491
 20
8.4153234619
 30
0.0
 10
-7.9783144152
 20
8.4031203859
 30
0.0
 10
-7.9732929938
 20
8.3925643405
 30
0.0
 10
-7.9698047585
 20
8.3838955018
 30
0.0
 10
-7.9674921668
 20
8.3772780174
 30
0.0
 10
-7.9655468165
 20
8.3705430169
 30
0.0
 10
-7.9643219837
 20
8.3648256495
 30
0.0
 10
-7.9636956553
 20
8.3601940582
 30
0.0
 10
-7.9634505978
 20
8.3566943858
 30
0.0
 10
-7.9635057594
 20
8.3531849311
 30
0.0
 10
-7.9638075397
 20
8.3508590951
 30
0.0
 10
-7.96404517
 20
8.3497153796
 30
0.0
  0
SPLINE
  5
2B9
100
AcDbEntity
  8
0
100
AcDbSpline
 62
7
  6
CONTINUOUS
 70
0
 71
3
 72
24
 73
20
 74
0
 42
0.0000001
 43
0.0000001
 44
0.0000000001
 40
0.0
 40
0.0
 40
0.0
 40
0.0
 40
0.1250055731
 40
0.2500013113
 40
0.37498199
 40
0.4999473438
 40
0.5624548909
 40
0.62495999
 40
0.6874627544
 40
0.7499630565
 40
0.8124600396
 40
0.8437136412
 40
0.8749667625
 40
0.9062189424
 40
0.9374697997
 40
0.9530986426
 40
0.9687279966
 40
0.9843689835
 40
1.0
 40
1.0
 40
1.0
 40
1.0
 10
-8.2132440692
 20
8.6922429746
 30
0.0
 10
-8.2051133518
 20
8.6876426039
 30
0.0
 10
-8.1893934634
 20
8.6774470911
 30
0.0
 10
-8.1678324711
 20
8.6594456842
 30
0.0
 10
-8.1485847019
 20
8.6389906574
 30
0.0
 10
-8.1347127277
 20
8.6201294862
 30
0.0
 10
-8.1250682381
 20
8.604118626
 30
0.0
 10
-8.1185939313
 20
8.5916796026
 30
0.0
 10
-8.1129255306
 20
8.5788535723
 30
0.0
 10
-8.1081203528
 20
8.5656799289
 30
0.0
 10
-8.1049048684
 20
8.5544413601
 30
0.0
 10
-8.1028910387
 20
8.5453166114
 30
0.0
 10
-8.1016991797
 20
8.5384087425
 30
0.0
 10
-8.1008888959
 20
8.5314454057
 30
0.0
 10
-8.1006218073
 20
8.5256044153
 30
0.0
 10
-8.1007663493
 20
8.5209329024
 30
0.0
 10
-8.1011006561
 20
8.5174406253
 30
0.0
 10
-8.1017326975
 20
8.5139881134
 30
0.0
 10
-8.1024131786
 20
8.5117436692
 30
0.0
 10
-8.1028358157
 20
8.5106546645
 30
0.0
  0
SPLINE
  5
2BA
100
AcDbEntity
  8
0
100
AcDbSpline
 62
7
  6
CONTINUOUS
 70
0
 71
3
 72
24
 73
20
 74
0
 42
0.0000001
 43
0.0000001
 44
0.0000000001
 40
0.0
 40
0.0
 40
0.0
 40
0.0
 40
0.1250055731
 40
0.2500013113
 40
0.37498199
 40
0.4999473438
 40
0.5624548909
 40
0.62495999
 40
0.6874627544
 40
0.7499630565
 40
0.8124600396
 40
0.8437136412
 40
0.8749667625
 40
0.9062189424
 40
0.9374697997
 40
0.9530986426
 40
0.9687279966
 40
0.9843689835
 40
1.0
 40
1.0
 40
1.0
 40
1.0
 10
-8.2922583344
 20
8.8895271418
 30
0.0
 10
-8.284995697
 20
8.8836512528
 30
0.0
 10
-8.271168315
 20
8.8710074052
 30
0.0
 10
-8.2528642894
 20
8.8497027183
 30
0.0
 10
-8.2372457871
 20
8.8263586156
 30
0.0
 10
-8.2266674246
 20
8.8054714499
 30
0.0
 10
-8.2197897487
 20
8.7880915362
 30
0.0
 10
-8.2154511193
 20
8.7747565354
 30
0.0
 10
-8.2119711035
 20
8.7611724525
 30
0.0
 10
-8.2093997523
 20
8.7473875779
 30
0.0
 10
-8.2080779135
 20
8.7357730391
 30
0.0
 10
-8.2075934203
 20
8.7264412754
 30
0.0
 10
-8.2075548043
 20
8.7194314473
 30
0.0
 10
-8.2079016889
 20
8.7124297125
 30
0.0
 10
-8.20859963
 20
8.7066244232
 30
0.0
 10
-8.2095110996
 20
8.7020404132
 30
0.0
 10
-8.2104156518
 20
8.6986507899
 30
0.0
 10
-8.2116073329
 20
8.6953493946
 30
0.0
 10
-8.2126479534
 20
8.6932475637
 30
0.0
 10
-8.2132440692
 20
8.6922429746
 30
0.0
  0
SPLINE
  5
2BB
100
AcDbEntity
  8
0
100
AcDbSpline
 62
7
  6
CONTINUOUS
 70
0
 71
3
 72
24
 73
20
 74
0
 42
0.0000001
 43
0.0000001
 44
0.0000000001
 40
0.0
 40
0.0
 40
0.0
 40
0.0
 40
0.1250055731
 40
0.2500013113
 40
0.37498199
 40
0.4999473438
 40
0.5624548909
 40
0.62495999
 40
0.6874627544
 40
0.7499630565
 40
0.8124600396
 40
0.8437136412
 40
0.8749667625
 40
0.9062189424
 40
0.9374697997
 40
0.9530986426
 40
0.9687279966
 40
0.9843689835
 40
1.0
 40
1.0
 40
1.0
 40
1.0
 10
-8.3377233465
 20
9.097125864
 30
0.0
 10
-8.3315268912
 20
9.0901347327
 30
0.0
 10
-8.319969184
 20
9.0753874354
 30
0.0
 10
-8.3054214023
 20
9.0513605944
 30
0.0
 10
-8.2938581915
 20
9.025764171
 30
0.0
 10
-8.2868619857
 20
9.003420748
 30
0.0
 10
-8.2829387252
 20
8.9851458511
 30
0.0
 10
-8.2808541177
 20
8.9712786105
 30
0.0
 10
-8.2796574107
 20
8.9573070068
 30
0.0
 10
-8.2793900246
 20
8.9432869098
 30
0.0
 10
-8.2799978871
 20
8.9316132098
 30
0.0
 10
-8.2810559459
 20
8.9223289726
 30
0.0
 10
-8.2821716262
 20
8.9154083919
 30
0.0
 10
-8.2836662174
 20
8.9085592447
 30
0.0
 10
-8.2853101504
 20
8.9029480069
 30
0.0
 10
-8.2869636856
 20
8.8985765373
 30
0.0
 10
-8.2884138099
 20
8.8953820264
 30
0.0
 10
-8.2901326253
 20
8.8923217995
 30
0.0
 10
-8.2915050003
 20
8.8904199133
 30
0.0
 10
-8.2922583344
 20
8.8895271418
 30
0.0
  0
SPLINE
  5
2BC
100
AcDbEntity
  8
0
100
AcDbSpline
 62
7
  6
CONTINUOUS
 70
0
 71
3
 72
24
 73
20
 74
0
 42
0.0000001
 43
0.0000001
 44
0.0000000001
 40
0.0
 40
0.0
 40
0.0
 40
0.0
 40
0.1250055731
 40
0.2500013113
 40
0.37498199
 40
0.4999473438
 40
0.5624548909
 40
0.62495999
 40
0.6874627544
 40
0.7499630565
 40
0.8124600396
 40
0.8437136412
 40
0.8749667625
 40
0.9062189424
 40
0.9374697997
 40
0.9530986426
 40
0.9687279966
 40
0.9843689835
 40
1.0
 40
1.0
 40
1.0
 40
1.0
 10
-8.3483989604
 20
9.3093764895
 30
0.0
 10
-8.3434377075
 20
9.3014608124
 30
0.0
 10
-8.3344649335
 20
9.2850123261
 30
0.0
 10
-8.3240702143
 20
9.2589187091
 30
0.0
 10
-8.3168777035
 20
9.2317681561
 30
0.0
 10
-8.3136544893
 20
9.2085779354
 30
0.0
 10
-8.3127926587
 20
9.1899065381
 30
0.0
 10
-8.3130189347
 20
9.1758853132
 30
0.0
 10
-8.3141381791
 20
9.1619072907
 30
0.0
 10
-8.3161820515
 20
9.1480343963
 30
0.0
 10
-8.3187030346
 20
9.1366199575
 30
0.0
 10
-8.321274785
 20
9.1276364922
 30
0.0
 10
-8.3235143291
 20
9.1209939308
 30
0.0
 10
-8.3261158591
 20
9.1144841949
 30
0.0
 10
-8.3286609427
 20
9.1092200658
 30
0.0
 10
-8.3310114401
 20
9.1051803768
 30
0.0
 10
-8.3329675815
 20
9.1022681146
 30
0.0
 10
-8.3351666473
 20
9.0995325297
 30
0.0
 10
-8.3368333426
 20
9.0978824658
 30
0.0
 10
-8.3377233465
 20
9.097125864
 30
0.0
  0
SPLINE
  5
2BD
100
AcDbEntity
  8
0
100
AcDbSpline
 62
7
  6
CONTINUOUS
 70
0
 71
3
 72
24
 73
20
 74
0
 42
0.0000001
 43
0.0000001
 44
0.0000000001
 40
0.0
 40
0.0
 40
0.0
 40
0.0
 40
0.1250055762
 40
0.250001316
 40
0.3749819937
 40
0.4999473462
 40
0.5624548927
 40
0.6249599912
 40
0.6874627549
 40
0.7499630563
 40
0.8124600388
 40
0.8437136401
 40
0.8749667612
 40
0.9062189406
 40
0.937469798
 40
0.9530986408
 40
0.9687279951
 40
0.9843689834
 40
1.0
 40
1.0
 40
1.0
 40
1.0
 10
-8.3239939784
 20
9.5204894773
 30
0.0
 10
-8.3204032554
 20
9.5118651694
 30
0.0
 10
-8.3142601641
 20
9.4941641576
 30
0.0
 10
-8.3083020432
 20
9.4667155174
 30
0.0
 10
-8.3056764221
 20
9.4387514181
 30
0.0
 10
-8.3063141188
 20
9.4153469574
 30
0.0
 10
-8.3085372262
 20
9.396788358
 30
0.0
 10
-8.3110682136
 20
9.3829956045
 30
0.0
 10
-8.3144728799
 20
9.3693924408
 30
0.0
 10
-8.3187722602
 20
9.3560451587
 30
0.0
 10
-8.3231375993
 20
9.3452013319
 30
0.0
 10
-8.3271528916
 20
9.3367636797
 30
0.0
 10
-8.3304552119
 20
9.3305803262
 30
0.0
 10
-8.3340927188
 20
9.324587567
 30
0.0
 10
-8.3374695308
 20
9.3198141358
 30
0.0
 10
-8.3404528762
 20
9.3162164178
 30
0.0
 10
-8.3428616773
 20
9.3136658416
 30
0.0
 10
-8.3454810099
 20
9.311329517
 30
0.0
 10
-8.3473965634
 20
9.3099762839
 30
0.0
 10
-8.3483989604
 20
9.3093764895
 30
0.0
  0
SPLINE
  5
2BE
100
AcDbEntity
  8
0
100
AcDbSpline
 62
7
  6
CONTINUOUS
 70
0
 71
3
 72
24
 73
20
 74
0
 42
0.0000001
 43
0.0000001
 44
0.0000000001
 40
0.0
 40
0.0
 40
0.0
 40
0.0
 40
0.1250055731
 40
0.2500013113
 40
0.37498199
 40
0.4999473438
 40
0.5624548909
 40
0.62495999
 40
0.6874627544
 40
0.7499630565
 40
0.8124600396
 40
0.8437136412
 40
0.8749667625
 40
0.9062189424
 40
0.9374697997
 40
0.9530986426
 40
0.9687279966
 40
0.9843689835
 40
1.0
 40
1.0
 40
1.0
 40
1.0
 10
-8.265174093
 20
9.7247063175
 30
0.0
 10
-8.2630518439
 20
9.7156086237
 30
0.0
 10
-8.2599059999
 20
9.6971379161
 30
0.0
 10
-8.2585469965
 20
9.6690829674
 30
0.0
 10
-8.2605598836
 20
9.6410680958
 30
0.0
 10
-8.2650410968
 20
9.6180877961
 30
0.0
 10
-8.2702885026
 20
9.6001482153
 30
0.0
 10
-8.2750551639
 20
9.5869601567
 30
0.0
 10
-8.2806523832
 20
9.5741029037
 30
0.0
 10
-8.2870899978
 20
9.5616453063
 30
0.0
 10
-8.29318062
 20
9.5516678773
 30
0.0
 10
-8.2985299297
 20
9.5440061912
 30
0.0
 10
-8.302804949
 20
9.5384507083
 30
0.0
 10
-8.3073792131
 20
9.5331383898
 30
0.0
 10
-8.3114956447
 20
9.5289858609
 30
0.0
 10
-8.3150304616
 20
9.5259282483
 30
0.0
 10
-8.3178262176
 20
9.5238089303
 30
0.0
 10
-8.3207943694
 20
9.5219355938
 30
0.0
 10
-8.3229065305
 20
9.5209161038
 30
0.0
 10
-8.3239939784
 20
9.5204894773
 30
0.0
  0
SPLINE
  5
2BF
100
AcDbEntity
  8
0
100
AcDbSpline
 62
7
  6
CONTINUOUS
 70
0
 71
3
 72
24
 73
20
 74
0
 42
0.0000001
 43
0.0000001
 44
0.0000000001
 40
0.0
 40
0.0
 40
0.0
 40
0.0
 40
0.1250055825
 40
0.250001312
 40
0.3749819914
 40
0.4999473447
 40
0.5624548917
 40
0.6249599907
 40
0.687462755
 40
0.7499630569
 40
0.8124600399
 40
0.8437136414
 40
0.8749667628
 40
0.9062189426
 40
0.9374697998
 40
0.9530986426
 40
0.9687279966
 40
0.9843689835
 40
1.0
 40
1.0
 40
1.0
 40
1.0
 10
-8.1735437288
 20
9.916456606
 30
0.0
 10
-8.1729478418
 20
9.9071336823
 30
0.0
 10
-8.1728850542
 20
9.8883971022
 30
0.0
 10
-8.1761622378
 20
9.8605010969
 30
0.0
 10
-8.1827587277
 20
9.8331996129
 30
0.0
 10
-8.1909612238
 20
9.811270306
 30
0.0
 10
-8.1990897951
 20
9.7944390804
 30
0.0
 10
-8.2059621104
 20
9.7822154463
 30
0.0
 10
-8.213599208
 20
9.7704548103
 30
0.0
 10
-8.2219994585
 20
9.7592267025
 30
0.0
 10
-8.2296492304
 20
9.7503878248
 30
0.0
 10
-8.2361866448
 20
9.743711092
 30
0.0
 10
-8.2413177538
 20
9.7389350162
 30
0.0
 10
-8.2467040032
 20
9.734448042
 30
0.0
 10
-8.2514477708
 20
9.7310296836
 30
0.0
 10
-8.2554376403
 20
9.7285955787
 30
0.0
 10
-8.2585440917
 20
9.7269653272
 30
0.0
 10
-8.2617801008
 20
9.7256060775
 30
0.0
 10
-8.2640312564
 20
9.724948139
 30
0.0
 10
-8.265174093
 20
9.7247063175
 30
0.0
  0
SPLINE
  5
2C0
100
AcDbEntity
  8
0
100
AcDbSpline
 62
7
  6
CONTINUOUS
 70
0
 71
3
 72
24
 73
20
 74
0
 42
0.0000001
 43
0.0000001
 44
0.0000000001
 40
0.0
 40
0.0
 40
0.0
 40
0.0
 40
0.1250055731
 40
0.2500013113
 40
0.37498199
 40
0.4999473438
 40
0.5624548909
 40
0.62495999
 40
0.6874627544
 40
0.7499630565
 40
0.8124600396
 40
0.8437136412
 40
0.8749667625
 40
0.9062189424
 40
0.9374697997
 40
0.9530986426
 40
0.9687279966
 40
0.9843689835
 40
1.0
 40
1.0
 40
1.0
 40
1.0
 10
-8.051602279
 20
10.0905099874
 30
0.0
 10
-8.0525490082
 20
10.0812161358
 30
0.0
 10
-8.0555709894
 20
10.0627247593
 30
0.0
 10
-8.0633949682
 20
10.0357486144
 30
0.0
 10
-8.0743951294
 20
10.0099052169
 30
0.0
 10
-8.0860951697
 20
9.9896250664
 30
0.0
 10
-8.096883184
 20
9.9743612997
 30
0.0
 10
-8.105673698
 20
9.9634355131
 30
0.0
 10
-8.1151423574
 20
9.9530922878
 30
0.0
 10
-8.125276111
 20
9.9433999376
 30
0.0
 10
-8.1342763704
 20
9.9359407086
 30
0.0
 10
-8.141823569
 20
9.9304310496
 30
0.0
 10
-8.147670807
 20
9.9265646574
 30
0.0
 10
-8.1537221214
 20
9.9230254183
 30
0.0
 10
-8.1589638297
 20
9.9204344726
 30
0.0
 10
-8.1632999205
 20
9.9186902703
 30
0.0
 10
-8.166632333
 20
9.9175935536
 30
0.0
 10
-8.1700479311
 20
9.9167854668
 30
0.0
 10
-8.1723766765
 20
9.9165070263
 30
0.0
 10
-8.1735437288
 20
9.916456606
 30
0.0
  0
SPLINE
  5
2C1
100
AcDbEntity
  8
0
100
AcDbSpline
 62
7
  6
CONTINUOUS
 70
0
 71
3
 72
24
 73
20
 74
0
 42
0.0000001
 43
0.0000001
 44
0.0000000001
 40
0.0
 40
0.0
 40
0.0
 40
0.0
 40
0.1250055689
 40
0.2500013031
 40
0.3749819779
 40
0.4999473278
 40
0.5624548729
 40
0.6249599701
 40
0.6874627325
 40
0.7499630326
 40
0.8124600139
 40
0.8437136142
 40
0.8749667353
 40
0.9062189123
 40
0.9374697781
 40
0.9530986159
 40
0.9687279242
 40
0.9843689691
 40
1.0
 40
1.0
 40
1.0
 40
1.0
 10
-7.9026759295
 20
10.2421188235
 30
0.0
 10
-7.9051394509
 20
10.233107551
 30
0.0
 10
-7.9111637704
 20
10.2153657663
 30
0.0
 10
-7.9233211301
 20
10.1900453084
 30
0.0
 10
-7.9384249114
 20
10.1663649266
 30
0.0
 10
-7.9533033541
 20
10.1482871127
 30
0.0
 10
-7.9664565473
 20
10.1350071536
 30
0.0
 10
-7.9769254812
 20
10.1256772362
 30
0.0
 10
-7.9879674261
 20
10.1170335529
 30
0.0
 10
-7.9995582648
 20
10.1091413377
 30
0.0
 10
-8.009663512
 20
10.1032652219
 30
0.0
 10
-8.0180146302
 20
10.099072923
 30
0.0
 10
-8.024418502
 20
10.0962216776
 30
0.0
 10
-8.0309698207
 20
10.0937267125
 30
0.0
 10
-8.0365664919
 20
10.0920338527
 30
0.0
 10
-8.0411305254
 20
10.0910271273
 30
0.0
 10
-8.0445980024
 20
10.0904938682
 30
0.0
 10
-8.0481000238
 20
10.0902589742
 30
0.0
 10
-8.0504428436
 20
10.0903676312
 30
0.0
 10
-8.051602279
 20
10.0905099874
 30
0.0
  0
SPLINE
  5
2C2
100
AcDbEntity
  8
0
100
AcDbSpline
 62
7
  6
CONTINUOUS
 70
0
 71
3
 72
24
 73
20
 74
0
 42
0.0000001
 43
0.0000001
 44
0.0000000001
 40
0.0
 40
0.0
 40
0.0
 40
0.0
 40
0.1250055731
 40
0.2500013113
 40
0.37498199
 40
0.4999473438
 40
0.5624548909
 40
0.62495999
 40
0.6874627544
 40
0.7499630565
 40
0.8124600396
 40
0.8437136412
 40
0.8749667625
 40
0.9062189424
 40
0.9374697997
 40
0.9530986426
 40
0.9687279966
 40
0.9843689835
 40
1.0
 40
1.0
 40
1.0
 40
1.0
 10
-7.7308269308
 20
10.3671476937
 30
0.0
 10
-7.7347400473
 20
10.3586647996
 30
0.0
 10
-7.7436023808
 20
10.3421565465
 30
0.0
 10
-7.7597615072
 20
10.3191824378
 30
0.0
 10
-7.7785569255
 20
10.2983109982
 30
0.0
 10
-7.7962079342
 20
10.2829286271
 30
0.0
 10
-7.811367529
 20
10.2719947114
 30
0.0
 10
-7.8232293238
 20
10.2645151543
 30
0.0
 10
-7.8355433651
 20
10.257806786
 30
0.0
 10
-7.8482751277
 20
10.2519299811
 30
0.0
 10
-7.8592097238
 20
10.247797261
 30
0.0
 10
-7.8681369696
 20
10.2450366756
 30
0.0
 10
-7.8749227984
 20
10.2432783504
 30
0.0
 10
-7.881795421
 20
10.2418957154
 30
0.0
 10
-7.8875943955
 20
10.2411471172
 30
0.0
 10
-7.8922618858
 20
10.2409053332
 30
0.0
 10
-7.8957698425
 20
10.2409500619
 30
0.0
 10
-7.8992627604
 20
10.2412947921
 30
0.0
 10
-7.9015557389
 20
10.241787574
 30
0.0
 10
-7.9026759295
 20
10.2421188235
 30
0.0
  0
SPLINE
  5
2C3
100
AcDbEntity
  8
0
100
AcDbSpline
 62
7
  6
CONTINUOUS
 70
0
 71
3
 72
24
 73
20
 74
0
 42
0.0000001
 43
0.0000001
 44
0.0000000001
 40
0.0
 40
0.0
 40
0.0
 40
0.0
 40
0.1250055731
 40
0.2500013114
 40
0.3749819901
 40
0.4999473438
 40
0.5624548909
 40
0.62495999
 40
0.6874627544
 40
0.7499630565
 40
0.8124600396
 40
0.8437136412
 40
0.8749667625
 40
0.9062189424
 40
0.9374697997
 40
0.9530986425
 40
0.9687279966
 40
0.9843689835
 40
1.0
 40
1.0
 40
1.0
 40
1.0
 10
-7.5407427924
 20
10.462186197
 30
0.0
 10
-7.5459987663
 20
10.4544630686
 30
0.0
 10
-7.5574573765
 20
10.4396386419
 30
0.0
 10
-7.5771774981
 20
10.4196375458
 30
0.0
 10
-7.5991518717
 20
10.4021443573
 30
0.0
 10
-7.6190939806
 20
10.389877013
 30
0.0
 10
-7.6358464695
 20
10.3815873843
 30
0.0
 10
-7.6487775716
 20
10.3761622069
 30
0.0
 10
-7.6620278198
 20
10.3715721371
 30
0.0
 10
-7.6755532226
 20
10.3678710435
 30
0.0
 10
-7.6870189051
 20
10.3655944468
 30
0.0
 10
-7.6962787705
 20
10.364340875
 30
0.0
 10
-7.7032614594
 20
10.3637234315
 30
0.0
 10
-7.7102679222
 20
10.36349084
 30
0.0
 10
-7.7161110218
 20
10.363706923
 30
0.0
 10
-7.7207546507
 20
10.3642366735
 30
0.0
 10
-7.7242074022
 20
10.3648581777
 30
0.0
 10
-7.7275959419
 20
10.3657731167
 30
0.0
 10
-7.7297765392
 20
10.3666365863
 30
0.0
 10
-7.7308269308
 20
10.3671476937
 30
0.0
  0
SPLINE
  5
2C4
100
AcDbEntity
  8
0
100
AcDbSpline
 62
7
  6
CONTINUOUS
 70
0
 71
3
 72
24
 73
20
 74
0
 42
0.0000001
 43
0.0000001
 44
0.0000000001
 40
0.0
 40
0.0
 40
0.0
 40
0.0
 40
0.1250055731
 40
0.2500013113
 40
0.37498199
 40
0.4999473438
 40
0.5624548909
 40
0.62495999
 40
0.6874627544
 40
0.7499630565
 40
0.8124600396
 40
0.8437136412
 40
0.8749667625
 40
0.9062189424
 40
0.9374697997
 40
0.9530986426
 40
0.9687279966
 40
0.9843689835
 40
1.0
 40
1.0
 40
1.0
 40
1.0
 10
-7.3376084222
 20
10.5246419767
 30
0.0
 10
-7.3440638867
 20
10.517889277
 30
0.0
 10
-7.3578062181
 20
10.5051530412
 30
0.0
 10
-7.3805494309
 20
10.488670526
 30
0.0
 10
-7.4051033669
 20
10.4750327487
 30
0.0
 10
-7.426792617
 20
10.4662150463
 30
0.0
 10
-7.4446810438
 20
10.4607958201
 30
0.0
 10
-7.4583287326
 20
10.4575730044
 30
0.0
 10
-7.472153762
 20
10.4552264361
 30
0.0
 10
-7.4861038738
 20
10.4538020082
 30
0.0
 10
-7.4977878943
 20
10.4534436335
 30
0.0
 10
-7.5071277987
 20
10.4537312688
 30
0.0
 10
-7.5141168815
 20
10.4542715489
 30
0.0
 10
-7.5210660699
 20
10.4551953453
 30
0.0
 10
-7.526793913
 20
10.4563702153
 30
0.0
 10
-7.5312870166
 20
10.4576570503
 30
0.0
 10
-7.5345903826
 20
10.4588383774
 30
0.0
 10
-7.5377821152
 20
10.4602985685
 30
0.0
 10
-7.5397908514
 20
10.461509173
 30
0.0
 10
-7.5407427924
 20
10.462186197
 30
0.0
  0
SPLINE
  5
2C5
100
AcDbEntity
  8
0
100
AcDbSpline
 62
7
  6
CONTINUOUS
 70
0
 71
3
 72
24
 73
20
 74
0
 42
0.0000001
 43
0.0000001
 44
0.0000000001
 40
0.0
 40
0.0
 40
0.0
 40
0.0
 40
0.0156310272
 40
0.0312722577
 40
0.0469018102
 40
0.0625306771
 40
0.0937816292
 40
0.1250338072
 40
0.1562869126
 40
0.1875405041
 40
0.2500374692
 40
0.3125377633
 40
0.3750405224
 40
0.4375456016
 40
0.5000531205
 40
0.6250183055
 40
0.7499989414
 40
0.8749944973
 40
1.0
 40
1.0
 40
1.0
 40
1.0
 10
-7.3376084222
 20
10.5246419767
 30
0.0
 10
-7.3367806741
 20
10.5238172805
 30
0.0
 10
-7.3349980544
 20
10.5222921841
 30
0.0
 10
-7.3320893181
 20
10.5203261067
 30
0.0
 10
-7.3290244754
 20
10.5186168994
 30
0.0
 10
-7.3248031978
 20
10.5166077385
 30
0.0
 10
-7.3193452421
 20
10.5145058853
 30
0.0
 10
-7.3126409434
 20
10.5124507536
 30
0.0
 10
-7.3058341696
 20
10.5107674591
 30
0.0
 10
-7.296666402
 20
10.5089465792
 30
0.0
 10
-7.2850795131
 20
10.5073773583
 30
0.0
 10
-7.2710813595
 20
10.506487205
 30
0.0
 10
-7.2570548762
 20
10.5065276308
 30
0.0
 10
-7.2430591992
 20
10.5074619783
 30
0.0
 10
-7.2245180921
 20
10.5098659517
 30
0.0
 10
-7.2016679039
 20
10.5149982525
 30
0.0
 10
-7.1751987079
 20
10.5244158968
 30
0.0
 10
-7.1500486155
 20
10.5369389118
 30
0.0
 10
-7.1343956945
 20
10.5472461489
 30
0.0
 10
-7.1269162761
 20
10.5528476867
 30
0.0
  0
SPLINE
  5
2C6
100
AcDbEntity
  8
0
100
AcDbSpline
 62
7
  6
CONTINUOUS
 70
0
 71
3
 72
24
 73
20
 74
0
 42
0.0000001
 43
0.0000001
 44
0.0000000001
 40
0.0
 40
0.0
 40
0.0
 40
0.0
 40
0.1250055939
 40
0.2500011468
 40
0.3749817221
 40
0.4999468602
 40
0.5624543567
 40
0.6249594156
 40
0.6874621558
 40
0.7499624311
 40
0.8124593739
 40
0.8437129597
 40
0.8749660589
 40
0.9062182287
 40
0.9374691753
 40
0.9530980591
 40
0.9687276531
 40
0.9843689463
 40
1.0
 40
1.0
 40
1.0
 40
1.0
 10
29.0855140615
 20
10.5459179335
 30
0.0
 10
29.0772140633
 20
10.5416268717
 30
0.0
 10
29.0600773308
 20
10.5340425821
 30
0.0
 10
29.0332090449
 20
10.5258386657
 30
0.0
 10
29.0055518806
 20
10.5209145351
 30
0.0
 10
28.9821703727
 20
10.5196198626
 30
0.0
 10
28.9634883531
 20
10.5203054816
 30
0.0
 10
28.9495314195
 20
10.5216911523
 30
0.0
 10
28.9356914645
 20
10.5239635208
 30
0.0
 10
28.9220328697
 20
10.5271490554
 30
0.0
 10
28.910864317
 20
10.5306069692
 30
0.0
 10
28.9021231572
 20
10.5339145096
 30
0.0
 10
28.8956878624
 20
10.5366972714
 30
0.0
 10
28.8894151575
 20
10.5398302441
 30
0.0
 10
28.884379633
 20
10.5428042581
 30
0.0
 10
28.8805489171
 20
10.5454833822
 30
0.0
 10
28.8778094217
 20
10.5476760484
 30
0.0
 10
28.8752670514
 20
10.5500969205
 30
0.0
 10
28.8737626774
 20
10.551896861
 30
0.0
 10
28.8730837239
 20
10.5528476867
 30
0.0
  0
SPLINE
  5
2C7
100
AcDbEntity
  8
0
100
AcDbSpline
 62
7
  6
CONTINUOUS
 70
0
 71
3
 72
24
 73
20
 74
0
 42
0.0000001
 43
0.0000001
 44
0.0000000001
 40
0.0
 40
0.0
 40
0.0
 40
0.0
 40
0.125005641
 40
0.2500013761
 40
0.3749819955
 40
0.4999473132
 40
0.5624548482
 40
0.6249599389
 40
0.6874626975
 40
0.7499629969
 40
0.8124599778
 40
0.8437135806
 40
0.8749667045
 40
0.9062188867
 40
0.9374697537
 40
0.953098596
 40
0.9687279564
 40
0.9843689793
 40
1.0
 40
1.0
 40
1.0
 40
1.0
 10
29.2938889255
 20
10.5041541593
 30
0.0
 10
29.2849974318
 20
10.5012882545
 30
0.0
 10
29.2668493891
 20
10.4966286295
 30
0.0
 10
29.2390023308
 20
10.4929586964
 30
0.0
 10
29.2109169157
 20
10.4926524573
 30
0.0
 10
29.1876451672
 20
10.4952216573
 30
0.0
 10
29.1693336956
 20
10.4989704809
 30
0.0
 10
29.1557972109
 20
10.5026323762
 30
0.0
 10
29.1425218508
 20
10.5071492998
 30
0.0
 10
29.1295754178
 20
10.5125367357
 30
0.0
 10
29.1191293315
 20
10.5177830719
 30
0.0
 10
29.1110522702
 20
10.5224817559
 30
0.0
 10
29.1051628951
 20
10.5262836565
 30
0.0
 10
29.0994911551
 20
10.5304038507
 30
0.0
 10
29.0950130359
 20
10.5341635002
 30
0.0
 10
29.0916741033
 20
10.5374338924
 30
0.0
 10
29.0893312596
 20
10.5400451882
 30
0.0
 10
29.0872193315
 20
10.5428485967
 30
0.0
 10
29.0860289871
 20
10.5448694081
 30
0.0
 10
29.0855140615
 20
10.5459179335
 30
0.0
  0
SPLINE
  5
2C8
100
AcDbEntity
  8
0
100
AcDbSpline
 62
7
  6
CONTINUOUS
 70
0
 71
3
 72
24
 73
20
 74
0
 42
0.0000001
 43
0.0000001
 44
0.0000000001
 40
0.0
 40
0.0
 40
0.0
 40
0.0
 40
0.1250056356
 40
0.2500013679
 40
0.374981989
 40
0.4999473089
 40
0.562454845
 40
0.6249599368
 40
0.6874626966
 40
0.7499629971
 40
0.8124599792
 40
0.8437135826
 40
0.8749667069
 40
0.90621889
 40
0.9374697569
 40
0.9530985992
 40
0.9687279591
 40
0.9843689795
 40
1.0
 40
1.0
 40
1.0
 40
1.0
 10
29.4925478475
 20
10.4286629051
 30
0.0
 10
29.4833059122
 20
10.4272995657
 30
0.0
 10
29.4646384391
 20
10.4256905342
 30
0.0
 10
29.4365671263
 20
10.426654088
 30
0.0
 10
29.4088143479
 20
10.4309746919
 30
0.0
 10
29.3862828624
 20
10.4373392222
 30
0.0
 10
29.3688381613
 20
10.4440508603
 30
0.0
 10
29.3560890159
 20
10.4498908256
 30
0.0
 10
29.3437381656
 20
10.4565311786
 30
0.0
 10
29.3318550367
 20
10.4639760325
 30
0.0
 10
29.3224149296
 20
10.4708701709
 30
0.0
 10
29.3152213981
 20
10.4768342013
 30
0.0
 10
29.3100381116
 20
10.4815536006
 30
0.0
 10
29.305121881
 20
10.4865511313
 30
0.0
 10
29.3013236491
 20
10.490996573
 30
0.0
 10
29.2985685384
 20
10.4947719273
 30
0.0
 10
29.2966874492
 20
10.497733225
 30
0.0
 10
29.2950657463
 20
10.5008460079
 30
0.0
 10
29.2942242481
 20
10.5030351809
 30
0.0
 10
29.2938889255
 20
10.5041541593
 30
0.0
  0
SPLINE
  5
2C9
100
AcDbEntity
  8
0
100
AcDbSpline
 62
7
  6
CONTINUOUS
 70
0
 71
3
 72
24
 73
20
 74
0
 42
0.0000001
 43
0.0000001
 44
0.0000000001
 40
0.0
 40
0.0
 40
0.0
 40
0.0
 40
0.1250056356
 40
0.2500013679
 40
0.374981989
 40
0.4999473089
 40
0.5624548451
 40
0.6249599368
 40
0.6874626966
 40
0.7499629971
 40
0.8124599792
 40
0.8437135826
 40
0.8749667069
 40
0.90621889
 40
0.9374697569
 40
0.9530985992
 40
0.9687279591
 40
0.9843689795
 40
1.0
 40
1.0
 40
1.0
 40
1.0
 10
29.6760720262
 20
10.3215033391
 30
0.0
 10
29.6667317403
 20
10.3216797527
 30
0.0
 10
29.6480540271
 20
10.3231652039
 30
0.0
 10
29.6205241581
 20
10.3287359618
 30
0.0
 10
29.5938610264
 20
10.3375655563
 30
0.0
 10
29.5726843935
 20
10.3475518122
 30
0.0
 10
29.5565823008
 20
10.3570431921
 30
0.0
 10
29.5449682523
 20
10.3649019312
 30
0.0
 10
29.5338788051
 20
10.3734845853
 30
0.0
 10
29.5233831156
 20
10.3827837844
 30
0.0
 10
29.5152064849
 20
10.3911376743
 30
0.0
 10
29.5090927005
 20
10.3982043704
 30
0.0
 10
29.5047568868
 20
10.4037125379
 30
0.0
 10
29.5007302653
 20
10.4094510878
 30
0.0
 10
29.4977155246
 20
10.4144610634
 30
0.0
 10
29.4956193867
 20
10.4186384
 30
0.0
 10
29.4942513619
 20
10.4218689246
 30
0.0
 10
29.4931641193
 20
10.4252061752
 30
0.0
 10
29.4926944207
 20
10.427503996
 30
0.0
 10
29.4925478475
 20
10.4286629051
 30
0.0
  0
SPLINE
  5
2CA
100
AcDbEntity
  8
0
100
AcDbSpline
 62
7
  6
CONTINUOUS
 70
0
 71
3
 72
24
 73
20
 74
0
 42
0.0000001
 43
0.0000001
 44
0.0000000001
 40
0.0
 40
0.0
 40
0.0
 40
0.0
 40
0.1250056355
 40
0.2500013678
 40
0.3749819889
 40
0.4999473088
 40
0.562454845
 40
0.6249599368
 40
0.6874626966
 40
0.7499629972
 40
0.8124599793
 40
0.8437135826
 40
0.874966707
 40
0.9062188901
 40
0.9374697569
 40
0.9530985993
 40
0.9687279592
 40
0.9843689795
 40
1.0
 40
1.0
 40
1.0
 40
1.0
 10
29.8394554892
 20
10.185598443
 30
0.0
 10
29.8302716269
 20
10.1873097976
 30
0.0
 10
29.8120931439
 20
10.191849213
 30
0.0
 10
29.7858556483
 20
10.201875222
 30
0.0
 10
29.7610094512
 20
10.2149729631
 30
0.0
 10
29.7417653041
 20
10.2283085504
 30
0.0
 10
29.727445035
 20
10.2403207765
 30
0.0
 10
29.7172828788
 20
10.2499839273
 30
0.0
 10
29.7077573205
 20
10.2602747742
 30
0.0
 10
29.6989353603
 20
10.2711746651
 30
0.0
 10
29.6922452392
 20
10.2807604382
 30
0.0
 10
29.6873779671
 20
10.2887370424
 30
0.0
 10
29.6840078938
 20
10.2948837322
 30
0.0
 10
29.6809807151
 20
10.3012067715
 30
0.0
 10
29.6788316984
 20
10.3066446244
 30
0.0
 10
29.6774517096
 20
10.3111099985
 30
0.0
 10
29.6766340647
 20
10.3145216312
 30
0.0
 10
29.676110939
 20
10.3179923195
 30
0.0
 10
29.6760258519
 20
10.3203361108
 30
0.0
 10
29.6760720262
 20
10.3215033391
 30
0.0
  0
SPLINE
  5
2CB
100
AcDbEntity
  8
0
100
AcDbSpline
 62
7
  6
CONTINUOUS
 70
0
 71
3
 72
24
 73
20
 74
0
 42
0.0000001
 43
0.0000001
 44
0.0000000001
 40
0.0
 40
0.0
 40
0.0
 40
0.0
 40
0.1250056356
 40
0.2500013679
 40
0.374981989
 40
0.4999473089
 40
0.5624548451
 40
0.6249599368
 40
0.6874626966
 40
0.7499629971
 40
0.8124599792
 40
0.8437135826
 40
0.8749667069
 40
0.90621889
 40
0.9374697569
 40
0.9530985992
 40
0.9687279591
 40
0.9843689795
 40
1.0
 40
1.0
 40
1.0
 40
1.0
 10
29.9782416406
 20
10.0246552824
 30
0.0
 10
29.9694647092
 20
10.0278548976
 30
0.0
 10
29.9522813093
 20
10.0353244559
 30
0.0
 10
29.9280518648
 20
10.0495322375
 30
0.0
 10
29.9057003298
 20
10.0665408592
 30
0.0
 10
29.8889135894
 20
10.0828620243
 30
0.0
 10
29.8767657567
 20
10.0970674403
 30
0.0
 10
29.8683326848
 20
10.1082714218
 30
0.0
 10
29.8606308433
 20
10.119989759
 30
0.0
 10
29.8537232483
 20
10.1321930264
 30
0.0
 10
29.8487021226
 20
10.1427492124
 30
0.0
 10
29.8452141269
 20
10.1514181477
 30
0.0
 10
29.8429017191
 20
10.1580356971
 30
0.0
 10
29.8409565554
 20
10.1647707527
 30
0.0
 10
29.8397318813
 20
10.1704881551
 30
0.0
 10
29.8391056833
 20
10.1751197651
 30
0.0
 10
29.8388607212
 20
10.1786194472
 30
0.0
 10
29.8389159815
 20
10.1821289036
 30
0.0
 10
29.8392178269
 20
10.1844547339
 30
0.0
 10
29.8394554892
 20
10.185598443
 30
0.0
  0
SPLINE
  5
2CC
100
AcDbEntity
  8
0
100
AcDbSpline
 62
7
  6
CONTINUOUS
 70
0
 71
3
 72
24
 73
20
 74
0
 42
0.0000001
 43
0.0000001
 44
0.0000000001
 40
0.0
 40
0.0
 40
0.0
 40
0.0
 40
0.1250056355
 40
0.2500013678
 40
0.374981989
 40
0.4999473089
 40
0.562454845
 40
0.6249599368
 40
0.6874626966
 40
0.7499629971
 40
0.8124599792
 40
0.8437135826
 40
0.8749667069
 40
0.90621889
 40
0.9374697569
 40
0.9530985993
 40
0.9687279591
 40
0.9843689795
 40
1.0
 40
1.0
 40
1.0
 40
1.0
 10
30.0886448231
 20
9.8430638893
 30
0.0
 10
30.0805142302
 20
9.8476644893
 30
0.0
 10
30.0647946234
 20
9.8578604442
 30
0.0
 10
30.0432341345
 20
9.8758624539
 30
0.0
 10
30.0239869423
 20
9.8963180137
 30
0.0
 10
30.0101154989
 20
9.9151795657
 30
0.0
 10
30.0004714579
 20
9.9311906917
 30
0.0
 10
29.9939974986
 20
9.943629894
 30
0.0
 10
29.9883294562
 20
9.9564560815
 30
0.0
 10
29.9835246442
 20
9.9696298578
 30
0.0
 10
29.9803094747
 20
9.9808685166
 30
0.0
 10
29.9782958972
 20
9.9899933213
 30
0.0
 10
29.9771042304
 20
9.9969012239
 30
0.0
 10
29.9762941396
 20
10.0038645844
 30
0.0
 10
29.9760272134
 20
10.0097055833
 30
0.0
 10
29.976171887
 20
10.0143770931
 30
0.0
 10
29.9765062895
 20
10.017869364
 30
0.0
 10
29.9771384286
 20
10.0213218614
 30
0.0
 10
29.977818973
 20
10.0235662893
 30
0.0
 10
29.9782416406
 20
10.0246552824
 30
0.0
  0
SPLINE
  5
2CD
100
AcDbEntity
  8
0
100
AcDbSpline
 62
7
  6
CONTINUOUS
 70
0
 71
3
 72
24
 73
20
 74
0
 42
0.0000001
 43
0.0000001
 44
0.0000000001
 40
0.0
 40
0.0
 40
0.0
 40
0.0
 40
0.1250056356
 40
0.2500013679
 40
0.374981989
 40
0.4999473089
 40
0.562454845
 40
0.6249599368
 40
0.6874626966
 40
0.7499629971
 40
0.8124599792
 40
0.8437135826
 40
0.8749667069
 40
0.90621889
 40
0.9374697569
 40
0.9530985992
 40
0.9687279591
 40
0.9843689795
 40
1.0
 40
1.0
 40
1.0
 40
1.0
 10
30.1676535791
 20
9.6457775156
 30
0.0
 10
30.1603911021
 20
9.6516536104
 30
0.0
 10
30.1465640707
 20
9.6642978477
 30
0.0
 10
30.1282606408
 20
9.6856030464
 30
0.0
 10
30.1126427955
 20
9.7089475797
 30
0.0
 10
30.1020650192
 20
9.7298350337
 30
0.0
 10
30.0951878295
 20
9.7472151357
 30
0.0
 10
30.0908495724
 20
9.7605502558
 30
0.0
 10
30.0873699358
 20
9.7741344348
 30
0.0
 10
30.0847989673
 20
9.7879193803
 30
0.0
 10
30.0834774539
 20
9.799533956
 30
0.0
 10
30.0829932187
 20
9.8088657335
 30
0.0
 10
30.0829547977
 20
9.8158755632
 30
0.0
 10
30.0833018767
 20
9.8228772896
 30
0.0
 10
30.0839999793
 20
9.8286825605
 30
0.0
 10
30.0849115783
 20
9.8332665459
 30
0.0
 10
30.0858162238
 20
9.8366561472
 30
0.0
 10
30.087007999
 20
9.8399575121
 30
0.0
 10
30.0880486792
 20
9.8420593166
 30
0.0
 10
30.0886448231
 20
9.8430638893
 30
0.0
  0
SPLINE
  5
2CE
100
AcDbEntity
  8
0
100
AcDbSpline
 62
7
  6
CONTINUOUS
 70
0
 71
3
 72
24
 73
20
 74
0
 42
0.0000001
 43
0.0000001
 44
0.0000000001
 40
0.0
 40
0.0
 40
0.0
 40
0.0
 40
0.1250056356
 40
0.2500013679
 40
0.374981989
 40
0.4999473089
 40
0.562454845
 40
0.6249599368
 40
0.6874626966
 40
0.7499629971
 40
0.8124599792
 40
0.8437135826
 40
0.8749667069
 40
0.90621889
 40
0.9374697569
 40
0.9530985992
 40
0.9687279591
 40
0.9843689795
 40
1.0
 40
1.0
 40
1.0
 40
1.0
 10
30.213112794
 20
9.4381775239
 30
0.0
 10
30.2069165308
 20
9.4451688318
 30
0.0
 10
30.1953592334
 20
9.4599164557
 30
0.0
 10
30.1808121237
 20
9.4839437034
 30
0.0
 10
30.1692496316
 20
9.5095404436
 30
0.0
 10
30.1622540515
 20
9.5318840544
 30
0.0
 10
30.1583313017
 20
9.5501590569
 30
0.0
 10
30.156247081
 20
9.564026354
 30
0.0
 10
30.1550507639
 20
9.5779979901
 30
0.0
 10
30.1547837669
 20
9.592018094
 30
0.0
 10
30.1553919564
 20
9.6036917769
 30
0.0
 10
30.156450272
 20
9.6129759851
 30
0.0
 10
30.1575661449
 20
9.6198965354
 30
0.0
 10
30.1590609264
 20
9.6267456423
 30
0.0
 10
30.1607050157
 20
9.6323568353
 30
0.0
 10
30.1623586745
 20
9.6367282593
 30
0.0
 10
30.1638088872
 20
9.6399227333
 30
0.0
 10
30.1655277903
 20
9.6429829146
 30
0.0
 10
30.1669002199
 20
9.6448847649
 30
0.0
 10
30.1676535791
 20
9.6457775156
 30
0.0
  0
SPLINE
  5
2CF
100
AcDbEntity
  8
0
100
AcDbSpline
 62
7
  6
CONTINUOUS
 70
0
 71
3
 72
24
 73
20
 74
0
 42
0.0000001
 43
0.0000001
 44
0.0000000001
 40
0.0
 40
0.0
 40
0.0
 40
0.0
 40
0.1250056356
 40
0.2500013679
 40
0.374981989
 40
0.4999473089
 40
0.562454845
 40
0.6249599368
 40
0.6874626966
 40
0.7499629971
 40
0.8124599792
 40
0.8437135826
 40
0.8749667069
 40
0.90621889
 40
0.9374697569
 40
0.9530985992
 40
0.9687279591
 40
0.9843689795
 40
1.0
 40
1.0
 40
1.0
 40
1.0
 10
30.2237824807
 20
9.2259266004
 30
0.0
 10
30.2188214463
 20
9.23384242
 30
0.0
 10
30.2098491304
 20
9.250291161
 30
0.0
 10
30.1994551409
 20
9.2763850687
 30
0.0
 10
30.1922633912
 20
9.3035358158
 30
0.0
 10
30.1890408251
 20
9.3267261188
 30
0.0
 10
30.1881795155
 20
9.3453975362
 30
0.0
 10
30.1884061824
 20
9.3594187531
 30
0.0
 10
30.1895258167
 20
9.3733967433
 30
0.0
 10
30.191570074
 20
9.3872695806
 30
0.0
 10
30.1940913769
 20
9.3986839487
 30
0.0
 10
30.1966633757
 20
9.4076673431
 30
0.0
 10
30.1989031049
 20
9.4143098428
 30
0.0
 10
30.2015048159
 20
9.4208195076
 30
0.0
 10
30.2040500463
 20
9.4260835668
 30
0.0
 10
30.2064006581
 20
9.4301231905
 30
0.0
 10
30.2083568806
 20
9.4330354017
 30
0.0
 10
30.2105560255
 20
9.4357709272
 30
0.0
 10
30.2122227687
 20
9.4374209467
 30
0.0
 10
30.213112794
 20
9.4381775239
 30
0.0
  0
SPLINE
  5
2D0
100
AcDbEntity
  8
0
100
AcDbSpline
 62
7
  6
CONTINUOUS
 70
0
 71
3
 72
24
 73
20
 74
0
 42
0.0000001
 43
0.0000001
 44
0.0000000001
 40
0.0
 40
0.0
 40
0.0
 40
0.0
 40
0.1250056387
 40
0.2500013725
 40
0.3749819927
 40
0.4999473113
 40
0.5624548469
 40
0.624959938
 40
0.6874626971
 40
0.749962997
 40
0.8124599784
 40
0.8437135815
 40
0.8749667056
 40
0.9062188882
 40
0.9374697551
 40
0.9530985974
 40
0.9687279576
 40
0.9843689794
 40
1.0
 40
1.0
 40
1.0
 40
1.0
 10
30.1993716034
 20
9.0148142942
 30
0.0
 10
30.1957811193
 20
9.0234387067
 30
0.0
 10
30.1896385218
 20
9.0411398943
 30
0.0
 10
30.1836811684
 20
9.0685887011
 30
0.0
 10
30.18105633
 20
9.0965528665
 30
0.0
 10
30.1816946796
 20
9.1199573017
 30
0.0
 10
30.1839183042
 20
9.1385158353
 30
0.0
 10
30.1864496758
 20
9.1523085166
 30
0.0
 10
30.1898547213
 20
9.1659115843
 30
0.0
 10
30.1941544719
 20
9.1792587466
 30
0.0
 10
30.1985201148
 20
9.1901024511
 30
0.0
 10
30.2025356405
 20
9.1985399925
 30
0.0
 10
30.2058381332
 20
9.2047232546
 30
0.0
 10
30.2094758069
 20
9.2107159138
 30
0.0
 10
30.2128527522
 20
9.215489252
 30
0.0
 10
30.2158361998
 20
9.2190868868
 30
0.0
 10
30.2182450725
 20
9.2216373993
 30
0.0
 10
30.2208644732
 20
9.2239736524
 30
0.0
 10
30.2227800667
 20
9.2253268337
 30
0.0
 10
30.2237824807
 20
9.2259266004
 30
0.0
  0
SPLINE
  5
2D1
100
AcDbEntity
  8
0
100
AcDbSpline
 62
7
  6
CONTINUOUS
 70
0
 71
3
 72
24
 73
20
 74
0
 42
0.0000001
 43
0.0000001
 44
0.0000000001
 40
0.0
 40
0.0
 40
0.0
 40
0.0
 40
0.1250056356
 40
0.2500013679
 40
0.374981989
 40
0.4999473089
 40
0.562454845
 40
0.6249599368
 40
0.6874626966
 40
0.7499629971
 40
0.8124599792
 40
0.8437135826
 40
0.8749667069
 40
0.90621889
 40
0.9374697569
 40
0.9530985992
 40
0.9687279591
 40
0.9843689795
 40
1.0
 40
1.0
 40
1.0
 40
1.0
 10
30.1405460152
 20
8.8105990966
 30
0.0
 10
30.138424019
 20
8.8196968542
 30
0.0
 10
30.135278691
 20
8.8381676541
 30
0.0
 10
30.133920472
 20
8.8662226407
 30
0.0
 10
30.135934142
 20
8.8942374487
 30
0.0
 10
30.1404159949
 20
8.9172176158
 30
0.0
 10
30.1456639001
 20
8.9351570465
 30
0.0
 10
30.1504309284
 20
8.9483449707
 30
0.0
 10
30.1560285061
 20
8.9612020665
 30
0.0
 10
30.1624664662
 20
8.9736594849
 30
0.0
 10
30.1685573678
 20
8.9836367432
 30
0.0
 10
30.1739068895
 20
8.9912982817
 30
0.0
 10
30.1781820639
 20
8.996853646
 30
0.0
 10
30.1827564761
 20
9.0021658385
 30
0.0
 10
30.1868730239
 20
9.0063182537
 30
0.0
 10
30.1904079277
 20
9.0093757673
 30
0.0
 10
30.193203744
 20
9.0114950107
 30
0.0
 10
30.1961719512
 20
9.0133682655
 30
0.0
 10
30.1982841432
 20
9.0143876979
 30
0.0
 10
30.1993716034
 20
9.0148142942
 30
0.0
  0
SPLINE
  5
2D2
100
AcDbEntity
  8
0
100
AcDbSpline
 62
7
  6
CONTINUOUS
 70
0
 71
3
 72
24
 73
20
 74
0
 42
0.0000001
 43
0.0000001
 44
0.0000000001
 40
0.0
 40
0.0
 40
0.0
 40
0.0
 40
0.1250056449
 40
0.2500013686
 40
0.3749819904
 40
0.4999473098
 40
0.5624548458
 40
0.6249599375
 40
0.6874626972
 40
0.7499629976
 40
0.8124599796
 40
0.8437135828
 40
0.8749667072
 40
0.9062188902
 40
0.937469757
 40
0.9530985993
 40
0.9687279592
 40
0.9843689795
 40
1.0
 40
1.0
 40
1.0
 40
1.0
 10
30.0489102963
 20
8.618851367
 30
0.0
 10
30.0483146694
 20
8.628174312
 30
0.0
 10
30.0482524059
 20
8.6469108982
 30
0.0
 10
30.0515303694
 20
8.6748068118
 30
0.0
 10
30.0581276211
 20
8.7021081041
 30
0.0
 10
30.0663307264
 20
8.724037175
 30
0.0
 10
30.0744597655
 20
8.7408681704
 30
0.0
 10
30.0813324208
 20
8.7530916114
 30
0.0
 10
30.0889698459
 20
8.7648520335
 30
0.0
 10
30.0973704078
 20
8.7760799078
 30
0.0
 10
30.1050204272
 20
8.7849185711
 30
0.0
 10
30.1115580264
 20
8.7915951234
 30
0.0
 10
30.1166892688
 20
8.7963710568
 30
0.0
 10
30.1220756435
 20
8.8008578823
 30
0.0
 10
30.126819507
 20
8.8042761094
 30
0.0
 10
30.130809446
 20
8.8067101023
 30
0.0
 10
30.1339159445
 20
8.8083402704
 30
0.0
 10
30.137151995
 20
8.8096994303
 30
0.0
 10
30.1394031714
 20
8.8103573069
 30
0.0
 10
30.1405460152
 20
8.8105990966
 30
0.0
  0
SPLINE
  5
2D3
100
AcDbEntity
  8
0
100
AcDbSpline
 62
7
  6
CONTINUOUS
 70
0
 71
3
 72
24
 73
20
 74
0
 42
0.0000001
 43
0.0000001
 44
0.0000000001
 40
0.0
 40
0.0
 40
0.0
 40
0.0
 40
0.1250056356
 40
0.2500013679
 40
0.374981989
 40
0.4999473089
 40
0.562454845
 40
0.6249599368
 40
0.6874626966
 40
0.7499629971
 40
0.8124599792
 40
0.8437135826
 40
0.8749667069
 40
0.90621889
 40
0.9374697569
 40
0.9530985992
 40
0.9687279591
 40
0.9843689795
 40
1.0
 40
1.0
 40
1.0
 40
1.0
 10
29.9269639861
 20
8.4448013909
 30
0.0
 10
29.9279109753
 20
8.4540952207
 30
0.0
 10
29.9309334744
 20
8.4725865169
 30
0.0
 10
29.9387582075
 20
8.499562443
 30
0.0
 10
29.9497590886
 20
8.5254055261
 30
0.0
 10
29.9614596908
 20
8.5456853435
 30
0.0
 10
29.9722481288
 20
8.5609488061
 30
0.0
 10
29.9810389462
 20
8.5718743464
 30
0.0
 10
29.9905078935
 20
8.5822173067
 30
0.0
 10
30.0006419158
 20
8.5919093753
 30
0.0
 10
30.0096423841
 20
8.5993683522
 30
0.0
 10
30.0171897352
 20
8.6048778027
 30
0.0
 10
30.0230370813
 20
8.6087440325
 30
0.0
 10
30.0290884949
 20
8.6122831043
 30
0.0
 10
30.0343302762
 20
8.6148739046
 30
0.0
 10
30.0386664171
 20
8.6166179851
 30
0.0
 10
30.0419988623
 20
8.6177146118
 30
0.0
 10
30.0454144864
 20
8.6185226032
 30
0.0
 10
30.0477432423
 20
8.6188009792
 30
0.0
 10
30.0489102963
 20
8.618851367
 30
0.0
  0
SPLINE
  5
2D4
100
AcDbEntity
  8
0
100
AcDbSpline
 62
7
  6
CONTINUOUS
 70
0
 71
3
 72
24
 73
20
 74
0
 42
0.0000001
 43
0.0000001
 44
0.0000000001
 40
0.0
 40
0.0
 40
0.0
 40
0.0
 40
0.1250056314
 40
0.2500013596
 40
0.3749819768
 40
0.4999472928
 40
0.562454827
 40
0.6249599169
 40
0.6874626747
 40
0.7499629733
 40
0.8124599536
 40
0.8437135555
 40
0.8749666796
 40
0.9062188598
 40
0.9374697353
 40
0.9530985725
 40
0.9687278867
 40
0.9843689651
 40
1.0
 40
1.0
 40
1.0
 40
1.0
 10
29.7780334029
 20
8.2931967137
 30
0.0
 10
29.7804971772
 20
8.3022079218
 30
0.0
 10
29.7865219944
 20
8.3199495421
 30
0.0
 10
29.798680062
 20
8.3452696601
 30
0.0
 10
29.8137845016
 20
8.3689496133
 30
0.0
 10
29.8286634438
 20
8.3870270061
 30
0.0
 10
29.8418170047
 20
8.4003065955
 30
0.0
 10
29.8522861975
 20
8.40963622
 30
0.0
 10
29.8633283827
 20
8.4182795945
 30
0.0
 10
29.8749194401
 20
8.4261714878
 30
0.0
 10
29.8850248518
 20
8.4320473205
 30
0.0
 10
29.8933760861
 20
8.4362393886
 30
0.0
 10
29.8997800379
 20
8.439090456
 30
0.0
 10
29.9063314268
 20
8.4415852398
 30
0.0
 10
29.9119281461
 20
8.4432779443
 30
0.0
 10
29.916492209
 20
8.4442845413
 30
0.0
 10
29.9199597035
 20
8.4448177062
 30
0.0
 10
29.9234617348
 20
8.4450525019
 30
0.0
 10
29.9258045544
 20
8.4449437795
 30
0.0
 10
29.9269639861
 20
8.4448013909
 30
0.0
  0
SPLINE
  5
2D5
100
AcDbEntity
  8
0
100
AcDbSpline
 62
7
  6
CONTINUOUS
 70
0
 71
3
 72
24
 73
20
 74
0
 42
0.0000001
 43
0.0000001
 44
0.0000000001
 40
0.0
 40
0.0
 40
0.0
 40
0.0
 40
0.1250056356
 40
0.2500013679
 40
0.374981989
 40
0.4999473089
 40
0.562454845
 40
0.6249599368
 40
0.6874626966
 40
0.7499629971
 40
0.8124599792
 40
0.8437135826
 40
0.8749667069
 40
0.90621889
 40
0.9374697569
 40
0.9530985992
 40
0.9687279591
 40
0.9843689795
 40
1.0
 40
1.0
 40
1.0
 40
1.0
 10
29.6061809128
 20
8.1681726424
 30
0.0
 10
29.6100942682
 20
8.1766554315
 30
0.0
 10
29.6189570655
 20
8.1931634405
 30
0.0
 10
29.6351168343
 20
8.2161370973
 30
0.0
 10
29.6539128313
 20
8.2370080059
 30
0.0
 10
29.6715642634
 20
8.2523898794
 30
0.0
 10
29.68672416
 20
8.2633233699
 30
0.0
 10
29.6985861619
 20
8.2708025955
 30
0.0
 10
29.7109003895
 20
8.2775106197
 30
0.0
 10
29.7236323148
 20
8.283387071
 30
0.0
 10
29.7345670266
 20
8.2875194849
 30
0.0
 10
29.743494349
 20
8.2902798235
 30
0.0
 10
29.7502802273
 20
8.29203796
 30
0.0
 10
29.7571528893
 20
8.2934204046
 30
0.0
 10
29.7629518857
 20
8.2941688417
 30
0.0
 10
29.7676193839
 20
8.2944104941
 30
0.0
 10
29.7711273422
 20
8.2943656697
 30
0.0
 10
29.7746202538
 20
8.2940208408
 30
0.0
 10
29.7769132212
 20
8.2935279946
 30
0.0
 10
29.7780334029
 20
8.2931967137
 30
0.0
  0
SPLINE
  5
2D6
100
AcDbEntity
  8
0
100
AcDbSpline
 62
7
  6
CONTINUOUS
 70
0
 71
3
 72
24
 73
20
 74
0
 42
0.0000001
 43
0.0000001
 44
0.0000000001
 40
0.0
 40
0.0
 40
0.0
 40
0.0
 40
0.1250056356
 40
0.2500013679
 40
0.374981989
 40
0.4999473089
 40
0.5624548451
 40
0.6249599368
 40
0.6874626966
 40
0.7499629971
 40
0.8124599792
 40
0.8437135826
 40
0.8749667069
 40
0.90621889
 40
0.9374697569
 40
0.9530985992
 40
0.9687279591
 40
0.9843689795
 40
1.0
 40
1.0
 40
1.0
 40
1.0
 10
29.4160941205
 20
8.0731394473
 30
0.0
 10
29.4213503127
 20
8.0808624329
 30
0.0
 10
29.4328093402
 20
8.0956865424
 30
0.0
 10
29.452530021
 20
8.115687087
 30
0.0
 10
29.4745048781
 20
8.1331796564
 30
0.0
 10
29.4944473228
 20
8.1454464403
 30
0.0
 10
29.5112000394
 20
8.1537356
 30
0.0
 10
29.5241312911
 20
8.1591604163
 30
0.0
 10
29.5373816665
 20
8.163750116
 30
0.0
 10
29.5509071715
 20
8.1674508341
 30
0.0
 10
29.5623729178
 20
8.1697271096
 30
0.0
 10
29.571632818
 20
8.1709804254
 30
0.0
 10
29.5786155247
 20
8.1715976747
 30
0.0
 10
29.5856219951
 20
8.1718300718
 30
0.0
 10
29.5914650898
 20
8.1716138263
 30
0.0
 10
29.5961087048
 20
8.1710839448
 30
0.0
 10
29.5995614422
 20
8.1704623459
 30
0.0
 10
29.6029499594
 20
8.1695473106
 30
0.0
 10
29.6051305352
 20
8.1686837793
 30
0.0
 10
29.6061809128
 20
8.1681726424
 30
0.0
  0
SPLINE
  5
2D7
100
AcDbEntity
  8
0
100
AcDbSpline
 62
7
  6
CONTINUOUS
 70
0
 71
3
 72
24
 73
20
 74
0
 42
0.0000001
 43
0.0000001
 44
0.0000000001
 40
0.0
 40
0.0
 40
0.0
 40
0.0
 40
0.1250056356
 40
0.2500013679
 40
0.374981989
 40
0.4999473089
 40
0.562454845
 40
0.6249599368
 40
0.6874626966
 40
0.7499629971
 40
0.8124599792
 40
0.8437135826
 40
0.8749667069
 40
0.90621889
 40
0.9374697569
 40
0.9530985992
 40
0.9687279591
 40
0.9843689795
 40
1.0
 40
1.0
 40
1.0
 40
1.0
 10
29.2129580063
 20
8.0106893403
 30
0.0
 10
29.2194136626
 20
8.0174418631
 30
0.0
 10
29.2331563534
 20
8.0301777173
 30
0.0
 10
29.2559000271
 20
8.0466595966
 30
0.0
 10
29.280454338
 20
8.0602966837
 30
0.0
 10
29.302143827
 20
8.069113778
 30
0.0
 10
29.3200324013
 20
8.0745325041
 30
0.0
 10
29.3336801783
 20
8.0777549389
 30
0.0
 10
29.3475052721
 20
8.0801011214
 30
0.0
 10
29.361455423
 20
8.081525162
 30
0.0
 10
29.3731394535
 20
8.0818832095
 30
0.0
 10
29.3824793502
 20
8.0815953159
 30
0.0
 10
29.3894684186
 20
8.0810548412
 30
0.0
 10
29.3964175825
 20
8.0801308519
 30
0.0
 10
29.4021453939
 20
8.0789558223
 30
0.0
 10
29.4066384623
 20
8.0776688604
 30
0.0
 10
29.4099417988
 20
8.0764874422
 30
0.0
 10
29.4131334933
 20
8.07502716
 30
0.0
 10
29.4151421981
 20
8.0738164981
 30
0.0
 10
29.4160941205
 20
8.0731394473
 30
0.0
  0
SPLINE
  5
2D8
100
AcDbEntity
  8
0
100
AcDbSpline
 62
7
  6
CONTINUOUS
 70
0
 71
3
 72
24
 73
20
 74
0
 42
0.0000001
 43
0.0000001
 44
0.0000000001
 40
0.0
 40
0.0
 40
0.0
 40
0.0
 40
0.1250056356
 40
0.2500013679
 40
0.374981989
 40
0.4999473089
 40
0.562454845
 40
0.6249599368
 40
0.6874626966
 40
0.7499629971
 40
0.8124599792
 40
0.8437135826
 40
0.8749667069
 40
0.90621889
 40
0.9374697569
 40
0.9530985992
 40
0.9687279591
 40
0.9843689795
 40
1.0
 40
1.0
 40
1.0
 40
1.0
 10
29.0023134955
 20
7.9825257672
 30
0.0
 10
29.0097925256
 20
7.9881236393
 30
0.0
 10
29.0254440216
 20
7.9984238435
 30
0.0
 10
29.050590311
 20
8.0109374827
 30
0.0
 10
29.07705431
 20
8.0203471099
 30
0.0
 10
29.0998992212
 20
8.0254740116
 30
0.0
 10
29.1184357081
 20
8.0278744979
 30
0.0
 10
29.1324277412
 20
8.0288066533
 30
0.0
 10
29.1464504476
 20
8.0288453218
 30
0.0
 10
29.1604447273
 20
8.0279538416
 30
0.0
 10
29.1720283378
 20
8.0263838946
 30
0.0
 10
29.1811934675
 20
8.0245626445
 30
0.0
 10
29.1879982573
 20
8.0228791883
 30
0.0
 10
29.1947005631
 20
8.0208240161
 30
0.0
 10
29.2001568542
 20
8.0187222537
 30
0.0
 10
29.204376819
 20
8.0167133157
 30
0.0
 10
29.2074406497
 20
8.0150043037
 30
0.0
 10
29.210348462
 20
8.0130386064
 30
0.0
 10
29.2121305046
 20
8.011513837
 30
0.0
 10
29.2129580063
 20
8.0106893403
 30
0.0
  0
SPLINE
  5
2D9
100
AcDbEntity
  8
0
100
AcDbSpline
 62
7
  6
CONTINUOUS
 70
0
 71
3
 72
24
 73
20
 74
0
 42
0.0000001
 43
0.0000001
 44
0.0000000001
 40
0.0
 40
0.0
 40
0.0
 40
0.0
 40
0.1250056361
 40
0.2500013686
 40
0.3749819896
 40
0.4999473093
 40
0.5624548454
 40
0.624959937
 40
0.6874626967
 40
0.7499629971
 40
0.8124599791
 40
0.8437135824
 40
0.8749667067
 40
0.9062188897
 40
0.9374697566
 40
0.953098599
 40
0.9687279589
 40
0.9843689794
 40
1.0
 40
1.0
 40
1.0
 40
1.0
 10
28.7899063194
 20
7.9894169433
 30
0.0
 10
28.7982047185
 20
7.993707472
 30
0.0
 10
28.8153380953
 20
8.0012910685
 30
0.0
 10
28.8422010873
 20
8.0094951343
 30
0.0
 10
28.8698529184
 20
8.0144206359
 30
0.0
 10
28.8932301131
 20
8.0157174989
 30
0.0
 10
28.9119088946
 20
8.0150342678
 30
0.0
 10
28.9258635243
 20
8.0136507173
 30
0.0
 10
28.9397013472
 20
8.0113808172
 30
0.0
 10
28.953358035
 20
8.0081981329
 30
0.0
 10
28.9645252605
 20
8.0047430147
 30
0.0
 10
28.9732656267
 20
8.0014380862
 30
0.0
 10
28.9797005243
 20
7.9986575681
 30
0.0
 10
28.9859731537
 20
7.9955272716
 30
0.0
 10
28.9910090938
 20
7.9925561059
 30
0.0
 10
28.9948408473
 20
7.9898799895
 30
0.0
 10
28.9975816006
 20
7.9876900002
 30
0.0
 10
29.0001262145
 20
7.985272506
 30
0.0
 10
29.0016329862
 20
7.9834752202
 30
0.0
 10
29.0023134955
 20
7.9825257672
 30
0.0
  0
SPLINE
  5
2DA
100
AcDbEntity
  8
0
100
AcDbSpline
 62
7
  6
CONTINUOUS
 70
0
 71
3
 72
24
 73
20
 74
0
 42
0.0000001
 43
0.0000001
 44
0.0000000001
 40
0.0
 40
0.0
 40
0.0
 40
0.0
 40
0.125005641
 40
0.2500013761
 40
0.3749819955
 40
0.4999473132
 40
0.5624548482
 40
0.6249599389
 40
0.6874626975
 40
0.7499629969
 40
0.8124599778
 40
0.8437135806
 40
0.8749667045
 40
0.9062188867
 40
0.9374697537
 40
0.953098596
 40
0.9687279564
 40
0.9843689793
 40
1.0
 40
1.0
 40
1.0
 40
1.0
 10
28.5815302893
 20
8.0311748986
 30
0.0
 10
28.5904217029
 20
8.0340410517
 30
0.0
 10
28.6085696155
 20
8.0387011834
 30
0.0
 10
28.6364165713
 20
8.0423718942
 30
0.0
 10
28.6645019778
 20
8.0426789176
 30
0.0
 10
28.6877737981
 20
8.0401103674
 30
0.0
 10
28.7060853744
 20
8.0363620552
 30
0.0
 10
28.7196219614
 20
8.0327005379
 30
0.0
 10
28.7328974475
 20
8.028183985
 30
0.0
 10
28.745844031
 20
8.0227969107
 30
0.0
 10
28.7562902638
 20
8.0175508662
 30
0.0
 10
28.7643674563
 20
8.0128524077
 30
0.0
 10
28.7702569376
 20
8.0090506716
 30
0.0
 10
28.7759287926
 20
8.0049306358
 30
0.0
 10
28.7804070169
 20
8.0011711113
 30
0.0
 10
28.7837460407
 20
7.9979008124
 30
0.0
 10
28.7860889573
 20
7.995289582
 30
0.0
 10
28.7882009638
 20
7.9924862325
 30
0.0
 10
28.7893913646
 20
7.9904654544
 30
0.0
 10
28.7899063194
 20
7.9894169433
 30
0.0
  0
SPLINE
  5
2DB
100
AcDbEntity
  8
0
100
AcDbSpline
 62
7
  6
CONTINUOUS
 70
0
 71
3
 72
24
 73
20
 74
0
 42
0.0000001
 43
0.0000001
 44
0.0000000001
 40
0.0
 40
0.0
 40
0.0
 40
0.0
 40
0.1250056356
 40
0.2500013679
 40
0.374981989
 40
0.4999473089
 40
0.562454845
 40
0.6249599368
 40
0.6874626966
 40
0.7499629971
 40
0.8124599792
 40
0.8437135826
 40
0.8749667069
 40
0.90621889
 40
0.9374697569
 40
0.9530985992
 40
0.9687279591
 40
0.9843689795
 40
1.0
 40
1.0
 40
1.0
 40
1.0
 10
28.3828692592
 20
8.1066606051
 30
0.0
 10
28.3921111565
 20
8.1080242026
 30
0.0
 10
28.4107785846
 20
8.1096337554
 30
0.0
 10
28.4388499243
 20
8.1086709856
 30
0.0
 10
28.4666028234
 20
8.1043511567
 30
0.0
 10
28.4891344866
 20
8.0979872556
 30
0.0
 10
28.5065793752
 20
8.0912761046
 30
0.0
 10
28.5193286836
 20
8.0854364953
 30
0.0
 10
28.5316797193
 20
8.0787964872
 30
0.0
 10
28.5435630561
 20
8.0713519652
 30
0.0
 10
28.5530033557
 20
8.0644580904
 30
0.0
 10
28.5601970538
 20
8.0584942609
 30
0.0
 10
28.565380472
 20
8.0537750063
 30
0.0
 10
28.5702968422
 20
8.0487776129
 30
0.0
 10
28.5740951982
 20
8.0443322773
 30
0.0
 10
28.5768504144
 20
8.0405569999
 30
0.0
 10
28.5787315863
 20
8.0375957548
 30
0.0
 10
28.5803533761
 20
8.0344830171
 30
0.0
 10
28.5811949354
 20
8.0322938677
 30
0.0
 10
28.5815302893
 20
8.0311748986
 30
0.0
  0
SPLINE
  5
2DC
100
AcDbEntity
  8
0
100
AcDbSpline
 62
7
  6
CONTINUOUS
 70
0
 71
3
 72
24
 73
20
 74
0
 42
0.0000001
 43
0.0000001
 44
0.0000000001
 40
0.0
 40
0.0
 40
0.0
 40
0.0
 40
0.1250056356
 40
0.2500013679
 40
0.374981989
 40
0.4999473089
 40
0.5624548451
 40
0.6249599368
 40
0.6874626966
 40
0.7499629971
 40
0.8124599792
 40
0.8437135826
 40
0.8749667069
 40
0.90621889
 40
0.9374697569
 40
0.9530985992
 40
0.9687279591
 40
0.9843689795
 40
1.0
 40
1.0
 40
1.0
 40
1.0
 10
28.1993420881
 20
8.2138150462
 30
0.0
 10
28.2086823789
 20
8.2136388933
 30
0.0
 10
28.2273601336
 20
8.2121539638
 30
0.0
 10
28.2548901582
 20
8.2065839746
 30
0.0
 10
28.2815535365
 20
8.1977551247
 30
0.0
 10
28.3027304482
 20
8.1877694601
 30
0.0
 10
28.318832806
 20
8.1782785299
 30
0.0
 10
28.3304470739
 20
8.1704201152
 30
0.0
 10
28.3415367608
 20
8.1618377707
 30
0.0
 10
28.35203271
 20
8.1525388648
 30
0.0
 10
28.360209574
 20
8.1441852032
 30
0.0
 10
28.3663235557
 20
8.1371186778
 30
0.0
 10
28.3706595232
 20
8.1316106314
 30
0.0
 10
28.374686305
 20
8.125872194
 30
0.0
 10
28.3777011856
 20
8.1208623025
 30
0.0
 10
28.3797974401
 20
8.1166850244
 30
0.0
 10
28.3811655551
 20
8.1134545381
 30
0.0
 10
28.3822528909
 20
8.1101173178
 30
0.0
 10
28.3827226537
 20
8.1078195101
 30
0.0
 10
28.3828692592
 20
8.1066606051
 30
0.0
  0
SPLINE
  5
2DD
100
AcDbEntity
  8
0
100
AcDbSpline
 62
7
  6
CONTINUOUS
 70
0
 71
3
 72
24
 73
20
 74
0
 42
0.0000001
 43
0.0000001
 44
0.0000000001
 40
0.0
 40
0.0
 40
0.0
 40
0.0
 40
0.1250056355
 40
0.2500013678
 40
0.3749819889
 40
0.4999473088
 40
0.562454845
 40
0.6249599368
 40
0.6874626966
 40
0.7499629972
 40
0.8124599793
 40
0.8437135826
 40
0.874966707
 40
0.9062188901
 40
0.9374697569
 40
0.9530985993
 40
0.9687279592
 40
0.9843689795
 40
1.0
 40
1.0
 40
1.0
 40
1.0
 10
28.03595483
 20
8.3497153796
 30
0.0
 10
28.0451387401
 20
8.3480042815
 30
0.0
 10
28.0633173498
 20
8.3434653738
 30
0.0
 10
28.0895551255
 20
8.3334400975
 30
0.0
 10
28.1144016883
 20
8.3203430502
 30
0.0
 10
28.1336462078
 20
8.3070080003
 30
0.0
 10
28.1479668123
 20
8.2949961741
 30
0.0
 10
28.1581292384
 20
8.2853333071
 30
0.0
 10
28.1676550841
 20
8.2750427262
 30
0.0
 10
28.1764773486
 20
8.2641430817
 30
0.0
 10
28.1831677374
 20
8.2545574954
 30
0.0
 10
28.1880352323
 20
8.2465810271
 30
0.0
 10
28.1914054772
 20
8.2404344314
 30
0.0
 10
28.1944328325
 20
8.2341114767
 30
0.0
 10
28.196582001
 20
8.2286736838
 30
0.0
 10
28.1979621145
 20
8.2242083482
 30
0.0
 10
28.1987798546
 20
8.2207967383
 30
0.0
 10
28.1993030773
 20
8.2173260646
 30
0.0
 10
28.1993882298
 20
8.2149822757
 30
0.0
 10
28.1993420881
 20
8.2138150462
 30
0.0
  0
SPLINE
  5
2DE
100
AcDbEntity
  8
0
100
AcDbSpline
 62
7
  6
CONTINUOUS
 70
0
 71
3
 72
24
 73
20
 74
0
 42
0.0000001
 43
0.0000001
 44
0.0000000001
 40
0.0
 40
0.0
 40
0.0
 40
0.0
 40
0.1250056356
 40
0.2500013679
 40
0.374981989
 40
0.4999473089
 40
0.5624548451
 40
0.6249599368
 40
0.6874626966
 40
0.7499629971
 40
0.8124599792
 40
0.8437135826
 40
0.8749667069
 40
0.90621889
 40
0.9374697569
 40
0.9530985992
 40
0.9687279591
 40
0.9843689795
 40
1.0
 40
1.0
 40
1.0
 40
1.0
 10
27.8971641843
 20
8.5106546645
 30
0.0
 10
27.9059412051
 20
8.5074552945
 30
0.0
 10
27.9231248136
 20
8.499986216
 30
0.0
 10
27.9473546548
 20
8.4857791111
 30
0.0
 10
27.9697066647
 20
8.4687711135
 30
0.0
 10
27.986493861
 20
8.4524504172
 30
0.0
 10
27.9986420903
 20
8.4382453404
 30
0.0
 10
28.0070754751
 20
8.4270415944
 30
0.0
 10
28.0147776438
 20
8.4153234723
 30
0.0
 10
28.0216855796
 20
8.4031203979
 30
0.0
 10
28.0267070001
 20
8.3925643521
 30
0.0
 10
28.0301952379
 20
8.3838955141
 30
0.0
 10
28.0325078304
 20
8.3772780293
 30
0.0
 10
28.0344531822
 20
8.3705430281
 30
0.0
 10
28.035678016
 20
8.3648256598
 30
0.0
 10
28.0363043433
 20
8.3601940673
 30
0.0
 10
28.0365494032
 20
8.3566943921
 30
0.0
 10
28.0364942408
 20
8.3531849342
 30
0.0
 10
28.0361924604
 20
8.3508590954
 30
0.0
 10
28.03595483
 20
8.3497153796
 30
0.0
  0
SPLINE
  5
2DF
100
AcDbEntity
  8
0
100
AcDbSpline
 62
7
  6
CONTINUOUS
 70
0
 71
3
 72
21
 73
17
 74
0
 42
0.0000001
 43
0.0000001
 44
0.0000000001
 40
0.0
 40
0.0
 40
0.0
 40
0.0
 40
0.1250085773
 40
0.2500093449
 40
0.3750028621
 40
0.4999893267
 40
0.6249674073
 40
0.6874701702
 40
0.749971487
 40
0.8124704953
 40
0.8437238521
 40
0.8749777141
 40
0.9062333931
 40
0.9374863474
 40
0.9687450551
 40
1.0
 40
1.0
 40
1.0
 40
1.0
 10
27.847476983
 20
8.6427366248
 30
0.0
 10
27.8514657262
 20
8.6381689264
 30
0.0
 10
27.8590885147
 20
8.6287170526
 30
0.0
 10
27.8693673937
 20
8.6136861476
 30
0.0
 10
27.8784153477
 20
8.5978825429
 30
0.0
 10
27.8861434249
 20
8.5813946301
 30
0.0
 10
27.8913941388
 20
8.5671519083
 30
0.0
 10
27.8947832763
 20
8.5555041242
 30
0.0
 10
27.8968759199
 20
8.5466480301
 30
0.0
 10
27.898188081
 20
8.5391765342
 30
0.0
 10
27.8989085972
 20
8.5331540275
 30
0.0
 10
27.8992546708
 20
8.528617048
 30
0.0
 10
27.8993608482
 20
8.5240673683
 30
0.0
 10
27.8991578219
 20
8.5195182689
 30
0.0
 10
27.8985325647
 20
8.5150052432
 30
0.0
 10
27.8977127409
 20
8.5120681245
 30
0.0
 10
27.8971641843
 20
8.5106546645
 30
0.0
  0
ENDSEC
  0
SECTION
  2
OBJECTS
  0
DICTIONARY
  5
C
100
AcDbDictionary
280
0
281
1
  3
ACAD_GROUP
350
D
  3
ACAD_MLINESTYLE
350
17
  3
ACAD_LAYOUT
350
1A
  3
ACAD_PLOTSETTINGS
350
19
  3
ACAD_PLOTSTYLENAME
350
E
  0
DICTIONARY
  5
D
102
{ACAD_REACTORS
330
C
102
}
100
AcDbDictionary
280
0
281
1
  0
ACDBDICTIONARYWDFLT
  5
E
102
{ACAD_REACTORS
330
C
102
}
100
AcDbDictionary
281
1
  3
Normal
350
F
100
AcDbDictionaryWithDefault
340
F
  0
DICTIONARY
  5
17
102
{ACAD_REACTORS
330
C
102
}
100
AcDbDictionary
280
0
281
1
  3
Standard
350
18
  0
DICTIONARY
  5
19
102
{ACAD_REACTORS
330
C
102
}
100
AcDbDictionary
281
1
  0
DICTIONARY
  5
1A
102
{ACAD_REACTORS
330
C
102
}
100
AcDbDictionary
281
1
  3
Model
350
2E0
  3
Layout1
350
2E1
  0
ACDBPLACEHOLDER
  5
F
102
{ACAD_REACTORS
330
E
102
}
  0
MLINESTYLE
  5
18
102
{ACAD_REACTORS
330
17
102
}
100
AcDbMlineStyle
  2
STANDARD
 70
0
  3

 62
256
 51
90.0
 52
90.0
 71
2
 49
0.5
 62
256
  6
BYLAYER
 49
-0.5
 62
256
  6
BYLAYER
  0
LAYOUT
  5
2E0
102
{ACAD_REACTORS
330
1A
102
}
100
AcDbPlotSettings
  1

  2
none_device
  4
ANSI_C_(22.00_x_17.00_Inches)
  6

 40
0.0
 41
0.0
 42
0.0
 43
0.0
 44
558.8
 45
431.8
 46
0.0
 47
0.0
 48
0.0
 49
0.0
140
0.0
141
0.0
142
1.0
143
1.0
 70
1024
 72
0
 73
0
 74
0
  7

 75
0
147
1.0
148
0.0
149
0.0
100
AcDbLayout
  1
Model
 70
0
 71
0
 10
0.0
 20
0.0
 11
22.0
 21
17.0
 12
0.0
 22
0.0
 32
0.0
 14
0.0
 24
0.0
 34
0.0
 15
0.0
 25
0.0
 35
0.0
146
0.0
 13
0.0
 23
0.0
 33
0.0
 16
1.0
 26
0.0
 36
0.0
 17
0.0
 27
1.0
 37
0.0
 76
0
330
205
345
0
346
0
  0
LAYOUT
  5
2E1
102
{ACAD_REACTORS
330
1A
102
}
100
AcDbPlotSettings
  1

  2
none_device
  4
ANSI_C_(22.00_x_17.00_Inches)
  6

 40
0.0
 41
0.0
 42
0.0
 43
0.0
 44
558.8
 45
431.8
 46
0.0
 47
0.0
 48
0.0
 49
0.0
140
0.0
141
0.0
142
1.0
143
1.0
 70
0
 72
0
 73
0
 74
0
  7

 75
0
147
1.0
148
0.0
149
0.0
100
AcDbLayout
  1
Layout1
 70
0
 71
1
 10
0.0
 20
0.0
 11
22.0
 21
17.0
 12
0.0
 22
0.0
 32
0.0
 14
0.0
 24
0.0
 34
0.0
 15
0.0
 25
0.0
 35
0.0
146
0.0
 13
0.0
 23
0.0
 33
0.0
 16
1.0
 26
0.0
 36
0.0
 17
0.0
 27
1.0
 37
0.0
 76
0
330
206
345
0
346
0
  0
ENDSEC
  0
EOF
