999
DXF file: E:\BT Custom\CADOUTPUT\_RIGHT.dxf
999
Pro/ENGINEER 2018400 by Parametric Technology Corporation
  0
SECTION
  2
HEADER
  9
$ACADVER
  1
AC1018
  9
$DWGCODEPAGE
  3
ANSI_1252
  9
$EXTMAX
 10
22.0
 20
17.0
 30
0.0
  9
$EXTMIN
 10
0.0
 20
0.0
 30
0.0
  9
$LIMMIN
 10
0.0
 20
0.0
  9
$LIMMAX
 10
22.0
 20
17.0
  9
$VIEWCTR
 10
11.0
 20
8.5
  9
$VIEWSIZE
 40
17.0
  9
$CLAYER
  8
0
  9
$LTSCALE
 40
1.21
  9
$CELTYPE
  6
BYLAYER
  9
$DIMSCALE
 40
1.0
  9
$DIMASZ
 40
0.1
  9
$DIMEXO
 40
0.0625
  9
$DIMDLI
 40
0.836
  9
$DIMEXE
 40
0.125
  9
$DIMCEN
 40
0.198
  9
$DIMLFAC
 40
1.0
  9
$DIMBLK
  1
_FILLED
  9
$DIMALT
 70
1
  9
$DIMALTD
 70
2
  9
$DIMALTTD
 70
2
  9
$DIMALTF
 40
25.4
  9
$DIMTXT
 40
0.08
  9
$DIMTOL
 70
1
  9
$DIMLIM
 70
0
  9
$DIMTFAC
 40
1.0
  9
$DIMTP
 40
0.001
  9
$DIMTM
 40
0.001
  9
$DIMGAP
 40
0.09
  9
$DIMDSEP
 70
46
  9
$AUNITS
 70
0
  9
$PDMODE
 70
3
  9
$PDSIZE
 40
0.06
  9
$HANDSEED
  5
24B
  9
$TILEMODE
 70
1
  9
$MEASUREMENT
 70
0
  9
$INSUNITS
 70
1
  0
ENDSEC
  0
SECTION
  2
CLASSES
  0
CLASS
  1
ACDBDICTIONARYWDFLT
  2
AcDbDictionaryWithDefault
  3
AutoCAD 2000
 90
0
 91
1
280
0
281
0
  0
CLASS
  1
ACDBPLACEHOLDER
  2
AcDbPlaceHolder
  3
AutoCAD 2000
 90
0
 91
1
280
0
281
0
  0
CLASS
  1
LAYOUT
  2
AcDbLayout
  3
AutoCAD 2000
 90
0
 91
0
280
0
281
0
  0
ENDSEC
  0
SECTION
  2
TABLES
  0
TABLE
  2
VPORT
  5
8
100
AcDbSymbolTable
 70
2
  0
VPORT
  5
1F4
100
AcDbSymbolTableRecord
100
AcDbViewportTableRecord
  2
*ACTIVE
 70
0
 10
0.0
 20
0.0
 11
1.0
 21
1.0
 12
11.0
 22
8.5
 13
0.0
 23
0.0
 14
1.0
 24
1.0
 15
0.0
 25
0.0
 16
0.0
 26
0.0
 36
1.0
 17
0.0
 27
0.0
 37
0.0
 40
17.0
 41
1.2941176471
 42
50.0
 43
0.0
 44
0.0
 50
0.0
 51
0.0
 71
0
 72
100
 73
1
 74
1
 75
0
 76
0
 77
0
 78
0
  0
ENDTAB
  0
TABLE
  2
LTYPE
  5
5
100
AcDbSymbolTable
 70
6
  0
LTYPE
  5
14
100
AcDbSymbolTableRecord
100
AcDbLinetypeTableRecord
  2
BYBLOCK
 70
0
  3

 72
65
 73
0
 40
0.0
  0
LTYPE
  5
15
100
AcDbSymbolTableRecord
100
AcDbLinetypeTableRecord
  2
BYLAYER
 70
0
  3

 72
65
 73
0
 40
0.0
  0
LTYPE
  5
16
100
AcDbSymbolTableRecord
100
AcDbLinetypeTableRecord
  2
CONTINUOUS
 70
64
  3
Solid line
 72
65
 73
0
 40
0.0
  0
LTYPE
  5
1F5
100
AcDbSymbolTableRecord
100
AcDbLinetypeTableRecord
  2
CENTER
 70
64
  3
____ _ ____ _ ____ _ ____ _ ____ _ ____ _ ____
 72
65
 73
4
 40
0.6
 49
0.375
 74
0
 49
-0.075
 74
0
 49
0.075
 74
0
 49
-0.075
 74
0
  0
LTYPE
  5
1F6
100
AcDbSymbolTableRecord
100
AcDbLinetypeTableRecord
  2
HIDDEN
 70
64
  3
- - - - - - - - - - - - - - - - - - - -
 72
65
 73
2
 40
0.2
 49
0.1
 74
0
 49
-0.1
 74
0
  0
LTYPE
  5
1F7
100
AcDbSymbolTableRecord
100
AcDbLinetypeTableRecord
  2
PHANTOM
 70
64
  3
_____ _ _ _____ _ _ _____ _ _ _____
 72
65
 73
6
 40
0.8
 49
0.45
 74
0
 49
-0.05
 74
0
 49
0.1
 74
0
 49
-0.05
 74
0
 49
0.1
 74
0
 49
-0.05
 74
0
  0
LTYPE
  5
1F8
100
AcDbSymbolTableRecord
100
AcDbLinetypeTableRecord
  2
DOT
 70
64
  3
. . . . . . . . . . . . . . . . . . . .
 72
65
 73
2
 40
0.2
 49
0.1
 74
0
 49
-0.1
 74
0
  0
LTYPE
  5
1F9
100
AcDbSymbolTableRecord
100
AcDbLinetypeTableRecord
  2
DASHED
 70
64
  3
- - - - - - - - - - - - - - - - - - - -
 72
65
 73
2
 40
0.2
 49
0.1
 74
0
 49
-0.1
 74
0
  0
ENDTAB
  0
TABLE
  2
LAYER
  5
2
100
AcDbSymbolTable
 70
36
  0
LAYER
  5
10
100
AcDbSymbolTableRecord
100
AcDbLayerTableRecord
  2
0
 70
0
 62
7
  6
CONTINUOUS
370
-3
390
F
  0
LAYER
  5
1FA
100
AcDbSymbolTableRecord
100
AcDbLayerTableRecord
  2
DEFAULT_1
 70
0
 62
7
  6
CENTER
370
-3
390
F
  0
LAYER
  5
1FB
100
AcDbSymbolTableRecord
100
AcDbLayerTableRecord
  2
DEFAULT_2
 70
0
 62
8
  6
HIDDEN
370
-3
390
F
  0
LAYER
  5
1FC
100
AcDbSymbolTableRecord
100
AcDbLayerTableRecord
  2
DEFAULT_3
 70
0
 62
7
  6
PHANTOM
370
-3
390
F
  0
LAYER
  5
1FD
100
AcDbSymbolTableRecord
100
AcDbLayerTableRecord
  2
ALL_FEATURES
 70
0
 62
7
  6
CONTINUOUS
370
-3
390
F
  0
LAYER
  5
1FE
100
AcDbSymbolTableRecord
100
AcDbLayerTableRecord
  2
AXES_FEATURES
 70
0
 62
7
  6
CONTINUOUS
370
-3
390
F
  0
LAYER
  5
1FF
100
AcDbSymbolTableRecord
100
AcDbLayerTableRecord
  2
DEFAULT_COORDINATE_SYSTEM
 70
0
 62
7
  6
CONTINUOUS
370
-3
390
F
  0
LAYER
  5
200
100
AcDbSymbolTableRecord
100
AcDbLayerTableRecord
  2
DEFAULT_DATUM_AXES
 70
0
 62
7
  6
CONTINUOUS
370
-3
390
F
  0
LAYER
  5
201
100
AcDbSymbolTableRecord
100
AcDbLayerTableRecord
  2
DEFAULT_DATUM_PLANES
 70
0
 62
7
  6
CONTINUOUS
370
-3
390
F
  0
LAYER
  5
202
100
AcDbSymbolTableRecord
100
AcDbLayerTableRecord
  2
DIMENSIONS
 70
0
 62
7
  6
CONTINUOUS
370
-3
390
F
  0
ENDTAB
  0
TABLE
  2
STYLE
  5
3
100
AcDbSymbolTable
 70
1
  0
STYLE
  5
11
100
AcDbSymbolTableRecord
100
AcDbTextStyleTableRecord
  2
STANDARD
 70
0
 40
0.0
 41
0.8
 50
0.0
 71
0
 42
0.2
  3
txt
  4

  0
STYLE
  5
203
100
AcDbSymbolTableRecord
100
AcDbTextStyleTableRecord
  2
TEXTSTYLE_1
 70
0
 40
0.0
 41
0.8
 50
0.0
 71
0
 42
0.2
  3
gdt
  4

  0
ENDTAB
  0
TABLE
  2
VIEW
  5
6
100
AcDbSymbolTable
 70
0
  0
ENDTAB
  0
TABLE
  2
UCS
  5
7
100
AcDbSymbolTable
 70
0
  0
ENDTAB
  0
TABLE
  2
APPID
  5
9
100
AcDbSymbolTable
 70
1
  0
APPID
  5
204
100
AcDbSymbolTableRecord
100
AcDbRegAppTableRecord
  2
ACAD
 70
0
  0
ENDTAB
  0
TABLE
  2
BLOCK_RECORD
  5
1
100
AcDbSymbolTable
 70
0
  0
BLOCK_RECORD
  5
205
100
AcDbSymbolTableRecord
100
AcDbBlockTableRecord
  2
*Model_Space
  0
BLOCK_RECORD
  5
206
100
AcDbSymbolTableRecord
100
AcDbBlockTableRecord
  2
*Paper_Space
  0
BLOCK_RECORD
  5
207
100
AcDbSymbolTableRecord
100
AcDbBlockTableRecord
  2
_FILLED
  0
ENDTAB
  0
TABLE
  2
DIMSTYLE
  5
A
100
AcDbSymbolTable
 70
1
100
AcDbDimStyleTable
 71
0
  0
DIMSTYLE
105
208
100
AcDbSymbolTableRecord
100
AcDbDimStyleTableRecord
  2
STANDARD
 70
0
  3

  4

 40
1.0
 41
0.1
 42
0.0625
 43
0.38
 44
0.125
 45
0.0
 46
0.0
 47
0.001
 48
0.001
140
0.08
141
0.09
142
0.0
143
25.4
144
1.0
145
0.0
146
1.0
147
0.09
 71
1.0
 72
0.0
 73
1
 74
1
 75
0
 76
0
 77
0
 78
4
 79
1
170
1
171
2
172
0
173
0
174
0
175
0
176
0
177
0
178
0
270
2
179
3
271
3
272
3
273
2
274
2
275
0
280
0
281
0
282
0
283
1
284
4
285
0
286
0
287
3
288
0
340
11
278
46
341
207
342
207
343
207
344
207
  0
ENDTAB
  0
ENDSEC
  0
SECTION
  2
BLOCKS
  0
BLOCK
  5
20
100
AcDbEntity
  8
0
100
AcDbBlockBegin
  2
*Model_Space
 70
0
 10
0.0
 20
0.0
 30
0.0
  3
*Model_Space
  1

  0
ENDBLK
  5
21
100
AcDbEntity
  8
0
100
AcDbBlockEnd
  0
BLOCK
  5
1C
100
AcDbEntity
  8
0
100
AcDbBlockBegin
  2
*Paper_Space
 70
0
 10
0.0
 20
0.0
 30
0.0
  3
*Paper_Space
  1

  0
ENDBLK
  5
1D
100
AcDbEntity
  8
0
100
AcDbBlockEnd
  0
BLOCK
  5
209
100
AcDbEntity
  8
0
100
AcDbBlockBegin
  2
_FILLED
 70
64
 10
0.0
 20
0.0
  3
_FILLED
  1

  0
SOLID
  5
20A
100
AcDbEntity
  8
0
  6
BYBLOCK
 62
0
100
AcDbTrace
 10
0.0
 20
0.0
 11
-1.0
 21
0.2
 12
-1.0
 22
-0.2
 13
-1.0
 23
-0.2
  0
ENDBLK
  5
20B
100
AcDbEntity
  8
0
  6
BYBLOCK
 62
0
100
AcDbBlockEnd
  0
ENDSEC
  0
SECTION
  2
ENTITIES
  0
LINE
  5
20C
100
AcDbEntity
  8
0
100
AcDbLine
 62
7
  6
CONTINUOUS
 10
11.5999834891
 20
7.509891804
 11
12.0799834891
 21
7.509891804
  0
LINE
  5
20D
100
AcDbEntity
  8
0
100
AcDbLine
 62
7
  6
CONTINUOUS
 10
9.9649834891
 20
8.384891804
 11
11.4799834891
 21
8.384891804
  0
LINE
  5
20E
100
AcDbEntity
  8
0
100
AcDbLine
 62
7
  6
CONTINUOUS
 10
9.9649834891
 20
9.634891804
 11
11.4799834891
 21
9.634891804
  0
LINE
  5
20F
100
AcDbEntity
  8
0
100
AcDbLine
 62
7
  6
CONTINUOUS
 10
11.4799834891
 20
9.824891804
 11
11.4799834891
 21
8.194891804
  0
LINE
  5
210
100
AcDbEntity
  8
0
100
AcDbLine
 62
9
  6
CONTINUOUS
 10
11.5399834891
 20
8.4903571037
 11
11.5399834891
 21
8.503758952
  0
LINE
  5
211
100
AcDbEntity
  8
0
100
AcDbLine
 62
9
  6
CONTINUOUS
 10
11.5399834891
 20
8.6947555367
 11
11.5399834891
 21
8.7203436442
  0
LINE
  5
212
100
AcDbEntity
  8
0
100
AcDbLine
 62
9
  6
CONTINUOUS
 10
11.5399834891
 20
8.9087739057
 11
11.5399834891
 21
8.9447696181
  0
LINE
  5
213
100
AcDbEntity
  8
0
100
AcDbLine
 62
9
  6
CONTINUOUS
 10
11.5399834891
 20
9.1266320735
 11
11.5399834891
 21
9.1690385662
  0
LINE
  5
214
100
AcDbEntity
  8
0
100
AcDbLine
 62
9
  6
CONTINUOUS
 10
11.5399834891
 20
9.3411208041
 11
11.5399834891
 21
9.3885442378
  0
LINE
  5
215
100
AcDbEntity
  8
0
100
AcDbLine
 62
9
  6
CONTINUOUS
 10
11.5399834891
 20
9.5488690701
 11
11.5399834891
 21
9.5963615032
  0
LINE
  5
216
100
AcDbEntity
  8
0
100
AcDbLine
 62
9
  6
CONTINUOUS
 10
11.5399834891
 20
9.7424840552
 11
11.5399834891
 21
9.7863933043
  0
LINE
  5
217
100
AcDbEntity
  8
0
100
AcDbLine
 62
7
  6
CONTINUOUS
 10
11.5799834891
 20
10.489891804
 11
11.5799834891
 21
7.529891804
  0
LINE
  5
218
100
AcDbEntity
  8
0
100
AcDbLine
 62
9
  6
CONTINUOUS
 10
11.5999834891
 20
7.509891804
 11
11.5999834891
 21
10.509891804
  0
LINE
  5
219
100
AcDbEntity
  8
0
100
AcDbLine
 62
7
  6
CONTINUOUS
 10
12.0799834891
 20
7.5098928779
 11
12.0799834891
 21
10.5098907302
  0
LINE
  5
21A
100
AcDbEntity
  8
0
100
AcDbLine
 62
7
  6
CONTINUOUS
 10
11.5999834891
 20
10.509891804
 11
12.0799834891
 21
10.509891804
  0
ARC
  5
21B
100
AcDbEntity
  8
0
100
AcDbCircle
 62
7
  6
CONTINUOUS
 10
9.9649834891
 20
9.009891804
 40
0.625
100
AcDbArc
 50
90.0
 51
270.0
  0
ARC
  5
21C
100
AcDbEntity
  8
0
100
AcDbCircle
 62
7
  6
CONTINUOUS
 10
11.7606524676
 20
8.5994241111
 40
0.2406697941
100
AcDbArc
 50
153.1442101372
 51
221.3489924433
  0
ARC
  5
21D
100
AcDbEntity
  8
0
100
AcDbCircle
 62
7
  6
CONTINUOUS
 10
11.728843995
 20
9.9773665545
 40
0.2088649935
100
AcDbArc
 50
174.1368724063
 51
200.0211026106
  0
ARC
  5
21E
100
AcDbEntity
  8
0
100
AcDbCircle
 62
7
  6
CONTINUOUS
 10
11.6642268057
 20
9.4840528823
 40
0.1400704833
100
AcDbArc
 50
139.9211194889
 51
140.1451595436
  0
ARC
  5
21F
100
AcDbEntity
  8
0
100
AcDbCircle
 62
7
  6
CONTINUOUS
 10
11.6535482764
 20
10.3012243365
 40
0.1335659878
100
AcDbArc
 50
177.2341256844
 51
193.3811608321
  0
ARC
  5
220
100
AcDbEntity
  8
0
100
AcDbCircle
 62
7
  6
CONTINUOUS
 10
11.6363113694
 20
8.166114887
 40
0.116149335
100
AcDbArc
 50
194.4520026246
 51
206.8287393418
  0
ARC
  5
221
100
AcDbEntity
  8
0
100
AcDbCircle
 62
7
  6
CONTINUOUS
 10
11.6307384058
 20
10.3417915297
 40
0.1107548677
100
AcDbArc
 50
180.452715493
 51
187.6739659338
  0
ARC
  5
222
100
AcDbEntity
  8
0
100
AcDbCircle
 62
7
  6
CONTINUOUS
 10
11.634085339
 20
9.6500311729
 40
0.1082126849
100
AcDbArc
 50
221.5739713945
 51
227.0499279511
  0
ARC
  5
223
100
AcDbEntity
  8
0
100
AcDbCircle
 62
7
  6
CONTINUOUS
 10
11.622589634
 20
10.3446122571
 40
0.1020835508
100
AcDbArc
 50
150.4649568509
 51
153.0769905557
  0
ARC
  5
224
100
AcDbEntity
  8
0
100
AcDbCircle
 62
7
  6
CONTINUOUS
 10
11.6094259833
 20
7.6726138022
 40
0.0892401726
100
AcDbArc
 50
205.4597415178
 51
209.2797705786
  0
ARC
  5
225
100
AcDbEntity
  8
0
100
AcDbCircle
 62
7
  6
CONTINUOUS
 10
11.6065156353
 20
7.8752726411
 40
0.0865342648
100
AcDbArc
 50
172.515230707
 51
203.4520869537
  0
ARC
  5
226
100
AcDbEntity
  8
0
100
AcDbCircle
 62
7
  6
CONTINUOUS
 10
11.6023966365
 20
7.7059832848
 40
0.0824130954
100
AcDbArc
 50
175.718453562
 51
189.2563860011
  0
ARC
  5
227
100
AcDbEntity
  8
0
100
AcDbCircle
 62
7
  6
CONTINUOUS
 10
11.600266364
 20
7.7737725146
 40
0.0802828387
100
AcDbArc
 50
172.9711894013
 51
197.707712826
  0
ARC
  5
228
100
AcDbEntity
  8
0
100
AcDbCircle
 62
7
  6
CONTINUOUS
 10
11.6014935047
 20
10.3695726249
 40
0.0687063439
100
AcDbArc
 50
108.2441998297
 51
109.8925263115
  0
ARC
  5
229
100
AcDbEntity
  8
0
100
AcDbCircle
 62
7
  6
CONTINUOUS
 10
11.5399834891
 20
9.824891804
 40
0.06
100
AcDbArc
 50
105.4045837865
 51
180.0
  0
ARC
  5
22A
100
AcDbEntity
  8
0
100
AcDbCircle
 62
7
  6
CONTINUOUS
 10
11.5399834891
 20
8.194891804
 40
0.06
100
AcDbArc
 50
180.0
 51
262.5161680362
  0
ARC
  5
22B
100
AcDbEntity
  8
0
100
AcDbCircle
 62
7
  6
CONTINUOUS
 10
11.5999834891
 20
10.489891804
 40
0.02
100
AcDbArc
 50
90.0
 51
180.0
  0
ARC
  5
22C
100
AcDbEntity
  8
0
100
AcDbCircle
 62
7
  6
CONTINUOUS
 10
11.5999834891
 20
7.529891804
 40
0.02
100
AcDbArc
 50
180.0
 51
270.0
  0
SPLINE
  5
22D
100
AcDbEntity
  8
0
100
AcDbSpline
 62
7
  6
CONTINUOUS
 70
0
 71
3
 72
17
 73
13
 74
0
 42
0.0000001
 43
0.0000001
 44
0.0000000001
 40
0.0
 40
0.0
 40
0.0
 40
0.0
 40
0.1223647732
 40
0.2447122375
 40
0.3672846368
 40
0.4903888018
 40
0.6144527872
 40
0.7401316696
 40
0.8039130297
 40
0.8684419539
 40
0.9337986949
 40
1.0
 40
1.0
 40
1.0
 40
1.0
 10
11.5215274498
 20
10.3291520522
 30
0.0
 10
11.5205829665
 20
10.3342629982
 30
0.0
 10
11.5195556122
 20
10.3446646005
 30
0.0
 10
11.5206416149
 20
10.3602972571
 30
0.0
 10
11.5243420955
 20
10.3755630478
 30
0.0
 10
11.5306281547
 20
10.3900420183
 30
0.0
 10
11.5394438264
 20
10.4032996173
 30
0.0
 10
11.5488050261
 20
10.4128966989
 30
0.0
 10
11.557403056
 20
10.4194382155
 30
0.0
 10
11.5644381039
 20
10.4237317657
 30
0.0
 10
11.5719807348
 20
10.4273000432
 30
0.0
 10
11.5772774043
 20
10.4291239489
 30
0.0
 10
11.5799835297
 20
10.4298880074
 30
0.0
  0
SPLINE
  5
22E
100
AcDbEntity
  8
0
100
AcDbSpline
 62
7
  6
CONTINUOUS
 70
0
 71
3
 72
21
 73
17
 74
0
 42
0.0000001
 43
0.0000001
 44
0.0000000001
 40
0.0
 40
0.0
 40
0.0
 40
0.0
 40
0.0622120182
 40
0.1243283779
 40
0.1863806896
 40
0.2484013437
 40
0.3104223749
 40
0.3724759586
 40
0.4966305084
 40
0.6212741263
 40
0.683933141
 40
0.7467783943
 40
0.8098167962
 40
0.8730405937
 40
0.9364507442
 40
1.0
 40
1.0
 40
1.0
 40
1.0
 10
11.5273556028
 20
10.2797426454
 30
0.0
 10
11.5261414936
 20
10.2824112997
 30
0.0
 10
11.5240001495
 20
10.2878795126
 30
0.0
 10
11.5216866236
 20
10.2963693889
 30
0.0
 10
11.5202917802
 20
10.3050494276
 30
0.0
 10
11.5198276674
 20
10.3138235172
 30
0.0
 10
11.5202987229
 20
10.3225982757
 30
0.0
 10
11.5221657348
 20
10.3341652777
 30
0.0
 10
11.5268121499
 20
10.3481843953
 30
0.0
 10
11.534370156
 20
10.3609103362
 30
0.0
 10
11.5419699507
 20
10.3699481964
 30
0.0
 10
11.5484130919
 20
10.376094057
 30
0.0
 10
11.5555175454
 20
10.3815046976
 30
0.0
 10
11.563204245
 20
10.3861041668
 30
0.0
 10
11.5713801715
 20
10.3898204021
 30
0.0
 10
11.5770865629
 20
10.3916692623
 30
0.0
 10
11.5799834903
 20
10.3924289262
 30
0.0
  0
SPLINE
  5
22F
100
AcDbEntity
  8
0
100
AcDbSpline
 62
7
  6
CONTINUOUS
 70
0
 71
3
 72
23
 73
19
 74
0
 42
0.0000001
 43
0.0000001
 44
0.0000000001
 40
0.0
 40
0.0
 40
0.0
 40
0.0
 40
0.0625019989
 40
0.1249797126
 40
0.187437204
 40
0.2498793886
 40
0.3123123533
 40
0.3747426345
 40
0.4371768532
 40
0.4996215348
 40
0.5620826129
 40
0.6245648514
 40
0.6870720231
 40
0.7496060008
 40
0.8121685875
 40
0.87475456
 40
0.9373712879
 40
1.0
 40
1.0
 40
1.0
 40
1.0
 10
11.5373828919
 20
10.1960962511
 30
0.0
 10
11.5353185944
 20
10.1986952978
 30
0.0
 10
11.5315098593
 20
10.2041552322
 30
0.0
 10
11.5268599688
 20
10.2129835525
 30
0.0
 10
11.523339281
 20
10.2223180061
 30
0.0
 10
11.5210015051
 20
10.2320136718
 30
0.0
 10
11.5198808665
 20
10.2419226569
 30
0.0
 10
11.5199939822
 20
10.2518937118
 30
0.0
 10
11.5213391446
 20
10.2617749058
 30
0.0
 10
11.5238965042
 20
10.2714154709
 30
0.0
 10
11.5276281781
 20
10.2806678706
 30
0.0
 10
11.5324786587
 20
10.2893898271
 30
0.0
 10
11.5383752632
 20
10.2974463743
 30
0.0
 10
11.5452289426
 20
10.3047122035
 30
0.0
 10
11.5529354413
 20
10.3110728375
 30
0.0
 10
11.5613770609
 20
10.3164286171
 30
0.0
 10
11.5704216658
 20
10.3206924818
 30
0.0
 10
11.5767636433
 20
10.3227632394
 30
0.0
 10
11.5799834892
 20
10.3235961104
 30
0.0
  0
SPLINE
  5
230
100
AcDbEntity
  8
0
100
AcDbSpline
 62
7
  6
CONTINUOUS
 70
0
 71
3
 72
24
 73
20
 74
0
 42
0.0000001
 43
0.0000001
 44
0.0000000001
 40
0.0
 40
0.0
 40
0.0
 40
0.0
 40
0.0630094963
 40
0.1255260909
 40
0.1876503542
 40
0.2494835544
 40
0.3111143883
 40
0.3726316428
 40
0.4341158385
 40
0.4956452066
 40
0.5573019891
 40
0.619172879
 40
0.6813500898
 40
0.7439338321
 40
0.8070256432
 40
0.8707074973
 40
0.902808404
 40
0.9350711828
 40
1.0
 40
1.0
 40
1.0
 40
1.0
 10
11.5483503675
 20
10.0807733671
 30
0.0
 10
11.545517522
 20
10.0832729248
 30
0.0
 10
11.5402151214
 20
10.0886545133
 30
0.0
 10
11.5334665013
 20
10.0976976377
 30
0.0
 10
11.5280170054
 20
10.1074982194
 30
0.0
 10
11.5239165035
 20
10.1178763761
 30
0.0
 10
11.5211974285
 20
10.1286606382
 30
0.0
 10
11.5198805294
 20
10.139682562
 30
0.0
 10
11.5199755078
 20
10.1507762511
 30
0.0
 10
11.5214816945
 20
10.161776265
 30
0.0
 10
11.5243880796
 20
10.1725163344
 30
0.0
 10
11.5286725317
 20
10.1828277804
 30
0.0
 10
11.5343003457
 20
10.1925376553
 30
0.0
 10
11.5412218255
 20
10.201467368
 30
0.0
 10
11.5493651869
 20
10.2094298772
 30
0.0
 10
11.5570730114
 20
10.2150871333
 30
0.0
 10
11.563722969
 20
10.2189362672
 30
0.0
 10
11.5707029131
 20
10.2223204466
 30
0.0
 10
11.5762251655
 20
10.2242703836
 30
0.0
 10
11.5799835028
 20
10.2252855039
 30
0.0
  0
SPLINE
  5
231
100
AcDbEntity
  8
0
100
AcDbSpline
 62
7
  6
CONTINUOUS
 70
0
 71
3
 72
21
 73
17
 74
0
 42
0.0000001
 43
0.0000001
 44
0.0000000001
 40
0.0
 40
0.0
 40
0.0
 40
0.0
 40
0.0634106493
 40
0.1261425264
 40
0.1884907509
 40
0.250641675
 40
0.3126895593
 40
0.3746900041
 40
0.4984542682
 40
0.6222475196
 40
0.6843130429
 40
0.7464935295
 40
0.8088877801
 40
0.8717000162
 40
0.9352291322
 40
1.0
 40
1.0
 40
1.0
 40
1.0
 10
11.5558921834
 20
9.9363560858
 30
0.0
 10
11.5527513146
 20
9.9387478806
 30
0.0
 10
11.5468405846
 20
9.9439660638
 30
0.0
 10
11.5391596424
 20
9.9528809021
 30
0.0
 10
11.532730907
 20
9.9626422702
 30
0.0
 10
11.5275730503
 20
9.9730796593
 30
0.0
 10
11.5237034797
 20
9.9840370114
 30
0.0
 10
11.5202878954
 20
9.9991125303
 30
0.0
 10
11.5193032398
 20
10.0185392639
 30
0.0
 10
11.5227521495
 20
10.037690821
 30
0.0
 10
11.5281052061
 20
10.0522086337
 30
0.0
 10
11.5334129156
 20
10.0625790673
 30
0.0
 10
11.5399887031
 20
10.0722529752
 30
0.0
 10
11.5478196755
 20
10.0810609777
 30
0.0
 10
11.5568951014
 20
10.0888136426
 30
0.0
 10
11.5636995146
 20
10.0930693589
 30
0.0
 10
11.5672770067
 20
10.0949303045
 30
0.0
  0
SPLINE
  5
232
100
AcDbEntity
  8
0
100
AcDbSpline
 62
7
  6
CONTINUOUS
 70
0
 71
3
 72
17
 73
13
 74
0
 42
0.0000001
 43
0.0000001
 44
0.0000000001
 40
0.0
 40
0.0
 40
0.0
 40
0.0
 40
0.1227180862
 40
0.1848771104
 40
0.2474767822
 40
0.3734829138
 40
0.5002149649
 40
0.6269161331
 40
0.7528268429
 40
0.8153525025
 40
0.8774253421
 40
1.0
 40
1.0
 40
1.0
 40
1.0
 10
11.558169637
 20
9.7660011157
 30
0.0
 10
11.5519689931
 20
9.7711154433
 30
0.0
 10
11.5436462927
 20
9.7801391931
 30
0.0
 10
11.5348760081
 20
9.7937939345
 30
0.0
 10
11.5275721324
 20
9.8085404117
 30
0.0
 10
11.5214518013
 20
9.828438821
 30
0.0
 10
11.5191409497
 20
9.8533535055
 30
0.0
 10
11.5219057058
 20
9.8782159032
 30
0.0
 10
11.5283943995
 20
9.8979847296
 30
0.0
 10
11.535979176
 20
9.912570434
 30
0.0
 10
11.545016204
 20
9.9260261569
 30
0.0
 10
11.5535307067
 20
9.9348547823
 30
0.0
 10
11.559848735
 20
9.9398081572
 30
0.0
  0
SPLINE
  5
233
100
AcDbEntity
  8
0
100
AcDbSpline
 62
7
  6
CONTINUOUS
 70
0
 71
3
 72
18
 73
14
 74
0
 42
0.0000001
 43
0.0000001
 44
0.0000000001
 40
0.0
 40
0.0
 40
0.0
 40
0.0
 40
0.1212711383
 40
0.2463082906
 40
0.309749052
 40
0.373545054
 40
0.4375546729
 40
0.5016502511
 40
0.6294731865
 40
0.7560878567
 40
0.8186241145
 40
0.8803362656
 40
1.0
 40
1.0
 40
1.0
 40
1.0
 10
11.55313147
 20
9.5782227035
 30
0.0
 10
11.5476130245
 20
9.5844307711
 30
0.0
 10
11.5377553765
 20
9.5982883834
 30
0.0
 10
11.5289558727
 20
9.6177321071
 30
0.0
 10
11.5240466404
 20
9.6343200967
 30
0.0
 10
11.5214795109
 20
9.6471839002
 30
0.0
 10
11.5200736816
 20
9.6602706735
 30
0.0
 10
11.5197638283
 20
9.677816662
 30
0.0
 10
11.5223031465
 20
9.699610659
 30
0.0
 10
11.5286829647
 20
9.7204977814
 30
0.0
 10
11.5359626124
 20
9.7360894335
 30
0.0
 10
11.5444531737
 20
9.7504950458
 30
0.0
 10
11.5523346533
 20
9.7602518919
 30
0.0
 10
11.5581737791
 20
9.7660035101
 30
0.0
  0
SPLINE
  5
234
100
AcDbEntity
  8
0
100
AcDbSpline
 62
7
  6
CONTINUOUS
 70
0
 71
3
 72
19
 73
15
 74
0
 42
0.0000001
 43
0.0000001
 44
0.0000000001
 40
0.0
 40
0.0
 40
0.0
 40
0.0
 40
0.0576246102
 40
0.1174315875
 40
0.1787625514
 40
0.2411796152
 40
0.3679647858
 40
0.4962302113
 40
0.5606064732
 40
0.6249301818
 40
0.6890663892
 40
0.7528638972
 40
0.8785652892
 40
1.0
 40
1.0
 40
1.0
 40
1.0
 10
11.5676163712
 20
9.3519629167
 30
0.0
 10
11.5642177645
 20
9.3551590878
 30
0.0
 10
11.5576524536
 20
9.3620653348
 30
0.0
 10
11.5487977997
 20
9.3735423689
 30
0.0
 10
11.5409097434
 20
9.3861661283
 30
0.0
 10
11.5318418539
 20
9.4043388129
 30
0.0
 10
11.5236536525
 20
9.4288671001
 30
0.0
 10
11.5200075314
 20
9.4546205172
 30
0.0
 10
11.5198803303
 20
9.4754480017
 30
0.0
 10
11.5211882255
 20
9.4910274027
 30
0.0
 10
11.5238866076
 20
9.506379584
 30
0.0
 10
11.5292675201
 20
9.5262217411
 30
0.0
 10
11.5391624122
 20
9.5495304233
 30
0.0
 10
11.5503982867
 20
9.56626889
 30
0.0
 10
11.5566988287
 20
9.5738163184
 30
0.0
  0
SPLINE
  5
235
100
AcDbEntity
  8
0
100
AcDbSpline
 62
7
  6
CONTINUOUS
 70
0
 71
3
 72
18
 73
14
 74
0
 42
0.0000001
 43
0.0000001
 44
0.0000000001
 40
0.0
 40
0.0
 40
0.0
 40
0.0
 40
0.1163491033
 40
0.1774022962
 40
0.2395414293
 40
0.3657241659
 40
0.4933740324
 40
0.6215030608
 40
0.7493142548
 40
0.8128910866
 40
0.8760136405
 40
0.9384789429
 40
1.0
 40
1.0
 40
1.0
 40
1.0
 10
11.5799835853
 20
9.1158406084
 30
0.0
 10
11.571997164
 20
9.1228711761
 30
0.0
 10
11.5609383052
 20
9.1349296217
 30
0.0
 10
11.5485103825
 20
9.1529925756
 30
0.0
 10
11.5373681351
 20
9.1729259013
 30
0.0
 10
11.526800657
 20
9.2000028119
 30
0.0
 10
11.5200478687
 20
9.2344583652
 30
0.0
 10
11.5194563262
 20
9.269712222
 30
0.0
 10
11.5241398577
 20
9.2987241656
 30
0.0
 10
11.5308924852
 20
9.3210248749
 30
0.0
 10
11.5373810357
 20
9.3370878927
 30
0.0
 10
11.5452145662
 20
9.3523258046
 30
0.0
 10
11.5513178284
 20
9.3619048251
 30
0.0
 10
11.5545632865
 20
9.3665004623
 30
0.0
  0
SPLINE
  5
236
100
AcDbEntity
  8
0
100
AcDbSpline
 62
7
  6
CONTINUOUS
 70
0
 71
3
 72
15
 73
11
 74
0
 42
0.0000001
 43
0.0000001
 44
0.0000000001
 40
0.0
 40
0.0
 40
0.0
 40
0.0
 40
0.1207807692
 40
0.2447715706
 40
0.3703042386
 40
0.4965749201
 40
0.6231039424
 40
0.7495089946
 40
0.8753605428
 40
1.0
 40
1.0
 40
1.0
 40
1.0
 10
11.5799835105
 20
8.885894752
 30
0.0
 10
11.5719527519
 20
8.8940382371
 30
0.0
 10
11.5571191827
 20
8.9120236752
 30
0.0
 10
11.5395828047
 20
8.9425678073
 30
0.0
 10
11.5271428095
 20
8.9760833152
 30
0.0
 10
11.5203124316
 20
9.0114154325
 30
0.0
 10
11.5193282971
 20
9.0474705431
 30
0.0
 10
11.5242259107
 20
9.0831676304
 30
0.0
 10
11.534831213
 20
9.1174060499
 30
0.0
 10
11.5455428704
 20
9.1387154184
 30
0.0
 10
11.5517146023
 20
9.1487757781
 30
0.0
  0
SPLINE
  5
237
100
AcDbEntity
  8
0
100
AcDbSpline
 62
7
  6
CONTINUOUS
 70
0
 71
3
 72
15
 73
11
 74
0
 42
0.0000001
 43
0.0000001
 44
0.0000000001
 40
0.0
 40
0.0
 40
0.0
 40
0.0
 40
0.123699095
 40
0.2483612986
 40
0.3735022364
 40
0.4988763462
 40
0.6243378198
 40
0.7497719198
 40
0.875053672
 40
1.0
 40
1.0
 40
1.0
 40
1.0
 10
11.5799834904
 20
8.6586404395
 30
0.0
 10
11.5719833772
 20
8.6674359653
 30
0.0
 10
11.5572954596
 20
8.6864008986
 30
0.0
 10
11.5399234909
 20
8.7179753903
 30
0.0
 10
11.5275810721
 20
8.752014332
 30
0.0
 10
11.520621597
 20
8.7876225026
 30
0.0
 10
11.5192260483
 20
8.8239056656
 30
0.0
 10
11.5234335282
 20
8.8599642669
 30
0.0
 10
11.5331280211
 20
8.8948889242
 30
0.0
 10
11.5431109754
 20
8.9168963203
 30
0.0
 10
11.5489082274
 20
8.9274139245
 30
0.0
  0
SPLINE
  5
238
100
AcDbEntity
  8
0
100
AcDbSpline
 62
7
  6
CONTINUOUS
 70
0
 71
3
 72
15
 73
11
 74
0
 42
0.0000001
 43
0.0000001
 44
0.0000000001
 40
0.0
 40
0.0
 40
0.0
 40
0.0
 40
0.1250259493
 40
0.2501459427
 40
0.3753073898
 40
0.5004705146
 40
0.6255959474
 40
0.7506320825
 40
0.8754876561
 40
1.0
 40
1.0
 40
1.0
 40
1.0
 10
11.5428929499
 20
8.4972267158
 30
0.0
 10
11.5379356247
 20
8.4867596299
 30
0.0
 10
11.5295385744
 20
8.4650577558
 30
0.0
 10
11.5218235443
 20
8.4310374291
 30
0.0
 10
11.5191368687
 20
8.3962367561
 30
0.0
 10
11.5215416743
 20
8.3614167615
 30
0.0
 10
11.5289838422
 20
8.327328285
 30
0.0
 10
11.5413007702
 20
8.2947116276
 30
0.0
 10
11.5582052983
 20
8.2642925609
 30
0.0
 10
11.5723144189
 20
8.2458782596
 30
0.0
 10
11.5799834893
 20
8.2372631256
 30
0.0
  0
SPLINE
  5
239
100
AcDbEntity
  8
0
100
AcDbSpline
 62
7
  6
CONTINUOUS
 70
0
 71
3
 72
15
 73
11
 74
0
 42
0.0000001
 43
0.0000001
 44
0.0000000001
 40
0.0
 40
0.0
 40
0.0
 40
0.0
 40
0.1252864451
 40
0.2509998039
 40
0.3768885668
 40
0.502755714
 40
0.6283975034
 40
0.7535389825
 40
0.8777081463
 40
1.0
 40
1.0
 40
1.0
 40
1.0
 10
11.53978085
 20
8.300639389
 30
0.0
 10
11.5352714474
 20
8.2905874288
 30
0.0
 10
11.5277140488
 20
8.2697498978
 30
0.0
 10
11.5210587002
 20
8.2371684385
 30
0.0
 10
11.5192084254
 20
8.2039075202
 30
0.0
 10
11.5222128495
 20
8.170738975
 30
0.0
 10
11.5299964476
 20
8.1384242738
 30
0.0
 10
11.5423603885
 20
8.107728863
 30
0.0
 10
11.5589410076
 20
8.0794394265
 30
0.0
 10
11.5726108392
 20
8.0624973365
 30
0.0
 10
11.5799834968
 20
8.0546686968
 30
0.0
  0
SPLINE
  5
23A
100
AcDbEntity
  8
0
100
AcDbSpline
 62
7
  6
CONTINUOUS
 70
0
 71
3
 72
17
 73
13
 74
0
 42
0.0000001
 43
0.0000001
 44
0.0000000001
 40
0.0
 40
0.0
 40
0.0
 40
0.0
 40
0.1260569216
 40
0.1894757696
 40
0.2530287399
 40
0.380217632
 40
0.5072757297
 40
0.6337298716
 40
0.758921404
 40
0.8207690575
 40
0.8818177634
 40
1.0
 40
1.0
 40
1.0
 40
1.0
 10
11.5363792556
 20
8.1234620489
 30
0.0
 10
11.5323732308
 20
8.1140172173
 30
0.0
 10
11.5274197864
 20
8.0993334353
 30
0.0
 10
11.523049222
 20
8.0791958799
 30
0.0
 10
11.5201701953
 20
8.0586946721
 30
0.0
 10
11.5194356952
 20
8.0327381056
 30
0.0
 10
11.5231526041
 20
8.0018653019
 30
0.0
 10
11.5313535833
 20
7.9720385117
 30
0.0
 10
11.5417592603
 20
7.9486274113
 30
0.0
 10
11.5520278018
 20
7.9312211361
 30
0.0
 10
11.5632769857
 20
7.9151301323
 30
0.0
 10
11.5730158349
 20
7.9041606575
 30
0.0
 10
11.5799836248
 20
7.8975301557
 30
0.0
  0
SPLINE
  5
23B
100
AcDbEntity
  8
0
100
AcDbSpline
 62
7
  6
CONTINUOUS
 70
0
 71
3
 72
19
 73
15
 74
0
 42
0.0000001
 43
0.0000001
 44
0.0000000001
 40
0.0
 40
0.0
 40
0.0
 40
0.0
 40
0.0636260645
 40
0.1276309527
 40
0.1919003467
 40
0.2563356913
 40
0.3852540218
 40
0.5137905777
 40
0.6411542878
 40
0.7662213616
 40
0.8273995541
 40
0.887166398
 40
0.9449773594
 40
1.0
 40
1.0
 40
1.0
 40
1.0
 10
11.5326541488
 20
7.9705686
 30
0.0
 10
11.5309474212
 20
7.9662300574
 30
0.0
 10
11.5278633575
 20
7.9573892571
 30
0.0
 10
11.5242680522
 20
7.9437817587
 30
0.0
 10
11.5217148958
 20
7.9298789268
 30
0.0
 10
11.5197285276
 20
7.9110914683
 30
0.0
 10
11.5199357108
 20
7.8874069049
 30
0.0
 10
11.5244698441
 20
7.8594670629
 30
0.0
 10
11.5331300215
 20
7.8328147776
 30
0.0
 10
11.543592152
 20
7.8122354146
 30
0.0
 10
11.5536682738
 20
7.7972675097
 30
0.0
 10
11.5618674949
 20
7.7870319919
 30
0.0
 10
11.5706007657
 20
7.7778633335
 30
0.0
 10
11.5768268387
 20
7.7724020387
 30
0.0
 10
11.5799841628
 20
7.7698947673
 30
0.0
  0
SPLINE
  5
23C
100
AcDbEntity
  8
0
100
AcDbSpline
 62
7
  6
CONTINUOUS
 70
0
 71
3
 72
18
 73
14
 74
0
 42
0.0000001
 43
0.0000001
 44
0.0000000001
 40
0.0
 40
0.0
 40
0.0
 40
0.0
 40
0.1290464617
 40
0.1940422526
 40
0.259168781
 40
0.3893053738
 40
0.5187134849
 40
0.6464133995
 40
0.7709956799
 40
0.8315330576
 40
0.8903629984
 40
0.9467675786
 40
1.0
 40
1.0
 40
1.0
 40
1.0
 10
11.5287911444
 20
7.8465293555
 30
0.0
 10
11.5260548937
 20
7.8387122396
 30
0.0
 10
11.5228868203
 20
7.8265968019
 30
0.0
 10
11.5205995706
 20
7.810109428
 30
0.0
 10
11.5196045405
 20
7.7934202414
 30
0.0
 10
11.5208110767
 20
7.7725258346
 30
0.0
 10
11.5261251526
 20
7.7481424767
 30
0.0
 10
11.5351162869
 20
7.7252435552
 30
0.0
 10
11.5454739802
 20
7.7079204253
 30
0.0
 10
11.5552277838
 20
7.6956499791
 30
0.0
 10
11.5630431684
 20
7.6874904426
 30
0.0
 10
11.5712514785
 20
7.6804275278
 30
0.0
 10
11.5770562947
 20
7.6764180624
 30
0.0
 10
11.5799844724
 20
7.6746579864
 30
0.0
  0
SPLINE
  5
23D
100
AcDbEntity
  8
0
100
AcDbSpline
 62
7
  6
CONTINUOUS
 70
0
 71
3
 72
17
 73
13
 74
0
 42
0.0000001
 43
0.0000001
 44
0.0000000001
 40
0.0
 40
0.0
 40
0.0
 40
0.0
 40
0.128152334
 40
0.2567879133
 40
0.3852502584
 40
0.5128658834
 40
0.6388979531
 40
0.7624539892
 40
0.8230797598
 40
0.8827772145
 40
0.9415863616
 40
1.0
 40
1.0
 40
1.0
 40
1.0
 10
11.5249871145
 20
7.7547466114
 30
0.0
 10
11.5230729481
 20
7.7479894027
 30
0.0
 10
11.5203293921
 20
7.7341145491
 30
0.0
 10
11.5195440715
 20
7.7129332622
 30
0.0
 10
11.522085822
 20
7.6919141549
 30
0.0
 10
11.5278918067
 20
7.6716992362
 30
0.0
 10
11.5368016504
 20
7.6529428997
 30
0.0
 10
11.546680022
 20
7.6389822361
 30
0.0
 10
11.5558771475
 20
7.6292597642
 30
0.0
 10
11.563318848
 20
7.6228282286
 30
0.0
 10
11.5713200196
 20
7.617317781
 30
0.0
 10
11.5770405049
 20
7.6143428839
 30
0.0
 10
11.579982265
 20
7.6130803858
 30
0.0
  0
SPLINE
  5
23E
100
AcDbEntity
  8
0
100
AcDbSpline
 62
7
  6
CONTINUOUS
 70
0
 71
3
 72
17
 73
13
 74
0
 42
0.0000001
 43
0.0000001
 44
0.0000000001
 40
0.0
 40
0.0
 40
0.0
 40
0.0
 40
0.1245506394
 40
0.2491387476
 40
0.3735758563
 40
0.4977204767
 40
0.6215437323
 40
0.7453446249
 40
0.8076115301
 40
0.8704258248
 40
0.9343192147
 40
1.0
 40
1.0
 40
1.0
 40
1.0
 10
11.5217917903
 20
7.6979130816
 30
0.0
 10
11.5207598455
 20
7.6922841799
 30
0.0
 10
11.5195755391
 20
7.6808435597
 30
0.0
 10
11.5204663366
 20
7.6636365938
 30
0.0
 10
11.5240079286
 20
7.6467877897
 30
0.0
 10
11.5301578004
 20
7.6307401896
 30
0.0
 10
11.5388442072
 20
7.6159406481
 30
0.0
 10
11.5481409413
 20
7.6050399788
 30
0.0
 10
11.5567462561
 20
7.5974845617
 30
0.0
 10
11.5638370747
 20
7.5924437275
 30
0.0
 10
11.5715812856
 20
7.5881435041
 30
0.0
 10
11.5771175521
 20
7.585900999
 30
0.0
 10
11.57998377
 20
7.5849565018
 30
0.0
  0
SPLINE
  5
23F
100
AcDbEntity
  8
0
100
AcDbSpline
 62
7
  6
CONTINUOUS
 70
0
 71
3
 72
11
 73
7
 74
0
 42
0.0000001
 43
0.0000001
 44
0.0000000001
 40
0.0
 40
0.0
 40
0.0
 40
0.0
 40
0.2494826547
 40
0.4991114505
 40
0.7491685593
 40
1.0
 40
1.0
 40
1.0
 40
1.0
 10
11.5201236978
 20
7.6788659459
 30
0.0
 10
11.5199141451
 20
7.6750542365
 30
0.0
 10
11.5199650938
 20
7.6673944729
 30
0.0
 10
11.5214547808
 20
7.655999807
 30
0.0
 10
11.524348905
 20
7.6448567089
 30
0.0
 10
11.5272021241
 20
7.6377168484
 30
0.0
 10
11.5288521418
 20
7.6342515228
 30
0.0
  0
SPLINE
  5
240
100
AcDbEntity
  8
0
100
AcDbSpline
 62
7
  6
CONTINUOUS
 70
0
 71
3
 72
11
 73
7
 74
0
 42
0.0000001
 43
0.0000001
 44
0.0000000001
 40
0.0
 40
0.0
 40
0.0
 40
0.0
 40
0.2498646298
 40
0.499741488
 40
0.7497144555
 40
1.0
 40
1.0
 40
1.0
 40
1.0
 10
11.5208690521
 20
8.0210983669
 30
0.0
 10
11.5202203307
 20
8.0162287148
 30
0.0
 10
11.5196341204
 20
8.0063795888
 30
0.0
 10
11.5209052639
 20
7.991643551
 30
0.0
 10
11.5243129674
 20
7.977241114
 30
0.0
 10
11.5279941865
 20
7.9680720355
 30
0.0
 10
11.5301735795
 20
7.9636600091
 30
0.0
  0
SPLINE
  5
241
100
AcDbEntity
  8
0
100
AcDbSpline
 62
7
  6
CONTINUOUS
 70
0
 71
3
 72
9
 73
5
 74
0
 42
0.0000001
 43
0.0000001
 44
0.0000000001
 40
0.0
 40
0.0
 40
0.0
 40
0.0
 40
0.4984426514
 40
1.0
 40
1.0
 40
1.0
 40
1.0
 10
11.5301900629
 20
10.0558403931
 30
0.0
 10
11.5259020825
 20
10.0681476389
 30
0.0
 10
11.5199646478
 20
10.0938421602
 30
0.0
 10
11.5195584923
 20
10.1202050155
 30
0.0
 10
11.520737941
 20
10.1332661568
 30
0.0
  0
SPLINE
  5
242
100
AcDbEntity
  8
0
100
AcDbSpline
 62
7
  6
CONTINUOUS
 70
0
 71
3
 72
9
 73
5
 74
0
 42
0.0000001
 43
0.0000001
 44
0.0000000001
 40
0.0
 40
0.0
 40
0.0
 40
0.0
 40
0.4986049215
 40
1.0
 40
1.0
 40
1.0
 40
1.0
 10
11.5269587319
 20
10.1788114859
 30
0.0
 10
11.5241212848
 20
10.1880289063
 30
0.0
 10
11.5201492991
 20
10.2070848697
 30
0.0
 10
11.5196940521
 20
10.2265415407
 30
0.0
 10
11.5203455343
 20
10.2362178729
 30
0.0
  0
SPLINE
  5
243
100
AcDbEntity
  8
0
100
AcDbSpline
 62
7
  6
CONTINUOUS
 70
0
 71
3
 72
12
 73
8
 74
0
 42
0.0000001
 43
0.0000001
 44
0.0000000001
 40
0.0
 40
0.0
 40
0.0
 40
0.0
 40
0.2465426828
 40
0.4933806271
 40
0.7426084022
 40
0.8697967067
 40
1.0
 40
1.0
 40
1.0
 40
1.0
 10
11.5337713958
 20
10.3949349349
 30
0.0
 10
11.536218361
 20
10.3992531421
 30
0.0
 10
11.5417609095
 20
10.407549661
 30
0.0
 10
11.5519417517
 20
10.4185797012
 30
0.0
 10
11.5619585296
 20
10.4262639474
 30
0.0
 10
11.5708744649
 20
10.4312454013
 30
0.0
 10
11.5756508597
 20
10.4332876221
 30
0.0
 10
11.5781156974
 20
10.4341794342
 30
0.0
  0
SPLINE
  5
244
100
AcDbEntity
  8
0
100
AcDbSpline
 62
7
  6
CONTINUOUS
 70
0
 71
3
 72
9
 73
5
 74
0
 42
0.0000001
 43
0.0000001
 44
0.0000000001
 40
0.0
 40
0.0
 40
0.0
 40
0.0
 40
0.4631659673
 40
1.0
 40
1.0
 40
1.0
 40
1.0
 10
11.5672823127
 20
10.0949335375
 30
0.0
 10
11.5691007333
 20
10.095878599
 30
0.0
 10
11.5732652421
 20
10.0974680912
 30
0.0
 10
11.5776272201
 20
10.0983125593
 30
0.0
 10
11.5799834891
 20
10.0986125911
 30
0.0
  0
SPLINE
  5
245
100
AcDbEntity
  8
0
100
AcDbSpline
 62
7
  6
CONTINUOUS
 70
0
 71
3
 72
14
 73
10
 74
0
 42
0.0000001
 43
0.0000001
 44
0.0000000001
 40
0.0
 40
0.0
 40
0.0
 40
0.0
 40
0.0753428434
 40
0.1637267897
 40
0.2660725898
 40
0.3828817683
 40
0.5144372298
 40
0.6609423833
 40
1.0
 40
1.0
 40
1.0
 40
1.0
 10
11.5598512837
 20
9.9398100571
 30
0.0
 10
11.5602600813
 20
9.9401304536
 30
0.0
 10
11.5612268586
 20
9.9407273601
 30
0.0
 10
11.56292131
 20
9.9414417475
 30
0.0
 10
11.5649626856
 20
9.9420293648
 30
0.0
 10
11.5673420834
 20
9.9424741172
 30
0.0
 10
11.570051484
 20
9.942761467
 30
0.0
 10
11.5743050779
 20
9.9429239208
 30
0.0
 10
11.5776556575
 20
9.9427466572
 30
0.0
 10
11.5799834891
 20
9.9425356878
 30
0.0
  0
SPLINE
  5
246
100
AcDbEntity
  8
0
100
AcDbSpline
 62
7
  6
CONTINUOUS
 70
0
 71
3
 72
27
 73
23
 74
0
 42
0.0000001
 43
0.0000001
 44
0.0000000001
 40
0.0
 40
0.0
 40
0.0
 40
0.0
 40
0.0005194191
 40
0.0015153331
 40
0.0030066595
 40
0.0049974062
 40
0.0104796605
 40
0.017961159
 40
0.0274361801
 40
0.0388978861
 40
0.0523371742
 40
0.0677435625
 40
0.1044159624
 40
0.1488343205
 40
0.2009090214
 40
0.2605469292
 40
0.3276549977
 40
0.4021382565
 40
0.4839072029
 40
0.5728796559
 40
0.7721892848
 40
1.0
 40
1.0
 40
1.0
 40
1.0
 10
11.5581734603
 20
9.7660031942
 30
0.0
 10
11.558176226
 20
9.7660059173
 30
0.0
 10
11.5581880252
 20
9.7660086569
 30
0.0
 10
11.5582097506
 20
9.7660117517
 30
0.0
 10
11.5582434632
 20
9.7660134512
 30
0.0
 10
11.5583102916
 20
9.766014477
 30
0.0
 10
11.5584221462
 20
9.7660113684
 30
0.0
 10
11.5585895245
 20
9.7660023187
 30
0.0
 10
11.5588013245
 20
9.7659865347
 30
0.0
 10
11.5590571563
 20
9.7659634522
 30
0.0
 10
11.5593567543
 20
9.7659323954
 30
0.0
 10
11.5598431036
 20
9.7658762022
 30
0.0
 10
11.5605579687
 20
9.7657814291
 30
0.0
 10
11.5615418336
 20
9.7656322224
 30
0.0
 10
11.5626921554
 20
9.7654372461
 30
0.0
 10
11.5640057673
 20
9.7651921775
 30
0.0
 10
11.5654794087
 20
9.764892894
 30
0.0
 10
11.5671098148
 20
9.7645355878
 30
0.0
 10
11.5688937655
 20
9.7641166493
 30
0.0
 10
11.5715764086
 20
9.763445801
 30
0.0
 10
11.575297262
 20
9.7624303215
 30
0.0
 10
11.5783557573
 20
9.7615174225
 30
0.0
 10
11.5799834891
 20
9.7610191418
 30
0.0
  0
SPLINE
  5
247
100
AcDbEntity
  8
0
100
AcDbSpline
 62
7
  6
CONTINUOUS
 70
0
 71
3
 72
14
 73
10
 74
0
 42
0.0000001
 43
0.0000001
 44
0.0000000001
 40
0.0
 40
0.0
 40
0.0
 40
0.0
 40
0.0788070357
 40
0.1707018715
 40
0.275913875
 40
0.3944655192
 40
0.5262694553
 40
0.671187954
 40
1.0
 40
1.0
 40
1.0
 40
1.0
 10
11.5603551642
 20
9.5708235495
 30
0.0
 10
11.5607966367
 20
9.5704128282
 30
0.0
 10
11.5618026163
 20
9.5695766627
 30
0.0
 10
11.5635154102
 20
9.5683410668
 30
0.0
 10
11.5655389247
 20
9.5670212138
 30
0.0
 10
11.5678652045
 20
9.5656099525
 30
0.0
 10
11.5704865267
 20
9.564101013
 30
0.0
 10
11.5745403025
 20
9.5618572855
 30
0.0
 10
11.5777452216
 20
9.5601629771
 30
0.0
 10
11.5799834891
 20
9.5590141635
 30
0.0
  0
SPLINE
  5
248
100
AcDbEntity
  8
0
100
AcDbSpline
 62
7
  6
CONTINUOUS
 70
0
 71
3
 72
9
 73
5
 74
0
 42
0.0000001
 43
0.0000001
 44
0.0000000001
 40
0.0
 40
0.0
 40
0.0
 40
0.0
 40
0.4657211509
 40
1.0
 40
1.0
 40
1.0
 40
1.0
 10
11.5676150267
 20
9.3519640574
 30
0.0
 10
11.5694101185
 20
9.3502761252
 30
0.0
 10
11.5734400371
 20
9.3468386345
 30
0.0
 10
11.5776746809
 20
9.3436617677
 30
0.0
 10
11.5799834891
 20
9.3420308244
 30
0.0
  0
ENDSEC
  0
SECTION
  2
OBJECTS
  0
DICTIONARY
  5
C
100
AcDbDictionary
280
0
281
1
  3
ACAD_GROUP
350
D
  3
ACAD_MLINESTYLE
350
17
  3
ACAD_LAYOUT
350
1A
  3
ACAD_PLOTSETTINGS
350
19
  3
ACAD_PLOTSTYLENAME
350
E
  0
DICTIONARY
  5
D
102
{ACAD_REACTORS
330
C
102
}
100
AcDbDictionary
280
0
281
1
  0
ACDBDICTIONARYWDFLT
  5
E
102
{ACAD_REACTORS
330
C
102
}
100
AcDbDictionary
281
1
  3
Normal
350
F
100
AcDbDictionaryWithDefault
340
F
  0
DICTIONARY
  5
17
102
{ACAD_REACTORS
330
C
102
}
100
AcDbDictionary
280
0
281
1
  3
Standard
350
18
  0
DICTIONARY
  5
19
102
{ACAD_REACTORS
330
C
102
}
100
AcDbDictionary
281
1
  0
DICTIONARY
  5
1A
102
{ACAD_REACTORS
330
C
102
}
100
AcDbDictionary
281
1
  3
Model
350
249
  3
Layout1
350
24A
  0
ACDBPLACEHOLDER
  5
F
102
{ACAD_REACTORS
330
E
102
}
  0
MLINESTYLE
  5
18
102
{ACAD_REACTORS
330
17
102
}
100
AcDbMlineStyle
  2
STANDARD
 70
0
  3

 62
256
 51
90.0
 52
90.0
 71
2
 49
0.5
 62
256
  6
BYLAYER
 49
-0.5
 62
256
  6
BYLAYER
  0
LAYOUT
  5
249
102
{ACAD_REACTORS
330
1A
102
}
100
AcDbPlotSettings
  1

  2
none_device
  4
ANSI_C_(22.00_x_17.00_Inches)
  6

 40
0.0
 41
0.0
 42
0.0
 43
0.0
 44
558.8
 45
431.8
 46
0.0
 47
0.0
 48
0.0
 49
0.0
140
0.0
141
0.0
142
1.0
143
1.0
 70
1024
 72
0
 73
0
 74
0
  7

 75
0
147
1.0
148
0.0
149
0.0
100
AcDbLayout
  1
Model
 70
0
 71
0
 10
0.0
 20
0.0
 11
22.0
 21
17.0
 12
0.0
 22
0.0
 32
0.0
 14
0.0
 24
0.0
 34
0.0
 15
0.0
 25
0.0
 35
0.0
146
0.0
 13
0.0
 23
0.0
 33
0.0
 16
1.0
 26
0.0
 36
0.0
 17
0.0
 27
1.0
 37
0.0
 76
0
330
205
345
0
346
0
  0
LAYOUT
  5
24A
102
{ACAD_REACTORS
330
1A
102
}
100
AcDbPlotSettings
  1

  2
none_device
  4
ANSI_C_(22.00_x_17.00_Inches)
  6

 40
0.0
 41
0.0
 42
0.0
 43
0.0
 44
558.8
 45
431.8
 46
0.0
 47
0.0
 48
0.0
 49
0.0
140
0.0
141
0.0
142
1.0
143
1.0
 70
0
 72
0
 73
0
 74
0
  7

 75
0
147
1.0
148
0.0
149
0.0
100
AcDbLayout
  1
Layout1
 70
0
 71
1
 10
0.0
 20
0.0
 11
22.0
 21
17.0
 12
0.0
 22
0.0
 32
0.0
 14
0.0
 24
0.0
 34
0.0
 15
0.0
 25
0.0
 35
0.0
146
0.0
 13
0.0
 23
0.0
 33
0.0
 16
1.0
 26
0.0
 36
0.0
 17
0.0
 27
1.0
 37
0.0
 76
0
330
206
345
0
346
0
  0
ENDSEC
  0
EOF
