999
DXF file: E:\BT Custom\CADOUTPUT\_RIGHT.dxf
999
Pro/ENGINEER 2018400 by Parametric Technology Corporation
  0
SECTION
  2
HEADER
  9
$ACADVER
  1
AC1018
  9
$DWGCODEPAGE
  3
ANSI_1252
  9
$EXTMAX
 10
22.0
 20
17.0
 30
0.0
  9
$EXTMIN
 10
0.0
 20
0.0
 30
0.0
  9
$LIMMIN
 10
0.0
 20
0.0
  9
$LIMMAX
 10
22.0
 20
17.0
  9
$VIEWCTR
 10
11.0
 20
8.5
  9
$VIEWSIZE
 40
17.0
  9
$CLAYER
  8
0
  9
$LTSCALE
 40
1.21
  9
$CELTYPE
  6
BYLAYER
  9
$DIMSCALE
 40
1.0
  9
$DIMASZ
 40
0.1
  9
$DIMEXO
 40
0.0625
  9
$DIMDLI
 40
0.836
  9
$DIMEXE
 40
0.125
  9
$DIMCEN
 40
0.198
  9
$DIMLFAC
 40
1.0
  9
$DIMBLK
  1
_FILLED
  9
$DIMALT
 70
1
  9
$DIMALTD
 70
2
  9
$DIMALTTD
 70
2
  9
$DIMALTF
 40
25.4
  9
$DIMTXT
 40
0.08
  9
$DIMTOL
 70
1
  9
$DIMLIM
 70
0
  9
$DIMTFAC
 40
1.0
  9
$DIMTP
 40
0.001
  9
$DIMTM
 40
0.001
  9
$DIMGAP
 40
0.09
  9
$DIMDSEP
 70
46
  9
$AUNITS
 70
0
  9
$PDMODE
 70
3
  9
$PDSIZE
 40
0.06
  9
$HANDSEED
  5
24A
  9
$TILEMODE
 70
1
  9
$MEASUREMENT
 70
0
  9
$INSUNITS
 70
1
  0
ENDSEC
  0
SECTION
  2
CLASSES
  0
CLASS
  1
ACDBDICTIONARYWDFLT
  2
AcDbDictionaryWithDefault
  3
AutoCAD 2000
 90
0
 91
1
280
0
281
0
  0
CLASS
  1
ACDBPLACEHOLDER
  2
AcDbPlaceHolder
  3
AutoCAD 2000
 90
0
 91
1
280
0
281
0
  0
CLASS
  1
LAYOUT
  2
AcDbLayout
  3
AutoCAD 2000
 90
0
 91
0
280
0
281
0
  0
ENDSEC
  0
SECTION
  2
TABLES
  0
TABLE
  2
VPORT
  5
8
100
AcDbSymbolTable
 70
2
  0
VPORT
  5
1F4
100
AcDbSymbolTableRecord
100
AcDbViewportTableRecord
  2
*ACTIVE
 70
0
 10
0.0
 20
0.0
 11
1.0
 21
1.0
 12
11.0
 22
8.5
 13
0.0
 23
0.0
 14
1.0
 24
1.0
 15
0.0
 25
0.0
 16
0.0
 26
0.0
 36
1.0
 17
0.0
 27
0.0
 37
0.0
 40
17.0
 41
1.2941176471
 42
50.0
 43
0.0
 44
0.0
 50
0.0
 51
0.0
 71
0
 72
100
 73
1
 74
1
 75
0
 76
0
 77
0
 78
0
  0
ENDTAB
  0
TABLE
  2
LTYPE
  5
5
100
AcDbSymbolTable
 70
6
  0
LTYPE
  5
14
100
AcDbSymbolTableRecord
100
AcDbLinetypeTableRecord
  2
BYBLOCK
 70
0
  3

 72
65
 73
0
 40
0.0
  0
LTYPE
  5
15
100
AcDbSymbolTableRecord
100
AcDbLinetypeTableRecord
  2
BYLAYER
 70
0
  3

 72
65
 73
0
 40
0.0
  0
LTYPE
  5
16
100
AcDbSymbolTableRecord
100
AcDbLinetypeTableRecord
  2
CONTINUOUS
 70
64
  3
Solid line
 72
65
 73
0
 40
0.0
  0
LTYPE
  5
1F5
100
AcDbSymbolTableRecord
100
AcDbLinetypeTableRecord
  2
CENTER
 70
64
  3
____ _ ____ _ ____ _ ____ _ ____ _ ____ _ ____
 72
65
 73
4
 40
0.6
 49
0.375
 74
0
 49
-0.075
 74
0
 49
0.075
 74
0
 49
-0.075
 74
0
  0
LTYPE
  5
1F6
100
AcDbSymbolTableRecord
100
AcDbLinetypeTableRecord
  2
HIDDEN
 70
64
  3
- - - - - - - - - - - - - - - - - - - -
 72
65
 73
2
 40
0.2
 49
0.1
 74
0
 49
-0.1
 74
0
  0
LTYPE
  5
1F7
100
AcDbSymbolTableRecord
100
AcDbLinetypeTableRecord
  2
PHANTOM
 70
64
  3
_____ _ _ _____ _ _ _____ _ _ _____
 72
65
 73
6
 40
0.8
 49
0.45
 74
0
 49
-0.05
 74
0
 49
0.1
 74
0
 49
-0.05
 74
0
 49
0.1
 74
0
 49
-0.05
 74
0
  0
LTYPE
  5
1F8
100
AcDbSymbolTableRecord
100
AcDbLinetypeTableRecord
  2
DOT
 70
64
  3
. . . . . . . . . . . . . . . . . . . .
 72
65
 73
2
 40
0.2
 49
0.1
 74
0
 49
-0.1
 74
0
  0
LTYPE
  5
1F9
100
AcDbSymbolTableRecord
100
AcDbLinetypeTableRecord
  2
DASHED
 70
64
  3
- - - - - - - - - - - - - - - - - - - -
 72
65
 73
2
 40
0.2
 49
0.1
 74
0
 49
-0.1
 74
0
  0
ENDTAB
  0
TABLE
  2
LAYER
  5
2
100
AcDbSymbolTable
 70
36
  0
LAYER
  5
10
100
AcDbSymbolTableRecord
100
AcDbLayerTableRecord
  2
0
 70
0
 62
7
  6
CONTINUOUS
370
-3
390
F
  0
LAYER
  5
1FA
100
AcDbSymbolTableRecord
100
AcDbLayerTableRecord
  2
DEFAULT_1
 70
0
 62
7
  6
CENTER
370
-3
390
F
  0
LAYER
  5
1FB
100
AcDbSymbolTableRecord
100
AcDbLayerTableRecord
  2
DEFAULT_2
 70
0
 62
8
  6
HIDDEN
370
-3
390
F
  0
LAYER
  5
1FC
100
AcDbSymbolTableRecord
100
AcDbLayerTableRecord
  2
DEFAULT_3
 70
0
 62
7
  6
PHANTOM
370
-3
390
F
  0
LAYER
  5
1FD
100
AcDbSymbolTableRecord
100
AcDbLayerTableRecord
  2
ALL_FEATURES
 70
0
 62
7
  6
CONTINUOUS
370
-3
390
F
  0
LAYER
  5
1FE
100
AcDbSymbolTableRecord
100
AcDbLayerTableRecord
  2
AXES_FEATURES
 70
0
 62
7
  6
CONTINUOUS
370
-3
390
F
  0
LAYER
  5
1FF
100
AcDbSymbolTableRecord
100
AcDbLayerTableRecord
  2
DEFAULT_COORDINATE_SYSTEM
 70
0
 62
7
  6
CONTINUOUS
370
-3
390
F
  0
LAYER
  5
200
100
AcDbSymbolTableRecord
100
AcDbLayerTableRecord
  2
DEFAULT_DATUM_AXES
 70
0
 62
7
  6
CONTINUOUS
370
-3
390
F
  0
LAYER
  5
201
100
AcDbSymbolTableRecord
100
AcDbLayerTableRecord
  2
DEFAULT_DATUM_PLANES
 70
0
 62
7
  6
CONTINUOUS
370
-3
390
F
  0
LAYER
  5
202
100
AcDbSymbolTableRecord
100
AcDbLayerTableRecord
  2
DIMENSIONS
 70
0
 62
7
  6
CONTINUOUS
370
-3
390
F
  0
ENDTAB
  0
TABLE
  2
STYLE
  5
3
100
AcDbSymbolTable
 70
1
  0
STYLE
  5
11
100
AcDbSymbolTableRecord
100
AcDbTextStyleTableRecord
  2
STANDARD
 70
0
 40
0.0
 41
0.8
 50
0.0
 71
0
 42
0.2
  3
txt
  4

  0
STYLE
  5
203
100
AcDbSymbolTableRecord
100
AcDbTextStyleTableRecord
  2
TEXTSTYLE_1
 70
0
 40
0.0
 41
0.8
 50
0.0
 71
0
 42
0.2
  3
gdt
  4

  0
ENDTAB
  0
TABLE
  2
VIEW
  5
6
100
AcDbSymbolTable
 70
0
  0
ENDTAB
  0
TABLE
  2
UCS
  5
7
100
AcDbSymbolTable
 70
0
  0
ENDTAB
  0
TABLE
  2
APPID
  5
9
100
AcDbSymbolTable
 70
1
  0
APPID
  5
204
100
AcDbSymbolTableRecord
100
AcDbRegAppTableRecord
  2
ACAD
 70
0
  0
ENDTAB
  0
TABLE
  2
BLOCK_RECORD
  5
1
100
AcDbSymbolTable
 70
0
  0
BLOCK_RECORD
  5
205
100
AcDbSymbolTableRecord
100
AcDbBlockTableRecord
  2
*Model_Space
  0
BLOCK_RECORD
  5
206
100
AcDbSymbolTableRecord
100
AcDbBlockTableRecord
  2
*Paper_Space
  0
BLOCK_RECORD
  5
207
100
AcDbSymbolTableRecord
100
AcDbBlockTableRecord
  2
_FILLED
  0
ENDTAB
  0
TABLE
  2
DIMSTYLE
  5
A
100
AcDbSymbolTable
 70
1
100
AcDbDimStyleTable
 71
0
  0
DIMSTYLE
105
208
100
AcDbSymbolTableRecord
100
AcDbDimStyleTableRecord
  2
STANDARD
 70
0
  3

  4

 40
1.0
 41
0.1
 42
0.0625
 43
0.38
 44
0.125
 45
0.0
 46
0.0
 47
0.001
 48
0.001
140
0.08
141
0.09
142
0.0
143
25.4
144
1.0
145
0.0
146
1.0
147
0.09
 71
1.0
 72
0.0
 73
1
 74
1
 75
0
 76
0
 77
0
 78
4
 79
1
170
1
171
2
172
0
173
0
174
0
175
0
176
0
177
0
178
0
270
2
179
3
271
3
272
3
273
2
274
2
275
0
280
0
281
0
282
0
283
1
284
4
285
0
286
0
287
3
288
0
340
11
278
46
341
207
342
207
343
207
344
207
  0
ENDTAB
  0
ENDSEC
  0
SECTION
  2
BLOCKS
  0
BLOCK
  5
20
100
AcDbEntity
  8
0
100
AcDbBlockBegin
  2
*Model_Space
 70
0
 10
0.0
 20
0.0
 30
0.0
  3
*Model_Space
  1

  0
ENDBLK
  5
21
100
AcDbEntity
  8
0
100
AcDbBlockEnd
  0
BLOCK
  5
1C
100
AcDbEntity
  8
0
100
AcDbBlockBegin
  2
*Paper_Space
 70
0
 10
0.0
 20
0.0
 30
0.0
  3
*Paper_Space
  1

  0
ENDBLK
  5
1D
100
AcDbEntity
  8
0
100
AcDbBlockEnd
  0
BLOCK
  5
209
100
AcDbEntity
  8
0
100
AcDbBlockBegin
  2
_FILLED
 70
64
 10
0.0
 20
0.0
  3
_FILLED
  1

  0
SOLID
  5
20A
100
AcDbEntity
  8
0
  6
BYBLOCK
 62
0
100
AcDbTrace
 10
0.0
 20
0.0
 11
-1.0
 21
0.2
 12
-1.0
 22
-0.2
 13
-1.0
 23
-0.2
  0
ENDBLK
  5
20B
100
AcDbEntity
  8
0
  6
BYBLOCK
 62
0
100
AcDbBlockEnd
  0
ENDSEC
  0
SECTION
  2
ENTITIES
  0
LINE
  5
20C
100
AcDbEntity
  8
0
100
AcDbLine
 62
7
  6
CONTINUOUS
 10
11.6048547044
 20
7.509891804
 11
12.0848547044
 21
7.509891804
  0
LINE
  5
20D
100
AcDbEntity
  8
0
100
AcDbLine
 62
7
  6
CONTINUOUS
 10
9.9598547044
 20
8.384891804
 11
11.4848547044
 21
8.384891804
  0
LINE
  5
20E
100
AcDbEntity
  8
0
100
AcDbLine
 62
7
  6
CONTINUOUS
 10
9.9598547044
 20
9.634891804
 11
11.4848547044
 21
9.634891804
  0
LINE
  5
20F
100
AcDbEntity
  8
0
100
AcDbLine
 62
7
  6
CONTINUOUS
 10
11.4848547044
 20
8.194891804
 11
11.4848547044
 21
9.8248870392
  0
LINE
  5
210
100
AcDbEntity
  8
0
100
AcDbLine
 62
9
  6
CONTINUOUS
 10
11.5448547044
 20
8.4902460686
 11
11.5448547044
 21
8.5039517043
  0
LINE
  5
211
100
AcDbEntity
  8
0
100
AcDbLine
 62
9
  6
CONTINUOUS
 10
11.5448547044
 20
8.6948997674
 11
11.5448547044
 21
8.7206828424
  0
LINE
  5
212
100
AcDbEntity
  8
0
100
AcDbLine
 62
9
  6
CONTINUOUS
 10
11.5448547044
 20
8.9087945468
 11
11.5448547044
 21
8.944198251
  0
LINE
  5
213
100
AcDbEntity
  8
0
100
AcDbLine
 62
9
  6
CONTINUOUS
 10
11.5448547044
 20
9.1263818471
 11
11.5448547044
 21
9.1692482564
  0
LINE
  5
214
100
AcDbEntity
  8
0
100
AcDbLine
 62
9
  6
CONTINUOUS
 10
11.5448547044
 20
9.3417412238
 11
11.5448547044
 21
9.388688587
  0
LINE
  5
215
100
AcDbEntity
  8
0
100
AcDbLine
 62
9
  6
CONTINUOUS
 10
11.5448547044
 20
9.5489406368
 11
11.5448547044
 21
9.5963236967
  0
LINE
  5
216
100
AcDbEntity
  8
0
100
AcDbLine
 62
9
  6
CONTINUOUS
 10
11.5448547044
 20
9.7424898627
 11
11.5448547044
 21
9.7862354816
  0
LINE
  5
217
100
AcDbEntity
  8
0
100
AcDbLine
 62
7
  6
CONTINUOUS
 10
11.5848547044
 20
7.529891804
 11
11.5848547044
 21
10.489891804
  0
LINE
  5
218
100
AcDbEntity
  8
0
100
AcDbLine
 62
9
  6
CONTINUOUS
 10
11.6048547044
 20
7.509891804
 11
11.6048547044
 21
10.509891804
  0
LINE
  5
219
100
AcDbEntity
  8
0
100
AcDbLine
 62
7
  6
CONTINUOUS
 10
12.0848547044
 20
7.509891804
 11
12.0848547044
 21
10.509891804
  0
LINE
  5
21A
100
AcDbEntity
  8
0
100
AcDbLine
 62
7
  6
CONTINUOUS
 10
12.0851122739
 20
9.6308038665
 11
12.0851122739
 21
8.4280002795
  0
LINE
  5
21B
100
AcDbEntity
  8
0
100
AcDbLine
 62
7
  6
CONTINUOUS
 10
11.6048547044
 20
10.509891804
 11
12.0848547044
 21
10.509891804
  0
ARC
  5
21C
100
AcDbEntity
  8
0
100
AcDbCircle
 62
7
  6
CONTINUOUS
 10
9.9598547044
 20
9.009891804
 40
0.625
100
AcDbArc
 50
90.0
 51
270.0
  0
ARC
  5
21D
100
AcDbEntity
  8
0
100
AcDbCircle
 62
7
  6
CONTINUOUS
 10
11.7655193173
 20
8.5994229367
 40
0.2406657702
100
AcDbArc
 50
153.2260257091
 51
221.3494691921
  0
ARC
  5
21E
100
AcDbEntity
  8
0
100
AcDbCircle
 62
7
  6
CONTINUOUS
 10
11.7336958428
 20
9.9773622254
 40
0.2088454375
100
AcDbArc
 50
174.5304889964
 51
199.9731533034
  0
ARC
  5
21F
100
AcDbEntity
  8
0
100
AcDbCircle
 62
7
  6
CONTINUOUS
 10
11.6584491596
 20
10.3012296525
 40
0.1335959266
100
AcDbArc
 50
176.5333316608
 51
193.5062096876
  0
ARC
  5
220
100
AcDbEntity
  8
0
100
AcDbCircle
 62
7
  6
CONTINUOUS
 10
11.6411606988
 20
8.16610673
 40
0.11612606
100
AcDbArc
 50
194.49582165
 51
206.8666064406
  0
ARC
  5
221
100
AcDbEntity
  8
0
100
AcDbCircle
 62
7
  6
CONTINUOUS
 10
11.6355957363
 20
10.3417903664
 40
0.1107409516
100
AcDbArc
 50
180.6551955632
 51
187.8002357866
  0
ARC
  5
222
100
AcDbEntity
  8
0
100
AcDbCircle
 62
7
  6
CONTINUOUS
 10
11.6374809325
 20
9.6484892298
 40
0.1060786444
100
AcDbArc
 50
224.3766365844
 51
227.0657106996
  0
ARC
  5
223
100
AcDbEntity
  8
0
100
AcDbCircle
 62
7
  6
CONTINUOUS
 10
11.6114014806
 20
7.8752748528
 40
0.0865488907
100
AcDbArc
 50
171.9756516178
 51
203.2542449513
  0
ARC
  5
224
100
AcDbEntity
  8
0
100
AcDbCircle
 62
7
  6
CONTINUOUS
 10
11.6072643734
 20
7.7059832744
 40
0.0824096587
100
AcDbArc
 50
176.8752728203
 51
189.0836684093
  0
ARC
  5
225
100
AcDbEntity
  8
0
100
AcDbCircle
 62
7
  6
CONTINUOUS
 10
11.6104086876
 20
10.0015479059
 40
0.0819428395
100
AcDbArc
 50
232.2206704103
 51
232.7275305521
  0
ARC
  5
226
100
AcDbEntity
  8
0
100
AcDbCircle
 62
7
  6
CONTINUOUS
 10
11.6051345155
 20
7.773772303
 40
0.0802798382
100
AcDbArc
 50
173.8396701958
 51
197.4811101467
  0
ARC
  5
227
100
AcDbEntity
  8
0
100
AcDbCircle
 62
7
  6
CONTINUOUS
 10
11.6063654174
 20
10.3695624554
 40
0.0687160044
100
AcDbArc
 50
108.2423186487
 51
109.7569226
  0
ARC
  5
228
100
AcDbEntity
  8
0
100
AcDbCircle
 62
7
  6
CONTINUOUS
 10
11.5448547044
 20
9.824891804
 40
0.06
100
AcDbArc
 50
105.435853151
 51
180.0
  0
ARC
  5
229
100
AcDbEntity
  8
0
100
AcDbCircle
 62
7
  6
CONTINUOUS
 10
11.5448547044
 20
8.194891804
 40
0.06
100
AcDbArc
 50
180.0
 51
262.331616283
  0
ARC
  5
22A
100
AcDbEntity
  8
0
100
AcDbCircle
 62
7
  6
CONTINUOUS
 10
11.6048547044
 20
10.489891804
 40
0.02
100
AcDbArc
 50
90.0
 51
180.0
  0
ARC
  5
22B
100
AcDbEntity
  8
0
100
AcDbCircle
 62
7
  6
CONTINUOUS
 10
11.6048547044
 20
7.529891804
 40
0.02
100
AcDbArc
 50
180.0
 51
270.0
  0
SPLINE
  5
22C
100
AcDbEntity
  8
0
100
AcDbSpline
 62
7
  6
CONTINUOUS
 70
0
 71
3
 72
18
 73
14
 74
0
 42
0.0000001
 43
0.0000001
 44
0.0000000001
 40
0.0
 40
0.0
 40
0.0
 40
0.0
 40
0.1223524949
 40
0.2446870086
 40
0.3672440664
 40
0.4903327118
 40
0.6143786152
 40
0.677027502
 40
0.74018059
 40
0.803951719
 40
0.8684641012
 40
0.9338108799
 40
1.0
 40
1.0
 40
1.0
 40
1.0
 10
11.5264005474
 20
10.3291417915
 30
0.0
 10
11.5254553125
 20
10.3342532624
 30
0.0
 10
11.5244268991
 20
10.3446561011
 30
0.0
 10
11.5255115518
 20
10.3602905151
 30
0.0
 10
11.5292120874
 20
10.3755587258
 30
0.0
 10
11.535495777
 20
10.390037335
 30
0.0
 10
11.5428287835
 20
10.4010616471
 30
0.0
 10
11.5498838771
 20
10.4090101863
 30
0.0
 10
11.5557905239
 20
10.4145048293
 30
0.0
 10
11.5622739385
 20
10.4194377581
 30
0.0
 10
11.5693084557
 20
10.423731758
 30
0.0
 10
11.5768516723
 20
10.42729972
 30
0.0
 10
11.5821485173
 20
10.4291239648
 30
0.0
 10
11.5848547638
 20
10.4298880277
 30
0.0
  0
SPLINE
  5
22D
100
AcDbEntity
  8
0
100
AcDbSpline
 62
7
  6
CONTINUOUS
 70
0
 71
3
 72
23
 73
19
 74
0
 42
0.0000001
 43
0.0000001
 44
0.0000000001
 40
0.0
 40
0.0
 40
0.0
 40
0.0
 40
0.0621918303
 40
0.1242879954
 40
0.1863196853
 40
0.2483189484
 40
0.3103181681
 40
0.3723497573
 40
0.4344455996
 40
0.4966371923
 40
0.5589525399
 40
0.6214171025
 40
0.6840528909
 40
0.7468742247
 40
0.8098878552
 40
0.8730914448
 40
0.9364706512
 40
1.0
 40
1.0
 40
1.0
 40
1.0
 10
11.5322801215
 20
10.2796257584
 30
0.0
 10
11.5310606169
 20
10.2822949955
 30
0.0
 10
11.5289090486
 20
10.2877651805
 30
0.0
 10
11.5265812397
 20
10.2962597777
 30
0.0
 10
11.5251736831
 20
10.3049460816
 30
0.0
 10
11.5246986984
 20
10.3137279492
 30
0.0
 10
11.525160082
 20
10.3225106072
 30
0.0
 10
11.526554076
 20
10.3311988537
 30
0.0
 10
11.52886902
 20
10.3396977861
 30
0.0
 10
11.5320852487
 20
10.3479127591
 30
0.0
 10
11.536174547
 20
10.3557497735
 30
0.0
 10
11.5410997402
 20
10.3631158777
 30
0.0
 10
11.5468139242
 20
10.3699198622
 30
0.0
 10
11.5532597494
 20
10.3760733109
 30
0.0
 10
11.5603687156
 20
10.3814917337
 30
0.0
 10
11.5680610689
 20
10.386096877
 30
0.0
 10
11.5762436677
 20
10.3898179494
 30
0.0
 10
11.5819550039
 20
10.3916685596
 30
0.0
 10
11.5848547051
 20
10.3924289279
 30
0.0
  0
SPLINE
  5
22E
100
AcDbEntity
  8
0
100
AcDbSpline
 62
7
  6
CONTINUOUS
 70
0
 71
3
 72
23
 73
19
 74
0
 42
0.0000001
 43
0.0000001
 44
0.0000000001
 40
0.0
 40
0.0
 40
0.0
 40
0.0
 40
0.0625018711
 40
0.1249795492
 40
0.187436954
 40
0.2498791517
 40
0.312312198
 40
0.3747425912
 40
0.4371769666
 40
0.4996217513
 40
0.5620828687
 40
0.6245651249
 40
0.687072236
 40
0.749606501
 40
0.8121681953
 40
0.8747567914
 40
0.9373681521
 40
1.0
 40
1.0
 40
1.0
 40
1.0
 10
11.5422138589
 20
10.1961468748
 30
0.0
 10
11.54015249
 20
10.1987465214
 30
0.0
 10
11.5363496287
 20
10.2042072365
 30
0.0
 10
11.5317081125
 20
10.213035358
 30
0.0
 10
11.5281952289
 20
10.2223684059
 30
0.0
 10
11.5258644617
 20
10.2320615826
 30
0.0
 10
11.5247499644
 20
10.2419671886
 30
0.0
 10
11.5248682806
 20
10.251934145
 30
0.0
 10
11.5262176428
 20
10.2618106921
 30
0.0
 10
11.5287781344
 20
10.2714462434
 30
0.0
 10
11.5325118365
 20
10.2806934556
 30
0.0
 10
11.5373631977
 20
10.2894102684
 30
0.0
 10
11.5432595829
 20
10.2974619631
 30
0.0
 10
11.5501121388
 20
10.3047232051
 30
0.0
 10
11.5578165908
 20
10.3110801165
 30
0.0
 10
11.5662554812
 20
10.3164322377
 30
0.0
 10
11.5752966045
 20
10.3206939712
 30
0.0
 10
11.581636
 20
10.322763539
 30
0.0
 10
11.5848547044
 20
10.3235961105
 30
0.0
  0
SPLINE
  5
22F
100
AcDbEntity
  8
0
100
AcDbSpline
 62
7
  6
CONTINUOUS
 70
0
 71
3
 72
27
 73
23
 74
0
 42
0.0000001
 43
0.0000001
 44
0.0000000001
 40
0.0
 40
0.0
 40
0.0
 40
0.0
 40
0.062999608
 40
0.0943270453
 40
0.1255429685
 40
0.1876601668
 40
0.2494863276
 40
0.2803348332
 40
0.3111441601
 40
0.3726564834
 40
0.4341357707
 40
0.4956608497
 40
0.5573123015
 40
0.6191790927
 40
0.6813512739
 40
0.7126010131
 40
0.7439657602
 40
0.8070511631
 40
0.870726682
 40
0.902824214
 40
0.9350816369
 40
1.0
 40
1.0
 40
1.0
 40
1.0
 10
11.5531347871
 20
10.0808500342
 30
0.0
 10
11.5503074729
 20
10.0833518821
 30
0.0
 10
11.5463291854
 20
10.087400954
 30
0.0
 10
11.5416323797
 20
10.0932831205
 30
0.0
 10
11.5373721031
 20
10.0994259729
 30
0.0
 10
11.5328485772
 20
10.107582473
 30
0.0
 10
11.529439185
 20
10.1162390503
 30
0.0
 10
11.5274055247
 20
10.1233586518
 30
0.0
 10
11.5258369297
 20
10.130575602
 30
0.0
 10
11.52474795
 20
10.1397551184
 30
0.0
 10
11.5248517527
 20
10.1508411849
 30
0.0
 10
11.5263647499
 20
10.1618334366
 30
0.0
 10
11.5292762888
 20
10.1725651646
 30
0.0
 10
11.5335634058
 20
10.1828671763
 30
0.0
 10
11.5382490401
 20
10.1909416849
 30
0.0
 10
11.5426342349
 20
10.1970049799
 30
0.0
 10
11.5474546095
 20
10.2027999273
 30
0.0
 10
11.5542548386
 20
10.2094453178
 30
0.0
 10
11.561958753
 20
10.215096259
 30
0.0
 10
11.5686049192
 20
10.2189420459
 30
0.0
 10
11.575580631
 20
10.2223226702
 30
0.0
 10
11.5810989896
 20
10.2242711738
 30
0.0
 10
11.5848547148
 20
10.2252855158
 30
0.0
  0
SPLINE
  5
230
100
AcDbEntity
  8
0
100
AcDbSpline
 62
7
  6
CONTINUOUS
 70
0
 71
3
 72
23
 73
19
 74
0
 42
0.0000001
 43
0.0000001
 44
0.0000000001
 40
0.0
 40
0.0
 40
0.0
 40
0.0
 40
0.0633440873
 40
0.1260319998
 40
0.188350012
 40
0.2504767284
 40
0.3125038883
 40
0.3744863366
 40
0.436452478
 40
0.4984154933
 40
0.560385401
 40
0.6223762249
 40
0.6844227583
 40
0.7465823118
 40
0.8089593443
 40
0.8717512419
 40
0.9352685632
 40
1.0
 40
1.0
 40
1.0
 40
1.0
 10
11.5602087053
 20
9.9367822458
 30
0.0
 10
11.5571021676
 20
9.9391901135
 30
0.0
 10
11.5512584609
 20
9.9444325741
 30
0.0
 10
11.5436717694
 20
9.9533638256
 30
0.0
 10
11.5373288631
 20
9.9631264527
 30
0.0
 10
11.532248298
 20
9.9735528499
 30
0.0
 10
11.5284474987
 20
9.9844872834
 30
0.0
 10
11.5259430229
 20
9.9957780586
 30
0.0
 10
11.5247465258
 20
10.0072766774
 30
0.0
 10
11.5248639714
 20
10.0188358556
 30
0.0
 10
11.5262948486
 20
10.030308491
 30
0.0
 10
11.5290321574
 20
10.0415472601
 30
0.0
 10
11.5330634415
 20
10.0524030501
 30
0.0
 10
11.5383718321
 20
10.0627236643
 30
0.0
 10
11.5449392205
 20
10.0723512424
 30
0.0
 10
11.5527514277
 20
10.0811183727
 30
0.0
 10
11.5617995457
 20
10.0888337503
 30
0.0
 10
11.5685779406
 20
10.0930734419
 30
0.0
 10
11.5721410936
 20
10.0949272086
 30
0.0
  0
SPLINE
  5
231
100
AcDbEntity
  8
0
100
AcDbSpline
 62
7
  6
CONTINUOUS
 70
0
 71
3
 72
21
 73
17
 74
0
 42
0.0000001
 43
0.0000001
 44
0.0000000001
 40
0.0
 40
0.0
 40
0.0
 40
0.0
 40
0.0612275795
 40
0.1228610601
 40
0.1849682249
 40
0.2475124181
 40
0.3104131069
 40
0.3735820938
 40
0.5001993964
 40
0.6267890156
 40
0.6899216562
 40
0.7527706928
 40
0.8152461114
 40
0.8772713539
 40
0.9388242908
 40
1.0
 40
1.0
 40
1.0
 40
1.0
 10
11.5630454894
 20
9.765997464
 30
0.0
 10
11.5599490901
 20
9.7685514094
 30
0.0
 10
11.5540803959
 20
9.7741073093
 30
0.0
 10
11.5463637571
 20
9.7834959958
 30
0.0
 10
11.5397472849
 20
9.7937921404
 30
0.0
 10
11.5342807124
 20
9.8048318972
 30
0.0
 10
11.5300069711
 20
9.8164600988
 30
0.0
 10
11.525945178
 20
9.8325452929
 30
0.0
 10
11.5240095057
 20
9.8533497449
 30
0.0
 10
11.526323222
 20
9.8741136506
 30
0.0
 10
11.5306815738
 20
9.8901133646
 30
0.0
 10
11.5351718915
 20
9.9016488444
 30
0.0
 10
11.5408478246
 20
9.912567811
 30
0.0
 10
11.547665214
 20
9.9227143179
 30
0.0
 10
11.5555745295
 20
9.9319235467
 30
0.0
 10
11.561566037
 20
9.9373351939
 30
0.0
 10
11.5647219683
 20
9.9398096915
 30
0.0
  0
SPLINE
  5
232
100
AcDbEntity
  8
0
100
AcDbSpline
 62
7
  6
CONTINUOUS
 70
0
 71
3
 72
19
 73
15
 74
0
 42
0.0000001
 43
0.0000001
 44
0.0000000001
 40
0.0
 40
0.0
 40
0.0
 40
0.0
 40
0.0595665233
 40
0.1205202645
 40
0.182529901
 40
0.2453291036
 40
0.3723595774
 40
0.500439047
 40
0.6284808226
 40
0.7553785203
 40
0.8180700975
 40
0.8799317323
 40
0.9406896186
 40
1.0
 40
1.0
 40
1.0
 40
1.0
 10
11.5616603812
 20
9.5743008022
 30
0.0
 10
11.5587314066
 20
9.5772925642
 30
0.0
 10
11.5531490839
 20
9.5836911915
 30
0.0
 10
11.5457734831
 20
9.5942149102
 30
0.0
 10
11.5393875359
 20
9.605629677
 30
0.0
 10
11.5322852514
 20
9.6218688886
 30
0.0
 10
11.5263094635
 20
9.6435492574
 30
0.0
 10
11.5240320831
 20
9.6705327314
 30
0.0
 10
11.5266999287
 20
9.6974711359
 30
0.0
 10
11.5329904192
 20
9.7190426073
 30
0.0
 10
11.5403293575
 20
9.7351464568
 30
0.0
 10
11.5468788092
 20
9.7464317479
 30
0.0
 10
11.5544017366
 20
9.7567988883
 30
0.0
 10
11.5600733366
 20
9.7630762607
 30
0.0
 10
11.5630432558
 20
9.7660017828
 30
0.0
  0
SPLINE
  5
233
100
AcDbEntity
  8
0
100
AcDbSpline
 62
7
  6
CONTINUOUS
 70
0
 71
3
 72
18
 73
14
 74
0
 42
0.0000001
 43
0.0000001
 44
0.0000000001
 40
0.0
 40
0.0
 40
0.0
 40
0.0
 40
0.0576291023
 40
0.1174429219
 40
0.1787816856
 40
0.2412077431
 40
0.3680086883
 40
0.4962899724
 40
0.6248757074
 40
0.7526935704
 40
0.8159869049
 40
0.8785466013
 40
1.0
 40
1.0
 40
1.0
 40
1.0
 10
11.5724995354
 20
9.3519515981
 30
0.0
 10
11.5691010614
 20
9.3551463619
 30
0.0
 10
11.5625366499
 20
9.3620507497
 30
0.0
 10
11.5536817863
 20
9.3735239206
 30
0.0
 10
11.5457933264
 20
9.386144426
 30
0.0
 10
11.53672377
 20
9.4043118491
 30
0.0
 10
11.5285326731
 20
9.4288376774
 30
0.0
 10
11.5241483203
 20
9.4597460132
 30
0.0
 10
11.5253497841
 20
9.4910231466
 30
0.0
 10
11.5309902718
 20
9.5164344146
 30
0.0
 10
11.5381639382
 20
9.5357012425
 30
0.0
 10
11.5468700049
 20
9.553745714
 30
0.0
 10
11.5552350119
 20
9.5662208281
 30
0.0
 10
11.5615308378
 20
9.5737702525
 30
0.0
  0
SPLINE
  5
234
100
AcDbEntity
  8
0
100
AcDbSpline
 62
7
  6
CONTINUOUS
 70
0
 71
3
 72
21
 73
17
 74
0
 42
0.0000001
 43
0.0000001
 44
0.0000000001
 40
0.0
 40
0.0
 40
0.0
 40
0.0
 40
0.0570139968
 40
0.1164380608
 40
0.17746554
 40
0.2395800547
 40
0.3024489083
 40
0.3658417868
 40
0.4295915593
 40
0.493566912
 40
0.6216449321
 40
0.74940571
 40
0.8129576551
 40
0.8760565147
 40
0.9384992673
 40
1.0
 40
1.0
 40
1.0
 40
1.0
 10
11.5848546644
 20
9.1158405803
 30
0.0
 10
11.5809407855
 20
9.1192856961
 30
0.0
 10
11.5733151572
 20
9.1267490445
 30
0.0
 10
11.5628709185
 20
9.1392029992
 30
0.0
 10
11.5533908901
 20
9.1529773547
 30
0.0
 10
11.545078021
 20
9.16784679
 30
0.0
 10
11.5380690209
 20
9.1836102793
 30
0.0
 10
11.5324613356
 20
9.2000822925
 30
0.0
 10
11.5283234092
 20
9.2170887105
 30
0.0
 10
11.5248270804
 20
9.2402461082
 30
0.0
 10
11.5243229494
 20
9.2696525063
 30
0.0
 10
11.5289957129
 20
9.2986519414
 30
0.0
 10
11.5357366852
 20
9.3209481678
 30
0.0
 10
11.542216048
 20
9.3370085759
 30
0.0
 10
11.5500400852
 20
9.3522453005
 30
0.0
 10
11.556136102
 20
9.3618248454
 30
0.0
 10
11.5593783458
 20
9.3664207694
 30
0.0
  0
SPLINE
  5
235
100
AcDbEntity
  8
0
100
AcDbSpline
 62
7
  6
CONTINUOUS
 70
0
 71
3
 72
22
 73
18
 74
0
 42
0.0000001
 43
0.0000001
 44
0.0000000001
 40
0.0
 40
0.0
 40
0.0
 40
0.0
 40
0.1206863559
 40
0.1824247016
 40
0.2446943714
 40
0.3073367886
 40
0.3702405492
 40
0.4333238049
 40
0.4965229717
 40
0.5597851702
 40
0.6230630685
 40
0.6863106762
 40
0.7494793247
 40
0.8125131923
 40
0.875343456
 40
0.9378803303
 40
1.0
 40
1.0
 40
1.0
 40
1.0
 10
11.5848547182
 20
8.8858947392
 30
0.0
 10
11.576826061
 20
8.8940358446
 30
0.0
 10
11.5657589158
 20
8.907456271
 30
0.0
 10
11.5533567835
 20
8.9270629357
 30
0.0
 10
11.5451747114
 20
8.9427652195
 30
0.0
 10
11.5382829661
 20
8.9591918879
 30
0.0
 10
11.5327461674
 20
8.9762050723
 30
0.0
 10
11.5286143825
 20
8.9936668503
 30
0.0
 10
11.5259224304
 20
9.0114420658
 30
0.0
 10
11.5246923859
 20
9.0293962771
 30
0.0
 10
11.5249341353
 20
9.0473955374
 30
0.0
 10
11.5266457654
 20
9.0653059659
 30
0.0
 10
11.5298135131
 20
9.0829935146
 30
0.0
 10
11.5344112008
 20
9.1003234016
 30
0.0
 10
11.540399584
 20
9.1171601382
 30
0.0
 10
11.5477229798
 20
9.1333642947
 30
0.0
 10
11.5534734455
 20
9.1436986029
 30
0.0
 10
11.5565493685
 20
9.1487161415
 30
0.0
  0
SPLINE
  5
236
100
AcDbEntity
  8
0
100
AcDbSpline
 62
7
  6
CONTINUOUS
 70
0
 71
3
 72
23
 73
19
 74
0
 42
0.0000001
 43
0.0000001
 44
0.0000000001
 40
0.0
 40
0.0
 40
0.0
 40
0.0
 40
0.0616781266
 40
0.1236974966
 40
0.1859472006
 40
0.2483609903
 40
0.3108896939
 40
0.3735003707
 40
0.4361679099
 40
0.4988729763
 40
0.5615994652
 40
0.624333084
 40
0.6870601608
 40
0.7497664546
 40
0.8124359072
 40
0.8750491491
 40
0.937581413
 40
1.0
 40
1.0
 40
1.0
 40
1.0
 10
11.5848547051
 20
8.6586404388
 30
0.0
 10
11.580868693
 20
8.6630227363
 30
0.0
 10
11.5732181233
 20
8.6721310043
 30
0.0
 10
11.562825047
 20
8.6866761044
 30
0.0
 10
11.5535588555
 20
8.702047635
 30
0.0
 10
11.545491983
 20
8.7181354503
 30
0.0
 10
11.5386824965
 20
8.7348319769
 30
0.0
 10
11.5331770987
 20
8.7520282361
 30
0.0
 10
11.5290124591
 20
8.7696148231
 30
0.0
 10
11.5262156993
 20
8.7874813274
 30
0.0
 10
11.5248047796
 20
8.8055166374
 30
0.0
 10
11.5247886724
 20
8.8236091566
 30
0.0
 10
11.5261674772
 20
8.8416471206
 30
0.0
 10
11.5289324283
 20
8.859518953
 30
0.0
 10
11.5330657495
 20
8.8771134257
 30
0.0
 10
11.5385408047
 20
8.8943204324
 30
0.0
 10
11.5453204577
 20
8.9110292554
 30
0.0
 10
11.5506870127
 20
8.9217794444
 30
0.0
 10
11.5535711917
 20
8.9270351069
 30
0.0
  0
SPLINE
  5
237
100
AcDbEntity
  8
0
100
AcDbSpline
 62
7
  6
CONTINUOUS
 70
0
 71
3
 72
23
 73
19
 74
0
 42
0.0000001
 43
0.0000001
 44
0.0000000001
 40
0.0
 40
0.0
 40
0.0
 40
0.0
 40
0.0624970121
 40
0.1250263023
 40
0.187578685
 40
0.2501469323
 40
0.3127252487
 40
0.3753086121
 40
0.4378923247
 40
0.5004717435
 40
0.5630418268
 40
0.6255969045
 40
0.6881299941
 40
0.7506320239
 40
0.8130915706
 40
0.8754894193
 40
0.9378074809
 40
1.0
 40
1.0
 40
1.0
 40
1.0
 10
11.5477360399
 20
8.4971676252
 30
0.0
 10
11.5452584292
 20
8.4919324458
 30
0.0
 10
11.5406832074
 20
8.4812740049
 30
0.0
 10
11.53500619
 20
8.4648278313
 30
0.0
 10
11.5305423463
 20
8.4480039823
 30
0.0
 10
11.5273168928
 20
8.4308951108
 30
0.0
 10
11.5253473961
 20
8.4135936575
 30
0.0
 10
11.524644703
 20
8.3961932342
 30
0.0
 10
11.5252127002
 20
8.3787877866
 30
0.0
 10
11.5270482525
 20
8.3614713181
 30
0.0
 10
11.5301412824
 20
8.3443374281
 30
0.0
 10
11.5344748298
 20
8.3274789542
 30
0.0
 10
11.5400249818
 20
8.3109876193
 30
0.0
 10
11.5467608704
 20
8.2949536183
 30
0.0
 10
11.554644431
 20
8.2794657905
 30
0.0
 10
11.5636302511
 20
8.2646099645
 30
0.0
 10
11.573664474
 20
8.2504726596
 30
0.0
 10
11.5810224264
 20
8.2415681483
 30
0.0
 10
11.5848547045
 20
8.2372631255
 30
0.0
  0
SPLINE
  5
238
100
AcDbEntity
  8
0
100
AcDbSpline
 62
7
  6
CONTINUOUS
 70
0
 71
3
 72
15
 73
11
 74
0
 42
0.0000001
 43
0.0000001
 44
0.0000000001
 40
0.0
 40
0.0
 40
0.0
 40
0.0
 40
0.1252883445
 40
0.2510032701
 40
0.3768931364
 40
0.5027610742
 40
0.6284030727
 40
0.7535425121
 40
0.8777148467
 40
1.0
 40
1.0
 40
1.0
 40
1.0
 10
11.5446544161
 20
8.3006446329
 30
0.0
 10
11.5401446651
 20
8.2905923811
 30
0.0
 10
11.532586394
 20
8.2697543302
 30
0.0
 10
11.5259301788
 20
8.237171871
 30
0.0
 10
11.5240794691
 20
8.2039099269
 30
0.0
 10
11.5270838652
 20
8.1707404517
 30
0.0
 10
11.5348673747
 20
8.1384250976
 30
0.0
 10
11.5472312186
 20
8.1077286983
 30
0.0
 10
11.5638125307
 20
8.0794394042
 30
0.0
 10
11.577482212
 20
8.0624969978
 30
0.0
 10
11.5848547087
 20
8.054668692
 30
0.0
  0
SPLINE
  5
239
100
AcDbEntity
  8
0
100
AcDbSpline
 62
7
  6
CONTINUOUS
 70
0
 71
3
 72
18
 73
14
 74
0
 42
0.0000001
 43
0.0000001
 44
0.0000000001
 40
0.0
 40
0.0
 40
0.0
 40
0.0
 40
0.1260512498
 40
0.2529286211
 40
0.3165523921
 40
0.3801963625
 40
0.443807935
 40
0.5073321875
 40
0.6337752878
 40
0.7589539181
 40
0.8207959268
 40
0.8818388281
 40
1.0
 40
1.0
 40
1.0
 40
1.0
 10
11.5412314293
 20
8.1234172314
 30
0.0
 10
11.5372283575
 20
8.1139728939
 30
0.0
 10
11.5306236161
 20
8.0943845876
 30
0.0
 10
11.5260928635
 20
8.0689261355
 30
0.0
 10
11.5247458549
 20
8.0482723001
 30
0.0
 10
11.5248844012
 20
8.032725105
 30
0.0
 10
11.5261728565
 20
8.0172387881
 30
0.0
 10
11.5294046436
 20
7.9968419531
 30
0.0
 10
11.5362325306
 20
7.972016807
 30
0.0
 10
11.5466375508
 20
7.9486136041
 30
0.0
 10
11.5569053499
 20
7.9312115094
 30
0.0
 10
11.5681523306
 20
7.9151249803
 30
0.0
 10
11.5778887302
 20
7.9041584168
 30
0.0
 10
11.5848547775
 20
7.897530129
 30
0.0
  0
SPLINE
  5
23A
100
AcDbEntity
  8
0
100
AcDbSpline
 62
7
  6
CONTINUOUS
 70
0
 71
3
 72
19
 73
15
 74
0
 42
0.0000001
 43
0.0000001
 44
0.0000000001
 40
0.0
 40
0.0
 40
0.0
 40
0.0
 40
0.0636303886
 40
0.1276406392
 40
0.1919147137
 40
0.2563532148
 40
0.3852769835
 40
0.5138166814
 40
0.6411812809
 40
0.7662450553
 40
0.8274175779
 40
0.8871892695
 40
0.94500256
 40
1.0
 40
1.0
 40
1.0
 40
1.0
 10
11.5375064161
 20
7.9705204808
 30
0.0
 10
11.5358011119
 20
7.9661822106
 30
0.0
 10
11.5327202738
 20
7.9573418537
 30
0.0
 10
11.5291289305
 20
7.9437356442
 30
0.0
 10
11.5265796691
 20
7.9298344735
 30
0.0
 10
11.5245981707
 20
7.9110499764
 30
0.0
 10
11.5248103852
 20
7.8873701782
 30
0.0
 10
11.5293485498
 20
7.8594370663
 30
0.0
 10
11.5380105662
 20
7.8327921981
 30
0.0
 10
11.5484729994
 20
7.812219843
 30
0.0
 10
11.5585471337
 20
7.7972560598
 30
0.0
 10
11.5667460422
 20
7.7870240194
 30
0.0
 10
11.5754772905
 20
7.7778595011
 30
0.0
 10
11.5816997502
 20
7.7723995394
 30
0.0
 10
11.5848551455
 20
7.7698943252
 30
0.0
  0
SPLINE
  5
23B
100
AcDbEntity
  8
0
100
AcDbSpline
 62
7
  6
CONTINUOUS
 70
0
 71
3
 72
21
 73
17
 74
0
 42
0.0000001
 43
0.0000001
 44
0.0000000001
 40
0.0
 40
0.0
 40
0.0
 40
0.0
 40
0.0643626563
 40
0.1290890036
 40
0.1940587773
 40
0.2591613113
 40
0.3892540438
 40
0.5186242083
 40
0.5827932377
 40
0.6463920946
 40
0.7092293699
 40
0.7710604615
 40
0.8315825297
 40
0.8903643241
 40
0.9467999147
 40
1.0
 40
1.0
 40
1.0
 40
1.0
 10
11.5337801976
 20
7.8468647415
 30
0.0
 10
11.5324034073
 20
7.8429608287
 30
0.0
 10
11.5299585613
 20
7.835015328
 30
0.0
 10
11.5272467835
 20
7.8228197407
 30
0.0
 10
11.5254989561
 20
7.8103996769
 30
0.0
 10
11.5244733311
 20
7.7936839467
 30
0.0
 10
11.5256489049
 20
7.7727510624
 30
0.0
 10
11.5300760226
 20
7.7523168637
 30
0.0
 10
11.5354975433
 20
7.7366764332
 30
0.0
 10
11.5404458163
 20
7.7254447999
 30
0.0
 10
11.546235281
 20
7.7147938354
 30
0.0
 10
11.5528005841
 20
7.7048379557
 30
0.0
 10
11.560054192
 20
7.6957018163
 30
0.0
 10
11.5678768316
 20
7.687519356
 30
0.0
 10
11.5761023697
 20
7.6804452085
 30
0.0
 10
11.581919087
 20
7.6764274503
 30
0.0
 10
11.584850095
 20
7.6746620026
 30
0.0
  0
SPLINE
  5
23C
100
AcDbEntity
  8
0
100
AcDbSpline
 62
7
  6
CONTINUOUS
 70
0
 71
3
 72
17
 73
13
 74
0
 42
0.0000001
 43
0.0000001
 44
0.0000000001
 40
0.0
 40
0.0
 40
0.0
 40
0.0
 40
0.1281214107
 40
0.2567380881
 40
0.3851956531
 40
0.5128177259
 40
0.6388652966
 40
0.7624400308
 40
0.8230744433
 40
0.8827782354
 40
0.9415891928
 40
1.0
 40
1.0
 40
1.0
 40
1.0
 10
11.5299552151
 20
7.7550870097
 30
0.0
 10
11.5280189749
 20
7.7483226353
 30
0.0
 10
11.5252352805
 20
7.7344281799
 30
0.0
 10
11.5244018389
 20
7.7132072259
 30
0.0
 10
11.526909182
 20
7.6921401602
 30
0.0
 10
11.5326952529
 20
7.6718726446
 30
0.0
 10
11.5415998911
 20
7.6530631012
 30
0.0
 10
11.5514860045
 20
7.6390609867
 30
0.0
 10
11.560695616
 20
7.6293092907
 30
0.0
 10
11.5681494808
 20
7.6228590301
 30
0.0
 10
11.5761646222
 20
7.6173324701
 30
0.0
 10
11.5818964393
 20
7.6143502894
 30
0.0
 10
11.5848437786
 20
7.613084271
 30
0.0
  0
SPLINE
  5
23D
100
AcDbEntity
  8
0
100
AcDbSpline
 62
7
  6
CONTINUOUS
 70
0
 71
3
 72
17
 73
13
 74
0
 42
0.0000001
 43
0.0000001
 44
0.0000000001
 40
0.0
 40
0.0
 40
0.0
 40
0.0
 40
0.1245468088
 40
0.2491241678
 40
0.3735478857
 40
0.497682598
 40
0.6215027657
 40
0.7453097211
 40
0.8075801096
 40
0.8704057205
 40
0.9342918434
 40
1.0
 40
1.0
 40
1.0
 40
1.0
 10
11.5265889346
 20
7.6975046871
 30
0.0
 10
11.5255813649
 20
7.6918890219
 30
0.0
 10
11.5244407795
 20
7.6804797335
 30
0.0
 10
11.5253807585
 20
7.663328922
 30
0.0
 10
11.5289546461
 20
7.6465418331
 30
0.0
 10
11.5351201176
 20
7.6305572849
 30
0.0
 10
11.5438059997
 20
7.6158180223
 30
0.0
 10
11.5530897194
 20
7.6049630782
 30
0.0
 10
11.5616771783
 20
7.597438098
 30
0.0
 10
11.5687513277
 20
7.5924185578
 30
0.0
 10
11.5764748424
 20
7.5881331153
 30
0.0
 10
11.5819960188
 20
7.5858988773
 30
0.0
 10
11.5848548016
 20
7.5849567898
 30
0.0
  0
SPLINE
  5
23E
100
AcDbEntity
  8
0
100
AcDbSpline
 62
7
  6
CONTINUOUS
 70
0
 71
3
 72
11
 73
7
 74
0
 42
0.0000001
 43
0.0000001
 44
0.0000000001
 40
0.0
 40
0.0
 40
0.0
 40
0.0
 40
0.249347832
 40
0.4988786094
 40
0.7489448963
 40
1.0
 40
1.0
 40
1.0
 40
1.0
 10
11.5250172708
 20
7.6792575521
 30
0.0
 10
11.5247671031
 20
7.6750324655
 30
0.0
 10
11.5248446531
 20
7.6665337042
 30
0.0
 10
11.5266990553
 20
7.6539179503
 30
0.0
 10
11.530278317
 20
7.6416481478
 30
0.0
 10
11.5337951134
 20
7.6338657224
 30
0.0
 10
11.5358244482
 20
7.6301184711
 30
0.0
  0
SPLINE
  5
23F
100
AcDbEntity
  8
0
100
AcDbSpline
 62
7
  6
CONTINUOUS
 70
0
 71
3
 72
11
 73
7
 74
0
 42
0.0000001
 43
0.0000001
 44
0.0000000001
 40
0.0
 40
0.0
 40
0.0
 40
0.0
 40
0.2498754355
 40
0.4997571038
 40
0.7497260168
 40
1.0
 40
1.0
 40
1.0
 40
1.0
 10
11.5259394918
 20
8.0225172437
 30
0.0
 10
11.5252057315
 20
8.0175494777
 30
0.0
 10
11.5244804599
 20
8.0074883264
 30
0.0
 10
11.5256399579
 20
7.9924121052
 30
0.0
 10
11.5290329859
 20
7.9776676358
 30
0.0
 10
11.5327685616
 20
7.9682828916
 30
0.0
 10
11.5349902573
 20
7.9637705001
 30
0.0
  0
SPLINE
  5
240
100
AcDbEntity
  8
0
100
AcDbSpline
 62
7
  6
CONTINUOUS
 70
0
 71
3
 72
11
 73
7
 74
0
 42
0.0000001
 43
0.0000001
 44
0.0000000001
 40
0.0
 40
0.0
 40
0.0
 40
0.0
 40
0.2484839045
 40
0.4984489705
 40
0.7491675998
 40
1.0
 40
1.0
 40
1.0
 40
1.0
 10
11.5350164389
 20
10.0559687672
 30
0.0
 10
11.5329067245
 20
10.0620388993
 30
0.0
 10
11.5293238896
 20
10.0744515613
 30
0.0
 10
11.525931994
 20
10.0935621459
 30
0.0
 10
11.5245491117
 20
10.1129828511
 30
0.0
 10
11.5249818354
 20
10.1259745892
 30
0.0
 10
11.5255362456
 20
10.1324378968
 30
0.0
  0
SPLINE
  5
241
100
AcDbEntity
  8
0
100
AcDbSpline
 62
7
  6
CONTINUOUS
 70
0
 71
3
 72
9
 73
5
 74
0
 42
0.0000001
 43
0.0000001
 44
0.0000000001
 40
0.0
 40
0.0
 40
0.0
 40
0.0
 40
0.4986099901
 40
1.0
 40
1.0
 40
1.0
 40
1.0
 10
11.531911524
 20
10.1785471902
 30
0.0
 10
11.5289864525
 20
10.1879896
 30
0.0
 10
11.5249249747
 20
10.2075297178
 30
0.0
 10
11.5245593927
 20
10.2274803433
 30
0.0
 10
11.5253000563
 20
10.2373929227
 30
0.0
  0
SPLINE
  5
242
100
AcDbEntity
  8
0
100
AcDbSpline
 62
7
  6
CONTINUOUS
 70
0
 71
3
 72
13
 73
9
 74
0
 42
0.0000001
 43
0.0000001
 44
0.0000000001
 40
0.0
 40
0.0
 40
0.0
 40
0.0
 40
0.2468383059
 40
0.493651592
 40
0.6177300406
 40
0.7428073712
 40
0.8697643092
 40
1.0
 40
1.0
 40
1.0
 40
1.0
 10
11.5358482103
 20
10.389647885
 30
0.0
 10
11.5382643524
 20
10.3945606535
 30
0.0
 10
11.5438876352
 20
10.4040194851
 30
0.0
 10
11.5528206126
 20
10.4145072787
 30
0.0
 10
11.561049922
 20
10.4218290293
 30
0.0
 10
11.5678083683
 20
10.4267445425
 30
0.0
 10
11.5751658364
 20
10.4309900526
 30
0.0
 10
11.5804187682
 20
10.4332571197
 30
0.0
 10
11.5831373169
 20
10.4342335046
 30
0.0
  0
SPLINE
  5
243
100
AcDbEntity
  8
0
100
AcDbSpline
 62
7
  6
CONTINUOUS
 70
0
 71
3
 72
9
 73
5
 74
0
 42
0.0000001
 43
0.0000001
 44
0.0000000001
 40
0.0
 40
0.0
 40
0.0
 40
0.0
 40
0.4631253479
 40
1.0
 40
1.0
 40
1.0
 40
1.0
 10
11.5721427151
 20
10.0949279114
 30
0.0
 10
11.5739621965
 20
10.0958746016
 30
0.0
 10
11.5781301549
 20
10.0974667443
 30
0.0
 10
11.5824961039
 20
10.0983122624
 30
0.0
 10
11.5848547044
 20
10.0986125911
 30
0.0
  0
SPLINE
  5
244
100
AcDbEntity
  8
0
100
AcDbSpline
 62
7
  6
CONTINUOUS
 70
0
 71
3
 72
14
 73
10
 74
0
 42
0.0000001
 43
0.0000001
 44
0.0000000001
 40
0.0
 40
0.0
 40
0.0
 40
0.0
 40
0.0753334438
 40
0.1637087578
 40
0.266049289
 40
0.3828560627
 40
0.5144119056
 40
0.6609216742
 40
1.0
 40
1.0
 40
1.0
 40
1.0
 10
11.5647210011
 20
9.9398088945
 30
0.0
 10
11.5651296897
 20
9.940129402
 30
0.0
 10
11.5660963518
 20
9.9407264722
 30
0.0
 10
11.5677906924
 20
9.9414411394
 30
0.0
 10
11.5698321008
 20
9.9420289601
 30
0.0
 10
11.5722116406
 20
9.9424738844
 30
0.0
 10
11.5749212964
 20
9.9427613721
 30
0.0
 10
11.5791754529
 20
9.9429239544
 30
0.0
 10
11.5825265179
 20
9.9427466894
 30
0.0
 10
11.5848547044
 20
9.9425356878
 30
0.0
  0
SPLINE
  5
245
100
AcDbEntity
  8
0
100
AcDbSpline
 62
7
  6
CONTINUOUS
 70
0
 71
3
 72
28
 73
24
 74
0
 42
0.0000001
 43
0.0000001
 44
0.0000000001
 40
0.0
 40
0.0
 40
0.0
 40
0.0
 40
0.0005215212
 40
0.0015194484
 40
0.0030125803
 40
0.0050049569
 40
0.0104901538
 40
0.0179745527
 40
0.027452891
 40
0.0389177951
 40
0.0523593798
 40
0.0677675267
 40
0.0851322784
 40
0.1044439
 40
0.148865149
 40
0.2009405592
 40
0.2605791481
 40
0.3276861729
 40
0.4021678951
 40
0.4839341815
 40
0.5729029363
 40
0.7722042194
 40
1.0
 40
1.0
 40
1.0
 40
1.0
 10
11.5630447074
 20
9.7660032182
 30
0.0
 10
11.5630475009
 20
9.7660059354
 30
0.0
 10
11.5630593184
 20
9.7660086734
 30
0.0
 10
11.5630810993
 20
9.7660117651
 30
0.0
 10
11.5631148472
 20
9.7660134625
 30
0.0
 10
11.5631817265
 20
9.7660144831
 30
0.0
 10
11.5632936343
 20
9.7660113681
 30
0.0
 10
11.5634610814
 20
9.7660023055
 30
0.0
 10
11.5636729497
 20
9.7659864999
 30
0.0
 10
11.5639288457
 20
9.765963399
 30
0.0
 10
11.5642284967
 20
9.7659323334
 30
0.0
 10
11.564571554
 20
9.7658927062
 30
0.0
 10
11.564957686
 20
9.7658439109
 30
0.0
 10
11.5655581127
 20
9.7657619044
 30
0.0
 10
11.5664137395
 20
9.7656320972
 30
0.0
 10
11.5675640909
 20
9.7654371368
 30
0.0
 10
11.5688776963
 20
9.7651920209
 30
0.0
 10
11.5703513273
 20
9.7648927689
 30
0.0
 10
11.5719816827
 20
9.7645354226
 30
0.0
 10
11.5737655781
 20
9.7641165178
 30
0.0
 10
11.5764481064
 20
9.7634456762
 30
0.0
 10
11.5801687633
 20
9.7624302612
 30
0.0
 10
11.5832270813
 20
9.7615173892
 30
0.0
 10
11.5848547044
 20
9.7610191418
 30
0.0
  0
SPLINE
  5
246
100
AcDbEntity
  8
0
100
AcDbSpline
 62
7
  6
CONTINUOUS
 70
0
 71
3
 72
15
 73
11
 74
0
 42
0.0000001
 43
0.0000001
 44
0.0000000001
 40
0.0
 40
0.0
 40
0.0
 40
0.0
 40
0.0788064028
 40
0.1707001268
 40
0.2759106443
 40
0.3944617956
 40
0.5262645299
 40
0.6711826323
 40
0.8290947754
 40
1.0
 40
1.0
 40
1.0
 40
1.0
 10
11.5652262977
 20
9.5708236218
 30
0.0
 10
11.5656677684
 20
9.570412896
 30
0.0
 10
11.5666737525
 20
9.5695767344
 30
0.0
 10
11.5683865286
 20
9.5683411163
 30
0.0
 10
11.57041006
 20
9.5670212844
 30
0.0
 10
11.5727363339
 20
9.5656099983
 30
0.0
 10
11.5753577006
 20
9.5641011209
 30
0.0
 10
11.5782672286
 20
9.5624902445
 30
0.0
 10
11.5814608331
 20
9.5607754617
 30
0.0
 10
11.5836913169
 20
9.559611284
 30
0.0
 10
11.5848547044
 20
9.5590141635
 30
0.0
  0
SPLINE
  5
247
100
AcDbEntity
  8
0
100
AcDbSpline
 62
7
  6
CONTINUOUS
 70
0
 71
3
 72
11
 73
7
 74
0
 42
0.0000001
 43
0.0000001
 44
0.0000000001
 40
0.0
 40
0.0
 40
0.0
 40
0.0
 40
0.2243081627
 40
0.4657731194
 40
0.7243434265
 40
1.0
 40
1.0
 40
1.0
 40
1.0
 10
11.5724952767
 20
9.3519555763
 30
0.0
 10
11.5733594608
 20
9.351143279
 30
0.0
 10
11.5751943336
 20
9.3494992943
 30
0.0
 10
11.5781420601
 20
9.3470529366
 30
0.0
 10
11.5813819754
 20
9.3445370169
 30
0.0
 10
11.583664247
 20
9.3428717641
 30
0.0
 10
11.5848547044
 20
9.3420308244
 30
0.0
  0
ENDSEC
  0
SECTION
  2
OBJECTS
  0
DICTIONARY
  5
C
100
AcDbDictionary
280
0
281
1
  3
ACAD_GROUP
350
D
  3
ACAD_MLINESTYLE
350
17
  3
ACAD_LAYOUT
350
1A
  3
ACAD_PLOTSETTINGS
350
19
  3
ACAD_PLOTSTYLENAME
350
E
  0
DICTIONARY
  5
D
102
{ACAD_REACTORS
330
C
102
}
100
AcDbDictionary
280
0
281
1
  0
ACDBDICTIONARYWDFLT
  5
E
102
{ACAD_REACTORS
330
C
102
}
100
AcDbDictionary
281
1
  3
Normal
350
F
100
AcDbDictionaryWithDefault
340
F
  0
DICTIONARY
  5
17
102
{ACAD_REACTORS
330
C
102
}
100
AcDbDictionary
280
0
281
1
  3
Standard
350
18
  0
DICTIONARY
  5
19
102
{ACAD_REACTORS
330
C
102
}
100
AcDbDictionary
281
1
  0
DICTIONARY
  5
1A
102
{ACAD_REACTORS
330
C
102
}
100
AcDbDictionary
281
1
  3
Model
350
248
  3
Layout1
350
249
  0
ACDBPLACEHOLDER
  5
F
102
{ACAD_REACTORS
330
E
102
}
  0
MLINESTYLE
  5
18
102
{ACAD_REACTORS
330
17
102
}
100
AcDbMlineStyle
  2
STANDARD
 70
0
  3

 62
256
 51
90.0
 52
90.0
 71
2
 49
0.5
 62
256
  6
BYLAYER
 49
-0.5
 62
256
  6
BYLAYER
  0
LAYOUT
  5
248
102
{ACAD_REACTORS
330
1A
102
}
100
AcDbPlotSettings
  1

  2
none_device
  4
ANSI_C_(22.00_x_17.00_Inches)
  6

 40
0.0
 41
0.0
 42
0.0
 43
0.0
 44
558.8
 45
431.8
 46
0.0
 47
0.0
 48
0.0
 49
0.0
140
0.0
141
0.0
142
1.0
143
1.0
 70
1024
 72
0
 73
0
 74
0
  7

 75
0
147
1.0
148
0.0
149
0.0
100
AcDbLayout
  1
Model
 70
0
 71
0
 10
0.0
 20
0.0
 11
22.0
 21
17.0
 12
0.0
 22
0.0
 32
0.0
 14
0.0
 24
0.0
 34
0.0
 15
0.0
 25
0.0
 35
0.0
146
0.0
 13
0.0
 23
0.0
 33
0.0
 16
1.0
 26
0.0
 36
0.0
 17
0.0
 27
1.0
 37
0.0
 76
0
330
205
345
0
346
0
  0
LAYOUT
  5
249
102
{ACAD_REACTORS
330
1A
102
}
100
AcDbPlotSettings
  1

  2
none_device
  4
ANSI_C_(22.00_x_17.00_Inches)
  6

 40
0.0
 41
0.0
 42
0.0
 43
0.0
 44
558.8
 45
431.8
 46
0.0
 47
0.0
 48
0.0
 49
0.0
140
0.0
141
0.0
142
1.0
143
1.0
 70
0
 72
0
 73
0
 74
0
  7

 75
0
147
1.0
148
0.0
149
0.0
100
AcDbLayout
  1
Layout1
 70
0
 71
1
 10
0.0
 20
0.0
 11
22.0
 21
17.0
 12
0.0
 22
0.0
 32
0.0
 14
0.0
 24
0.0
 34
0.0
 15
0.0
 25
0.0
 35
0.0
146
0.0
 13
0.0
 23
0.0
 33
0.0
 16
1.0
 26
0.0
 36
0.0
 17
0.0
 27
1.0
 37
0.0
 76
0
330
206
345
0
346
0
  0
ENDSEC
  0
EOF
