999
DXF file: E:\BT Custom\CADOUTPUT\_RIGHT.dxf
999
Pro/ENGINEER 2018400 by Parametric Technology Corporation
  0
SECTION
  2
HEADER
  9
$ACADVER
  1
AC1018
  9
$DWGCODEPAGE
  3
ANSI_1252
  9
$EXTMAX
 10
22.0
 20
17.0
 30
0.0
  9
$EXTMIN
 10
0.0
 20
0.0
 30
0.0
  9
$LIMMIN
 10
0.0
 20
0.0
  9
$LIMMAX
 10
22.0
 20
17.0
  9
$VIEWCTR
 10
11.0
 20
8.5
  9
$VIEWSIZE
 40
17.0
  9
$CLAYER
  8
0
  9
$LTSCALE
 40
1.21
  9
$CELTYPE
  6
BYLAYER
  9
$DIMSCALE
 40
1.0
  9
$DIMASZ
 40
0.1
  9
$DIMEXO
 40
0.0625
  9
$DIMDLI
 40
0.836
  9
$DIMEXE
 40
0.125
  9
$DIMCEN
 40
0.198
  9
$DIMLFAC
 40
1.0
  9
$DIMBLK
  1
_FILLED
  9
$DIMALT
 70
1
  9
$DIMALTD
 70
2
  9
$DIMALTTD
 70
2
  9
$DIMALTF
 40
25.4
  9
$DIMTXT
 40
0.08
  9
$DIMTOL
 70
1
  9
$DIMLIM
 70
0
  9
$DIMTFAC
 40
1.0
  9
$DIMTP
 40
0.001
  9
$DIMTM
 40
0.001
  9
$DIMGAP
 40
0.09
  9
$DIMDSEP
 70
46
  9
$AUNITS
 70
0
  9
$PDMODE
 70
3
  9
$PDSIZE
 40
0.06
  9
$HANDSEED
  5
640
  9
$TILEMODE
 70
1
  9
$MEASUREMENT
 70
0
  9
$INSUNITS
 70
1
  0
ENDSEC
  0
SECTION
  2
CLASSES
  0
CLASS
  1
ACDBDICTIONARYWDFLT
  2
AcDbDictionaryWithDefault
  3
AutoCAD 2000
 90
0
 91
1
280
0
281
0
  0
CLASS
  1
ACDBPLACEHOLDER
  2
AcDbPlaceHolder
  3
AutoCAD 2000
 90
0
 91
1
280
0
281
0
  0
CLASS
  1
LAYOUT
  2
AcDbLayout
  3
AutoCAD 2000
 90
0
 91
0
280
0
281
0
  0
ENDSEC
  0
SECTION
  2
TABLES
  0
TABLE
  2
VPORT
  5
8
100
AcDbSymbolTable
 70
2
  0
VPORT
  5
1F4
100
AcDbSymbolTableRecord
100
AcDbViewportTableRecord
  2
*ACTIVE
 70
0
 10
0.0
 20
0.0
 11
1.0
 21
1.0
 12
11.0
 22
8.5
 13
0.0
 23
0.0
 14
1.0
 24
1.0
 15
0.0
 25
0.0
 16
0.0
 26
0.0
 36
1.0
 17
0.0
 27
0.0
 37
0.0
 40
17.0
 41
1.2941176471
 42
50.0
 43
0.0
 44
0.0
 50
0.0
 51
0.0
 71
0
 72
100
 73
1
 74
1
 75
0
 76
0
 77
0
 78
0
  0
ENDTAB
  0
TABLE
  2
LTYPE
  5
5
100
AcDbSymbolTable
 70
6
  0
LTYPE
  5
14
100
AcDbSymbolTableRecord
100
AcDbLinetypeTableRecord
  2
BYBLOCK
 70
0
  3

 72
65
 73
0
 40
0.0
  0
LTYPE
  5
15
100
AcDbSymbolTableRecord
100
AcDbLinetypeTableRecord
  2
BYLAYER
 70
0
  3

 72
65
 73
0
 40
0.0
  0
LTYPE
  5
16
100
AcDbSymbolTableRecord
100
AcDbLinetypeTableRecord
  2
CONTINUOUS
 70
64
  3
Solid line
 72
65
 73
0
 40
0.0
  0
LTYPE
  5
1F5
100
AcDbSymbolTableRecord
100
AcDbLinetypeTableRecord
  2
CENTER
 70
64
  3
____ _ ____ _ ____ _ ____ _ ____ _ ____ _ ____
 72
65
 73
4
 40
0.6
 49
0.375
 74
0
 49
-0.075
 74
0
 49
0.075
 74
0
 49
-0.075
 74
0
  0
LTYPE
  5
1F6
100
AcDbSymbolTableRecord
100
AcDbLinetypeTableRecord
  2
HIDDEN
 70
64
  3
- - - - - - - - - - - - - - - - - - - -
 72
65
 73
2
 40
0.2
 49
0.1
 74
0
 49
-0.1
 74
0
  0
LTYPE
  5
1F7
100
AcDbSymbolTableRecord
100
AcDbLinetypeTableRecord
  2
PHANTOM
 70
64
  3
_____ _ _ _____ _ _ _____ _ _ _____
 72
65
 73
6
 40
0.8
 49
0.45
 74
0
 49
-0.05
 74
0
 49
0.1
 74
0
 49
-0.05
 74
0
 49
0.1
 74
0
 49
-0.05
 74
0
  0
LTYPE
  5
1F8
100
AcDbSymbolTableRecord
100
AcDbLinetypeTableRecord
  2
DOT
 70
64
  3
. . . . . . . . . . . . . . . . . . . .
 72
65
 73
2
 40
0.2
 49
0.1
 74
0
 49
-0.1
 74
0
  0
LTYPE
  5
1F9
100
AcDbSymbolTableRecord
100
AcDbLinetypeTableRecord
  2
DASHED
 70
64
  3
- - - - - - - - - - - - - - - - - - - -
 72
65
 73
2
 40
0.2
 49
0.1
 74
0
 49
-0.1
 74
0
  0
ENDTAB
  0
TABLE
  2
LAYER
  5
2
100
AcDbSymbolTable
 70
36
  0
LAYER
  5
10
100
AcDbSymbolTableRecord
100
AcDbLayerTableRecord
  2
0
 70
0
 62
7
  6
CONTINUOUS
370
-3
390
F
  0
LAYER
  5
1FA
100
AcDbSymbolTableRecord
100
AcDbLayerTableRecord
  2
DEFAULT_1
 70
0
 62
7
  6
CENTER
370
-3
390
F
  0
LAYER
  5
1FB
100
AcDbSymbolTableRecord
100
AcDbLayerTableRecord
  2
DEFAULT_2
 70
0
 62
8
  6
HIDDEN
370
-3
390
F
  0
LAYER
  5
1FC
100
AcDbSymbolTableRecord
100
AcDbLayerTableRecord
  2
DEFAULT_3
 70
0
 62
7
  6
PHANTOM
370
-3
390
F
  0
LAYER
  5
1FD
100
AcDbSymbolTableRecord
100
AcDbLayerTableRecord
  2
ALL_FEATURES
 70
0
 62
7
  6
CONTINUOUS
370
-3
390
F
  0
LAYER
  5
1FE
100
AcDbSymbolTableRecord
100
AcDbLayerTableRecord
  2
AXES_FEATURES
 70
0
 62
7
  6
CONTINUOUS
370
-3
390
F
  0
LAYER
  5
1FF
100
AcDbSymbolTableRecord
100
AcDbLayerTableRecord
  2
DIMENSIONS
 70
0
 62
7
  6
CONTINUOUS
370
-3
390
F
  0
ENDTAB
  0
TABLE
  2
STYLE
  5
3
100
AcDbSymbolTable
 70
1
  0
STYLE
  5
11
100
AcDbSymbolTableRecord
100
AcDbTextStyleTableRecord
  2
STANDARD
 70
0
 40
0.0
 41
0.8
 50
0.0
 71
0
 42
0.2
  3
txt
  4

  0
STYLE
  5
200
100
AcDbSymbolTableRecord
100
AcDbTextStyleTableRecord
  2
TEXTSTYLE_1
 70
0
 40
0.0
 41
0.8
 50
0.0
 71
0
 42
0.2
  3
gdt
  4

  0
ENDTAB
  0
TABLE
  2
VIEW
  5
6
100
AcDbSymbolTable
 70
0
  0
ENDTAB
  0
TABLE
  2
UCS
  5
7
100
AcDbSymbolTable
 70
0
  0
ENDTAB
  0
TABLE
  2
APPID
  5
9
100
AcDbSymbolTable
 70
1
  0
APPID
  5
201
100
AcDbSymbolTableRecord
100
AcDbRegAppTableRecord
  2
ACAD
 70
0
  0
ENDTAB
  0
TABLE
  2
BLOCK_RECORD
  5
1
100
AcDbSymbolTable
 70
0
  0
BLOCK_RECORD
  5
202
100
AcDbSymbolTableRecord
100
AcDbBlockTableRecord
  2
*Model_Space
  0
BLOCK_RECORD
  5
203
100
AcDbSymbolTableRecord
100
AcDbBlockTableRecord
  2
*Paper_Space
  0
BLOCK_RECORD
  5
204
100
AcDbSymbolTableRecord
100
AcDbBlockTableRecord
  2
_FILLED
  0
ENDTAB
  0
TABLE
  2
DIMSTYLE
  5
A
100
AcDbSymbolTable
 70
1
100
AcDbDimStyleTable
 71
0
  0
DIMSTYLE
105
205
100
AcDbSymbolTableRecord
100
AcDbDimStyleTableRecord
  2
STANDARD
 70
0
  3

  4

 40
1.0
 41
0.1
 42
0.0625
 43
0.38
 44
0.125
 45
0.0
 46
0.0
 47
0.001
 48
0.001
140
0.08
141
0.09
142
0.0
143
25.4
144
1.0
145
0.0
146
1.0
147
0.09
 71
1.0
 72
0.0
 73
1
 74
1
 75
0
 76
0
 77
0
 78
4
 79
1
170
1
171
2
172
0
173
0
174
0
175
0
176
0
177
0
178
0
270
2
179
3
271
3
272
3
273
2
274
2
275
0
280
0
281
0
282
0
283
1
284
4
285
0
286
0
287
3
288
0
340
11
278
46
341
204
342
204
343
204
344
204
  0
ENDTAB
  0
ENDSEC
  0
SECTION
  2
BLOCKS
  0
BLOCK
  5
20
100
AcDbEntity
  8
0
100
AcDbBlockBegin
  2
*Model_Space
 70
0
 10
0.0
 20
0.0
 30
0.0
  3
*Model_Space
  1

  0
ENDBLK
  5
21
100
AcDbEntity
  8
0
100
AcDbBlockEnd
  0
BLOCK
  5
1C
100
AcDbEntity
  8
0
100
AcDbBlockBegin
  2
*Paper_Space
 70
0
 10
0.0
 20
0.0
 30
0.0
  3
*Paper_Space
  1

  0
ENDBLK
  5
1D
100
AcDbEntity
  8
0
100
AcDbBlockEnd
  0
BLOCK
  5
206
100
AcDbEntity
  8
0
100
AcDbBlockBegin
  2
_FILLED
 70
64
 10
0.0
 20
0.0
  3
_FILLED
  1

  0
SOLID
  5
207
100
AcDbEntity
  8
0
  6
BYBLOCK
 62
0
100
AcDbTrace
 10
0.0
 20
0.0
 11
-1.0
 21
0.2
 12
-1.0
 22
-0.2
 13
-1.0
 23
-0.2
  0
ENDBLK
  5
208
100
AcDbEntity
  8
0
  6
BYBLOCK
 62
0
100
AcDbBlockEnd
  0
ENDSEC
  0
SECTION
  2
ENTITIES
  0
LINE
  5
209
100
AcDbEntity
  8
0
100
AcDbLine
 62
9
  6
CONTINUOUS
 10
12.6417059587
 20
-1.6049743377
 11
13.1817059587
 21
-1.6049743377
  0
LINE
  5
20A
100
AcDbEntity
  8
0
100
AcDbLine
 62
7
  6
CONTINUOUS
 10
13.2822760758
 20
19.8957466842
 11
13.3052485975
 21
19.9174256847
  0
LINE
  5
20B
100
AcDbEntity
  8
0
100
AcDbLine
 62
7
  6
CONTINUOUS
 10
13.3052579147
 20
19.9174338831
 11
13.3052507444
 21
19.9174275742
  0
LINE
  5
20C
100
AcDbEntity
  8
0
100
AcDbLine
 62
7
  6
CONTINUOUS
 10
12.5202746075
 20
18.8189394457
 11
12.5202021168
 21
18.8188763641
  0
LINE
  5
20D
100
AcDbEntity
  8
0
100
AcDbLine
 62
7
  6
CONTINUOUS
 10
12.5265754258
 20
18.8263457942
 11
12.5055308689
 21
18.8096047121
  0
LINE
  5
20E
100
AcDbEntity
  8
0
100
AcDbLine
 62
7
  6
CONTINUOUS
 10
12.5395803507
 20
17.4127940846
 11
12.6417059587
 21
17.4717563319
  0
LINE
  5
20F
100
AcDbEntity
  8
0
100
AcDbLine
 62
7
  6
CONTINUOUS
 10
5.4242059587
 20
9.041538337
 11
5.4242059587
 21
9.0661365478
  0
LINE
  5
210
100
AcDbEntity
  8
0
100
AcDbLine
 62
7
  6
CONTINUOUS
 10
13.2423882819
 20
19.8496427953
 11
13.2822760758
 21
19.8957466842
  0
LINE
  5
211
100
AcDbEntity
  8
0
100
AcDbLine
 62
7
  6
CONTINUOUS
 10
12.5055772808
 20
18.8096431774
 11
12.5008760103
 21
18.8052257796
  0
LINE
  5
212
100
AcDbEntity
  8
0
100
AcDbLine
 62
7
  6
CONTINUOUS
 10
13.2838315667
 20
16.80325724
 11
13.1817059587
 21
16.7442949927
  0
LINE
  5
213
100
AcDbEntity
  8
0
100
AcDbLine
 62
9
  6
CONTINUOUS
 10
5.9117059587
 20
9.041538337
 11
5.9117059587
 21
9.2684680275
  0
LINE
  5
214
100
AcDbEntity
  8
0
100
AcDbLine
 62
7
  6
CONTINUOUS
 10
6.3992059587
 20
9.041538337
 11
6.3992059587
 21
9.0661375215
  0
LINE
  5
215
100
AcDbEntity
  8
0
100
AcDbLine
 62
7
  6
CONTINUOUS
 10
13.2314009392
 20
19.8343110459
 11
13.2422331984
 21
19.8494373814
  0
LINE
  5
216
100
AcDbEntity
  8
0
100
AcDbLine
 62
7
  6
CONTINUOUS
 10
13.2422331984
 20
19.8494373814
 11
13.242387436
 21
19.8496416707
  0
LINE
  5
217
100
AcDbEntity
  8
0
100
AcDbLine
 62
7
  6
CONTINUOUS
 10
12.5306193621
 20
18.8311033925
 11
12.5202955333
 21
18.8189576447
  0
LWPOLYLINE
  5
218
100
AcDbEntity
  8
0
100
AcDbPolyline
 62
7
  6
CONTINUOUS
 90
7
 70
0
 10
9.619519432
 20
13.345946747
 10
9.594756194
 20
13.3309919843
 10
9.5782692624
 20
13.3088089453
 10
9.5694618746
 20
13.2865865126
 10
9.5631756495
 20
13.2612357044
 10
9.5580069451
 20
13.230659909
 10
9.5536930758
 20
13.1938423436
  0
LWPOLYLINE
  5
219
100
AcDbEntity
  8
0
100
AcDbPolyline
 62
7
  6
CONTINUOUS
 90
4
 70
0
 10
9.7074960621
 20
13.5194120263
 10
9.6865268196
 20
13.5091644559
 10
9.6678870101
 20
13.4869230769
 10
9.6611942173
 20
13.4587588763
  0
LINE
  5
21A
100
AcDbEntity
  8
0
100
AcDbLine
 62
7
  6
CONTINUOUS
 10
9.7075187295
 20
13.5207568353
 11
9.6875572004
 21
13.511255481
  0
LINE
  5
21B
100
AcDbEntity
  8
0
100
AcDbLine
 62
7
  6
CONTINUOUS
 10
12.3943367898
 20
14.6726381597
 11
12.3355274109
 21
14.6452148959
  0
LINE
  5
21C
100
AcDbEntity
  8
0
100
AcDbLine
 62
7
  6
CONTINUOUS
 10
9.7482776153
 20
13.3706727141
 11
9.7588437743
 21
13.3744875168
  0
LINE
  5
21D
100
AcDbEntity
  8
0
100
AcDbLine
 62
7
  6
CONTINUOUS
 10
9.6195321747
 20
13.3459511239
 11
9.619519432
 21
13.345946747
  0
LINE
  5
21E
100
AcDbEntity
  8
0
100
AcDbLine
 62
7
  6
CONTINUOUS
 10
13.2100019736
 20
19.7994567194
 11
13.2314009392
 21
19.8343110459
  0
LINE
  5
21F
100
AcDbEntity
  8
0
100
AcDbLine
 62
7
  6
CONTINUOUS
 10
13.2133651316
 20
19.8054300546
 11
13.2325694243
 21
19.8359427366
  0
LINE
  5
220
100
AcDbEntity
  8
0
100
AcDbLine
 62
7
  6
CONTINUOUS
 10
12.5342598646
 20
18.8366423536
 11
12.5302549326
 21
18.8305979836
  0
LINE
  5
221
100
AcDbEntity
  8
0
100
AcDbLine
 62
7
  6
CONTINUOUS
 10
9.5811941477
 20
13.3144476686
 11
9.5792693372
 21
13.3120307849
  0
LWPOLYLINE
  5
222
100
AcDbEntity
  8
0
100
AcDbPolyline
 62
7
  6
CONTINUOUS
 90
3
 70
0
 10
9.6875572004
 20
13.511255481
 10
9.6681776717
 20
13.4888335554
 10
9.6611942227
 20
13.4601009915
  0
LWPOLYLINE
  5
223
100
AcDbEntity
  8
0
100
AcDbPolyline
 62
7
  6
CONTINUOUS
 90
3
 70
0
 10
10.1455277872
 20
12.6990220754
 10
10.178603535
 20
12.7181497176
 10
10.1992462251
 20
12.7418183909
  0
LINE
  5
224
100
AcDbEntity
  8
0
100
AcDbLine
 62
7
  6
CONTINUOUS
 10
10.3157927684
 20
12.7526413694
 11
10.2442534881
 21
12.7152458365
  0
LINE
  5
225
100
AcDbEntity
  8
0
100
AcDbLine
 62
7
  6
CONTINUOUS
 10
10.1048774517
 20
12.6187892224
 11
10.1258797503
 21
12.6290545241
  0
LINE
  5
226
100
AcDbEntity
  8
0
100
AcDbLine
 62
7
  6
CONTINUOUS
 10
10.3674851054
 20
13.3636737564
 11
10.5096474717
 21
13.4254021523
  0
LINE
  5
227
100
AcDbEntity
  8
0
100
AcDbLine
 62
7
  6
CONTINUOUS
 10
10.3674851054
 20
13.3623351737
 11
10.5096474717
 21
13.4240635696
  0
LINE
  5
228
100
AcDbEntity
  8
0
100
AcDbLine
 62
7
  6
CONTINUOUS
 10
10.6457828368
 20
12.7235254043
 11
10.5533655817
 21
12.691179365
  0
LINE
  5
229
100
AcDbEntity
  8
0
100
AcDbLine
 62
7
  6
CONTINUOUS
 10
10.1455277872
 20
12.6990220754
 11
10.1455309647
 21
12.6990230452
  0
LINE
  5
22A
100
AcDbEntity
  8
0
100
AcDbLine
 62
7
  6
CONTINUOUS
 10
9.5792693372
 20
13.3120307849
 11
9.5699474398
 21
13.2894870908
  0
LINE
  5
22B
100
AcDbEntity
  8
0
100
AcDbLine
 62
7
  6
CONTINUOUS
 10
9.7809302729
 20
13.4594503533
 11
9.7825137899
 21
13.4628557865
  0
LINE
  5
22C
100
AcDbEntity
  8
0
100
AcDbLine
 62
7
  6
CONTINUOUS
 10
9.780934846
 20
13.4260855719
 11
9.7825209471
 21
13.4294966692
  0
LINE
  5
22D
100
AcDbEntity
  8
0
100
AcDbLine
 62
7
  6
CONTINUOUS
 10
9.7809358769
 20
13.3927192651
 11
9.7825216988
 21
13.3961294758
  0
LINE
  5
22E
100
AcDbEntity
  8
0
100
AcDbLine
 62
7
  6
CONTINUOUS
 10
13.1924045095
 20
19.7641956916
 11
13.2100019736
 21
19.7994567194
  0
LINE
  5
22F
100
AcDbEntity
  8
0
100
AcDbLine
 62
7
  6
CONTINUOUS
 10
13.192100622
 20
19.7635113908
 11
13.2133651316
 21
19.8054300546
  0
LINE
  5
230
100
AcDbEntity
  8
0
100
AcDbLine
 62
7
  6
CONTINUOUS
 10
12.5008760103
 20
18.8052257796
 11
12.4863592225
 21
18.7795297332
  0
LINE
  5
231
100
AcDbEntity
  8
0
100
AcDbLine
 62
7
  6
CONTINUOUS
 10
13.2154348432
 20
17.9708491283
 11
13.3393660758
 21
18.1616864913
  0
LWPOLYLINE
  5
232
100
AcDbEntity
  8
0
100
AcDbPolyline
 62
7
  6
CONTINUOUS
 90
3
 70
0
 10
10.1258797503
 20
12.6290545241
 10
10.1445064414
 20
12.6512926169
 10
10.1511941472
 20
12.6795324978
  0
LINE
  5
233
100
AcDbEntity
  8
0
100
AcDbLine
 62
9
  6
CONTINUOUS
 10
10.1455309647
 20
12.6990230452
 11
10.17549797
 21
12.7316307755
  0
LINE
  5
234
100
AcDbEntity
  8
0
100
AcDbLine
 62
7
  6
CONTINUOUS
 10
13.5471783997
 20
13.6297579458
 11
13.6640918292
 21
13.6972579458
  0
LINE
  5
235
100
AcDbEntity
  8
0
100
AcDbLine
 62
7
  6
CONTINUOUS
 10
9.5699474398
 20
13.2894870908
 11
9.5674781173
 21
13.2797579458
  0
LINE
  5
236
100
AcDbEntity
  8
0
100
AcDbLine
 62
9
  6
CONTINUOUS
 10
9.868752368
 20
13.3917527658
 11
9.867757479
 21
13.3889429952
  0
LINE
  5
237
100
AcDbEntity
  8
0
100
AcDbLine
 62
7
  6
CONTINUOUS
 10
13.1918788033
 20
19.7630135626
 11
13.192100622
 21
19.7635113908
  0
LWPOLYLINE
  5
238
100
AcDbEntity
  8
0
100
AcDbPolyline
 62
7
  6
CONTINUOUS
 90
3
 70
0
 10
12.558206648
 20
18.8897730711
 10
12.5346981315
 20
18.8373294183
 10
12.5306193621
 20
18.8311033925
  0
LINE
  5
239
100
AcDbEntity
  8
0
100
AcDbLine
 62
7
  6
CONTINUOUS
 10
12.5575168153
 20
18.8877602742
 11
12.5342598646
 21
18.8366423536
  0
LWPOLYLINE
  5
23A
100
AcDbEntity
  8
0
100
AcDbPolyline
 62
7
  6
CONTINUOUS
 90
6
 70
0
 10
10.2102240121
 20
12.7589855834
 10
10.2156444637
 20
12.7686595927
 10
10.2265268992
 20
12.7903792206
 10
10.2370284554
 20
12.8140650521
 10
10.2490973318
 20
12.8550331395
 10
10.2569032828
 20
12.9059854929
  0
LINE
  5
23B
100
AcDbEntity
  8
0
100
AcDbLine
 62
7
  6
CONTINUOUS
 10
10.2102247111
 20
12.7589867808
 11
10.2103842815
 21
12.7592612311
  0
LINE
  5
23C
100
AcDbEntity
  8
0
100
AcDbLine
 62
7
  6
CONTINUOUS
 10
10.1992462251
 20
12.7418183909
 11
10.2103842815
 21
12.7592612311
  0
LWPOLYLINE
  5
23D
100
AcDbEntity
  8
0
100
AcDbPolyline
 62
7
  6
CONTINUOUS
 90
4
 70
0
 10
15.9757778203
 20
8.0584193631
 10
15.9861985414
 20
8.0613486703
 10
15.9935588737
 20
8.0692632673
 10
15.9957678533
 20
8.0777880817
  0
LWPOLYLINE
  5
23E
100
AcDbEntity
  8
0
100
AcDbPolyline
 62
7
  6
CONTINUOUS
 90
8
 70
0
 10
9.5514572658
 20
12.9495589605
 10
9.5558758232
 20
12.9026354708
 10
9.561939835
 20
12.8619432889
 10
9.570175338
 20
12.8279654402
 10
9.5796121955
 20
12.804169578
 10
9.5878560874
 20
12.7861745078
 10
9.5964059037
 20
12.7692883299
 10
9.6021509314
 20
12.7590084178
  0
LINE
  5
23F
100
AcDbEntity
  8
0
100
AcDbLine
 62
7
  6
CONTINUOUS
 10
9.5487261821
 20
13.0004033547
 11
9.5514572658
 21
12.9495589605
  0
LINE
  5
240
100
AcDbEntity
  8
0
100
AcDbLine
 62
7
  6
CONTINUOUS
 10
9.5477040003
 20
13.0524006069
 11
9.5487261821
 21
13.0004033547
  0
LINE
  5
241
100
AcDbEntity
  8
0
100
AcDbLine
 62
7
  6
CONTINUOUS
 10
9.4911941477
 20
13.1847545077
 11
9.4911941477
 21
12.9334282102
  0
LINE
  5
242
100
AcDbEntity
  8
0
100
AcDbLine
 62
9
  6
CONTINUOUS
 10
9.5111941477
 20
13.2034193631
 11
9.5111941477
 21
13.1301680445
  0
LINE
  5
243
100
AcDbEntity
  8
0
100
AcDbLine
 62
9
  6
CONTINUOUS
 10
9.5111941477
 20
12.9866872177
 11
9.5111941477
 21
12.9134193631
  0
LINE
  5
244
100
AcDbEntity
  8
0
100
AcDbLine
 62
7
  6
CONTINUOUS
 10
9.5311941477
 20
13.2596823183
 11
9.5311941477
 21
13.1756776181
  0
LINE
  5
245
100
AcDbEntity
  8
0
100
AcDbLine
 62
7
  6
CONTINUOUS
 10
9.5311941477
 20
12.9403991551
 11
9.5311941477
 21
12.8584821685
  0
LINE
  5
246
100
AcDbEntity
  8
0
100
AcDbLine
 62
9
  6
CONTINUOUS
 10
9.5511941477
 20
13.2784193631
 11
9.5511941477
 21
13.1884193631
  0
LINE
  5
247
100
AcDbEntity
  8
0
100
AcDbLine
 62
9
  6
CONTINUOUS
 10
9.5511941477
 20
12.9284193631
 11
9.5511941477
 21
12.8384193631
  0
LINE
  5
248
100
AcDbEntity
  8
0
100
AcDbLine
 62
7
  6
CONTINUOUS
 10
9.5811941477
 20
13.3397545995
 11
9.5811941477
 21
13.3127443558
  0
LINE
  5
249
100
AcDbEntity
  8
0
100
AcDbLine
 62
7
  6
CONTINUOUS
 10
9.5811941477
 20
12.8007164345
 11
9.5811941477
 21
12.7784245486
  0
LINE
  5
24A
100
AcDbEntity
  8
0
100
AcDbLine
 62
9
  6
CONTINUOUS
 10
9.6011941477
 20
13.3584193631
 11
9.6011941477
 21
13.3348799278
  0
LINE
  5
24B
100
AcDbEntity
  8
0
100
AcDbLine
 62
9
  6
CONTINUOUS
 10
9.6011941477
 20
12.7607204465
 11
9.6011941477
 21
12.7584193631
  0
LINE
  5
24C
100
AcDbEntity
  8
0
100
AcDbLine
 62
7
  6
CONTINUOUS
 10
9.6611941477
 20
13.4596433205
 11
9.6611941477
 21
13.3594809181
  0
LINE
  5
24D
100
AcDbEntity
  8
0
100
AcDbLine
 62
7
  6
CONTINUOUS
 10
9.6611941477
 20
12.7013210591
 11
9.6611941477
 21
12.6795440338
  0
LINE
  5
24E
100
AcDbEntity
  8
0
100
AcDbLine
 62
7
  6
CONTINUOUS
 10
9.7786941444
 20
13.5197860641
 11
9.7786941409
 21
13.5211246653
  0
LINE
  5
24F
100
AcDbEntity
  8
0
100
AcDbLine
 62
9
  6
CONTINUOUS
 10
9.867756633
 20
13.3889433142
 11
9.8677662885
 21
12.6525077463
  0
LINE
  5
250
100
AcDbEntity
  8
0
100
AcDbLine
 62
9
  6
CONTINUOUS
 10
9.7074960621
 20
13.5194120263
 11
9.7074777787
 21
13.3723753899
  0
LINE
  5
251
100
AcDbEntity
  8
0
100
AcDbLine
 62
9
  6
CONTINUOUS
 10
9.9446309206
 20
13.388943359
 11
9.9446220028
 21
12.6525077458
  0
LINE
  5
252
100
AcDbEntity
  8
0
100
AcDbLine
 62
7
  6
CONTINUOUS
 10
9.5483077966
 20
13.1032965206
 11
9.5477040003
 21
13.0524006069
  0
LINE
  5
253
100
AcDbEntity
  8
0
100
AcDbLine
 62
7
  6
CONTINUOUS
 10
9.5503799052
 20
13.1510301024
 11
9.5483077966
 21
13.1032965206
  0
LINE
  5
254
100
AcDbEntity
  8
0
100
AcDbLine
 62
7
  6
CONTINUOUS
 10
9.5536930758
 20
13.1938423436
 11
9.5503799052
 21
13.1510301024
  0
LINE
  5
255
100
AcDbEntity
  8
0
100
AcDbLine
 62
7
  6
CONTINUOUS
 10
10.2569032828
 20
12.9059854929
 11
10.2619525189
 21
12.9648811545
  0
LINE
  5
256
100
AcDbEntity
  8
0
100
AcDbLine
 62
7
  6
CONTINUOUS
 10
12.5815317862
 20
18.9772243381
 11
12.5575168153
 21
18.8877602742
  0
LINE
  5
257
100
AcDbEntity
  8
0
100
AcDbLine
 62
7
  6
CONTINUOUS
 10
13.1817059587
 20
19.7339565951
 11
13.1919491816
 21
19.7631764009
  0
LINE
  5
258
100
AcDbEntity
  8
0
100
AcDbLine
 62
7
  6
CONTINUOUS
 10
12.3417059587
 20
14.4980256623
 11
12.2742059587
 21
14.3811122328
  0
LINE
  5
259
100
AcDbEntity
  8
0
100
AcDbLine
 62
7
  6
CONTINUOUS
 10
14.1271783997
 20
12.4897579458
 11
14.0102649702
 21
12.4222579458
  0
LINE
  5
25A
100
AcDbEntity
  8
0
100
AcDbLine
 62
7
  6
CONTINUOUS
 10
14.0645857855
 20
8.0584193631
 11
15.9757710138
 21
8.0584193631
  0
LINE
  5
25B
100
AcDbEntity
  8
0
100
AcDbLine
 62
7
  6
CONTINUOUS
 10
10.2625799496
 20
13.1408895222
 11
10.2591456328
 21
13.1890559131
  0
LINE
  5
25C
100
AcDbEntity
  8
0
100
AcDbLine
 62
7
  6
CONTINUOUS
 10
10.2644636872
 20
13.0860338917
 11
10.2625799496
 21
13.1408895222
  0
LINE
  5
25D
100
AcDbEntity
  8
0
100
AcDbLine
 62
9
  6
CONTINUOUS
 10
10.1049108628
 20
13.3724335955
 11
10.1048928182
 21
13.5194119013
  0
LINE
  5
25E
100
AcDbEntity
  8
0
100
AcDbLine
 62
7
  6
CONTINUOUS
 10
10.1511941477
 20
12.7022989209
 11
10.1511941477
 21
12.6794502734
  0
LINE
  5
25F
100
AcDbEntity
  8
0
100
AcDbLine
 62
7
  6
CONTINUOUS
 10
10.1511941477
 20
13.3594201137
 11
10.1511941477
 21
13.4595905653
  0
LINE
  5
260
100
AcDbEntity
  8
0
100
AcDbLine
 62
9
  6
CONTINUOUS
 10
10.2164582355
 20
12.7084193631
 11
10.2164582355
 21
12.770283753
  0
LINE
  5
261
100
AcDbEntity
  8
0
100
AcDbLine
 62
9
  6
CONTINUOUS
 10
10.2164582355
 20
13.3308312992
 11
10.2164582355
 21
13.4084193631
  0
LINE
  5
262
100
AcDbEntity
  8
0
100
AcDbLine
 62
9
  6
CONTINUOUS
 10
10.2442534881
 20
13.4029314724
 11
10.2442534881
 21
13.2808164285
  0
LINE
  5
263
100
AcDbEntity
  8
0
100
AcDbLine
 62
9
  6
CONTINUOUS
 10
10.2442534881
 20
12.8385905969
 11
10.2442534881
 21
12.7152458365
  0
LINE
  5
264
100
AcDbEntity
  8
0
100
AcDbLine
 62
9
  6
CONTINUOUS
 10
10.3157927684
 20
12.7526413694
 11
10.3157927684
 21
13.026740929
  0
LINE
  5
265
100
AcDbEntity
  8
0
100
AcDbLine
 62
9
  6
CONTINUOUS
 10
10.3157927684
 20
13.0900714307
 11
10.3157927684
 21
13.3655359395
  0
LINE
  5
266
100
AcDbEntity
  8
0
100
AcDbLine
 62
9
  6
CONTINUOUS
 10
10.3674851054
 20
13.3636737564
 11
10.3674851054
 21
12.7545035525
  0
LINE
  5
267
100
AcDbEntity
  8
0
100
AcDbLine
 62
9
  6
CONTINUOUS
 10
10.5096474717
 20
12.6927751566
 11
10.5096474717
 21
13.4254021523
  0
LINE
  5
268
100
AcDbEntity
  8
0
100
AcDbLine
 62
9
  6
CONTINUOUS
 10
10.5533655817
 20
13.4269979439
 11
10.5533655817
 21
12.691179365
  0
LINE
  5
269
100
AcDbEntity
  8
0
100
AcDbLine
 62
9
  6
CONTINUOUS
 10
10.6457828368
 20
12.7235254043
 11
10.6457828368
 21
13.3946519046
  0
LINE
  5
26A
100
AcDbEntity
  8
0
100
AcDbLine
 62
9
  6
CONTINUOUS
 10
10.6772135606
 20
13.39241733
 11
10.6772135606
 21
12.7257599789
  0
LINE
  5
26B
100
AcDbEntity
  8
0
100
AcDbLine
 62
7
  6
CONTINUOUS
 10
10.7781626516
 20
13.4249445141
 11
10.7781626516
 21
13.4109881514
  0
LINE
  5
26C
100
AcDbEntity
  8
0
100
AcDbLine
 62
7
  6
CONTINUOUS
 10
10.7781626516
 20
12.7058505748
 11
10.7781626516
 21
12.6945713774
  0
LINE
  5
26D
100
AcDbEntity
  8
0
100
AcDbLine
 62
7
  6
CONTINUOUS
 10
10.2643825875
 20
13.0263464593
 11
10.2644636872
 21
13.0860338917
  0
LINE
  5
26E
100
AcDbEntity
  8
0
100
AcDbLine
 62
7
  6
CONTINUOUS
 10
10.2619525189
 20
12.9648811545
 11
10.2643825875
 21
13.0263464593
  0
LINE
  5
26F
100
AcDbEntity
  8
0
100
AcDbLine
 62
7
  6
CONTINUOUS
 10
13.4817059587
 20
13.9180256623
 11
13.5473672911
 21
14.031754426
  0
LINE
  5
270
100
AcDbEntity
  8
0
100
AcDbLine
 62
7
  6
CONTINUOUS
 10
5.4242059587
 20
9.041538337
 11
6.3992059587
 21
9.041538337
  0
LINE
  5
271
100
AcDbEntity
  8
0
100
AcDbLine
 62
9
  6
CONTINUOUS
 10
6.3992059587
 20
9.0661365819
 11
5.4242059587
 21
9.0661365478
  0
LWPOLYLINE
  5
272
100
AcDbEntity
  8
0
100
AcDbPolyline
 62
7
  6
CONTINUOUS
 90
3
 70
0
 10
9.6611941477
 20
12.6795430303
 10
9.6678821122
 20
12.6512944457
 10
9.6865092234
 20
12.6290560468
  0
LWPOLYLINE
  5
273
100
AcDbEntity
  8
0
100
AcDbPolyline
 62
7
  6
CONTINUOUS
 90
7
 70
0
 10
10.2591456328
 20
13.1890559131
 10
10.2545146167
 20
13.2297108036
 10
10.248825316
 20
13.2631211238
 10
10.2420160886
 20
13.2894763049
 10
10.2322035399
 20
13.3123338058
 10
10.2127993501
 20
13.3351297368
 10
10.1928303955
 20
13.3459609307
  0
LINE
  5
274
100
AcDbEntity
  8
0
100
AcDbLine
 62
9
  6
CONTINUOUS
 10
10.8316116915
 20
12.6953092364
 11
10.8316116915
 21
13.4215294898
  0
LINE
  5
275
100
AcDbEntity
  8
0
100
AcDbLine
 62
9
  6
CONTINUOUS
 10
10.8509611887
 20
13.4234193631
 11
10.8509611887
 21
12.6934193631
  0
LINE
  5
276
100
AcDbEntity
  8
0
100
AcDbLine
 62
7
  6
CONTINUOUS
 10
10.8581626516
 20
13.5797444753
 11
10.8581626516
 21
13.4234193631
  0
LINE
  5
277
100
AcDbEntity
  8
0
100
AcDbLine
 62
7
  6
CONTINUOUS
 10
10.8581626516
 20
12.6953092364
 11
10.8581626516
 21
12.5397579458
  0
LINE
  5
278
100
AcDbEntity
  8
0
100
AcDbLine
 62
9
  6
CONTINUOUS
 10
10.8881626516
 20
13.6097579458
 11
10.8881626516
 21
13.4234193631
  0
LINE
  5
279
100
AcDbEntity
  8
0
100
AcDbLine
 62
9
  6
CONTINUOUS
 10
10.8881626516
 20
12.6934193631
 11
10.8881626516
 21
12.5097579458
  0
LINE
  5
27A
100
AcDbEntity
  8
0
100
AcDbLine
 62
7
  6
CONTINUOUS
 10
10.9511941477
 20
12.6934237252
 11
10.9511941477
 21
13.4234123697
  0
LINE
  5
27B
100
AcDbEntity
  8
0
100
AcDbLine
 62
7
  6
CONTINUOUS
 10
10.9711941477
 20
13.4259149711
 11
10.9711941477
 21
12.6909193631
  0
LINE
  5
27C
100
AcDbEntity
  8
0
100
AcDbLine
 62
9
  6
CONTINUOUS
 10
11.0151657359
 20
13.4755546152
 11
11.0151657359
 21
12.641284111
  0
LINE
  5
27D
100
AcDbEntity
  8
0
100
AcDbLine
 62
7
  6
CONTINUOUS
 10
11.6581626516
 20
12.5097579458
 11
11.6581626516
 21
12.5631894092
  0
LINE
  5
27E
100
AcDbEntity
  8
0
100
AcDbLine
 62
7
  6
CONTINUOUS
 10
11.6581626516
 20
13.553649317
 11
11.6581626516
 21
13.6097579458
  0
LINE
  5
27F
100
AcDbEntity
  8
0
100
AcDbLine
 62
9
  6
CONTINUOUS
 10
12.3517633107
 20
20.9066460636
 11
12.3517451418
 21
20.906438208
  0
LINE
  5
280
100
AcDbEntity
  8
0
100
AcDbLine
 62
9
  6
CONTINUOUS
 10
12.3716667756
 20
20.9082026583
 11
12.3716849445
 21
20.9084105139
  0
LINE
  5
281
100
AcDbEntity
  8
0
100
AcDbLine
 62
7
  6
CONTINUOUS
 10
12.0714125528
 20
19.6413843598
 11
12.1193909858
 21
20.0676566435
  0
LWPOLYLINE
  5
282
100
AcDbEntity
  8
0
100
AcDbPolyline
 62
7
  6
CONTINUOUS
 90
4
 70
0
 10
12.6417059587
 20
19.2977771744
 10
12.628482164
 20
19.2186271114
 10
12.6044730371
 20
19.0899161698
 10
12.5815317862
 20
18.9772243381
  0
LINE
  5
283
100
AcDbEntity
  8
0
100
AcDbLine
 62
7
  6
CONTINUOUS
 10
12.2681387017
 20
13.9034408865
 11
12.2438537171
 21
13.8049056162
  0
LINE
  5
284
100
AcDbEntity
  8
0
100
AcDbLine
 62
9
  6
CONTINUOUS
 10
6.3322734613
 20
9.1595111879
 11
5.4911384561
 21
9.1595111879
  0
LINE
  5
285
100
AcDbEntity
  8
0
100
AcDbLine
 62
9
  6
CONTINUOUS
 10
5.9188759554
 20
9.2684193631
 11
5.9117345294
 21
9.2684677104
  0
LINE
  5
286
100
AcDbEntity
  8
0
100
AcDbLine
 62
7
  6
CONTINUOUS
 10
9.6021509314
 20
12.7590084178
 11
9.601797204
 21
12.759621975
  0
LINE
  5
287
100
AcDbEntity
  8
0
100
AcDbLine
 62
9
  6
CONTINUOUS
 10
9.9436345494
 20
13.3917407693
 11
9.9446284908
 21
13.3889260409
  0
LWPOLYLINE
  5
288
100
AcDbEntity
  8
0
100
AcDbPolyline
 62
7
  6
CONTINUOUS
 90
3
 70
0
 10
10.1511940765
 20
13.4600985322
 10
10.1442107221
 20
13.4888334017
 10
10.1248314429
 20
13.5112552686
  0
LWPOLYLINE
  5
289
100
AcDbEntity
  8
0
100
AcDbPolyline
 62
7
  6
CONTINUOUS
 90
4
 70
0
 10
10.1511940759
 20
13.4587603576
 10
10.1445008838
 20
13.4869239143
 10
10.1258600449
 20
13.5091655595
 10
10.1048928182
 20
13.5194119013
  0
LINE
  5
28A
100
AcDbEntity
  8
0
100
AcDbLine
 62
7
  6
CONTINUOUS
 10
11.6967453288
 20
13.6097579458
 11
11.6967453288
 21
13.5583353467
  0
LINE
  5
28B
100
AcDbEntity
  8
0
100
AcDbLine
 62
7
  6
CONTINUOUS
 10
11.6967453288
 20
12.5585033795
 11
11.6967453288
 21
12.5097579458
  0
LINE
  5
28C
100
AcDbEntity
  8
0
100
AcDbLine
 62
7
  6
CONTINUOUS
 10
11.8717059587
 20
19.0997579458
 11
11.8717059587
 21
19.1807823535
  0
LINE
  5
28D
100
AcDbEntity
  8
0
100
AcDbLine
 62
9
  6
CONTINUOUS
 10
11.8981941477
 20
12.5340365663
 11
11.8981941477
 21
13.5828021599
  0
LINE
  5
28E
100
AcDbEntity
  8
0
100
AcDbLine
 62
7
  6
CONTINUOUS
 10
12.0867059587
 20
19.082392219
 11
12.0867059587
 21
19.0877579458
  0
LINE
  5
28F
100
AcDbEntity
  8
0
100
AcDbLine
 62
9
  6
CONTINUOUS
 10
12.130173529
 20
13.6799710954
 11
12.130173529
 21
13.6620409626
  0
LINE
  5
290
100
AcDbEntity
  8
0
100
AcDbLine
 62
9
  6
CONTINUOUS
 10
12.130173529
 20
13.4836359433
 11
12.130173529
 21
13.2368243825
  0
LINE
  5
291
100
AcDbEntity
  8
0
100
AcDbLine
 62
9
  6
CONTINUOUS
 10
12.130173529
 20
12.4382062135
 11
12.130173529
 21
12.4547977636
  0
LINE
  5
292
100
AcDbEntity
  8
0
100
AcDbLine
 62
9
  6
CONTINUOUS
 10
12.130173529
 20
12.6332027829
 11
12.130173529
 21
12.8800143437
  0
LINE
  5
293
100
AcDbEntity
  8
0
100
AcDbLine
 62
7
  6
CONTINUOUS
 10
12.2742059587
 20
14.3811122328
 11
12.2742059587
 21
14.0349390918
  0
LINE
  5
294
100
AcDbEntity
  8
0
100
AcDbLine
 62
7
  6
CONTINUOUS
 10
12.2742623672
 20
20.8219775089
 11
12.2742623672
 21
20.8170945557
  0
LINE
  5
295
100
AcDbEntity
  8
0
100
AcDbLine
 62
7
  6
CONTINUOUS
 10
12.2811941477
 20
13.6049193631
 11
12.2811941477
 21
12.5119193631
  0
LINE
  5
296
100
AcDbEntity
  8
0
100
AcDbLine
 62
7
  6
CONTINUOUS
 10
12.2815606294
 20
14.3811122328
 11
12.2815606294
 21
14.0349390918
  0
LINE
  5
297
100
AcDbEntity
  8
0
100
AcDbLine
 62
7
  6
CONTINUOUS
 10
12.2817059587
 20
19.0236382191
 11
12.2817059587
 21
19.0312264652
  0
LINE
  5
298
100
AcDbEntity
  8
0
100
AcDbLine
 62
7
  6
CONTINUOUS
 10
12.3182059587
 20
14.6180256623
 11
12.3182059587
 21
14.5030256623
  0
LINE
  5
299
100
AcDbEntity
  8
0
100
AcDbLine
 62
9
  6
CONTINUOUS
 10
12.3246887205
 20
12.5410900989
 11
12.3246894933
 21
13.57842591
  0
LINE
  5
29A
100
AcDbEntity
  8
0
100
AcDbLine
 62
7
  6
CONTINUOUS
 10
12.3417059587
 20
11.911902625
 11
12.3417059587
 21
11.8684193631
  0
LINE
  5
29B
100
AcDbEntity
  8
0
100
AcDbLine
 62
9
  6
CONTINUOUS
 10
12.3517451418
 20
20.906438208
 11
12.3517451418
 21
20.9015552548
  0
LINE
  5
29C
100
AcDbEntity
  8
0
100
AcDbLine
 62
9
  6
CONTINUOUS
 10
12.3716667756
 20
20.9033197051
 11
12.3716667756
 21
20.9082026583
  0
LINE
  5
29D
100
AcDbEntity
  8
0
100
AcDbLine
 62
7
  6
CONTINUOUS
 10
12.4567059587
 20
18.9684107588
 11
12.4567059587
 21
18.9759990049
  0
LINE
  5
29E
100
AcDbEntity
  8
0
100
AcDbLine
 62
7
  6
CONTINUOUS
 10
12.4617059587
 20
16.9381380138
 11
12.4617059587
 21
17.277910853
  0
LINE
  5
29F
100
AcDbEntity
  8
0
100
AcDbLine
 62
9
  6
CONTINUOUS
 10
12.4638509445
 20
20.831240873
 11
12.4638509445
 21
20.8263579198
  0
LINE
  5
2A0
100
AcDbEntity
  8
0
100
AcDbLine
 62
7
  6
CONTINUOUS
 10
12.5130131083
 20
14.0349390918
 11
12.5130131083
 21
14.3811122328
  0
LINE
  5
2A1
100
AcDbEntity
  8
0
100
AcDbLine
 62
7
  6
CONTINUOUS
 10
12.4863592225
 20
18.7795297332
 11
12.4850009821
 21
18.7543269038
  0
LINE
  5
2A2
100
AcDbEntity
  8
0
100
AcDbLine
 62
7
  6
CONTINUOUS
 10
13.3351480022
 20
20.5520630206
 11
13.359560973
 21
20.831240873
  0
LINE
  5
2A3
100
AcDbEntity
  8
0
100
AcDbLine
 62
9
  6
CONTINUOUS
 10
13.4442279165
 20
20.8129297058
 11
13.399785986
 21
20.3135969961
  0
LINE
  5
2A4
100
AcDbEntity
  8
0
100
AcDbLine
 62
9
  6
CONTINUOUS
 10
13.4197076198
 20
20.3118325457
 11
13.4641495502
 21
20.8111652555
  0
LINE
  5
2A5
100
AcDbEntity
  8
0
100
AcDbLine
 62
7
  6
CONTINUOUS
 10
13.5488164937
 20
20.8095956419
 11
13.5043745633
 21
20.3102629322
  0
LINE
  5
2A6
100
AcDbEntity
  8
0
100
AcDbLine
 62
7
  6
CONTINUOUS
 10
6.8883179138
 20
9.8065284309
 11
12.42724904
 21
10.6838089374
  0
LINE
  5
2A7
100
AcDbEntity
  8
0
100
AcDbLine
 62
9
  6
CONTINUOUS
 10
9.6368903261
 20
12.7316307783
 11
9.6667484856
 21
12.6990565872
  0
LWPOLYLINE
  5
2A8
100
AcDbEntity
  8
0
100
AcDbPolyline
 62
7
  6
CONTINUOUS
 90
3
 70
0
 10
9.6017983939
 20
12.7596198869
 10
9.6198108114
 20
12.732980959
 10
9.6534495696
 20
12.7044784794
  0
LINE
  5
2A9
100
AcDbEntity
  8
0
100
AcDbLine
 62
7
  6
CONTINUOUS
 10
12.3190373542
 20
20.3102629322
 11
12.2745954237
 21
20.8095956419
  0
LINE
  5
2AA
100
AcDbEntity
  8
0
100
AcDbLine
 62
9
  6
CONTINUOUS
 10
12.4037042977
 20
20.3118325457
 11
12.3592623672
 21
20.8111652555
  0
LINE
  5
2AB
100
AcDbEntity
  8
0
100
AcDbLine
 62
9
  6
CONTINUOUS
 10
12.379184001
 20
20.8129297058
 11
12.4236259315
 21
20.3135969961
  0
LINE
  5
2AC
100
AcDbEntity
  8
0
100
AcDbLine
 62
7
  6
CONTINUOUS
 10
12.2745954237
 20
20.8095956419
 11
12.2742623672
 21
20.8170945557
  0
LINE
  5
2AD
100
AcDbEntity
  8
0
100
AcDbLine
 62
9
  6
CONTINUOUS
 10
12.4638493255
 20
20.8312773968
 11
12.4638509445
 21
20.831240873
  0
LINE
  5
2AE
100
AcDbEntity
  8
0
100
AcDbLine
 62
7
  6
CONTINUOUS
 10
12.4963489328
 20
18.227662086
 11
12.4872306268
 21
18.7291689176
  0
LINE
  5
2AF
100
AcDbEntity
  8
0
100
AcDbLine
 62
7
  6
CONTINUOUS
 10
12.6417059587
 20
20.3980256623
 11
12.6417059587
 21
-2.6499743377
  0
LINE
  5
2B0
100
AcDbEntity
  8
0
100
AcDbLine
 62
7
  6
CONTINUOUS
 10
13.1817059587
 20
20.3980256623
 11
13.1817059587
 21
-2.6499743377
  0
LINE
  5
2B1
100
AcDbEntity
  8
0
100
AcDbLine
 62
7
  6
CONTINUOUS
 10
13.3103988091
 20
14.3811122328
 11
13.3103988091
 21
14.0349390918
  0
LINE
  5
2B2
100
AcDbEntity
  8
0
100
AcDbLine
 62
9
  6
CONTINUOUS
 10
13.359560973
 20
20.8263579198
 11
13.359560973
 21
20.831240873
  0
LINE
  5
2B3
100
AcDbEntity
  8
0
100
AcDbLine
 62
7
  6
CONTINUOUS
 10
13.3617059587
 20
16.9381404717
 11
13.3617059587
 21
17.2779133108
  0
LINE
  5
2B4
100
AcDbEntity
  8
0
100
AcDbLine
 62
7
  6
CONTINUOUS
 10
13.3667059587
 20
18.9684107588
 11
13.3667059587
 21
18.9759990049
  0
LINE
  5
2B5
100
AcDbEntity
  8
0
100
AcDbLine
 62
7
  6
CONTINUOUS
 10
13.3270629846
 20
18.227662086
 11
13.3361812885
 21
18.7291688005
  0
LWPOLYLINE
  5
2B6
100
AcDbEntity
  8
0
100
AcDbPolyline
 62
7
  6
CONTINUOUS
 90
3
 70
0
 10
13.3361812884
 20
18.7291687976
 10
13.336319477
 20
18.7336701422
 10
13.3384109551
 20
18.7543269448
  0
LINE
  5
2B7
100
AcDbEntity
  8
0
100
AcDbLine
 62
7
  6
CONTINUOUS
 10
13.3384109319
 20
18.7543268292
 11
13.3388801065
 21
18.7695497559
  0
LINE
  5
2B8
100
AcDbEntity
  8
0
100
AcDbLine
 62
9
  6
CONTINUOUS
 10
13.359560973
 20
20.831240873
 11
13.3595625919
 21
20.8312773968
  0
LINE
  5
2B9
100
AcDbEntity
  8
0
100
AcDbLine
 62
7
  6
CONTINUOUS
 10
13.5491495502
 20
20.8170945557
 11
13.5488164937
 21
20.8095956419
  0
LWPOLYLINE
  5
2BA
100
AcDbEntity
  8
0
100
AcDbPolyline
 62
7
  6
CONTINUOUS
 90
4
 70
0
 10
15.9757778203
 20
8.0597579458
 10
15.9863976307
 20
8.0628103911
 10
15.9937657476
 20
8.0710152678
 10
15.9957678522
 20
8.0791266272
  0
LINE
  5
2BB
100
AcDbEntity
  8
0
100
AcDbLine
 62
9
  6
CONTINUOUS
 10
6.7894569543
 20
10.12417702
 11
12.3664812197
 21
11.2519093264
  0
LINE
  5
2BC
100
AcDbEntity
  8
0
100
AcDbLine
 62
7
  6
CONTINUOUS
 10
11.9371104564
 20
11.3776057714
 11
6.6720205814
 21
10.3541759738
  0
LINE
  5
2BD
100
AcDbEntity
  8
0
100
AcDbLine
 62
7
  6
CONTINUOUS
 10
9.7786941468
 20
13.5211246653
 11
9.7752199404
 21
13.5247352597
  0
LINE
  5
2BE
100
AcDbEntity
  8
0
100
AcDbLine
 62
7
  6
CONTINUOUS
 10
9.7786941468
 20
13.5197860827
 11
9.7759937002
 21
13.5226923211
  0
LWPOLYLINE
  5
2BF
100
AcDbEntity
  8
0
100
AcDbPolyline
 62
7
  6
CONTINUOUS
 90
3
 70
0
 10
12.4850009663
 20
18.754327024
 10
12.4870926595
 20
18.7336651407
 10
12.4872306269
 20
18.7291689146
  0
LINE
  5
2C0
100
AcDbEntity
  8
0
100
AcDbLine
 62
7
  6
CONTINUOUS
 10
12.4882639152
 20
20.5520630206
 11
12.4638509445
 21
20.831240873
  0
LINE
  5
2C1
100
AcDbEntity
  8
0
100
AcDbLine
 62
7
  6
CONTINUOUS
 10
14.0445957827
 20
8.0777987694
 11
14.0414792181
 21
8.208342309
  0
LINE
  5
2C2
100
AcDbEntity
  8
0
100
AcDbLine
 62
7
  6
CONTINUOUS
 10
14.0414791201
 20
8.2070034714
 11
14.0414763798
 21
8.2120462129
  0
LINE
  5
2C3
100
AcDbEntity
  8
0
100
AcDbLine
 62
9
  6
CONTINUOUS
 10
13.4517451418
 20
20.9082026583
 11
13.4517451418
 21
20.9033197051
  0
LINE
  5
2C4
100
AcDbEntity
  8
0
100
AcDbLine
 62
9
  6
CONTINUOUS
 10
13.4716667756
 20
20.9015552548
 11
13.4716667756
 21
20.906438208
  0
LINE
  5
2C5
100
AcDbEntity
  8
0
100
AcDbLine
 62
9
  6
CONTINUOUS
 10
13.4987231971
 20
13.5784257926
 11
13.4987224253
 21
12.5410899817
  0
LINE
  5
2C6
100
AcDbEntity
  8
0
100
AcDbLine
 62
7
  6
CONTINUOUS
 10
13.5052059587
 20
14.6180256623
 11
13.5052059587
 21
14.5030256623
  0
LINE
  5
2C7
100
AcDbEntity
  8
0
100
AcDbLine
 62
7
  6
CONTINUOUS
 10
13.5417059587
 20
19.0236382191
 11
13.5417059587
 21
19.0312264652
  0
LINE
  5
2C8
100
AcDbEntity
  8
0
100
AcDbLine
 62
7
  6
CONTINUOUS
 10
13.541851288
 20
14.0349390918
 11
13.541851288
 21
14.3811122328
  0
LINE
  5
2C9
100
AcDbEntity
  8
0
100
AcDbLine
 62
7
  6
CONTINUOUS
 10
13.5422177698
 20
12.5917847346
 11
13.5422177698
 21
13.5277623495
  0
LINE
  5
2CA
100
AcDbEntity
  8
0
100
AcDbLine
 62
7
  6
CONTINUOUS
 10
13.5471783997
 20
13.6296817787
 11
13.5471783997
 21
12.4898341128
  0
LINE
  5
2CB
100
AcDbEntity
  8
0
100
AcDbLine
 62
7
  6
CONTINUOUS
 10
13.5491495502
 20
20.8170945557
 11
13.5491495502
 21
20.8219775089
  0
LINE
  5
2CC
100
AcDbEntity
  8
0
100
AcDbLine
 62
7
  6
CONTINUOUS
 10
13.5492059587
 20
14.3811122328
 11
13.5492059587
 21
14.0349390918
  0
LINE
  5
2CD
100
AcDbEntity
  8
0
100
AcDbLine
 62
7
  6
CONTINUOUS
 10
13.6640918292
 20
13.6972579458
 11
13.6640918292
 21
13.6899032751
  0
LINE
  5
2CE
100
AcDbEntity
  8
0
100
AcDbLine
 62
7
  6
CONTINUOUS
 10
13.6640918292
 20
13.4584507962
 11
13.6640918292
 21
13.2912104247
  0
LINE
  5
2CF
100
AcDbEntity
  8
0
100
AcDbLine
 62
7
  6
CONTINUOUS
 10
13.6640918292
 20
12.8283054669
 11
13.6640918292
 21
12.6610650954
  0
LINE
  5
2D0
100
AcDbEntity
  8
0
100
AcDbLine
 62
7
  6
CONTINUOUS
 10
13.6640918292
 20
12.4296126165
 11
13.6640918292
 21
12.4222579458
  0
LINE
  5
2D1
100
AcDbEntity
  8
0
100
AcDbLine
 62
7
  6
CONTINUOUS
 10
13.7367059587
 20
19.082392219
 11
13.7367059587
 21
19.0877579458
  0
LINE
  5
2D2
100
AcDbEntity
  8
0
100
AcDbLine
 62
7
  6
CONTINUOUS
 10
13.9517059587
 20
19.0997579458
 11
13.9517059587
 21
19.1807823535
  0
LINE
  5
2D3
100
AcDbEntity
  8
0
100
AcDbLine
 62
7
  6
CONTINUOUS
 10
14.0102649702
 20
12.4222579458
 11
14.0102649702
 21
12.4296126165
  0
LINE
  5
2D4
100
AcDbEntity
  8
0
100
AcDbLine
 62
7
  6
CONTINUOUS
 10
14.0102649702
 20
12.6610650954
 11
14.0102649702
 21
12.8283054669
  0
LINE
  5
2D5
100
AcDbEntity
  8
0
100
AcDbLine
 62
7
  6
CONTINUOUS
 10
14.0102649702
 20
13.2912104247
 11
14.0102649702
 21
13.4584507962
  0
LINE
  5
2D6
100
AcDbEntity
  8
0
100
AcDbLine
 62
7
  6
CONTINUOUS
 10
14.0102649702
 20
13.6899032751
 11
14.0102649702
 21
13.6972579458
  0
LINE
  5
2D7
100
AcDbEntity
  8
0
100
AcDbLine
 62
7
  6
CONTINUOUS
 10
14.1271783997
 20
12.4898341128
 11
14.1271783997
 21
13.6296817787
  0
LINE
  5
2D8
100
AcDbEntity
  8
0
100
AcDbLine
 62
7
  6
CONTINUOUS
 10
14.3001783997
 20
13.5850152419
 11
14.3001783997
 21
12.540156696
  0
LINE
  5
2D9
100
AcDbEntity
  8
0
100
AcDbLine
 62
9
  6
CONTINUOUS
 10
14.0445889463
 20
8.0777881435
 11
14.0445958837
 21
8.0777987725
  0
LINE
  5
2DA
100
AcDbEntity
  8
0
100
AcDbLine
 62
7
  6
CONTINUOUS
 10
13.4367059587
 20
12.2684193631
 11
13.1817059587
 21
12.2684193631
  0
LINE
  5
2DB
100
AcDbEntity
  8
0
100
AcDbLine
 62
7
  6
CONTINUOUS
 10
12.6388275348
 20
12.2684193631
 11
12.3867059587
 21
12.2684193631
  0
LINE
  5
2DC
100
AcDbEntity
  8
0
100
AcDbLine
 62
9
  6
CONTINUOUS
 10
13.4385147946
 20
12.2803353486
 11
13.194276821
 21
12.2803353486
  0
LINE
  5
2DD
100
AcDbEntity
  8
0
100
AcDbLine
 62
9
  6
CONTINUOUS
 10
12.6291356689
 20
12.2803353486
 11
12.3848971228
 21
12.2803353486
  0
LINE
  5
2DE
100
AcDbEntity
  8
0
100
AcDbLine
 62
7
  6
CONTINUOUS
 10
13.6640918292
 20
12.4222579458
 11
14.0102649702
 21
12.4222579458
  0
LINE
  5
2DF
100
AcDbEntity
  8
0
100
AcDbLine
 62
7
  6
CONTINUOUS
 10
13.6640918292
 20
12.4296126165
 11
14.0102649702
 21
12.4296126165
  0
LINE
  5
2E0
100
AcDbEntity
  8
0
100
AcDbLine
 62
7
  6
CONTINUOUS
 10
11.9908364026
 20
12.5097579458
 11
11.6967453288
 21
12.5097579458
  0
LINE
  5
2E1
100
AcDbEntity
  8
0
100
AcDbLine
 62
7
  6
CONTINUOUS
 10
10.8881626516
 20
12.5097579458
 11
11.6581626516
 21
12.5097579458
  0
LINE
  5
2E2
100
AcDbEntity
  8
0
100
AcDbLine
 62
7
  6
CONTINUOUS
 10
14.3001784031
 20
12.5388063951
 11
14.3951783915
 21
12.5388063951
  0
LINE
  5
2E3
100
AcDbEntity
  8
0
100
AcDbLine
 62
7
  6
CONTINUOUS
 10
14.1271783997
 20
12.5484193631
 11
14.3001783997
 21
12.5484193631
  0
LWPOLYLINE
  5
2E4
100
AcDbEntity
  8
0
100
AcDbPolyline
 62
7
  6
CONTINUOUS
 90
4
 70
0
 10
9.8677579501
 20
12.5840656314
 10
9.8762762211
 20
12.582856282
 10
9.9322635474
 20
12.5824102877
 10
9.944630217
 20
12.5840656108
  0
LINE
  5
2E5
100
AcDbEntity
  8
0
100
AcDbLine
 62
7
  6
CONTINUOUS
 10
9.8677662886
 20
12.6525077464
 11
9.8762762096
 21
12.6512997143
  0
LWPOLYLINE
  5
2E6
100
AcDbEntity
  8
0
100
AcDbPolyline
 62
7
  6
CONTINUOUS
 90
3
 70
0
 10
9.7074917311
 20
12.6187972438
 10
9.8030733375
 20
12.595879229
 10
9.8677579501
 20
12.5840656314
  0
LWPOLYLINE
  5
2E7
100
AcDbEntity
  8
0
100
AcDbPolyline
 62
7
  6
CONTINUOUS
 90
4
 70
0
 10
9.6668369508
 20
12.6990292384
 10
9.6961217481
 20
12.6904129424
 10
9.8030734098
 20
12.6643228464
 10
9.8677662885
 20
12.6525077463
  0
LINE
  5
2E8
100
AcDbEntity
  8
0
100
AcDbLine
 62
7
  6
CONTINUOUS
 10
9.6667484856
 20
12.6990565872
 11
9.6668464568
 21
12.6990263438
  0
LINE
  5
2E9
100
AcDbEntity
  8
0
100
AcDbLine
 62
7
  6
CONTINUOUS
 10
9.6534495696
 20
12.7044784794
 11
9.6667484856
 21
12.6990565872
  0
LINE
  5
2EA
100
AcDbEntity
  8
0
100
AcDbLine
 62
7
  6
CONTINUOUS
 10
10.3674851054
 20
12.7545035525
 11
10.5096474717
 21
12.6927751566
  0
LINE
  5
2EB
100
AcDbEntity
  8
0
100
AcDbLine
 62
7
  6
CONTINUOUS
 10
9.6865092234
 20
12.6290560468
 11
9.7074915146
 21
12.618796418
  0
LINE
  5
2EC
100
AcDbEntity
  8
0
100
AcDbLine
 62
7
  6
CONTINUOUS
 10
9.7759938409
 20
13.3763247695
 11
9.7614417389
 21
13.3838840478
  0
LINE
  5
2ED
100
AcDbEntity
  8
0
100
AcDbLine
 62
7
  6
CONTINUOUS
 10
9.7759937002
 20
13.5226923211
 11
9.7614416193
 21
13.5302514895
  0
LINE
  5
2EE
100
AcDbEntity
  8
0
100
AcDbLine
 62
7
  6
CONTINUOUS
 10
12.3557132673
 20
12.3512811007
 11
12.3848971228
 21
12.2803353486
  0
LWPOLYLINE
  5
2EF
100
AcDbEntity
  8
0
100
AcDbPolyline
 62
7
  6
CONTINUOUS
 90
4
 70
0
 10
14.044588948
 20
8.0777880799
 10
14.0467979265
 20
8.0692632694
 10
14.0541582577
 20
8.0613486716
 10
14.064578981
 20
8.0584193631
  0
LWPOLYLINE
  5
2F0
100
AcDbEntity
  8
0
100
AcDbPolyline
 62
7
  6
CONTINUOUS
 90
4
 70
0
 10
14.0445889493
 20
8.0791266229
 10
14.0465910536
 20
8.0710152679
 10
14.0539591704
 20
8.0628103912
 10
14.064578981
 20
8.0597579458
  0
LINE
  5
2F1
100
AcDbEntity
  8
0
100
AcDbLine
 62
9
  6
CONTINUOUS
 10
13.451726973
 20
20.9084105139
 11
13.4517451418
 21
20.9082026583
  0
LINE
  5
2F2
100
AcDbEntity
  8
0
100
AcDbLine
 62
9
  6
CONTINUOUS
 10
13.4716667756
 20
20.906438208
 11
13.4716486067
 21
20.9066460636
  0
LINE
  5
2F3
100
AcDbEntity
  8
0
100
AcDbLine
 62
7
  6
CONTINUOUS
 10
14.4904548242
 20
12.4423987544
 11
14.4904552781
 21
12.4423130219
  0
LINE
  5
2F4
100
AcDbEntity
  8
0
100
AcDbLine
 62
7
  6
CONTINUOUS
 10
14.3951783915
 20
13.5863655429
 11
14.3951783915
 21
12.5388063957
  0
LINE
  5
2F5
100
AcDbEntity
  8
0
100
AcDbLine
 62
7
  6
CONTINUOUS
 10
10.2164582355
 20
12.7084193631
 11
10.244253488
 21
12.7152458365
  0
LINE
  5
2F6
100
AcDbEntity
  8
0
100
AcDbLine
 62
7
  6
CONTINUOUS
 10
10.6772135606
 20
13.3910787473
 11
10.8316116915
 21
13.4215294898
  0
LINE
  5
2F7
100
AcDbEntity
  8
0
100
AcDbLine
 62
7
  6
CONTINUOUS
 10
10.6772135606
 20
13.39241733
 11
10.7747676336
 21
13.4116571611
  0
LWPOLYLINE
  5
2F8
100
AcDbEntity
  8
0
100
AcDbPolyline
 62
7
  6
CONTINUOUS
 90
3
 70
0
 10
9.944630217
 20
12.5840656108
 10
10.0054140305
 20
12.595083453
 10
10.1048843701
 20
12.618793894
  0
LWPOLYLINE
  5
2F9
100
AcDbEntity
  8
0
100
AcDbPolyline
 62
7
  6
CONTINUOUS
 90
4
 70
0
 10
9.9446220029
 20
12.6525077456
 10
10.0054139589
 20
12.6635270585
 10
10.1124343651
 20
12.6893331584
 10
10.1455390349
 20
12.6990254801
  0
LINE
  5
2FA
100
AcDbEntity
  8
0
100
AcDbLine
 62
7
  6
CONTINUOUS
 10
9.8139675629
 20
13.3835221922
 11
9.7588348752
 21
13.3744860578
  0
LINE
  5
2FB
100
AcDbEntity
  8
0
100
AcDbLine
 62
7
  6
CONTINUOUS
 10
9.8329879336
 20
13.3865015791
 11
9.8139675629
 21
13.3835221922
  0
LINE
  5
2FC
100
AcDbEntity
  8
0
100
AcDbLine
 62
7
  6
CONTINUOUS
 10
9.8529363799
 20
13.3894933632
 11
9.8329879336
 21
13.3865015791
  0
LINE
  5
2FD
100
AcDbEntity
  8
0
100
AcDbLine
 62
7
  6
CONTINUOUS
 10
9.868752368
 20
13.3917527658
 11
9.8529363799
 21
13.3894933632
  0
LINE
  5
2FE
100
AcDbEntity
  8
0
100
AcDbLine
 62
7
  6
CONTINUOUS
 10
9.868755085
 20
13.3917531344
 11
9.868752368
 21
13.3917527658
  0
LINE
  5
2FF
100
AcDbEntity
  8
0
100
AcDbLine
 62
7
  6
CONTINUOUS
 10
11.0151657359
 20
13.4755546152
 11
11.8981941477
 21
13.5828021599
  0
LINE
  5
300
100
AcDbEntity
  8
0
100
AcDbLine
 62
7
  6
CONTINUOUS
 10
11.6566090979
 20
13.554799214
 11
11.6967453288
 21
13.5596739294
  0
LINE
  5
301
100
AcDbEntity
  8
0
100
AcDbLine
 62
7
  6
CONTINUOUS
 10
9.8802625909
 20
13.3931017094
 11
9.8687567848
 21
13.3917405797
  0
LINE
  5
302
100
AcDbEntity
  8
0
100
AcDbLine
 62
7
  6
CONTINUOUS
 10
10.8316116915
 20
13.4215294898
 11
10.8509611887
 21
13.4234193631
  0
LINE
  5
303
100
AcDbEntity
  8
0
100
AcDbLine
 62
7
  6
CONTINUOUS
 10
9.7614417389
 20
13.3838840478
 11
9.7482839262
 21
13.3836358012
  0
LINE
  5
304
100
AcDbEntity
  8
0
100
AcDbLine
 62
7
  6
CONTINUOUS
 10
13.5471783997
 20
12.6497579458
 11
13.5422177698
 21
12.6497579458
  0
LINE
  5
305
100
AcDbEntity
  8
0
100
AcDbLine
 62
7
  6
CONTINUOUS
 10
14.0102649702
 20
12.6610650954
 11
13.6640918292
 21
12.6610650954
  0
LINE
  5
306
100
AcDbEntity
  8
0
100
AcDbLine
 62
7
  6
CONTINUOUS
 10
10.8509611887
 20
12.6934193631
 11
10.9511941477
 21
12.6934193631
  0
LINE
  5
307
100
AcDbEntity
  8
0
100
AcDbLine
 62
7
  6
CONTINUOUS
 10
10.1617776896
 20
12.7084193631
 11
10.2164582355
 21
12.7084193631
  0
LINE
  5
308
100
AcDbEntity
  8
0
100
AcDbLine
 62
7
  6
CONTINUOUS
 10
13.6640918292
 20
12.8283054669
 11
14.0102649702
 21
12.8283054669
  0
LINE
  5
309
100
AcDbEntity
  8
0
100
AcDbLine
 62
7
  6
CONTINUOUS
 10
9.5511941477
 20
12.8384193631
 11
9.5676415309
 21
12.8384193631
  0
LINE
  5
30A
100
AcDbEntity
  8
0
100
AcDbLine
 62
7
  6
CONTINUOUS
 10
10.9511941477
 20
12.8584193631
 11
10.9711941477
 21
12.8584193631
  0
LINE
  5
30B
100
AcDbEntity
  8
0
100
AcDbLine
 62
7
  6
CONTINUOUS
 10
9.5111941477
 20
12.9134193631
 11
9.5311941477
 21
12.9134193631
  0
LINE
  5
30C
100
AcDbEntity
  8
0
100
AcDbLine
 62
7
  6
CONTINUOUS
 10
9.5111941477
 20
13.2034193631
 11
9.5311941477
 21
13.2034193631
  0
LINE
  5
30D
100
AcDbEntity
  8
0
100
AcDbLine
 62
7
  6
CONTINUOUS
 10
10.9511941477
 20
13.2584193631
 11
10.9711941477
 21
13.2584193631
  0
LINE
  5
30E
100
AcDbEntity
  8
0
100
AcDbLine
 62
7
  6
CONTINUOUS
 10
9.5511941477
 20
13.2784193631
 11
9.5674366713
 21
13.2784193631
  0
LINE
  5
30F
100
AcDbEntity
  8
0
100
AcDbLine
 62
7
  6
CONTINUOUS
 10
14.0102649702
 20
13.2912104247
 11
13.6640918292
 21
13.2912104247
  0
LINE
  5
310
100
AcDbEntity
  8
0
100
AcDbLine
 62
7
  6
CONTINUOUS
 10
9.6011941477
 20
13.3584193631
 11
9.6611941477
 21
13.3584193631
  0
LINE
  5
311
100
AcDbEntity
  8
0
100
AcDbLine
 62
7
  6
CONTINUOUS
 10
10.1511941477
 20
13.4084193631
 11
10.2164582355
 21
13.4084193631
  0
LINE
  5
312
100
AcDbEntity
  8
0
100
AcDbLine
 62
7
  6
CONTINUOUS
 10
10.8509611887
 20
13.4234193631
 11
10.9511941477
 21
13.4234193631
  0
LINE
  5
313
100
AcDbEntity
  8
0
100
AcDbLine
 62
7
  6
CONTINUOUS
 10
13.6640918292
 20
13.4584507962
 11
14.0102649702
 21
13.4584507962
  0
LINE
  5
314
100
AcDbEntity
  8
0
100
AcDbLine
 62
7
  6
CONTINUOUS
 10
13.5471783997
 20
13.4697579458
 11
13.5422177698
 21
13.4697579458
  0
LWPOLYLINE
  5
315
100
AcDbEntity
  8
0
100
AcDbPolyline
 62
7
  6
CONTINUOUS
 90
3
 70
0
 10
9.8762762096
 20
12.6512997143
 10
9.9322635658
 20
12.6508537138
 10
9.9446220028
 20
12.6525077458
  0
LINE
  5
316
100
AcDbEntity
  8
0
100
AcDbLine
 62
7
  6
CONTINUOUS
 10
9.9365525139
 20
13.3926336169
 11
9.8802625909
 21
13.3931017094
  0
LINE
  5
317
100
AcDbEntity
  8
0
100
AcDbLine
 62
7
  6
CONTINUOUS
 10
10.8316116915
 20
12.6953092364
 11
10.8509611887
 21
12.6934193631
  0
LINE
  5
318
100
AcDbEntity
  8
0
100
AcDbLine
 62
7
  6
CONTINUOUS
 10
11.0151657359
 20
12.641284111
 11
11.8981941477
 21
12.5340365663
  0
LINE
  5
319
100
AcDbEntity
  8
0
100
AcDbLine
 62
7
  6
CONTINUOUS
 10
9.9436324754
 20
13.391741061
 11
9.9365525139
 21
13.3926336169
  0
LINE
  5
31A
100
AcDbEntity
  8
0
100
AcDbLine
 62
7
  6
CONTINUOUS
 10
9.9591948959
 20
13.3895312803
 11
9.9436362002
 21
13.3917530967
  0
LINE
  5
31B
100
AcDbEntity
  8
0
100
AcDbLine
 62
7
  6
CONTINUOUS
 10
14.3951783936
 20
12.5375859855
 11
14.418206634
 21
12.534161155
  0
LINE
  5
31C
100
AcDbEntity
  8
0
100
AcDbLine
 62
7
  6
CONTINUOUS
 10
9.9735744448
 20
13.3873908799
 11
9.9591948959
 21
13.3895312803
  0
LINE
  5
31D
100
AcDbEntity
  8
0
100
AcDbLine
 62
7
  6
CONTINUOUS
 10
10.000965615
 20
13.3831159065
 11
9.9735744448
 21
13.3873908799
  0
LINE
  5
31E
100
AcDbEntity
  8
0
100
AcDbLine
 62
7
  6
CONTINUOUS
 10
10.0535560756
 20
13.3744859391
 11
10.000965615
 21
13.3831159065
  0
LWPOLYLINE
  5
31F
100
AcDbEntity
  8
0
100
AcDbPolyline
 62
7
  6
CONTINUOUS
 90
8
 70
0
 10
10.0641043991
 20
13.5300032466
 10
10.0600975901
 20
13.5306999766
 10
10.0544896162
 20
13.5307601107
 10
10.0491672727
 20
13.5298297262
 10
10.0442520941
 20
13.5280323842
 10
10.0398627135
 20
13.5255050671
 10
10.0360824154
 20
13.5223937602
 10
10.0336941481
 20
13.5197860827
  0
LINE
  5
320
100
AcDbEntity
  8
0
100
AcDbLine
 62
7
  6
CONTINUOUS
 10
10.6772135606
 20
12.7257599789
 11
10.8316116915
 21
12.6953092364
  0
LWPOLYLINE
  5
321
100
AcDbEntity
  8
0
100
AcDbPolyline
 62
7
  6
CONTINUOUS
 90
8
 70
0
 10
10.0641047556
 20
13.3836367667
 10
10.0623641544
 20
13.3840083491
 10
10.0572336312
 20
13.3844954348
 10
10.0522904117
 20
13.3841287109
 10
10.0476387131
 20
13.3830071417
 10
10.0433630626
 20
13.3812312513
 10
10.039522907
 20
13.378898633
 10
10.0361571027
 20
13.3760988525
  0
LINE
  5
322
100
AcDbEntity
  8
0
100
AcDbLine
 62
7
  6
CONTINUOUS
 10
10.2164582355
 20
13.4084193631
 11
10.244253488
 21
13.4015928897
  0
LINE
  5
323
100
AcDbEntity
  8
0
100
AcDbLine
 62
7
  6
CONTINUOUS
 10
10.244253488
 20
13.4029314724
 11
10.2164582355
 21
13.4097579458
  0
LINE
  5
324
100
AcDbEntity
  8
0
100
AcDbLine
 62
7
  6
CONTINUOUS
 10
10.1048693793
 20
13.5194183303
 11
10.0641474472
 21
13.5299926909
  0
LINE
  5
325
100
AcDbEntity
  8
0
100
AcDbLine
 62
7
  6
CONTINUOUS
 10
10.1048936207
 20
13.5207502537
 11
10.0641102362
 21
13.5313403806
  0
LWPOLYLINE
  5
326
100
AcDbEntity
  8
0
100
AcDbPolyline
 62
7
  6
CONTINUOUS
 90
3
 70
0
 10
10.192827585
 20
13.3459616187
 10
10.1448938001
 20
13.3614567747
 10
10.0641045119
 20
13.3836364743
  0
LINE
  5
327
100
AcDbEntity
  8
0
100
AcDbLine
 62
7
  6
CONTINUOUS
 10
10.192827585
 20
13.3459616187
 11
10.1928331079
 21
13.3459597253
  0
LINE
  5
328
100
AcDbEntity
  8
0
100
AcDbLine
 62
7
  6
CONTINUOUS
 10
10.6457828368
 20
13.3933133219
 11
10.5533655817
 21
13.4256593612
  0
LINE
  5
329
100
AcDbEntity
  8
0
100
AcDbLine
 62
7
  6
CONTINUOUS
 10
10.6457828368
 20
13.3946519046
 11
10.5533655817
 21
13.4269979439
  0
LINE
  5
32A
100
AcDbEntity
  8
0
100
AcDbLine
 62
7
  6
CONTINUOUS
 10
10.0535470761
 20
13.3744874147
 11
10.0641106599
 21
13.3706735195
  0
LINE
  5
32B
100
AcDbEntity
  8
0
100
AcDbLine
 62
7
  6
CONTINUOUS
 10
9.7752199404
 20
13.5247352597
 11
9.7602848296
 21
13.5318037493
  0
LINE
  5
32C
100
AcDbEntity
  8
0
100
AcDbLine
 62
7
  6
CONTINUOUS
 10
10.1248314429
 20
13.5112552686
 11
10.1048705748
 21
13.5207565941
  0
LINE
  5
32D
100
AcDbEntity
  8
0
100
AcDbLine
 62
7
  6
CONTINUOUS
 10
10.3157927684
 20
13.3641973568
 11
10.2442534881
 21
13.4015928897
  0
LINE
  5
32E
100
AcDbEntity
  8
0
100
AcDbLine
 62
7
  6
CONTINUOUS
 10
10.3157927684
 20
13.3655359395
 11
10.2442534881
 21
13.4029314724
  0
LINE
  5
32F
100
AcDbEntity
  8
0
100
AcDbLine
 62
7
  6
CONTINUOUS
 10
13.5471783997
 20
12.4897579458
 11
13.6609071634
 21
12.4240966135
  0
LINE
  5
330
100
AcDbEntity
  8
0
100
AcDbLine
 62
9
  6
CONTINUOUS
 10
15.9957609174
 20
8.0777987724
 11
15.9957678549
 21
8.0777881371
  0
LINE
  5
331
100
AcDbEntity
  8
0
100
AcDbLine
 62
7
  6
CONTINUOUS
 10
12.3417059587
 20
13.9180256623
 11
12.2742059587
 21
14.0349390918
  0
LINE
  5
332
100
AcDbEntity
  8
0
100
AcDbLine
 62
7
  6
CONTINUOUS
 10
13.7519993647
 20
19.6413843598
 11
13.7040209316
 21
20.0676566435
  0
LINE
  5
333
100
AcDbEntity
  8
0
100
AcDbLine
 62
7
  6
CONTINUOUS
 10
15.549959586
 20
12.4533563629
 11
15.5401821003
 21
12.6014487891
  0
LINE
  5
334
100
AcDbEntity
  8
0
100
AcDbLine
 62
7
  6
CONTINUOUS
 10
15.9988775849
 20
8.2070036253
 11
15.9988805419
 21
8.2119753591
  0
LINE
  5
335
100
AcDbEntity
  8
0
100
AcDbLine
 62
7
  6
CONTINUOUS
 10
15.5499019752
 20
12.4423987669
 11
15.549959586
 21
12.4533563604
  0
LINE
  5
336
100
AcDbEntity
  8
0
100
AcDbLine
 62
7
  6
CONTINUOUS
 10
15.9957609194
 20
8.0777987724
 11
15.9988776819
 21
8.2083421575
  0
LWPOLYLINE
  5
337
100
AcDbEntity
  8
0
100
AcDbPolyline
 62
7
  6
CONTINUOUS
 90
3
 70
0
 10
9.748283946
 20
13.3836363871
 10
9.6636933788
 20
13.3602925104
 10
9.6195328469
 20
13.3459519609
  0
LINE
  5
338
100
AcDbEntity
  8
0
100
AcDbLine
 62
7
  6
CONTINUOUS
 10
9.7482233622
 20
13.531326975
 11
9.7074954436
 21
13.5207504462
  0
LINE
  5
339
100
AcDbEntity
  8
0
100
AcDbLine
 62
7
  6
CONTINUOUS
 10
9.74825335
 20
13.529995732
 11
9.7075196896
 21
13.519418524
  0
LINE
  5
33A
100
AcDbEntity
  8
0
100
AcDbLine
 62
7
  6
CONTINUOUS
 10
9.7602848296
 20
13.5318037493
 11
9.7482228817
 21
13.5313267813
  0
LINE
  5
33B
100
AcDbEntity
  8
0
100
AcDbLine
 62
7
  6
CONTINUOUS
 10
9.7614416193
 20
13.5302514895
 11
9.7482529048
 21
13.529995596
  0
LINE
  5
33C
100
AcDbEntity
  8
0
100
AcDbLine
 62
7
  6
CONTINUOUS
 10
10.0336941481
 20
13.5197860827
 11
10.029355234
 21
13.5197860827
  0
LINE
  5
33D
100
AcDbEntity
  8
0
100
AcDbLine
 62
7
  6
CONTINUOUS
 10
9.7819816548
 20
13.5197860827
 11
9.7786941468
 21
13.5197860827
  0
LINE
  5
33E
100
AcDbEntity
  8
0
100
AcDbLine
 62
7
  6
CONTINUOUS
 10
10.0336941481
 20
13.5211246653
 11
10.0304066406
 21
13.5211246653
  0
LINE
  5
33F
100
AcDbEntity
  8
0
100
AcDbLine
 62
7
  6
CONTINUOUS
 10
9.7823303362
 20
13.5211246653
 11
9.7786941468
 21
13.5211246653
  0
LINE
  5
340
100
AcDbEntity
  8
0
100
AcDbLine
 62
7
  6
CONTINUOUS
 10
14.1271783997
 20
13.5684193631
 11
14.3001783997
 21
13.5684193631
  0
LINE
  5
341
100
AcDbEntity
  8
0
100
AcDbLine
 62
7
  6
CONTINUOUS
 10
14.3001784031
 20
13.5863655429
 11
14.3951783915
 21
13.5863655429
  0
LINE
  5
342
100
AcDbEntity
  8
0
100
AcDbLine
 62
7
  6
CONTINUOUS
 10
11.9999454978
 20
13.6097579458
 11
11.6967453288
 21
13.6097579458
  0
LINE
  5
343
100
AcDbEntity
  8
0
100
AcDbLine
 62
7
  6
CONTINUOUS
 10
10.8881626516
 20
13.6097579458
 11
11.6581626516
 21
13.6097579458
  0
LINE
  5
344
100
AcDbEntity
  8
0
100
AcDbLine
 62
7
  6
CONTINUOUS
 10
14.0102649702
 20
13.6899032751
 11
13.6640918292
 21
13.6899032751
  0
LINE
  5
345
100
AcDbEntity
  8
0
100
AcDbLine
 62
7
  6
CONTINUOUS
 10
13.6640918292
 20
13.6972579458
 11
14.0102649702
 21
13.6972579458
  0
LINE
  5
346
100
AcDbEntity
  8
0
100
AcDbLine
 62
9
  6
CONTINUOUS
 10
12.2681387017
 20
13.9034408865
 11
12.6417059587
 21
13.9034408865
  0
LINE
  5
347
100
AcDbEntity
  8
0
100
AcDbLine
 62
9
  6
CONTINUOUS
 10
13.1817059587
 20
13.9034408865
 11
13.5552732157
 21
13.9034408865
  0
LINE
  5
348
100
AcDbEntity
  8
0
100
AcDbLine
 62
7
  6
CONTINUOUS
 10
13.5361743997
 20
13.9180256623
 11
13.1817059587
 21
13.9180256623
  0
LINE
  5
349
100
AcDbEntity
  8
0
100
AcDbLine
 62
7
  6
CONTINUOUS
 10
12.6417059587
 20
13.9180256623
 11
12.287237518
 21
13.9180256623
  0
LINE
  5
34A
100
AcDbEntity
  8
0
100
AcDbLine
 62
7
  6
CONTINUOUS
 10
12.2742059587
 20
14.0349390918
 11
12.2815606294
 21
14.0349390918
  0
LINE
  5
34B
100
AcDbEntity
  8
0
100
AcDbLine
 62
7
  6
CONTINUOUS
 10
12.5130131083
 20
14.0349390918
 11
12.6417059587
 21
14.0349390918
  0
LINE
  5
34C
100
AcDbEntity
  8
0
100
AcDbLine
 62
7
  6
CONTINUOUS
 10
13.1817059587
 20
14.0349390918
 11
13.3103988091
 21
14.0349390918
  0
LINE
  5
34D
100
AcDbEntity
  8
0
100
AcDbLine
 62
7
  6
CONTINUOUS
 10
13.541851288
 20
14.0349390918
 11
13.5492059587
 21
14.0349390918
  0
LWPOLYLINE
  5
34E
100
AcDbEntity
  8
0
100
AcDbPolyline
 62
7
  6
CONTINUOUS
 90
4
 70
0
 10
10.0641679977
 20
13.5313261921
 10
10.0508635196
 20
13.5315729308
 10
10.0363641483
 20
13.5240021708
 10
10.0336941481
 20
13.5211246653
  0
LWPOLYLINE
  5
34F
100
AcDbEntity
  8
0
100
AcDbPolyline
 62
7
  6
CONTINUOUS
 90
3
 70
0
 10
14.7776551124
 20
13.5303817243
 10
14.5395464342
 20
13.5829837107
 10
14.3951783776
 20
13.5889245353
  0
LINE
  5
350
100
AcDbEntity
  8
0
100
AcDbLine
 62
7
  6
CONTINUOUS
 10
14.418206634
 20
12.534161155
 11
14.4477474595
 21
12.5207605111
  0
LWPOLYLINE
  5
351
100
AcDbEntity
  8
0
100
AcDbPolyline
 62
7
  6
CONTINUOUS
 90
4
 70
0
 10
14.4477474595
 20
12.5207605111
 10
14.4712398972
 20
12.4988080005
 10
14.4860548044
 20
12.4699811319
 10
14.4904552781
 20
12.4423130219
  0
LINE
  5
352
100
AcDbEntity
  8
0
100
AcDbLine
 62
7
  6
CONTINUOUS
 10
13.4817059587
 20
14.4980256623
 11
13.5473672911
 21
14.3842968986
  0
LINE
  5
353
100
AcDbEntity
  8
0
100
AcDbLine
 62
7
  6
CONTINUOUS
 10
13.5492059587
 20
14.3811122328
 11
13.541851288
 21
14.3811122328
  0
LINE
  5
354
100
AcDbEntity
  8
0
100
AcDbLine
 62
7
  6
CONTINUOUS
 10
13.3103988091
 20
14.3811122328
 11
13.1817059587
 21
14.3811122328
  0
LINE
  5
355
100
AcDbEntity
  8
0
100
AcDbLine
 62
7
  6
CONTINUOUS
 10
12.6417059587
 20
14.3811122328
 11
12.5130131083
 21
14.3811122328
  0
LINE
  5
356
100
AcDbEntity
  8
0
100
AcDbLine
 62
7
  6
CONTINUOUS
 10
12.2815606294
 20
14.3811122328
 11
12.2742059587
 21
14.3811122328
  0
LINE
  5
357
100
AcDbEntity
  8
0
100
AcDbLine
 62
7
  6
CONTINUOUS
 10
13.4816297917
 20
14.4980256623
 11
13.1817059587
 21
14.4980256623
  0
LINE
  5
358
100
AcDbEntity
  8
0
100
AcDbLine
 62
7
  6
CONTINUOUS
 10
12.6417059587
 20
14.4980256623
 11
12.3417821258
 21
14.4980256623
  0
LINE
  5
359
100
AcDbEntity
  8
0
100
AcDbLine
 62
7
  6
CONTINUOUS
 10
12.3182093599
 20
14.5030256623
 11
12.6417059587
 21
14.5030256623
  0
LINE
  5
35A
100
AcDbEntity
  8
0
100
AcDbLine
 62
7
  6
CONTINUOUS
 10
13.1817059587
 20
14.5030256623
 11
13.5052025576
 21
14.5030256623
  0
LINE
  5
35B
100
AcDbEntity
  8
0
100
AcDbLine
 62
9
  6
CONTINUOUS
 10
13.5052059587
 20
14.6180256623
 11
13.1817059587
 21
14.6180256623
  0
LINE
  5
35C
100
AcDbEntity
  8
0
100
AcDbLine
 62
9
  6
CONTINUOUS
 10
12.6417059587
 20
14.6180256623
 11
12.3182059587
 21
14.6180256623
  0
LINE
  5
35D
100
AcDbEntity
  8
0
100
AcDbLine
 62
9
  6
CONTINUOUS
 10
12.3355274109
 20
14.6452148959
 11
12.6417059587
 21
14.6452148959
  0
LINE
  5
35E
100
AcDbEntity
  8
0
100
AcDbLine
 62
9
  6
CONTINUOUS
 10
13.1817059587
 20
14.6452148959
 11
13.4878845066
 21
14.6452148959
  0
LINE
  5
35F
100
AcDbEntity
  8
0
100
AcDbLine
 62
9
  6
CONTINUOUS
 10
13.4290751277
 20
14.6726381597
 11
13.1817059587
 21
14.6726381597
  0
LINE
  5
360
100
AcDbEntity
  8
0
100
AcDbLine
 62
9
  6
CONTINUOUS
 10
12.6417059587
 20
14.6726381597
 11
12.3943367898
 21
14.6726381597
  0
LINE
  5
361
100
AcDbEntity
  8
0
100
AcDbLine
 62
9
  6
CONTINUOUS
 10
13.3523336856
 20
14.7659204183
 11
13.1817059587
 21
14.7659204183
  0
LINE
  5
362
100
AcDbEntity
  8
0
100
AcDbLine
 62
9
  6
CONTINUOUS
 10
12.4710782319
 20
14.7659204183
 11
12.6417059587
 21
14.7659204183
  0
LINE
  5
363
100
AcDbEntity
  8
0
100
AcDbLine
 62
7
  6
CONTINUOUS
 10
15.0055291147
 20
13.4249232483
 11
14.7776551124
 21
13.5303817243
  0
LINE
  5
364
100
AcDbEntity
  8
0
100
AcDbLine
 62
7
  6
CONTINUOUS
 10
14.1271783997
 20
13.6297579458
 11
14.013449636
 21
13.6954192781
  0
LWPOLYLINE
  5
365
100
AcDbEntity
  8
0
100
AcDbPolyline
 62
7
  6
CONTINUOUS
 90
5
 70
0
 10
15.207653971
 20
13.26802305
 10
15.0055291138
 20
13.4235846661
 10
14.7776551118
 20
13.5290431418
 10
14.5395464339
 20
13.581645128
 10
14.3951783776
 20
13.5875859526
  0
LINE
  5
366
100
AcDbEntity
  8
0
100
AcDbLine
 62
7
  6
CONTINUOUS
 10
15.207653972
 20
13.2693616317
 11
15.0055291147
 21
13.4249232483
  0
LINE
  5
367
100
AcDbEntity
  8
0
100
AcDbLine
 62
7
  6
CONTINUOUS
 10
15.3688457536
 20
13.0693332064
 11
15.207653972
 21
13.2693616317
  0
LINE
  5
368
100
AcDbEntity
  8
0
100
AcDbLine
 62
7
  6
CONTINUOUS
 10
15.480885729
 20
12.841568096
 11
15.3688457545
 21
13.0706717876
  0
LINE
  5
369
100
AcDbEntity
  8
0
100
AcDbLine
 62
7
  6
CONTINUOUS
 10
12.6315202552
 20
19.7630424727
 11
12.6310644086
 21
19.7640637518
  0
LINE
  5
36A
100
AcDbEntity
  8
0
100
AcDbLine
 62
7
  6
CONTINUOUS
 10
12.6314759667
 20
19.7631466895
 11
12.6417059587
 21
19.7341275225
  0
LINE
  5
36B
100
AcDbEntity
  8
0
100
AcDbLine
 62
7
  6
CONTINUOUS
 10
15.5401821
 20
12.6001102088
 11
15.4808857297
 21
12.8429066768
  0
LINE
  5
36C
100
AcDbEntity
  8
0
100
AcDbLine
 62
9
  6
CONTINUOUS
 10
13.3606496207
 20
15.4651348809
 11
13.1817059587
 21
15.4651348809
  0
LINE
  5
36D
100
AcDbEntity
  8
0
100
AcDbLine
 62
9
  6
CONTINUOUS
 10
12.4627622968
 20
15.4651348809
 11
12.6417059587
 21
15.4651348809
  0
LINE
  5
36E
100
AcDbEntity
  8
0
100
AcDbLine
 62
9
  6
CONTINUOUS
 10
13.3436664508
 20
15.5005383254
 11
13.1817059587
 21
15.5005383254
  0
LINE
  5
36F
100
AcDbEntity
  8
0
100
AcDbLine
 62
9
  6
CONTINUOUS
 10
12.4797454666
 20
15.5005383254
 11
12.6417059587
 21
15.5005383254
  0
LINE
  5
370
100
AcDbEntity
  8
0
100
AcDbLine
 62
9
  6
CONTINUOUS
 10
13.3156532403
 20
15.5605719838
 11
13.1817059587
 21
15.5605719838
  0
LINE
  5
371
100
AcDbEntity
  8
0
100
AcDbLine
 62
9
  6
CONTINUOUS
 10
12.6417059587
 20
15.5605719838
 11
12.5077586772
 21
15.5605719838
  0
LINE
  5
372
100
AcDbEntity
  8
0
100
AcDbLine
 62
7
  6
CONTINUOUS
 10
13.4290751277
 20
14.6726381597
 11
13.4878845066
 21
14.6452148959
  0
LINE
  5
373
100
AcDbEntity
  8
0
100
AcDbLine
 62
7
  6
CONTINUOUS
 10
12.6079770743
 20
17.9708491283
 11
12.4840458417
 21
18.1616864913
  0
LWPOLYLINE
  5
374
100
AcDbEntity
  8
0
100
AcDbPolyline
 62
7
  6
CONTINUOUS
 90
6
 70
0
 10
13.2931248307
 20
18.8306303769
 10
13.2711490645
 20
18.8734985806
 10
13.2470481403
 20
18.9548869118
 10
13.2227556462
 20
19.0700794165
 10
13.1969469849
 20
19.2075871174
 10
13.1817059587
 20
19.2981669008
  0
LINE
  5
375
100
AcDbEntity
  8
0
100
AcDbLine
 62
7
  6
CONTINUOUS
 10
12.6099994718
 20
19.8055168675
 11
12.6312538502
 21
19.7636447758
  0
LINE
  5
376
100
AcDbEntity
  8
0
100
AcDbLine
 62
9
  6
CONTINUOUS
 10
13.3185817682
 20
16.5631843316
 11
13.1817059587
 21
16.5631666462
  0
LINE
  5
377
100
AcDbEntity
  8
0
100
AcDbLine
 62
9
  6
CONTINUOUS
 10
12.5095631016
 20
16.1337725959
 11
12.6417059587
 21
16.1337725959
  0
LINE
  5
378
100
AcDbEntity
  8
0
100
AcDbLine
 62
9
  6
CONTINUOUS
 10
13.1817059587
 20
16.1337725959
 11
13.3138488159
 21
16.1337725959
  0
LINE
  5
379
100
AcDbEntity
  8
0
100
AcDbLine
 62
9
  6
CONTINUOUS
 10
13.3347828818
 20
16.190385911
 11
13.1817059587
 21
16.190385911
  0
LINE
  5
37A
100
AcDbEntity
  8
0
100
AcDbLine
 62
9
  6
CONTINUOUS
 10
12.4886290357
 20
16.190385911
 11
12.6417059587
 21
16.190385911
  0
LINE
  5
37B
100
AcDbEntity
  8
0
100
AcDbLine
 62
9
  6
CONTINUOUS
 10
13.3345391522
 20
16.2158178896
 11
13.1817059587
 21
16.2158178896
  0
LINE
  5
37C
100
AcDbEntity
  8
0
100
AcDbLine
 62
9
  6
CONTINUOUS
 10
12.4888727652
 20
16.2158178896
 11
12.6417059587
 21
16.2158178896
  0
LINE
  5
37D
100
AcDbEntity
  8
0
100
AcDbLine
 62
9
  6
CONTINUOUS
 10
12.6417059587
 20
16.5631664226
 11
12.5048271514
 21
16.5631865704
  0
LINE
  5
37E
100
AcDbEntity
  8
0
100
AcDbLine
 62
7
  6
CONTINUOUS
 10
12.6417059587
 20
16.7442949927
 11
12.5395810679
 21
16.8032568259
  0
LINE
  5
37F
100
AcDbEntity
  8
0
100
AcDbLine
 62
7
  6
CONTINUOUS
 10
12.581026936
 20
19.8496384215
 11
12.5920454782
 21
19.8342566033
  0
LINE
  5
380
100
AcDbEntity
  8
0
100
AcDbLine
 62
7
  6
CONTINUOUS
 10
12.5903081032
 20
19.8367916563
 11
12.6099994718
 21
19.8055168675
  0
LWPOLYLINE
  5
381
100
AcDbEntity
  8
0
100
AcDbPolyline
 62
7
  6
CONTINUOUS
 90
3
 70
0
 10
12.5920454782
 20
19.8342566033
 10
12.613462788
 20
19.7993568359
 10
12.6310645495
 20
19.7640634269
  0
LINE
  5
382
100
AcDbEntity
  8
0
100
AcDbLine
 62
9
  6
CONTINUOUS
 10
12.5452591963
 20
17.6808403634
 11
12.6417059587
 21
17.6808606441
  0
LINE
  5
383
100
AcDbEntity
  8
0
100
AcDbLine
 62
9
  6
CONTINUOUS
 10
13.1817059587
 20
17.1080256623
 11
12.6417059587
 21
17.1080256623
  0
LINE
  5
384
100
AcDbEntity
  8
0
100
AcDbLine
 62
9
  6
CONTINUOUS
 10
13.1817059587
 20
17.6808629562
 11
13.2781155738
 21
17.6808642032
  0
LINE
  5
385
100
AcDbEntity
  8
0
100
AcDbLine
 62
7
  6
CONTINUOUS
 10
13.1817059587
 20
17.4717563319
 11
13.2838308496
 21
17.4127944987
  0
LINE
  5
386
100
AcDbEntity
  8
0
100
AcDbLine
 62
7
  6
CONTINUOUS
 10
12.5393717438
 20
19.8975211911
 11
12.5810223939
 21
19.8496444397
  0
LINE
  5
387
100
AcDbEntity
  8
0
100
AcDbLine
 62
7
  6
CONTINUOUS
 10
13.3029491008
 20
18.8191036566
 11
13.2931248307
 21
18.8306303769
  0
LINE
  5
388
100
AcDbEntity
  8
0
100
AcDbLine
 62
7
  6
CONTINUOUS
 10
12.5810266315
 20
19.8496388302
 11
12.5810223939
 21
19.8496444397
  0
LINE
  5
389
100
AcDbEntity
  8
0
100
AcDbLine
 62
7
  6
CONTINUOUS
 10
12.2503475108
 20
19.0495784036
 11
12.2495638048
 21
19.0494036089
  0
LINE
  5
38A
100
AcDbEntity
  8
0
100
AcDbLine
 62
7
  6
CONTINUOUS
 10
12.2043475108
 20
19.0573520329
 11
12.2051312168
 21
19.05751465
  0
LINE
  5
38B
100
AcDbEntity
  8
0
100
AcDbLine
 62
7
  6
CONTINUOUS
 10
12.4572592926
 20
18.9907027443
 11
12.4557070921
 21
18.9903851185
  0
LINE
  5
38C
100
AcDbEntity
  8
0
100
AcDbLine
 62
7
  6
CONTINUOUS
 10
12.3211269601
 20
19.0499794498
 11
12.3180455444
 21
19.0494036089
  0
LINE
  5
38D
100
AcDbEntity
  8
0
100
AcDbLine
 62
7
  6
CONTINUOUS
 10
12.4112592928
 20
18.9982077578
 11
12.4128114932
 21
18.9984961596
  0
LINE
  5
38E
100
AcDbEntity
  8
0
100
AcDbLine
 62
7
  6
CONTINUOUS
 10
13.2482961808
 20
18.9391409239
 11
13.3584424405
 21
18.9585626813
  0
LINE
  5
38F
100
AcDbEntity
  8
0
100
AcDbLine
 62
7
  6
CONTINUOUS
 10
13.374969477
 20
18.9858470824
 11
13.3901810685
 21
18.9885292964
  0
LINE
  5
390
100
AcDbEntity
  8
0
100
AcDbLine
 62
7
  6
CONTINUOUS
 10
13.4356853009
 20
18.9965529203
 11
13.5334424405
 21
19.0137901416
  0
LINE
  5
391
100
AcDbEntity
  8
0
100
AcDbLine
 62
7
  6
CONTINUOUS
 10
13.549969477
 20
19.0410745427
 11
13.5972059587
 21
19.0494036089
  0
LINE
  5
392
100
AcDbEntity
  8
0
100
AcDbLine
 62
7
  6
CONTINUOUS
 10
13.6432059587
 20
19.05751465
 11
13.7284424405
 21
19.0725441415
  0
LINE
  5
393
100
AcDbEntity
  8
0
100
AcDbLine
 62
9
  6
CONTINUOUS
 10
12.6079770743
 20
17.9708491283
 11
12.6417059587
 21
17.9708491283
  0
LINE
  5
394
100
AcDbEntity
  8
0
100
AcDbLine
 62
9
  6
CONTINUOUS
 10
13.1817059587
 20
17.9708491283
 11
13.2154348432
 21
17.9708491283
  0
LINE
  5
395
100
AcDbEntity
  8
0
100
AcDbLine
 62
9
  6
CONTINUOUS
 10
13.3393660758
 20
18.1616864913
 11
13.1817059587
 21
18.1616864913
  0
LINE
  5
396
100
AcDbEntity
  8
0
100
AcDbLine
 62
9
  6
CONTINUOUS
 10
12.6417059587
 20
18.1616864913
 11
12.4840458417
 21
18.1616864913
  0
LINE
  5
397
100
AcDbEntity
  8
0
100
AcDbLine
 62
7
  6
CONTINUOUS
 10
13.3141521741
 20
18.2080256623
 11
13.1817059587
 21
18.2080256623
  0
LINE
  5
398
100
AcDbEntity
  8
0
100
AcDbLine
 62
7
  6
CONTINUOUS
 10
12.6417059587
 20
18.2080256623
 11
12.5092597434
 21
18.2080256623
  0
LINE
  5
399
100
AcDbEntity
  8
0
100
AcDbLine
 62
9
  6
CONTINUOUS
 10
12.4963489328
 20
18.227662086
 11
12.6417059587
 21
18.227662086
  0
LINE
  5
39A
100
AcDbEntity
  8
0
100
AcDbLine
 62
9
  6
CONTINUOUS
 10
13.1817059587
 20
18.227662086
 11
13.3270629846
 21
18.227662086
  0
LINE
  5
39B
100
AcDbEntity
  8
0
100
AcDbLine
 62
7
  6
CONTINUOUS
 10
13.3178758702
 20
18.8096090797
 11
13.2968347455
 21
18.8262775701
  0
LINE
  5
39C
100
AcDbEntity
  8
0
100
AcDbLine
 62
7
  6
CONTINUOUS
 10
13.3029491008
 20
18.8191036566
 11
13.303168413
 21
18.8189123625
  0
LINE
  5
39D
100
AcDbEntity
  8
0
100
AcDbLine
 62
7
  6
CONTINUOUS
 10
12.5181603125
 20
19.9174283313
 11
12.5181539638
 21
19.9174339173
  0
LINE
  5
39E
100
AcDbEntity
  8
0
100
AcDbLine
 62
7
  6
CONTINUOUS
 10
12.5181624782
 20
19.917426427
 11
12.5411504769
 21
19.8957307088
  0
LINE
  5
39F
100
AcDbEntity
  8
0
100
AcDbLine
 62
9
  6
CONTINUOUS
 10
13.3584424405
 20
18.9585626813
 11
13.2462113582
 21
18.9585626813
  0
LINE
  5
3A0
100
AcDbEntity
  8
0
100
AcDbLine
 62
9
  6
CONTINUOUS
 10
12.5765543201
 20
18.9585626813
 11
12.4649947179
 21
18.9585626813
  0
LINE
  5
3A1
100
AcDbEntity
  8
0
100
AcDbLine
 62
9
  6
CONTINUOUS
 10
12.4567059587
 20
18.9684107588
 11
12.5791810146
 21
18.9684107588
  0
LINE
  5
3A2
100
AcDbEntity
  8
0
100
AcDbLine
 62
9
  6
CONTINUOUS
 10
13.2441348071
 20
18.9684107588
 11
13.3667059587
 21
18.9684107588
  0
LINE
  5
3A3
100
AcDbEntity
  8
0
100
AcDbLine
 62
9
  6
CONTINUOUS
 10
13.3667059587
 20
18.9759990049
 11
13.2425347607
 21
18.9759990049
  0
LINE
  5
3A4
100
AcDbEntity
  8
0
100
AcDbLine
 62
9
  6
CONTINUOUS
 10
12.5812049635
 20
18.9759990049
 11
12.4567059587
 21
18.9759990049
  0
LINE
  5
3A5
100
AcDbEntity
  8
0
100
AcDbLine
 62
9
  6
CONTINUOUS
 10
12.4484424405
 20
18.9858470824
 11
12.5832871623
 21
18.9858470824
  0
LINE
  5
3A6
100
AcDbEntity
  8
0
100
AcDbLine
 62
9
  6
CONTINUOUS
 10
13.2404582096
 20
18.9858470824
 11
13.3749570098
 21
18.9858470824
  0
LINE
  5
3A7
100
AcDbEntity
  8
0
100
AcDbLine
 62
9
  6
CONTINUOUS
 10
13.5334424405
 20
19.0137901416
 11
13.2345661773
 21
19.0137901416
  0
LINE
  5
3A8
100
AcDbEntity
  8
0
100
AcDbLine
 62
9
  6
CONTINUOUS
 10
12.5889756733
 20
19.0137901416
 11
12.2899849462
 21
19.0137901416
  0
LINE
  5
3A9
100
AcDbEntity
  8
0
100
AcDbLine
 62
9
  6
CONTINUOUS
 10
12.2817059587
 20
19.0236382191
 11
12.5909804967
 21
19.0236382191
  0
LINE
  5
3AA
100
AcDbEntity
  8
0
100
AcDbLine
 62
9
  6
CONTINUOUS
 10
13.2324896262
 20
19.0236382191
 11
13.5417059587
 21
19.0236382191
  0
LINE
  5
3AB
100
AcDbEntity
  8
0
100
AcDbLine
 62
9
  6
CONTINUOUS
 10
13.5417059587
 20
19.0312264652
 11
13.2310459898
 21
19.0312264652
  0
LINE
  5
3AC
100
AcDbEntity
  8
0
100
AcDbLine
 62
9
  6
CONTINUOUS
 10
12.5925252747
 20
19.0312264652
 11
12.2817059587
 21
19.0312264652
  0
LINE
  5
3AD
100
AcDbEntity
  8
0
100
AcDbLine
 62
9
  6
CONTINUOUS
 10
12.2734424405
 20
19.0410745427
 11
12.594530098
 21
19.0410745427
  0
LINE
  5
3AE
100
AcDbEntity
  8
0
100
AcDbLine
 62
9
  6
CONTINUOUS
 10
13.2288195922
 20
19.0410745427
 11
13.5499599254
 21
19.0410745427
  0
LINE
  5
3AF
100
AcDbEntity
  8
0
100
AcDbLine
 62
9
  6
CONTINUOUS
 10
13.7284424405
 20
19.0725441415
 11
13.2222019876
 21
19.0725441415
  0
LINE
  5
3B0
100
AcDbEntity
  8
0
100
AcDbLine
 62
9
  6
CONTINUOUS
 10
12.6009365247
 20
19.0725441415
 11
12.094980777
 21
19.0725441415
  0
LINE
  5
3B1
100
AcDbEntity
  8
0
100
AcDbLine
 62
9
  6
CONTINUOUS
 10
12.0867059587
 20
19.082392219
 11
12.6029413481
 21
19.082392219
  0
LINE
  5
3B2
100
AcDbEntity
  8
0
100
AcDbLine
 62
9
  6
CONTINUOUS
 10
13.220354329
 20
19.082392219
 11
13.7367059587
 21
19.082392219
  0
LINE
  5
3B3
100
AcDbEntity
  8
0
100
AcDbLine
 62
9
  6
CONTINUOUS
 10
13.7367059587
 20
19.0877579458
 11
13.2193476319
 21
19.0877579458
  0
LINE
  5
3B4
100
AcDbEntity
  8
0
100
AcDbLine
 62
9
  6
CONTINUOUS
 10
12.6040336765
 20
19.0877579458
 11
12.0867059587
 21
19.0877579458
  0
LINE
  5
3B5
100
AcDbEntity
  8
0
100
AcDbLine
 62
7
  6
CONTINUOUS
 10
11.8717738109
 20
19.0997579458
 11
12.6063088752
 21
19.0997579458
  0
LINE
  5
3B6
100
AcDbEntity
  8
0
100
AcDbLine
 62
7
  6
CONTINUOUS
 10
13.2170962378
 20
19.0997579458
 11
13.9516381066
 21
19.0997579458
  0
LINE
  5
3B7
100
AcDbEntity
  8
0
100
AcDbLine
 62
9
  6
CONTINUOUS
 10
13.9517059587
 20
19.1807823535
 11
13.2018947489
 21
19.1807823535
  0
LINE
  5
3B8
100
AcDbEntity
  8
0
100
AcDbLine
 62
9
  6
CONTINUOUS
 10
12.6214227828
 20
19.1807823535
 11
11.8717059587
 21
19.1807823535
  0
LINE
  5
3B9
100
AcDbEntity
  8
0
100
AcDbLine
 62
9
  6
CONTINUOUS
 10
13.9394952803
 20
19.2135232634
 11
13.1958342517
 21
19.2135232634
  0
LINE
  5
3BA
100
AcDbEntity
  8
0
100
AcDbLine
 62
9
  6
CONTINUOUS
 10
12.6275301164
 20
19.2135232634
 11
11.8839166372
 21
19.2135232634
  0
LINE
  5
3BB
100
AcDbEntity
  8
0
100
AcDbLine
 62
7
  6
CONTINUOUS
 10
13.3612572838
 20
18.9984961596
 11
13.3649307782
 21
18.9978684487
  0
LINE
  5
3BC
100
AcDbEntity
  8
0
100
AcDbLine
 62
7
  6
CONTINUOUS
 10
12.5715421836
 20
18.9397710377
 11
12.464969477
 21
18.9585626813
  0
LINE
  5
3BD
100
AcDbEntity
  8
0
100
AcDbLine
 62
7
  6
CONTINUOUS
 10
12.4484424405
 20
18.9858470824
 11
12.289969477
 21
19.0137901416
  0
LINE
  5
3BE
100
AcDbEntity
  8
0
100
AcDbLine
 62
7
  6
CONTINUOUS
 10
12.2734424405
 20
19.0410745427
 11
12.2262059587
 21
19.0494036089
  0
LINE
  5
3BF
100
AcDbEntity
  8
0
100
AcDbLine
 62
7
  6
CONTINUOUS
 10
12.1802059587
 20
19.05751465
 11
12.094969477
 21
19.0725441415
  0
LINE
  5
3C0
100
AcDbEntity
  8
0
100
AcDbLine
 62
7
  6
CONTINUOUS
 10
13.3226042726
 20
18.9903851185
 11
13.3189307782
 21
18.9910715371
  0
LINE
  5
3C1
100
AcDbEntity
  8
0
100
AcDbLine
 62
7
  6
CONTINUOUS
 10
13.505366373
 20
19.0494036089
 11
13.5022849574
 21
19.0499821529
  0
LINE
  5
3C2
100
AcDbEntity
  8
0
100
AcDbLine
 62
7
  6
CONTINUOUS
 10
13.6182807007
 20
19.05751465
 11
13.6190644066
 21
19.0573545323
  0
LINE
  5
3C3
100
AcDbEntity
  8
0
100
AcDbLine
 62
7
  6
CONTINUOUS
 10
13.4353426554
 20
18.9984961596
 11
13.4358311712
 21
18.9983902213
  0
LINE
  5
3C4
100
AcDbEntity
  8
0
100
AcDbLine
 62
7
  6
CONTINUOUS
 10
13.5738481126
 20
19.0494036089
 11
13.5730644067
 21
19.0495850305
  0
LINE
  5
3C5
100
AcDbEntity
  8
0
100
AcDbLine
 62
7
  6
CONTINUOUS
 10
13.3903196871
 20
18.9903851185
 11
13.3898311713
 21
18.990513662
  0
LINE
  5
3C6
100
AcDbEntity
  8
0
100
AcDbLine
 62
9
  6
CONTINUOUS
 10
12.0714125528
 20
19.6413843598
 11
12.6417059587
 21
19.6413843598
  0
LINE
  5
3C7
100
AcDbEntity
  8
0
100
AcDbLine
 62
9
  6
CONTINUOUS
 10
13.1817059587
 20
19.6413843598
 11
13.7519833947
 21
19.6413843598
  0
LINE
  5
3C8
100
AcDbEntity
  8
0
100
AcDbLine
 62
9
  6
CONTINUOUS
 10
13.7040209316
 20
20.0676566435
 11
13.4221485098
 21
20.0676566435
  0
LINE
  5
3C9
100
AcDbEntity
  8
0
100
AcDbLine
 62
9
  6
CONTINUOUS
 10
12.4012615862
 20
20.0676566435
 11
12.1193909858
 21
20.0676566435
  0
LINE
  5
3CA
100
AcDbEntity
  8
0
100
AcDbLine
 62
9
  6
CONTINUOUS
 10
12.379184001
 20
20.8129297058
 11
12.3592623672
 21
20.8111652555
  0
LINE
  5
3CB
100
AcDbEntity
  8
0
100
AcDbLine
 62
9
  6
CONTINUOUS
 10
12.3517451418
 20
20.9015552548
 11
12.3716667756
 21
20.9033197051
  0
LINE
  5
3CC
100
AcDbEntity
  8
0
100
AcDbLine
 62
9
  6
CONTINUOUS
 10
12.3716667756
 20
20.9082026583
 11
12.3517451418
 21
20.906438208
  0
LINE
  5
3CD
100
AcDbEntity
  8
0
100
AcDbLine
 62
7
  6
CONTINUOUS
 10
12.3716849445
 20
20.9084105139
 11
12.3517633107
 21
20.9066460636
  0
LINE
  5
3CE
100
AcDbEntity
  8
0
100
AcDbLine
 62
7
  6
CONTINUOUS
 10
12.7260067705
 20
20.7730256623
 11
13.0974021724
 21
20.7730256623
  0
LINE
  5
3CF
100
AcDbEntity
  8
0
100
AcDbLine
 62
9
  6
CONTINUOUS
 10
13.4641495502
 20
20.8111652555
 11
13.4442279165
 21
20.8129297058
  0
LINE
  5
3D0
100
AcDbEntity
  8
0
100
AcDbLine
 62
9
  6
CONTINUOUS
 10
13.4517451418
 20
20.9033197051
 11
13.4716667756
 21
20.9015552548
  0
LINE
  5
3D1
100
AcDbEntity
  8
0
100
AcDbLine
 62
9
  6
CONTINUOUS
 10
13.4716667756
 20
20.906438208
 11
13.4517451418
 21
20.9082026583
  0
LINE
  5
3D2
100
AcDbEntity
  8
0
100
AcDbLine
 62
7
  6
CONTINUOUS
 10
13.4716486067
 20
20.9066460636
 11
13.451726973
 21
20.9084105139
  0
ARC
  5
3D3
100
AcDbEntity
  8
0
100
AcDbCircle
 62
7
  6
CONTINUOUS
 10
-0.8368695334
 20
11.5597733406
 40
15.3362451346
100
AcDbArc
 50
359.2099896775
 51
0.0453134356
  0
ARC
  5
3D4
100
AcDbEntity
  8
0
100
AcDbCircle
 62
7
  6
CONTINUOUS
 10
6.3573067138
 20
9.2596232445
 40
0.1001970444
100
AcDbArc
 50
159.7215876258
 51
215.9888607006
  0
ARC
  5
3D5
100
AcDbEntity
  8
0
100
AcDbCircle
 62
7
  6
CONTINUOUS
 10
5.6690132483
 20
9.2561983746
 40
0.1001546477
100
AcDbArc
 50
167.7320884116
 51
176.7400623357
  0
ARC
  5
3D6
100
AcDbEntity
  8
0
100
AcDbCircle
 62
9
  6
CONTINUOUS
 10
12.6502129307
 20
-12.3015613839
 40
24.2202454294
100
AcDbArc
 50
88.0675691075
 51
88.5629662052
  0
ARC
  5
3D7
100
AcDbEntity
  8
0
100
AcDbCircle
 62
7
  6
CONTINUOUS
 10
12.9117059587
 20
-2.6499743377
 40
0.27
100
AcDbArc
 50
180.0
 51
360.0
  0
ARC
  5
3D8
100
AcDbEntity
  8
0
100
AcDbCircle
 62
7
  6
CONTINUOUS
 10
6.9398095808
 20
8.9779477311
 40
1.4020396301
100
AcDbArc
 50
101.0111250742
 51
116.1939332302
  0
ARC
  5
3D9
100
AcDbEntity
  8
0
100
AcDbCircle
 62
7
  6
CONTINUOUS
 10
6.9391622196
 20
8.9798933434
 40
1.3999987061
100
AcDbArc
 50
116.2050583038
 51
167.7275758417
  0
ARC
  5
3DA
100
AcDbEntity
  8
0
100
AcDbCircle
 62
9
  6
CONTINUOUS
 10
7.0134592158
 20
9.0163807894
 40
1.1302193563
100
AcDbArc
 50
101.4313762069
 51
167.1118475277
  0
ARC
  5
3DB
100
AcDbEntity
  8
0
100
AcDbCircle
 62
7
  6
CONTINUOUS
 10
7.0134672751
 20
9.0163771695
 40
0.79999589
100
AcDbArc
 50
99.000119972
 51
159.6674447469
  0
ARC
  5
3DC
100
AcDbEntity
  8
0
100
AcDbCircle
 62
9
  6
CONTINUOUS
 10
8.4398489239
 20
11.8886981165
 40
4.2585834016
100
AcDbArc
 50
23.5285703578
 51
23.9439390492
  0
ARC
  5
3DD
100
AcDbEntity
  8
0
100
AcDbCircle
 62
9
  6
CONTINUOUS
 10
9.4260597983
 20
9.6817042545
 40
3.7433323894
100
AcDbArc
 50
81.3777744121
 51
82.0370949207
  0
ARC
  5
3DE
100
AcDbEntity
  8
0
100
AcDbCircle
 62
9
  6
CONTINUOUS
 10
10.3423254528
 20
9.9836184697
 40
3.4382339742
100
AcDbArc
 50
97.9336882213
 51
98.6519096462
  0
ARC
  5
3DF
100
AcDbEntity
  8
0
100
AcDbCircle
 62
9
  6
CONTINUOUS
 10
9.0409328827
 20
12.1549974714
 40
3.6011513541
100
AcDbArc
 50
23.9528972865
 51
24.1279458397
  0
ARC
  5
3E0
100
AcDbEntity
  8
0
100
AcDbCircle
 62
7
  6
CONTINUOUS
 10
9.6011941477
 20
12.7784193631
 40
0.02
100
AcDbArc
 50
180.0
 51
270.0
  0
ARC
  5
3E1
100
AcDbEntity
  8
0
100
AcDbCircle
 62
9
  6
CONTINUOUS
 10
9.2580188455
 20
13.0573476469
 40
1.0188276273
100
AcDbArc
 50
357.2615031256
 51
0.0602700824
  0
ARC
  5
3E2
100
AcDbEntity
  8
0
100
AcDbCircle
 62
7
  6
CONTINUOUS
 10
9.3624020454
 20
13.058362082
 40
0.9320934643
100
AcDbArc
 50
357.9565720643
 51
0.0035210688
  0
ARC
  5
3E3
100
AcDbEntity
  8
0
100
AcDbCircle
 62
7
  6
CONTINUOUS
 10
9.3946295333
 20
13.0590247666
 40
0.8998661783
100
AcDbArc
 50
359.9614530831
 51
2.3194798225
  0
ARC
  5
3E4
100
AcDbEntity
  8
0
100
AcDbCircle
 62
7
  6
CONTINUOUS
 10
9.5111941477
 20
12.9334193631
 40
0.02
100
AcDbArc
 50
180.0
 51
270.0
  0
ARC
  5
3E5
100
AcDbEntity
  8
0
100
AcDbCircle
 62
7
  6
CONTINUOUS
 10
9.5511941477
 20
12.8584193631
 40
0.02
100
AcDbArc
 50
180.0
 51
270.0
  0
ARC
  5
3E6
100
AcDbEntity
  8
0
100
AcDbCircle
 62
7
  6
CONTINUOUS
 10
9.5111941477
 20
13.1847579458
 40
0.02
100
AcDbArc
 50
90.0
 51
180.0
  0
ARC
  5
3E7
100
AcDbEntity
  8
0
100
AcDbCircle
 62
7
  6
CONTINUOUS
 10
9.5511941477
 20
13.2597579458
 40
0.02
100
AcDbArc
 50
90.0
 51
180.0
  0
ARC
  5
3E8
100
AcDbEntity
  8
0
100
AcDbCircle
 62
7
  6
CONTINUOUS
 10
9.5111941477
 20
13.1834193631
 40
0.02
100
AcDbArc
 50
90.0
 51
180.0
  0
ARC
  5
3E9
100
AcDbEntity
  8
0
100
AcDbCircle
 62
7
  6
CONTINUOUS
 10
9.5511941477
 20
13.2584193631
 40
0.02
100
AcDbArc
 50
90.0
 51
180.0
  0
ARC
  5
3EA
100
AcDbEntity
  8
0
100
AcDbCircle
 62
9
  6
CONTINUOUS
 10
9.9061976509
 20
13.1162074054
 40
0.2754360263
100
AcDbArc
 50
87.3343817924
 51
92.6680747693
  0
ARC
  5
3EB
100
AcDbEntity
  8
0
100
AcDbCircle
 62
9
  6
CONTINUOUS
 10
9.9062528655
 20
13.1174183566
 40
0.2742238174
100
AcDbArc
 50
81.9549558884
 51
87.3341388137
  0
ARC
  5
3EC
100
AcDbEntity
  8
0
100
AcDbCircle
 62
9
  6
CONTINUOUS
 10
9.906091126
 20
13.1178552609
 40
0.2737849999
100
AcDbArc
 50
92.6618589545
 51
98.0488144469
  0
ARC
  5
3ED
100
AcDbEntity
  8
0
100
AcDbCircle
 62
7
  6
CONTINUOUS
 10
9.8809811335
 20
13.1629440418
 40
0.263277972
100
AcDbArc
 50
66.4546865018
 51
74.6462352524
  0
ARC
  5
3EE
100
AcDbEntity
  8
0
100
AcDbCircle
 62
7
  6
CONTINUOUS
 10
9.8812451875
 20
13.1634684447
 40
0.2627151754
100
AcDbArc
 50
75.4335151379
 51
98.8674683798
  0
ARC
  5
3EF
100
AcDbEntity
  8
0
100
AcDbCircle
 62
7
  6
CONTINUOUS
 10
9.881575435
 20
13.1649556076
 40
0.2611808454
100
AcDbArc
 50
74.6551136858
 51
75.4275635927
  0
ARC
  5
3F0
100
AcDbEntity
  8
0
100
AcDbCircle
 62
7
  6
CONTINUOUS
 10
9.8820718206
 20
13.165442322
 40
0.2605519862
100
AcDbArc
 50
63.6201733073
 51
66.455100535
  0
ARC
  5
3F1
100
AcDbEntity
  8
0
100
AcDbCircle
 62
9
  6
CONTINUOUS
 10
9.9061941477
 20
12.9207255858
 40
0.2474574569
100
AcDbArc
 50
261.0641193763
 51
278.9358806237
  0
ARC
  5
3F2
100
AcDbEntity
  8
0
100
AcDbCircle
 62
7
  6
CONTINUOUS
 10
9.646786538
 20
13.0584191251
 40
0.1536361757
100
AcDbArc
 50
143.6259691644
 51
216.3966590964
  0
ARC
  5
3F3
100
AcDbEntity
  8
0
100
AcDbCircle
 62
7
  6
CONTINUOUS
 10
9.6011941477
 20
13.3397579458
 40
0.02
100
AcDbArc
 50
90.0
 51
180.0
  0
ARC
  5
3F4
100
AcDbEntity
  8
0
100
AcDbCircle
 62
7
  6
CONTINUOUS
 10
9.6011941477
 20
13.3384193631
 40
0.02
100
AcDbArc
 50
90.0
 51
180.0
  0
ARC
  5
3F5
100
AcDbEntity
  8
0
100
AcDbCircle
 62
7
  6
CONTINUOUS
 10
9.8811841619
 20
13.1967556124
 40
0.2627966228
100
AcDbArc
 50
66.45465617
 51
98.867713837
  0
ARC
  5
3F6
100
AcDbEntity
  8
0
100
AcDbCircle
 62
7
  6
CONTINUOUS
 10
9.8811841619
 20
13.2301237533
 40
0.2627966228
100
AcDbArc
 50
66.6774061753
 51
99.2452625363
  0
ARC
  5
3F7
100
AcDbEntity
  8
0
100
AcDbCircle
 62
7
  6
CONTINUOUS
 10
9.8851808076
 20
13.2632946292
 40
0.2617963129
100
AcDbArc
 50
67.5212733272
 51
100.4179440334
  0
ARC
  5
3F8
100
AcDbEntity
  8
0
100
AcDbCircle
 62
7
  6
CONTINUOUS
 10
9.882071824
 20
13.1988104695
 40
0.2605519787
100
AcDbArc
 50
63.6201893683
 51
66.4550700386
  0
ARC
  5
3F9
100
AcDbEntity
  8
0
100
AcDbCircle
 62
7
  6
CONTINUOUS
 10
9.8943622341
 20
13.2877473588
 40
0.2601299026
100
AcDbArc
 50
69.2365551978
 51
103.0043802835
  0
ARC
  5
3FA
100
AcDbEntity
  8
0
100
AcDbCircle
 62
7
  6
CONTINUOUS
 10
9.8822782632
 20
13.2326290375
 40
0.260056691
100
AcDbArc
 50
63.230124246
 51
66.6822437766
  0
ARC
  5
3FB
100
AcDbEntity
  8
0
100
AcDbCircle
 62
7
  6
CONTINUOUS
 10
9.9087992575
 20
13.2998753872
 40
0.2593845024
100
AcDbArc
 50
74.2243801749
 51
105.1750556035
  0
ARC
  5
3FC
100
AcDbEntity
  8
0
100
AcDbCircle
 62
7
  6
CONTINUOUS
 10
9.9035922934
 20
13.2985367579
 40
0.2593845024
100
AcDbArc
 50
72.6051830011
 51
105.8338007036
  0
ARC
  5
3FD
100
AcDbEntity
  8
0
100
AcDbCircle
 62
7
  6
CONTINUOUS
 10
9.8864419226
 20
13.2663222048
 40
0.258509999
100
AcDbArc
 50
64.0681394159
 51
67.5258131323
  0
ARC
  5
3FE
100
AcDbEntity
  8
0
100
AcDbCircle
 62
7
  6
CONTINUOUS
 10
9.8831963557
 20
13.2011093179
 40
0.2579928622
100
AcDbArc
 50
62.8731872081
 51
63.6170822544
  0
ARC
  5
3FF
100
AcDbEntity
  8
0
100
AcDbCircle
 62
7
  6
CONTINUOUS
 10
9.8831963617
 20
13.1677411887
 40
0.257992849
100
AcDbArc
 50
62.8731871956
 51
63.6170660702
  0
ARC
  5
400
100
AcDbEntity
  8
0
100
AcDbCircle
 62
7
  6
CONTINUOUS
 10
9.8804109209
 20
13.2016551171
 40
0.2578301165
100
AcDbArc
 50
98.8642015661
 51
104.4339980534
  0
ARC
  5
401
100
AcDbEntity
  8
0
100
AcDbCircle
 62
7
  6
CONTINUOUS
 10
9.8804103775
 20
13.168289524
 40
0.2578275137
100
AcDbArc
 50
98.8670204419
 51
104.434022237
  0
ARC
  5
402
100
AcDbEntity
  8
0
100
AcDbCircle
 62
7
  6
CONTINUOUS
 10
9.8803356147
 20
13.2353738447
 40
0.2574718252
100
AcDbArc
 50
99.2452536604
 51
104.4372157801
  0
ARC
  5
403
100
AcDbEntity
  8
0
100
AcDbCircle
 62
7
  6
CONTINUOUS
 10
9.9041806796
 20
13.3005689924
 40
0.2572616695
100
AcDbArc
 50
71.6526482113
 51
72.6006054382
  0
ARC
  5
404
100
AcDbEntity
  8
0
100
AcDbCircle
 62
7
  6
CONTINUOUS
 10
9.895389491
 20
13.2906136687
 40
0.257077738
100
AcDbArc
 50
67.7879133737
 51
69.2308302381
  0
ARC
  5
405
100
AcDbEntity
  8
0
100
AcDbCircle
 62
7
  6
CONTINUOUS
 10
9.909411019
 20
13.3022058363
 40
0.2569678564
100
AcDbArc
 50
72.8565876992
 51
74.2201264233
  0
ARC
  5
406
100
AcDbEntity
  8
0
100
AcDbCircle
 62
7
  6
CONTINUOUS
 10
9.8842152897
 20
13.2685857963
 40
0.2564108848
100
AcDbArc
 50
100.4173683476
 51
105.709030999
  0
ARC
  5
407
100
AcDbEntity
  8
0
100
AcDbCircle
 62
7
  6
CONTINUOUS
 10
9.904578208
 20
13.3017670847
 40
0.2559993486
100
AcDbArc
 50
70.7175066439
 51
71.6526903816
  0
ARC
  5
408
100
AcDbEntity
  8
0
100
AcDbCircle
 62
7
  6
CONTINUOUS
 10
9.8841953214
 20
13.2364220313
 40
0.2558067612
100
AcDbArc
 50
60.8502995787
 51
63.2308404768
  0
ARC
  5
409
100
AcDbEntity
  8
0
100
AcDbCircle
 62
7
  6
CONTINUOUS
 10
9.8931708969
 20
13.2929076425
 40
0.2548266938
100
AcDbArc
 50
103.0010686684
 51
108.6443903705
  0
ARC
  5
40A
100
AcDbEntity
  8
0
100
AcDbCircle
 62
7
  6
CONTINUOUS
 10
9.8964994806
 20
13.2933116848
 40
0.2541603234
100
AcDbArc
 50
65.6234703508
 51
67.789642587
  0
ARC
  5
40B
100
AcDbEntity
  8
0
100
AcDbCircle
 62
7
  6
CONTINUOUS
 10
9.8849925284
 20
13.1711717261
 40
0.2541206919
100
AcDbArc
 50
60.0133979746
 51
62.8809420668
  0
ARC
  5
40C
100
AcDbEntity
  8
0
100
AcDbCircle
 62
7
  6
CONTINUOUS
 10
9.8849925284
 20
13.204539867
 40
0.2541206918
100
AcDbArc
 50
60.0133979743
 51
62.8809420668
  0
ARC
  5
40D
100
AcDbEntity
  8
0
100
AcDbCircle
 62
7
  6
CONTINUOUS
 10
9.9021461821
 20
13.3036342693
 40
0.2540784628
100
AcDbArc
 50
105.8296721038
 51
111.5875114089
  0
ARC
  5
40E
100
AcDbEntity
  8
0
100
AcDbCircle
 62
7
  6
CONTINUOUS
 10
9.8888932362
 20
13.2713077546
 40
0.2529544575
100
AcDbArc
 50
61.162186518
 51
64.0736462073
  0
ARC
  5
40F
100
AcDbEntity
  8
0
100
AcDbCircle
 62
7
  6
CONTINUOUS
 10
9.8858106083
 20
13.2393468542
 40
0.2524655722
100
AcDbArc
 50
60.0110018563
 51
60.8471336314
  0
ARC
  5
410
100
AcDbEntity
  8
0
100
AcDbCircle
 62
7
  6
CONTINUOUS
 10
9.9059607583
 20
13.3055977703
 40
0.2519270063
100
AcDbArc
 50
67.5228716918
 51
70.726603825
  0
ARC
  5
411
100
AcDbEntity
  8
0
100
AcDbCircle
 62
7
  6
CONTINUOUS
 10
9.8981247918
 20
13.296906146
 40
0.2502154814
100
AcDbArc
 50
63.8913370725
 51
65.6227542071
  0
ARC
  5
412
100
AcDbEntity
  8
0
100
AcDbCircle
 62
7
  6
CONTINUOUS
 10
9.9073628005
 20
13.3090209101
 40
0.2482278941
100
AcDbArc
 50
66.7393942017
 51
67.5198285162
  0
ARC
  5
413
100
AcDbEntity
  8
0
100
AcDbCircle
 62
7
  6
CONTINUOUS
 10
9.8318800634
 20
13.4746732237
 40
0.0630057151
100
AcDbArc
 50
108.6761486799
 51
142.1271606732
  0
ARC
  5
414
100
AcDbEntity
  8
0
100
AcDbCircle
 62
7
  6
CONTINUOUS
 10
9.8318796576
 20
13.4237063013
 40
0.063005657
100
AcDbArc
 50
104.4636480705
 51
141.3333014093
  0
ARC
  5
415
100
AcDbEntity
  8
0
100
AcDbCircle
 62
7
  6
CONTINUOUS
 10
9.8318796558
 20
13.3569700224
 40
0.0630056538
100
AcDbArc
 50
104.4636471507
 51
141.323672738
  0
ARC
  5
416
100
AcDbEntity
  8
0
100
AcDbCircle
 62
7
  6
CONTINUOUS
 10
9.8318796557
 20
13.3903381634
 40
0.0630056536
100
AcDbArc
 50
104.4636471027
 51
141.3219961287
  0
ARC
  5
417
100
AcDbEntity
  8
0
100
AcDbCircle
 62
7
  6
CONTINUOUS
 10
9.8318796538
 20
13.4547756173
 40
0.0630054441
100
AcDbArc
 50
105.7367202566
 51
141.3311224926
  0
ARC
  5
418
100
AcDbEntity
  8
0
100
AcDbCircle
 62
7
  6
CONTINUOUS
 10
9.8345788017
 20
13.3770799012
 40
0.0557675721
100
AcDbArc
 50
174.4349363603
 51
179.2276653526
  0
ARC
  5
419
100
AcDbEntity
  8
0
100
AcDbCircle
 62
7
  6
CONTINUOUS
 10
10.7781626516
 20
12.6147579458
 40
0.08
100
AcDbArc
 50
0.0
 51
90.0
  0
ARC
  5
41A
100
AcDbEntity
  8
0
100
AcDbCircle
 62
7
  6
CONTINUOUS
 10
10.3435880209
 20
12.6994678427
 40
0.06
100
AcDbArc
 50
66.5290068818
 51
117.5972958686
  0
ARC
  5
41B
100
AcDbEntity
  8
0
100
AcDbCircle
 62
7
  6
CONTINUOUS
 10
10.6656038622
 20
12.6668939029
 40
0.06
100
AcDbArc
 50
78.8431825532
 51
109.2900462192
  0
ARC
  5
41C
100
AcDbEntity
  8
0
100
AcDbCircle
 62
7
  6
CONTINUOUS
 10
10.5335445563
 20
12.7478108664
 40
0.06
100
AcDbArc
 50
246.5290068818
 51
289.2900462192
  0
ARC
  5
41D
100
AcDbEntity
  8
0
100
AcDbCircle
 62
9
  6
CONTINUOUS
 10
10.6221472207
 20
13.0584275091
 40
1.0866048345
100
AcDbArc
 50
180.0004295337
 51
180.3923168618
  0
ARC
  5
41E
100
AcDbEntity
  8
0
100
AcDbCircle
 62
9
  6
CONTINUOUS
 10
10.5543694499
 20
13.0594910793
 40
1.0188276273
100
AcDbArc
 50
177.2615031256
 51
180.0602700824
  0
ARC
  5
41F
100
AcDbEntity
  8
0
100
AcDbCircle
 62
7
  6
CONTINUOUS
 10
10.4517388611
 20
13.0584145851
 40
0.9337074838
100
AcDbArc
 50
179.9997068058
 51
180.4766337833
  0
ARC
  5
420
100
AcDbEntity
  8
0
100
AcDbCircle
 62
7
  6
CONTINUOUS
 10
10.4391943885
 20
13.0581227585
 40
0.9212999434
100
AcDbArc
 50
180.4750283865
 51
182.0524849339
  0
ARC
  5
421
100
AcDbEntity
  8
0
100
AcDbCircle
 62
7
  6
CONTINUOUS
 10
10.4177587621
 20
13.0590247666
 40
0.8998661783
100
AcDbArc
 50
177.6805201775
 51
180.0385469169
  0
ARC
  5
422
100
AcDbEntity
  8
0
100
AcDbCircle
 62
7
  6
CONTINUOUS
 10
9.9182682328
 20
13.1487257143
 40
0.2599399117
100
AcDbArc
 50
75.3243435653
 51
107.8709715944
  0
ARC
  5
423
100
AcDbEntity
  8
0
100
AcDbCircle
 62
7
  6
CONTINUOUS
 10
9.9173017828
 20
13.1514228171
 40
0.2570738236
100
AcDbArc
 50
107.8549557847
 51
116.1327342224
  0
ARC
  5
424
100
AcDbEntity
  8
0
100
AcDbCircle
 62
7
  6
CONTINUOUS
 10
9.9138489044
 20
13.2994696047
 40
0.2555072369
100
AcDbArc
 50
73.1683571678
 51
74.0865769295
  0
ARC
  5
425
100
AcDbEntity
  8
0
100
AcDbCircle
 62
7
  6
CONTINUOUS
 10
9.9197188959
 20
13.1544472593
 40
0.2540375124
100
AcDbArc
 50
72.962779656
 51
75.3139235744
  0
ARC
  5
426
100
AcDbEntity
  8
0
100
AcDbCircle
 62
7
  6
CONTINUOUS
 10
9.9111313424
 20
13.3075155915
 40
0.2513869361
100
AcDbArc
 50
68.3877197939
 51
72.8745391193
  0
ARC
  5
427
100
AcDbEntity
  8
0
100
AcDbCircle
 62
7
  6
CONTINUOUS
 10
9.9152535527
 20
13.3039343112
 40
0.2508270744
100
AcDbArc
 50
69.6679285035
 51
73.1801600873
  0
ARC
  5
428
100
AcDbEntity
  8
0
100
AcDbCircle
 62
7
  6
CONTINUOUS
 10
9.9208778065
 20
13.1582542051
 40
0.2500580835
100
AcDbArc
 50
71.4091844925
 51
72.9610940362
  0
ARC
  5
429
100
AcDbEntity
  8
0
100
AcDbCircle
 62
7
  6
CONTINUOUS
 10
10.1656024774
 20
13.0584194621
 40
0.153635467
100
AcDbArc
 50
323.6033409044
 51
36.3740308348
  0
ARC
  5
42A
100
AcDbEntity
  8
0
100
AcDbCircle
 62
7
  6
CONTINUOUS
 10
9.9804888531
 20
13.4649955874
 40
0.0630327826
100
AcDbArc
 50
38.261372365
 51
63.863956843
  0
ARC
  5
42B
100
AcDbEntity
  8
0
100
AcDbCircle
 62
7
  6
CONTINUOUS
 10
9.9804978485
 20
13.4376921731
 40
0.0630203033
100
AcDbArc
 50
39.3884364557
 51
61.1359171438
  0
ARC
  5
42C
100
AcDbEntity
  8
0
100
AcDbCircle
 62
7
  6
CONTINUOUS
 10
9.9805075302
 20
13.3367050514
 40
0.0630070539
100
AcDbArc
 50
41.1219336694
 51
59.9941378451
  0
ARC
  5
42D
100
AcDbEntity
  8
0
100
AcDbCircle
 62
7
  6
CONTINUOUS
 10
9.9805075366
 20
13.3700731986
 40
0.0630070449
100
AcDbArc
 50
41.1214258258
 51
60.0008936524
  0
ARC
  5
42E
100
AcDbEntity
  8
0
100
AcDbCircle
 62
7
  6
CONTINUOUS
 10
9.9805076022
 20
13.403441402
 40
0.0630069548
100
AcDbArc
 50
41.1309875519
 51
59.9941540444
  0
ARC
  5
42F
100
AcDbEntity
  8
0
100
AcDbCircle
 62
7
  6
CONTINUOUS
 10
9.9805380921
 20
13.3355767861
 40
0.0629645033
100
AcDbArc
 50
44.1486061617
 51
71.3683497295
  0
ARC
  5
430
100
AcDbEntity
  8
0
100
AcDbCircle
 62
7
  6
CONTINUOUS
 10
10.3435880209
 20
13.4187094662
 40
0.06
100
AcDbArc
 50
242.4027041314
 51
293.4709931182
  0
ARC
  5
431
100
AcDbEntity
  8
0
100
AcDbCircle
 62
7
  6
CONTINUOUS
 10
10.5335445563
 20
13.3703664425
 40
0.06
100
AcDbArc
 50
70.7099537808
 51
113.4709931182
  0
ARC
  5
432
100
AcDbEntity
  8
0
100
AcDbCircle
 62
7
  6
CONTINUOUS
 10
10.6656038622
 20
13.451283406
 40
0.06
100
AcDbArc
 50
250.7099537808
 51
281.1568174468
  0
ARC
  5
433
100
AcDbEntity
  8
0
100
AcDbCircle
 62
7
  6
CONTINUOUS
 10
10.3435880209
 20
13.4173708835
 40
0.06
100
AcDbArc
 50
242.4027041314
 51
293.4709931182
  0
ARC
  5
434
100
AcDbEntity
  8
0
100
AcDbCircle
 62
7
  6
CONTINUOUS
 10
10.5335445563
 20
13.3690278598
 40
0.06
100
AcDbArc
 50
70.7099537808
 51
113.4709931182
  0
ARC
  5
435
100
AcDbEntity
  8
0
100
AcDbCircle
 62
7
  6
CONTINUOUS
 10
10.6656038622
 20
13.4499448233
 40
0.06
100
AcDbArc
 50
250.7099537808
 51
281.1568174468
  0
ARC
  5
436
100
AcDbEntity
  8
0
100
AcDbCircle
 62
9
  6
CONTINUOUS
 10
9.7073160344
 20
14.1751464759
 40
1.5175455827
100
AcDbArc
 50
278.9969042226
 51
286.5353045566
  0
ARC
  5
437
100
AcDbEntity
  8
0
100
AcDbCircle
 62
9
  6
CONTINUOUS
 10
10.105072132
 20
14.1751457541
 40
1.5175448497
100
AcDbArc
 50
253.4602756648
 51
261.0030963281
  0
ARC
  5
438
100
AcDbEntity
  8
0
100
AcDbCircle
 62
9
  6
CONTINUOUS
 10
9.7101373487
 20
14.1655027364
 40
1.5074977018
100
AcDbArc
 50
286.5368259639
 51
287.9807473733
  0
ARC
  5
439
100
AcDbEntity
  8
0
100
AcDbCircle
 62
9
  6
CONTINUOUS
 10
10.1022471935
 20
14.1654908308
 40
1.507485219
100
AcDbArc
 50
252.0192486215
 51
253.4587358206
  0
ARC
  5
43A
100
AcDbEntity
  8
0
100
AcDbCircle
 62
7
  6
CONTINUOUS
 10
9.8356146744
 20
14.7463974083
 40
1.2277822514
100
AcDbArc
 50
267.5475349099
 51
267.7637049581
  0
ARC
  5
43B
100
AcDbEntity
  8
0
100
AcDbCircle
 62
7
  6
CONTINUOUS
 10
9.9224031334
 20
14.2760504263
 40
0.7778670443
100
AcDbArc
 50
260.4499318751
 51
260.8383972259
  0
ARC
  5
43C
100
AcDbEntity
  8
0
100
AcDbCircle
 62
7
  6
CONTINUOUS
 10
10.7781626516
 20
13.5047579458
 40
0.08
100
AcDbArc
 50
270.0
 51
360.0
  0
ARC
  5
43D
100
AcDbEntity
  8
0
100
AcDbCircle
 62
7
  6
CONTINUOUS
 10
9.9804647655
 20
13.4790935941
 40
0.0631074711
100
AcDbArc
 50
37.6651703363
 51
69.6380455731
  0
ARC
  5
43E
100
AcDbEntity
  8
0
100
AcDbCircle
 62
7
  6
CONTINUOUS
 10
9.9805783489
 20
13.4827341289
 40
0.0629017906
100
AcDbArc
 50
37.6123396868
 51
68.3702669231
  0
ARC
  5
43F
100
AcDbEntity
  8
0
100
AcDbCircle
 62
7
  6
CONTINUOUS
 10
9.8318308134
 20
13.481548496
 40
0.0628438561
100
AcDbArc
 50
110.344546005
 51
142.3844184218
  0
ARC
  5
440
100
AcDbEntity
  8
0
100
AcDbCircle
 62
7
  6
CONTINUOUS
 10
11.1573336137
 20
13.2601848616
 40
2.4827188018
100
AcDbArc
 50
9.2965967709
 51
15.0162737825
  0
ARC
  5
441
100
AcDbEntity
  8
0
100
AcDbCircle
 62
7
  6
CONTINUOUS
 10
11.1573336137
 20
13.2601848616
 40
2.4827188018
100
AcDbArc
 50
336.7547341089
 51
344.3390810972
  0
ARC
  5
442
100
AcDbEntity
  8
0
100
AcDbCircle
 62
7
  6
CONTINUOUS
 10
12.2316965016
 20
11.9184228483
 40
1.25
100
AcDbArc
 50
319.4790737315
 51
359.7503849747
  0
ARC
  5
443
100
AcDbEntity
  8
0
100
AcDbCircle
 62
7
  6
CONTINUOUS
 10
12.2315481082
 20
11.9183383984
 40
1.2499447367
100
AcDbArc
 50
279.0077271476
 51
289.2105087307
  0
ARC
  5
444
100
AcDbEntity
  8
0
100
AcDbCircle
 62
9
  6
CONTINUOUS
 10
12.2313870305
 20
11.91890922
 40
0.680582767
100
AcDbArc
 50
281.4409571471
 51
307.3242347711
  0
ARC
  5
445
100
AcDbEntity
  8
0
100
AcDbCircle
 62
7
  6
CONTINUOUS
 10
11.8416986369
 20
11.8684253988
 40
0.5
100
AcDbArc
 50
281.0006916271
 51
359.9993083729
  0
ARC
  5
446
100
AcDbEntity
  8
0
100
AcDbCircle
 62
7
  6
CONTINUOUS
 10
11.8416476448
 20
12.0684579016
 40
0.469
100
AcDbArc
 50
52.0339977482
 51
83.0751017558
  0
ARC
  5
447
100
AcDbEntity
  8
0
100
AcDbCircle
 62
7
  6
CONTINUOUS
 10
12.0914656134
 20
11.9118193267
 40
0.2502375486
100
AcDbArc
 50
0.0190722395
 51
38.105940785
  0
ARC
  5
448
100
AcDbEntity
  8
0
100
AcDbCircle
 62
7
  6
CONTINUOUS
 10
12.1230719549
 20
12.2597471209
 40
0.2500001629
100
AcDbArc
 50
21.4774286002
 51
55.7395362425
  0
ARC
  5
449
100
AcDbEntity
  8
0
100
AcDbCircle
 62
7
  6
CONTINUOUS
 10
12.3867059587
 20
12.1434193631
 40
0.125
100
AcDbArc
 50
90.0
 51
218.1249116221
  0
ARC
  5
44A
100
AcDbEntity
  8
0
100
AcDbCircle
 62
7
  6
CONTINUOUS
 10
12.1876941477
 20
12.5119193631
 40
0.0935
100
AcDbArc
 50
232.0339977482
 51
360.0
  0
ARC
  5
44B
100
AcDbEntity
  8
0
100
AcDbCircle
 62
7
  6
CONTINUOUS
 10
12.3323752501
 20
12.5916907165
 40
0.0511811024
100
AcDbArc
 50
180.0
 51
261.3638693749
  0
ARC
  5
44C
100
AcDbEntity
  8
0
100
AcDbCircle
 62
7
  6
CONTINUOUS
 10
11.0211941477
 20
13.4259193631
 40
0.05
100
AcDbArc
 50
96.9248982442
 51
180.0
  0
ARC
  5
44D
100
AcDbEntity
  8
0
100
AcDbCircle
 62
7
  6
CONTINUOUS
 10
11.0211941477
 20
12.6909193631
 40
0.05
100
AcDbArc
 50
180.0
 51
263.0751017558
  0
ARC
  5
44E
100
AcDbEntity
  8
0
100
AcDbCircle
 62
7
  6
CONTINUOUS
 10
10.8881626516
 20
12.5397579458
 40
0.03
100
AcDbArc
 50
180.0
 51
270.0
  0
ARC
  5
44F
100
AcDbEntity
  8
0
100
AcDbCircle
 62
7
  6
CONTINUOUS
 10
12.402984206
 20
12.2881044025
 40
0.0196850394
100
AcDbArc
 50
203.2452658911
 51
270.0
  0
ARC
  5
450
100
AcDbEntity
  8
0
100
AcDbCircle
 62
7
  6
CONTINUOUS
 10
12.9117059587
 20
9.7134492692
 40
3.9093008025
100
AcDbArc
 50
93.972218819
 51
98.6361306251
  0
ARC
  5
451
100
AcDbEntity
  8
0
100
AcDbCircle
 62
7
  6
CONTINUOUS
 10
12.9117059587
 20
9.7134492692
 40
3.9093008025
100
AcDbArc
 50
81.3638693749
 51
86.0277837167
  0
ARC
  5
452
100
AcDbEntity
  8
0
100
AcDbCircle
 62
7
  6
CONTINUOUS
 10
14.1163272521
 20
8.212013487
 40
1.8825540727
100
AcDbArc
 50
359.5591013088
 51
359.7570250048
  0
ARC
  5
453
100
AcDbEntity
  8
0
100
AcDbCircle
 62
7
  6
CONTINUOUS
 10
14.1230503107
 20
8.2105881308
 40
1.8758306036
100
AcDbArc
 50
359.4757598996
 51
359.8688687069
  0
ARC
  5
454
100
AcDbEntity
  8
0
100
AcDbCircle
 62
7
  6
CONTINUOUS
 10
14.2109436376
 20
8.2115949337
 40
1.7879367631
100
AcDbArc
 50
359.7575797107
 51
359.8997098177
  0
ARC
  5
455
100
AcDbEntity
  8
0
100
AcDbCircle
 62
7
  6
CONTINUOUS
 10
14.2149904665
 20
8.1884647192
 40
1.7834081771
100
AcDbArc
 50
0.6387688823
 51
0.754561111
  0
ARC
  5
456
100
AcDbEntity
  8
0
100
AcDbCircle
 62
7
  6
CONTINUOUS
 10
14.2152150505
 20
8.1871288172
 40
1.7831835735
100
AcDbArc
 50
0.6387649784
 51
0.7568252644
  0
ARC
  5
457
100
AcDbEntity
  8
0
100
AcDbCircle
 62
7
  6
CONTINUOUS
 10
14.2540144702
 20
8.18899765
 40
1.7443805393
100
AcDbArc
 50
0.7539380269
 51
1.0427517976
  0
ARC
  5
458
100
AcDbEntity
  8
0
100
AcDbCircle
 62
7
  6
CONTINUOUS
 10
14.267723179
 20
8.2101483548
 40
1.7311571112
100
AcDbArc
 50
359.8724652139
 51
0.0185263125
  0
ARC
  5
459
100
AcDbEntity
  8
0
100
AcDbCircle
 62
7
  6
CONTINUOUS
 10
14.273960371
 20
8.2114792035
 40
1.7249199236
100
AcDbArc
 50
359.8998900485
 51
0.0165001197
  0
ARC
  5
45A
100
AcDbEntity
  8
0
100
AcDbCircle
 62
7
  6
CONTINUOUS
 10
14.4616832365
 20
8.2118452069
 40
1.5371973109
100
AcDbArc
 50
0.0048608446
 51
0.7878720996
  0
ARC
  5
45B
100
AcDbEntity
  8
0
100
AcDbCircle
 62
7
  6
CONTINUOUS
 10
13.7319288262
 20
11.91180187
 40
0.2502347189
100
AcDbArc
 50
141.8902043234
 51
179.7317050977
  0
ARC
  5
45C
100
AcDbEntity
  8
0
100
AcDbCircle
 62
7
  6
CONTINUOUS
 10
13.4367059587
 20
12.1434193631
 40
0.125
100
AcDbArc
 50
321.8715656423
 51
90.0
  0
ARC
  5
45D
100
AcDbEntity
  8
0
100
AcDbCircle
 62
9
  6
CONTINUOUS
 10
14.3868900571
 20
12.4412931555
 40
0.1035706683
100
AcDbArc
 50
0.6116342711
 51
18.5281584437
  0
ARC
  5
45E
100
AcDbEntity
  8
0
100
AcDbCircle
 62
9
  6
CONTINUOUS
 10
14.3895149024
 20
12.4423300188
 40
0.1007525005
100
AcDbArc
 50
18.4434131899
 51
32.4249647667
  0
ARC
  5
45F
100
AcDbEntity
  8
0
100
AcDbCircle
 62
9
  6
CONTINUOUS
 10
14.3919541539
 20
12.4438242464
 40
0.0978923564
100
AcDbArc
 50
32.452265464
 51
35.7628583066
  0
ARC
  5
460
100
AcDbEntity
  8
0
100
AcDbCircle
 62
9
  6
CONTINUOUS
 10
14.393623703
 20
12.4450439941
 40
0.0958247543
100
AcDbArc
 50
35.7544766427
 51
44.6385191197
  0
ARC
  5
461
100
AcDbEntity
  8
0
100
AcDbCircle
 62
7
  6
CONTINUOUS
 10
13.4910366674
 20
12.5916907165
 40
0.0511811024
100
AcDbArc
 50
278.6361306251
 51
360.0
  0
ARC
  5
462
100
AcDbEntity
  8
0
100
AcDbCircle
 62
7
  6
CONTINUOUS
 10
13.4204277115
 20
12.2881044025
 40
0.0196850394
100
AcDbArc
 50
270.0
 51
336.7547341089
  0
ARC
  5
463
100
AcDbEntity
  8
0
100
AcDbCircle
 62
7
  6
CONTINUOUS
 10
11.3800718517
 20
14.3890356201
 40
4.7365605827
100
AcDbArc
 50
79.7468143017
 51
79.9925416501
  0
ARC
  5
464
100
AcDbEntity
  8
0
100
AcDbCircle
 62
7
  6
CONTINUOUS
 10
11.4201668272
 20
14.6084427278
 40
4.5135243681
100
AcDbArc
 50
80.0097698343
 51
80.1586867622
  0
ARC
  5
465
100
AcDbEntity
  8
0
100
AcDbCircle
 62
7
  6
CONTINUOUS
 10
11.1217059587
 20
15.0995286744
 40
1.39
100
AcDbArc
 50
346.1131090765
 51
15.2496931708
  0
ARC
  5
466
100
AcDbEntity
  8
0
100
AcDbCircle
 62
7
  6
CONTINUOUS
 10
12.3567059587
 20
15.8441563826
 40
1.0
100
AcDbArc
 50
343.5257501351
 51
16.8349806732
  0
ARC
  5
467
100
AcDbEntity
  8
0
100
AcDbCircle
 62
7
  6
CONTINUOUS
 10
11.8416476448
 20
14.0497194073
 40
0.469
100
AcDbArc
 50
289.7819666549
 51
307.9660022518
  0
ARC
  5
468
100
AcDbEntity
  8
0
100
AcDbCircle
 62
7
  6
CONTINUOUS
 10
11.8416476448
 20
14.0483808246
 40
0.469
100
AcDbArc
 50
276.9248982442
 51
307.9660022518
  0
ARC
  5
469
100
AcDbEntity
  8
0
100
AcDbCircle
 62
7
  6
CONTINUOUS
 10
12.0003819028
 20
13.8595964861
 40
0.2495333265
100
AcDbArc
 50
318.3621119132
 51
347.3398390699
  0
ARC
  5
46A
100
AcDbEntity
  8
0
100
AcDbCircle
 62
7
  6
CONTINUOUS
 10
12.3351702331
 20
14.7995212499
 40
0.14
100
AcDbArc
 50
295.0
 51
346.1131090764
  0
ARC
  5
46B
100
AcDbEntity
  8
0
100
AcDbCircle
 62
7
  6
CONTINUOUS
 10
12.1876941477
 20
13.6062579458
 40
0.0935
100
AcDbArc
 50
91.3866176966
 51
127.9660022518
  0
ARC
  5
46C
100
AcDbEntity
  8
0
100
AcDbCircle
 62
7
  6
CONTINUOUS
 10
12.1876941477
 20
13.6049193631
 40
0.0935
100
AcDbArc
 50
0.0
 51
127.9660022518
  0
ARC
  5
46D
100
AcDbEntity
  8
0
100
AcDbCircle
 62
7
  6
CONTINUOUS
 10
12.3323752501
 20
13.527825175
 40
0.0511811024
100
AcDbArc
 50
98.6361306251
 51
180.0
  0
ARC
  5
46E
100
AcDbEntity
  8
0
100
AcDbCircle
 62
7
  6
CONTINUOUS
 10
12.4598113131
 20
15.5463927638
 40
0.05
100
AcDbArc
 50
293.4958766066
 51
16.4742498649
  0
ARC
  5
46F
100
AcDbEntity
  8
0
100
AcDbCircle
 62
7
  6
CONTINUOUS
 10
12.4917059587
 20
15.4730256623
 40
0.03
100
AcDbArc
 50
113.4958766066
 51
195.2496931708
  0
ARC
  5
470
100
AcDbEntity
  8
0
100
AcDbCircle
 62
7
  6
CONTINUOUS
 10
12.3482059587
 20
14.6180256623
 40
0.03
100
AcDbArc
 50
115.0
 51
180.0
  0
ARC
  5
471
100
AcDbEntity
  8
0
100
AcDbCircle
 62
7
  6
CONTINUOUS
 10
10.8881626516
 20
13.5797579458
 40
0.03
100
AcDbArc
 50
90.0
 51
180.0
  0
ARC
  5
472
100
AcDbEntity
  8
0
100
AcDbCircle
 62
7
  6
CONTINUOUS
 10
12.2871515418
 20
13.8983406229
 40
0.0196850394
100
AcDbArc
 50
90.0
 51
164.9837262174
  0
ARC
  5
473
100
AcDbEntity
  8
0
100
AcDbCircle
 62
9
  6
CONTINUOUS
 10
12.7779538212
 20
18.7679763381
 40
0.2933076678
100
AcDbArc
 50
188.5559766052
 51
191.6410906968
  0
ARC
  5
474
100
AcDbEntity
  8
0
100
AcDbCircle
 62
7
  6
CONTINUOUS
 10
12.3792103488
 20
16.3949053281
 40
0.2099956099
100
AcDbArc
 50
301.4808058444
 51
53.250856315
  0
ARC
  5
475
100
AcDbEntity
  8
0
100
AcDbCircle
 62
7
  6
CONTINUOUS
 10
12.4326375697
 20
17.8569823226
 40
0.2090683891
100
AcDbArc
 50
302.6049200261
 51
32.9999999999
  0
ARC
  5
476
100
AcDbEntity
  8
0
100
AcDbCircle
 62
7
  6
CONTINUOUS
 10
12.4617059587
 20
16.1482534066
 40
0.05
100
AcDbArc
 50
343.1650193268
 51
57.4210296074
  0
ARC
  5
477
100
AcDbEntity
  8
0
100
AcDbCircle
 62
7
  6
CONTINUOUS
 10
12.5092059587
 20
18.1780256623
 40
0.03
100
AcDbArc
 50
90.0
 51
213.0
  0
ARC
  5
478
100
AcDbEntity
  8
0
100
AcDbCircle
 62
7
  6
CONTINUOUS
 10
12.5163456279
 20
18.2280256623
 40
0.02
100
AcDbArc
 50
181.0416266779
 51
270.0
  0
ARC
  5
479
100
AcDbEntity
  8
0
100
AcDbCircle
 62
7
  6
CONTINUOUS
 10
12.4967059587
 20
16.2030256623
 40
0.015
100
AcDbArc
 50
121.4808058452
 51
237.4210296072
  0
ARC
  5
47A
100
AcDbEntity
  8
0
100
AcDbCircle
 62
7
  6
CONTINUOUS
 10
14.419751574
 20
14.5232934453
 40
4.6002463411
100
AcDbArc
 50
100.0087402767
 51
100.1547751706
  0
ARC
  5
47B
100
AcDbEntity
  8
0
100
AcDbCircle
 62
7
  6
CONTINUOUS
 10
14.3729550907
 20
14.782313604
 40
4.337035122
100
AcDbArc
 50
99.7275743542
 51
99.9946442157
  0
ARC
  5
47C
100
AcDbEntity
  8
0
100
AcDbCircle
 62
7
  6
CONTINUOUS
 10
14.7017059587
 20
15.0995286744
 40
1.39
100
AcDbArc
 50
164.7503068292
 51
193.8868909235
  0
ARC
  5
47D
100
AcDbEntity
  8
0
100
AcDbCircle
 62
7
  6
CONTINUOUS
 10
13.4667059587
 20
15.8441563826
 40
1.0
100
AcDbArc
 50
163.1650193268
 51
196.4742498649
  0
ARC
  5
47E
100
AcDbEntity
  8
0
100
AcDbCircle
 62
7
  6
CONTINUOUS
 10
13.4882416843
 20
14.7995212499
 40
0.14
100
AcDbArc
 50
193.8868909236
 51
245.0
  0
ARC
  5
47F
100
AcDbEntity
  8
0
100
AcDbCircle
 62
7
  6
CONTINUOUS
 10
13.4910366674
 20
13.527825175
 40
0.0511811024
100
AcDbArc
 50
0.0
 51
81.3638693749
  0
ARC
  5
480
100
AcDbEntity
  8
0
100
AcDbCircle
 62
7
  6
CONTINUOUS
 10
13.3636006043
 20
15.5463927638
 40
0.05
100
AcDbArc
 50
163.5257501351
 51
246.5041233934
  0
ARC
  5
481
100
AcDbEntity
  8
0
100
AcDbCircle
 62
7
  6
CONTINUOUS
 10
13.3317059587
 20
15.4730256623
 40
0.03
100
AcDbArc
 50
344.7503068292
 51
66.5041233934
  0
ARC
  5
482
100
AcDbEntity
  8
0
100
AcDbCircle
 62
7
  6
CONTINUOUS
 10
13.4752059587
 20
14.6180256623
 40
0.03
100
AcDbArc
 50
0.0
 51
65.0
  0
ARC
  5
483
100
AcDbEntity
  8
0
100
AcDbCircle
 62
7
  6
CONTINUOUS
 10
13.5362603757
 20
13.8983406229
 40
0.0196850394
100
AcDbArc
 50
15.0162737827
 51
90.0
  0
ARC
  5
484
100
AcDbEntity
  8
0
100
AcDbCircle
 62
7
  6
CONTINUOUS
 10
12.9117059587
 20
16.4060666223
 40
3.9093008025
100
AcDbArc
 50
261.3638693749
 51
266.027781181
  0
ARC
  5
485
100
AcDbEntity
  8
0
100
AcDbCircle
 62
7
  6
CONTINUOUS
 10
12.9117059587
 20
16.4060666223
 40
3.9093008025
100
AcDbArc
 50
273.9722162833
 51
278.6361306251
  0
ARC
  5
486
100
AcDbEntity
  8
0
100
AcDbCircle
 62
7
  6
CONTINUOUS
 10
12.9117073758
 20
17.1080219732
 40
0.6799934144
100
AcDbArc
 50
306.7492342182
 51
57.3953461843
  0
ARC
  5
487
100
AcDbEntity
  8
0
100
AcDbCircle
 62
7
  6
CONTINUOUS
 10
12.911701743
 20
17.108029363
 40
0.6799917133
100
AcDbArc
 50
122.6047706604
 51
233.251337107
  0
ARC
  5
488
100
AcDbEntity
  8
0
100
AcDbCircle
 62
7
  6
CONTINUOUS
 10
12.9117059587
 20
17.1080256623
 40
0.5172452508
100
AcDbArc
 50
301.5840295478
 51
58.5377891667
  0
ARC
  5
489
100
AcDbEntity
  8
0
100
AcDbCircle
 62
7
  6
CONTINUOUS
 10
12.9117059587
 20
17.1080256623
 40
0.5172452508
100
AcDbArc
 50
121.5097213445
 51
238.5510716111
  0
ARC
  5
48A
100
AcDbEntity
  8
0
100
AcDbCircle
 62
7
  6
CONTINUOUS
 10
12.9117059587
 20
17.1080256623
 40
0.5
100
AcDbArc
 50
303.0595487442
 51
56.9404512558
  0
ARC
  5
48B
100
AcDbEntity
  8
0
100
AcDbCircle
 62
7
  6
CONTINUOUS
 10
12.9117059587
 20
17.1080256623
 40
0.5
100
AcDbArc
 50
123.0595487442
 51
236.9404512558
  0
ARC
  5
48C
100
AcDbEntity
  8
0
100
AcDbCircle
 62
7
  6
CONTINUOUS
 10
12.9117059587
 20
17.1080256623
 40
0.481
100
AcDbArc
 50
140.6826645581
 51
159.3173354419
  0
ARC
  5
48D
100
AcDbEntity
  8
0
100
AcDbCircle
 62
7
  6
CONTINUOUS
 10
12.9117059587
 20
17.1080256623
 40
0.481
100
AcDbArc
 50
200.6826645581
 51
219.317335442
  0
ARC
  5
48E
100
AcDbEntity
  8
0
100
AcDbCircle
 62
7
  6
CONTINUOUS
 10
12.9117059587
 20
17.1080256623
 40
0.481
100
AcDbArc
 50
320.6826645581
 51
339.3173354419
  0
ARC
  5
48F
100
AcDbEntity
  8
0
100
AcDbCircle
 62
7
  6
CONTINUOUS
 10
12.9117059587
 20
17.1080256623
 40
0.481
100
AcDbArc
 50
20.6826645581
 51
39.317335442
  0
ARC
  5
490
100
AcDbEntity
  8
0
100
AcDbCircle
 62
7
  6
CONTINUOUS
 10
12.9117059587
 20
17.1080256623
 40
0.4165551275
100
AcDbArc
 50
130.9199922387
 51
229.0943347758
  0
ARC
  5
491
100
AcDbEntity
  8
0
100
AcDbCircle
 62
7
  6
CONTINUOUS
 10
12.9117059587
 20
17.1080256623
 40
0.4165551275
100
AcDbArc
 50
310.9199922388
 51
49.0943347759
  0
ARC
  5
492
100
AcDbEntity
  8
0
100
AcDbCircle
 62
7
  6
CONTINUOUS
 10
12.9117059587
 20
17.1080256623
 40
0.3
100
AcDbArc
 50
155.5552320955
 51
204.4970793227
  0
ARC
  5
493
100
AcDbEntity
  8
0
100
AcDbCircle
 62
7
  6
CONTINUOUS
 10
12.9117059587
 20
17.1080256623
 40
0.3
100
AcDbArc
 50
335.5552320955
 51
24.4970793227
  0
ARC
  5
494
100
AcDbEntity
  8
0
100
AcDbCircle
 62
7
  6
CONTINUOUS
 10
13.4442015687
 20
16.3949053281
 40
0.2099956099
100
AcDbArc
 50
126.749143685
 51
238.5191941556
  0
ARC
  5
495
100
AcDbEntity
  8
0
100
AcDbCircle
 62
7
  6
CONTINUOUS
 10
13.3617059587
 20
16.1482534066
 40
0.05
100
AcDbArc
 50
122.5789703926
 51
196.8349806732
  0
ARC
  5
496
100
AcDbEntity
  8
0
100
AcDbCircle
 62
7
  6
CONTINUOUS
 10
13.3267059587
 20
16.2030256623
 40
0.015
100
AcDbArc
 50
302.5789703928
 51
58.5191941548
  0
ARC
  5
497
100
AcDbEntity
  8
0
100
AcDbCircle
 62
7
  6
CONTINUOUS
 10
13.4953327562
 20
18.5115490671
 40
0.4907955276
100
AcDbArc
 50
99.405657136
 51
101.0539548685
  0
ARC
  5
498
100
AcDbEntity
  8
0
100
AcDbCircle
 62
7
  6
CONTINUOUS
 10
13.3907743478
 20
17.8569823226
 40
0.2090683891
100
AcDbArc
 50
147.0000000001
 51
237.3950799739
  0
ARC
  5
499
100
AcDbEntity
  8
0
100
AcDbCircle
 62
7
  6
CONTINUOUS
 10
13.3142059587
 20
18.1780256623
 40
0.03
100
AcDbArc
 50
327.0
 51
90.0
  0
ARC
  5
49A
100
AcDbEntity
  8
0
100
AcDbCircle
 62
7
  6
CONTINUOUS
 10
13.3070662896
 20
18.2280256623
 40
0.02
100
AcDbArc
 50
270.0
 51
358.9583733221
  0
ARC
  5
49B
100
AcDbEntity
  8
0
100
AcDbCircle
 62
9
  6
CONTINUOUS
 10
0.2934326411
 20
21.9837788325
 40
13.2028142474
100
AcDbArc
 50
354.9122243463
 51
355.0549952705
  0
ARC
  5
49C
100
AcDbEntity
  8
0
100
AcDbCircle
 62
7
  6
CONTINUOUS
 10
11.2883569299
 20
19.7295200028
 40
0.788
100
AcDbArc
 50
319.0941338576
 51
353.5781868592
  0
ARC
  5
49D
100
AcDbEntity
  8
0
100
AcDbCircle
 62
7
  6
CONTINUOUS
 10
12.8825721005
 20
19.9817579458
 40
0.768
100
AcDbArc
 50
139.355686794
 51
173.5781868591
  0
ARC
  5
49E
100
AcDbEntity
  8
0
100
AcDbCircle
 62
9
  6
CONTINUOUS
 10
12.0837433788
 20
19.5444555532
 40
0.6369202465
100
AcDbArc
 50
28.7646472114
 51
30.2757690396
  0
ARC
  5
49F
100
AcDbEntity
  8
0
100
AcDbCircle
 62
7
  6
CONTINUOUS
 10
12.9109459943
 20
20.3635696962
 40
0.5944052162
100
AcDbArc
 50
228.2555818939
 51
228.6385471534
  0
ARC
  5
4A0
100
AcDbEntity
  8
0
100
AcDbCircle
 62
7
  6
CONTINUOUS
 10
12.9098875245
 20
20.3628904977
 40
0.5931866134
100
AcDbArc
 50
185.0934830459
 51
228.2881835969
  0
ARC
  5
4A1
100
AcDbEntity
  8
0
100
AcDbCircle
 62
9
  6
CONTINUOUS
 10
12.802454366
 20
20.3796990398
 40
0.5410904047
100
AcDbArc
 50
251.8381198089
 51
252.6963127137
  0
ARC
  5
4A2
100
AcDbEntity
  8
0
100
AcDbCircle
 62
9
  6
CONTINUOUS
 10
12.9100046308
 20
20.3570208927
 40
0.5083142291
100
AcDbArc
 50
185.1002521685
 51
237.7914438727
  0
ARC
  5
4A3
100
AcDbEntity
  8
0
100
AcDbCircle
 62
7
  6
CONTINUOUS
 10
12.1762440582
 20
19.5585755305
 40
0.4991069926
100
AcDbArc
 50
28.3299849838
 51
33.9036895332
  0
ARC
  5
4A4
100
AcDbEntity
  8
0
100
AcDbCircle
 62
9
  6
CONTINUOUS
 10
12.9102892513
 20
20.3571074082
 40
0.4886090731
100
AcDbArc
 50
185.1089781705
 51
236.6264915091
  0
ARC
  5
4A5
100
AcDbEntity
  8
0
100
AcDbCircle
 62
7
  6
CONTINUOUS
 10
12.1864601719
 20
19.5638530255
 40
0.4875753263
100
AcDbArc
 50
24.2426211014
 51
28.3805044333
  0
ARC
  5
4A6
100
AcDbEntity
  8
0
100
AcDbCircle
 62
7
  6
CONTINUOUS
 10
12.1880274065
 20
19.5648899864
 40
0.4857384291
100
AcDbArc
 50
24.1527615883
 51
28.333949168
  0
ARC
  5
4A7
100
AcDbEntity
  8
0
100
AcDbCircle
 62
7
  6
CONTINUOUS
 10
12.2001147247
 20
19.562065557
 40
0.4771362058
100
AcDbArc
 50
35.1560244877
 51
37.0513463207
  0
ARC
  5
4A8
100
AcDbEntity
  8
0
100
AcDbCircle
 62
7
  6
CONTINUOUS
 10
12.1978716274
 20
19.5690026473
 40
0.4750556685
100
AcDbArc
 50
22.0614833023
 51
24.1065417421
  0
ARC
  5
4A9
100
AcDbEntity
  8
0
100
AcDbCircle
 62
7
  6
CONTINUOUS
 10
12.2019471806
 20
19.5633257987
 40
0.4749123608
100
AcDbArc
 50
31.887164369
 51
35.1590140523
  0
ARC
  5
4AA
100
AcDbEntity
  8
0
100
AcDbCircle
 62
7
  6
CONTINUOUS
 10
12.2006733554
 20
19.5701920571
 40
0.472012338
100
AcDbArc
 50
20.108545043
 51
24.0755286978
  0
ARC
  5
4AB
100
AcDbEntity
  8
0
100
AcDbCircle
 62
7
  6
CONTINUOUS
 10
12.2059324696
 20
19.5657940409
 40
0.4702246474
100
AcDbArc
 50
29.2810264182
 51
31.8883172473
  0
ARC
  5
4AC
100
AcDbEntity
  8
0
100
AcDbCircle
 62
7
  6
CONTINUOUS
 10
12.2153503068
 20
19.5709527615
 40
0.4594870301
100
AcDbArc
 50
24.8805065808
 51
29.2943197539
  0
ARC
  5
4AD
100
AcDbEntity
  8
0
100
AcDbCircle
 62
7
  6
CONTINUOUS
 10
12.2206913215
 20
19.5735671443
 40
0.453541805
100
AcDbArc
 50
20.3612259936
 51
24.8647628078
  0
ARC
  5
4AE
100
AcDbEntity
  8
0
100
AcDbCircle
 62
9
  6
CONTINUOUS
 10
12.1571628488
 20
18.9688683357
 40
0.440505929
100
AcDbArc
 50
336.8132816033
 51
338.8019790922
  0
ARC
  5
4AF
100
AcDbEntity
  8
0
100
AcDbCircle
 62
7
  6
CONTINUOUS
 10
11.9217059587
 20
19.1807823535
 40
0.05
100
AcDbArc
 50
139.0941338567
 51
180.0
  0
ARC
  5
4B0
100
AcDbEntity
  8
0
100
AcDbCircle
 62
7
  6
CONTINUOUS
 10
12.0967059587
 20
19.082392219
 40
0.01
100
AcDbArc
 50
180.0
 51
259.9999999997
  0
ARC
  5
4B1
100
AcDbEntity
  8
0
100
AcDbCircle
 62
7
  6
CONTINUOUS
 10
12.0767059587
 20
19.0877579458
 40
0.01
100
AcDbArc
 50
0.0
 51
90.0
  0
ARC
  5
4B2
100
AcDbEntity
  8
0
100
AcDbCircle
 62
7
  6
CONTINUOUS
 10
12.2717059587
 20
19.0312264652
 40
0.01
100
AcDbArc
 50
0.0
 51
79.9999999997
  0
ARC
  5
4B3
100
AcDbEntity
  8
0
100
AcDbCircle
 62
7
  6
CONTINUOUS
 10
12.2917059587
 20
19.0236382191
 40
0.01
100
AcDbArc
 50
180.0
 51
259.9999999997
  0
ARC
  5
4B4
100
AcDbEntity
  8
0
100
AcDbCircle
 62
7
  6
CONTINUOUS
 10
12.4667059587
 20
18.9684107588
 40
0.01
100
AcDbArc
 50
180.0
 51
259.9999999997
  0
ARC
  5
4B5
100
AcDbEntity
  8
0
100
AcDbCircle
 62
7
  6
CONTINUOUS
 10
12.4467059587
 20
18.9759990049
 40
0.01
100
AcDbArc
 50
0.0
 51
79.9999999997
  0
ARC
  5
4B6
100
AcDbEntity
  8
0
100
AcDbCircle
 62
9
  6
CONTINUOUS
 10
12.2563671701
 20
21.9714700106
 40
1.1648581658
100
AcDbArc
 50
273.4695299525
 51
275.0677022161
  0
ARC
  5
4B7
100
AcDbEntity
  8
0
100
AcDbCircle
 62
9
  6
CONTINUOUS
 10
12.8341104411
 20
20.5327945437
 40
0.6961953848
100
AcDbArc
 50
248.5409827239
 51
249.6681637923
  0
ARC
  5
4B8
100
AcDbEntity
  8
0
100
AcDbCircle
 62
7
  6
CONTINUOUS
 10
12.3791840351
 20
20.8237420099
 40
0.0849999525
100
AcDbArc
 50
5.1069852101
 51
95.0614804122
  0
ARC
  5
4B9
100
AcDbEntity
  8
0
100
AcDbCircle
 62
7
  6
CONTINUOUS
 10
12.3592616344
 20
20.8219780519
 40
0.084999121
100
AcDbArc
 50
95.0645271075
 51
179.9980587825
  0
ARC
  5
4BA
100
AcDbEntity
  8
0
100
AcDbCircle
 62
9
  6
CONTINUOUS
 10
12.3792623382
 20
20.8187123973
 40
0.084940704
100
AcDbArc
 50
5.1646329291
 51
95.1299370543
  0
ARC
  5
4BB
100
AcDbEntity
  8
0
100
AcDbCircle
 62
7
  6
CONTINUOUS
 10
12.3591191149
 20
20.817009831
 40
0.0848587779
100
AcDbArc
 50
94.984670287
 51
179.9427934288
  0
ARC
  5
4BC
100
AcDbEntity
  8
0
100
AcDbCircle
 62
9
  6
CONTINUOUS
 10
12.3794580628
 20
20.8237079025
 40
0.0847284139
100
AcDbArc
 50
5.1007452655
 51
95.0703062323
  0
ARC
  5
4BD
100
AcDbEntity
  8
0
100
AcDbCircle
 62
9
  6
CONTINUOUS
 10
12.3588791352
 20
20.8219921525
 40
0.0846115284
100
AcDbArc
 50
95.0470330977
 51
180.0099196873
  0
ARC
  5
4BE
100
AcDbEntity
  8
0
100
AcDbCircle
 62
7
  6
CONTINUOUS
 10
13.650322048
 20
19.5566772723
 40
0.5027511
100
AcDbArc
 50
146.1148428405
 51
151.6127024264
  0
ARC
  5
4BF
100
AcDbEntity
  8
0
100
AcDbCircle
 62
7
  6
CONTINUOUS
 10
13.6370024731
 20
19.5638246652
 40
0.4876350736
100
AcDbArc
 50
151.6074659048
 51
155.7398605735
  0
ARC
  5
4C0
100
AcDbEntity
  8
0
100
AcDbCircle
 62
7
  6
CONTINUOUS
 10
13.6353382856
 20
19.5649165693
 40
0.4856834786
100
AcDbArc
 50
151.6780454033
 51
155.8649988497
  0
ARC
  5
4C1
100
AcDbEntity
  8
0
100
AcDbCircle
 62
7
  6
CONTINUOUS
 10
13.623315398
 20
19.5620619415
 40
0.4771508977
100
AcDbArc
 50
142.9521745642
 51
144.840430078
  0
ARC
  5
4C2
100
AcDbEntity
  8
0
100
AcDbCircle
 62
7
  6
CONTINUOUS
 10
13.6263349486
 20
19.5690556809
 40
0.4757747454
100
AcDbArc
 50
155.9421837143
 51
156.5258025789
  0
ARC
  5
4C3
100
AcDbEntity
  8
0
100
AcDbCircle
 62
7
  6
CONTINUOUS
 10
13.6217158259
 20
19.5631660937
 40
0.4752057069
100
AcDbArc
 50
144.8401338428
 51
148.1117619401
  0
ARC
  5
4C4
100
AcDbEntity
  8
0
100
AcDbCircle
 62
7
  6
CONTINUOUS
 10
13.6237986321
 20
19.5702243921
 40
0.4729841165
100
AcDbArc
 50
158.0034215504
 51
159.5906230774
  0
ARC
  5
4C5
100
AcDbEntity
  8
0
100
AcDbCircle
 62
7
  6
CONTINUOUS
 10
13.6225688694
 20
19.5702625968
 40
0.4718306578
100
AcDbArc
 50
155.8680426073
 51
159.5429785163
  0
ARC
  5
4C6
100
AcDbEntity
  8
0
100
AcDbCircle
 62
7
  6
CONTINUOUS
 10
13.6178181518
 20
19.5655806
 40
0.4706207725
100
AcDbArc
 50
148.110679421
 51
150.6765579715
  0
ARC
  5
4C7
100
AcDbEntity
  8
0
100
AcDbCircle
 62
7
  6
CONTINUOUS
 10
13.6094128005
 20
19.5702278624
 40
0.4610164653
100
AcDbArc
 50
150.6685261404
 51
155.1727242794
  0
ARC
  5
4C8
100
AcDbEntity
  8
0
100
AcDbCircle
 62
7
  6
CONTINUOUS
 10
13.6025999805
 20
19.5735697482
 40
0.4534301297
100
AcDbArc
 50
155.1945121136
 51
159.6330695184
  0
ARC
  5
4C9
100
AcDbEntity
  8
0
100
AcDbCircle
 62
7
  6
CONTINUOUS
 10
13.5317059587
 20
19.0236382191
 40
0.01
100
AcDbArc
 50
280.0000000003
 51
360.0
  0
ARC
  5
4CA
100
AcDbEntity
  8
0
100
AcDbCircle
 62
7
  6
CONTINUOUS
 10
13.5517059587
 20
19.0312264652
 40
0.01
100
AcDbArc
 50
100.0000000003
 51
180.0
  0
ARC
  5
4CB
100
AcDbEntity
  8
0
100
AcDbCircle
 62
7
  6
CONTINUOUS
 10
13.3767059587
 20
18.9759990049
 40
0.01
100
AcDbArc
 50
100.0000000003
 51
180.0
  0
ARC
  5
4CC
100
AcDbEntity
  8
0
100
AcDbCircle
 62
7
  6
CONTINUOUS
 10
13.3567059587
 20
18.9684107588
 40
0.01
100
AcDbArc
 50
280.0000000003
 51
360.0
  0
ARC
  5
4CD
100
AcDbEntity
  8
0
100
AcDbCircle
 62
7
  6
CONTINUOUS
 10
12.940839817
 20
19.9817579458
 40
0.768
100
AcDbArc
 50
6.4218131408
 51
40.644313206
  0
ARC
  5
4CE
100
AcDbEntity
  8
0
100
AcDbCircle
 62
7
  6
CONTINUOUS
 10
12.9124634586
 20
20.3635723934
 40
0.594408859
100
AcDbArc
 50
311.3614521548
 51
311.7444232086
  0
ARC
  5
4CF
100
AcDbEntity
  8
0
100
AcDbCircle
 62
7
  6
CONTINUOUS
 10
12.9134415612
 20
20.3629328326
 40
0.5932769295
100
AcDbArc
 50
311.7150685438
 51
354.9031548094
  0
ARC
  5
4D0
100
AcDbEntity
  8
0
100
AcDbCircle
 62
9
  6
CONTINUOUS
 10
13.0209629864
 20
20.3796837334
 40
0.5410741667
100
AcDbArc
 50
287.3037611315
 51
288.161838584
  0
ARC
  5
4D1
100
AcDbEntity
  8
0
100
AcDbCircle
 62
7
  6
CONTINUOUS
 10
12.9117059587
 20
20.3997579458
 40
0.54
100
AcDbArc
 50
35.6422950121
 51
144.2886464709
  0
ARC
  5
4D2
100
AcDbEntity
  8
0
100
AcDbCircle
 62
9
  6
CONTINUOUS
 10
12.9134129613
 20
20.3570178309
 40
0.5083079749
100
AcDbArc
 50
302.2085301478
 51
354.9000347334
  0
ARC
  5
4D3
100
AcDbEntity
  8
0
100
AcDbCircle
 62
9
  6
CONTINUOUS
 10
12.9131226503
 20
20.3571074177
 40
0.4886090731
100
AcDbArc
 50
303.3735094294
 51
354.8910208857
  0
ARC
  5
4D4
100
AcDbEntity
  8
0
100
AcDbCircle
 62
7
  6
CONTINUOUS
 10
12.9117059587
 20
20.3980256623
 40
0.45
100
AcDbArc
 50
307.2240652511
 51
232.7816773979
  0
ARC
  5
4D5
100
AcDbEntity
  8
0
100
AcDbCircle
 62
7
  6
CONTINUOUS
 10
12.9117059587
 20
20.3997579458
 40
0.45
100
AcDbArc
 50
19.7362337178
 51
160.2637662822
  0
ARC
  5
4D6
100
AcDbEntity
  8
0
100
AcDbCircle
 62
7
  6
CONTINUOUS
 10
12.9117059587
 20
20.3980256623
 40
0.4290186125
100
AcDbArc
 50
309.4716690467
 51
230.5345767392
  0
ARC
  5
4D7
100
AcDbEntity
  8
0
100
AcDbCircle
 62
7
  6
CONTINUOUS
 10
12.9117059587
 20
20.3980256623
 40
0.4262436548
100
AcDbArc
 50
309.7787508711
 51
230.2132620092
  0
ARC
  5
4D8
100
AcDbEntity
  8
0
100
AcDbCircle
 62
7
  6
CONTINUOUS
 10
12.9117059587
 20
20.3980256623
 40
0.4184602369
100
AcDbArc
 50
63.6555586134
 51
116.3444413866
  0
ARC
  5
4D9
100
AcDbEntity
  8
0
100
AcDbCircle
 62
9
  6
CONTINUOUS
 10
12.9117059587
 20
20.3980256623
 40
0.4106539279
100
AcDbArc
 50
311.1953908491
 51
65.9483211003
  0
ARC
  5
4DA
100
AcDbEntity
  8
0
100
AcDbCircle
 62
9
  6
CONTINUOUS
 10
12.9117059587
 20
20.3980256623
 40
0.4106539279
100
AcDbArc
 50
114.0520586448
 51
228.8046021797
  0
ARC
  5
4DB
100
AcDbEntity
  8
0
100
AcDbCircle
 62
9
  6
CONTINUOUS
 10
12.9117059587
 20
20.3980256623
 40
0.3906653701
100
AcDbArc
 50
106.2804921621
 51
225.7982183496
  0
ARC
  5
4DC
100
AcDbEntity
  8
0
100
AcDbCircle
 62
9
  6
CONTINUOUS
 10
12.9117059587
 20
20.3980256623
 40
0.3906653701
100
AcDbArc
 50
314.2019388065
 51
73.7195078379
  0
ARC
  5
4DD
100
AcDbEntity
  8
0
100
AcDbCircle
 62
7
  6
CONTINUOUS
 10
12.9117059587
 20
20.3980256623
 40
0.27
100
AcDbArc
 50
0.0
 51
180.0
  0
ARC
  5
4DE
100
AcDbEntity
  8
0
100
AcDbCircle
 62
9
  6
CONTINUOUS
 10
13.7393903895
 20
19.5446231132
 40
0.6365964431
100
AcDbArc
 50
149.7247666836
 51
151.2365306734
  0
ARC
  5
4DF
100
AcDbEntity
  8
0
100
AcDbCircle
 62
7
  6
CONTINUOUS
 10
13.9017059587
 20
19.1807823535
 40
0.05
100
AcDbArc
 50
0.0
 51
40.9058661425
  0
ARC
  5
4E0
100
AcDbEntity
  8
0
100
AcDbCircle
 62
7
  6
CONTINUOUS
 10
13.7467059587
 20
19.0877579458
 40
0.01
100
AcDbArc
 50
90.0
 51
180.0
  0
ARC
  5
4E1
100
AcDbEntity
  8
0
100
AcDbCircle
 62
7
  6
CONTINUOUS
 10
13.7267059587
 20
19.082392219
 40
0.01
100
AcDbArc
 50
280.0000000003
 51
360.0
  0
ARC
  5
4E2
100
AcDbEntity
  8
0
100
AcDbCircle
 62
7
  6
CONTINUOUS
 10
14.5350549875
 20
19.7295200028
 40
0.788
100
AcDbArc
 50
186.4218131409
 51
220.9058661424
  0
ARC
  5
4E3
100
AcDbEntity
  8
0
100
AcDbCircle
 62
9
  6
CONTINUOUS
 10
13.563730703
 20
21.9270693634
 40
1.1203385132
100
AcDbArc
 50
264.900541772
 51
266.5622260593
  0
ARC
  5
4E4
100
AcDbEntity
  8
0
100
AcDbCircle
 62
7
  6
CONTINUOUS
 10
13.4442279167
 20
20.823741959
 40
0.0850000002
100
AcDbArc
 50
84.9565623323
 51
174.9139256117
  0
ARC
  5
4E5
100
AcDbEntity
  8
0
100
AcDbCircle
 62
7
  6
CONTINUOUS
 10
13.4641501401
 20
20.8219777313
 40
0.0849993778
100
AcDbArc
 50
0.0178575238
 51
84.9385275501
  0
ARC
  5
4E6
100
AcDbEntity
  8
0
100
AcDbCircle
 62
9
  6
CONTINUOUS
 10
13.4441285455
 20
20.8235669418
 40
0.0849486647
100
AcDbArc
 50
84.9929952733
 51
174.8396563447
  0
ARC
  5
4E7
100
AcDbEntity
  8
0
100
AcDbCircle
 62
9
  6
CONTINUOUS
 10
13.44414958
 20
20.8187123979
 40
0.084940704
100
AcDbArc
 50
84.8700634299
 51
174.8353675541
  0
ARC
  5
4E8
100
AcDbEntity
  8
0
100
AcDbCircle
 62
7
  6
CONTINUOUS
 10
13.4642928073
 20
20.8170098332
 40
0.0848587836
100
AcDbArc
 50
0.0572051222
 51
85.0153327681
  0
ARC
  5
4E9
100
AcDbEntity
  8
0
100
AcDbCircle
 62
9
  6
CONTINUOUS
 10
13.4643609647
 20
20.8219033633
 40
0.0848002519
100
AcDbArc
 50
0.0548561438
 51
84.9533642181
  0
ARC
  5
4EA
100
AcDbEntity
  8
0
100
AcDbCircle
 62
9
  6
CONTINUOUS
 10
13.2868042676
 20
50.0094267691
 40
37.9443875391
100
AcDbArc
 50
269.8417532968
 51
270.0066154225
  0
ARC
  5
4EB
100
AcDbEntity
  8
0
100
AcDbCircle
 62
9
  6
CONTINUOUS
 10
13.2328157946
 20
40.323116177
 40
28.4120529792
100
AcDbArc
 50
269.8997866023
 51
270.05001242
  0
ARC
  5
4EC
100
AcDbEntity
  8
0
100
AcDbCircle
 62
7
  6
CONTINUOUS
 10
30.8772116537
 20
11.5597732628
 40
15.3362304555
100
AcDbArc
 50
179.9546871628
 51
180.7900135352
  0
ARC
  5
4ED
100
AcDbEntity
  8
0
100
AcDbCircle
 62
7
  6
CONTINUOUS
 10
16.1855605297
 20
8.2143820202
 40
2.1440958772
100
AcDbArc
 50
180.5242592866
 51
180.8658038501
  0
ARC
  5
4EE
100
AcDbEntity
  8
0
100
AcDbCircle
 62
7
  6
CONTINUOUS
 10
15.9095080784
 20
8.2118737976
 40
1.8680320319
100
AcDbArc
 50
180.1035694799
 51
180.5248034363
  0
ARC
  5
4EF
100
AcDbEntity
  8
0
100
AcDbCircle
 62
7
  6
CONTINUOUS
 10
15.890321336
 20
8.2104655704
 40
1.8488452532
100
AcDbArc
 50
180.1241150546
 51
180.4424521955
  0
ARC
  5
4F0
100
AcDbEntity
  8
0
100
AcDbCircle
 62
7
  6
CONTINUOUS
 10
15.8253680921
 20
8.1871261393
 40
1.7834099325
100
AcDbArc
 50
179.2454439862
 51
179.3612351586
  0
ARC
  5
4F1
100
AcDbEntity
  8
0
100
AcDbCircle
 62
7
  6
CONTINUOUS
 10
15.8251400123
 20
8.1884673968
 40
1.7831818407
100
AcDbArc
 50
179.243169721
 51
179.3612310439
  0
ARC
  5
4F2
100
AcDbEntity
  8
0
100
AcDbCircle
 62
7
  6
CONTINUOUS
 10
15.7871985086
 20
8.1889853166
 40
1.745236806
100
AcDbArc
 50
178.9687604627
 51
179.2437184078
  0
ARC
  5
4F3
100
AcDbEntity
  8
0
100
AcDbCircle
 62
7
  6
CONTINUOUS
 10
15.7715109255
 20
8.2101429453
 40
1.7300344237
100
AcDbArc
 50
179.9836300303
 51
180.121953904
  0
ARC
  5
4F4
100
AcDbEntity
  8
0
100
AcDbCircle
 62
7
  6
CONTINUOUS
 10
15.7659836117
 20
8.2114839915
 40
1.7245070999
100
AcDbArc
 50
179.981300056
 51
180.0992381223
  0
ARC
  5
4F5
100
AcDbEntity
  8
0
100
AcDbCircle
 62
7
  6
CONTINUOUS
 10
15.5761519812
 20
8.2118585666
 40
1.5346756129
100
AcDbArc
 50
179.1990247361
 51
179.9930046382
  0
ARC
  5
4F6
100
AcDbEntity
  8
0
100
AcDbCircle
 62
9
  6
CONTINUOUS
 10
25.8466418589
 20
22.0115744997
 40
13.5206941574
100
AcDbArc
 50
184.9466830469
 51
185.0860973364
  0
LINE
  5
4F7
100
AcDbEntity
  8
0
100
AcDbLine
 62
7
  6
CONTINUOUS
 10
13.5730863965
 20
19.0495507303
 11
13.5745927334
 21
19.0502024034
  0
SPLINE
  5
4F8
100
AcDbEntity
  8
0
100
AcDbSpline
 62
7
  6
CONTINUOUS
 70
0
 71
3
 72
11
 73
7
 74
0
 42
0.0000001
 43
0.0000001
 44
0.0000000001
 40
0.0
 40
0.0
 40
0.0
 40
0.0
 40
0.1614978864
 40
0.3978550742
 40
0.686563566
 40
1.0
 40
1.0
 40
1.0
 40
1.0
 10
13.5745927334
 20
19.0502024034
 30
0.0
 10
13.5757775666
 20
19.0505552982
 30
0.0
 10
13.5787422515
 20
19.051263858
 30
0.0
 10
13.583882201
 20
19.0523571
 30
0.0
 10
13.5901889207
 20
19.0535554627
 30
0.0
 10
13.5947295752
 20
19.0543491802
 30
0.0
 10
13.5970963075
 20
19.0547435471
 30
0.0
  0
LINE
  5
4F9
100
AcDbEntity
  8
0
100
AcDbLine
 62
7
  6
CONTINUOUS
 10
13.5970963075
 20
19.0547435471
 11
13.61050544
 21
19.0567570989
  0
LINE
  5
4FA
100
AcDbEntity
  8
0
100
AcDbLine
 62
7
  6
CONTINUOUS
 10
13.61050544
 20
19.0567570989
 11
13.6182807007
 21
19.05751465
  0
SPLINE
  5
4FB
100
AcDbEntity
  8
0
100
AcDbSpline
 62
7
  6
CONTINUOUS
 70
0
 71
3
 72
15
 73
11
 74
0
 42
0.0000001
 43
0.0000001
 44
0.0000000001
 40
0.0
 40
0.0
 40
0.0
 40
0.0
 40
0.010837886
 40
0.0281752018
 40
0.0869199465
 40
0.1774805309
 40
0.2975586829
 40
0.4443289631
 40
0.6136141236
 40
1.0
 40
1.0
 40
1.0
 40
1.0
 10
13.5022959483
 20
19.049966446
 30
0.0
 10
13.5022921231
 20
19.0500343622
 30
0.0
 10
13.5023849414
 20
19.0502056148
 30
0.0
 10
13.5028223113
 20
19.0505294804
 30
0.0
 10
13.503787388
 20
19.05096084
 30
0.0
 10
13.505384511
 20
19.0515053466
 30
0.0
 10
13.5075462746
 20
19.0521140872
 30
0.0
 10
13.5102053878
 20
19.0527627872
 30
0.0
 10
13.5145143295
 20
19.0536988885
 30
0.0
 10
13.5179442066
 20
19.0543359469
 30
0.0
 10
13.5203348532
 20
19.0547435471
 30
0.0
  0
SPLINE
  5
4FC
100
AcDbEntity
  8
0
100
AcDbSpline
 62
7
  6
CONTINUOUS
 70
0
 71
3
 72
9
 73
5
 74
0
 42
0.0000001
 43
0.0000001
 44
0.0000000001
 40
0.0
 40
0.0
 40
0.0
 40
0.0
 40
0.2525633166
 40
1.0
 40
1.0
 40
1.0
 40
1.0
 10
13.5203348532
 20
19.0547435471
 30
0.0
 10
13.5215306057
 20
19.0549474204
 30
0.0
 10
13.526271356
 20
19.0557169547
 30
0.0
 10
13.5310326323
 20
19.0563631184
 30
0.0
 10
13.5346007269
 20
19.0567570989
 30
0.0
  0
LINE
  5
4FD
100
AcDbEntity
  8
0
100
AcDbLine
 62
7
  6
CONTINUOUS
 10
13.5346007269
 20
19.0567570989
 11
13.5405856236
 21
19.0573128403
  0
LINE
  5
4FE
100
AcDbEntity
  8
0
100
AcDbLine
 62
7
  6
CONTINUOUS
 10
13.5405856236
 20
19.0573128403
 11
13.5452035416
 21
19.05751465
  0
SPLINE
  5
4FF
100
AcDbEntity
  8
0
100
AcDbSpline
 62
7
  6
CONTINUOUS
 70
0
 71
3
 72
15
 73
11
 74
0
 42
0.0000001
 43
0.0000001
 44
0.0000000001
 40
0.0
 40
0.0
 40
0.0
 40
0.0
 40
0.0130582108
 40
0.0326650509
 40
0.0964829022
 40
0.193635219
 40
0.320168804
 40
0.4706629689
 40
0.6392261794
 40
1.0
 40
1.0
 40
1.0
 40
1.0
 10
13.3896879678
 20
19.0506249453
 30
0.0
 10
13.3896885797
 20
19.0507450666
 30
0.0
 10
13.3898421049
 20
19.0510321788
 30
0.0
 10
13.3905414423
 20
19.0515803736
 30
0.0
 10
13.3920777173
 20
19.052262442
 30
0.0
 10
13.3945915597
 20
19.0530686365
 30
0.0
 10
13.397933808
 20
19.0539099849
 30
0.0
 10
13.4019475516
 20
19.0547414588
 30
0.0
 10
13.408112773
 20
19.0557970814
 30
0.0
 10
13.4129451579
 20
19.0564200134
 30
0.0
 10
13.4162467647
 20
19.0567570989
 30
0.0
  0
SPLINE
  5
500
100
AcDbEntity
  8
0
100
AcDbSpline
 62
7
  6
CONTINUOUS
 70
0
 71
3
 72
9
 73
5
 74
0
 42
0.0000001
 43
0.0000001
 44
0.0000000001
 40
0.0
 40
0.0
 40
0.0
 40
0.0
 40
0.5420316302
 40
1.0
 40
1.0
 40
1.0
 40
1.0
 10
13.4162467647
 20
19.0567570989
 30
0.0
 10
13.4185356038
 20
19.0569907835
 30
0.0
 10
13.4227666271
 20
19.0573405633
 30
0.0
 10
13.4270106513
 20
19.05751465
 30
0.0
 10
13.4289545692
 20
19.05751465
 30
0.0
  0
SPLINE
  5
501
100
AcDbEntity
  8
0
100
AcDbSpline
 62
7
  6
CONTINUOUS
 70
0
 71
3
 72
15
 73
11
 74
0
 42
0.0000001
 43
0.0000001
 44
0.0000000001
 40
0.0
 40
0.0
 40
0.0
 40
0.0
 40
0.0361166545
 40
0.0637350182
 40
0.0987726673
 40
0.1909784147
 40
0.3111946639
 40
0.4567957672
 40
0.6237699985
 40
1.0
 40
1.0
 40
1.0
 40
1.0
 10
13.242956166
 20
19.051480955
 30
0.0
 10
13.2429558122
 20
19.0517412001
 30
0.0
 10
13.2432813748
 20
19.0521570236
 30
0.0
 10
13.2438521785
 20
19.0525562269
 30
0.0
 10
13.2448431497
 20
19.0530890152
 30
0.0
 10
13.2465135709
 20
19.0537151915
 30
0.0
 10
13.2489958289
 20
19.0544278652
 30
0.0
 10
13.2520401997
 20
19.0551089926
 30
0.0
 10
13.2569261915
 20
19.055987257
 30
0.0
 10
13.2608120061
 20
19.056483694
 30
0.0
 10
13.2635091804
 20
19.0567570989
 30
0.0
  0
SPLINE
  5
502
100
AcDbEntity
  8
0
100
AcDbSpline
 62
7
  6
CONTINUOUS
 70
0
 71
3
 72
9
 73
5
 74
0
 42
0.0000001
 43
0.0000001
 44
0.0000000001
 40
0.0
 40
0.0
 40
0.0
 40
0.0
 40
0.5189093471
 40
1.0
 40
1.0
 40
1.0
 40
1.0
 10
13.2635091804
 20
19.0567570989
 30
0.0
 10
13.26591349
 20
19.057000817
 30
0.0
 10
13.2705583599
 20
19.057359677
 30
0.0
 10
13.275215455
 20
19.05751465
 30
0.0
 10
13.2774559587
 20
19.05751465
 30
0.0
  0
SPLINE
  5
503
100
AcDbEntity
  8
0
100
AcDbSpline
 62
7
  6
CONTINUOUS
 70
0
 71
3
 72
10
 73
6
 74
0
 42
0.0000001
 43
0.0000001
 44
0.0000000001
 40
0.0
 40
0.0
 40
0.0
 40
0.0
 40
0.3446457787
 40
0.627199442
 40
1.0
 40
1.0
 40
1.0
 40
1.0
 10
12.5344579981
 20
19.0555356667
 30
0.0
 10
12.5344587581
 20
19.0558126356
 30
0.0
 10
12.5349069017
 20
19.0562326921
 30
0.0
 10
12.5356233842
 20
19.0565315735
 30
0.0
 10
12.5361361802
 20
19.0566851792
 30
0.0
 10
12.5364270159
 20
19.0567570989
 30
0.0
  0
SPLINE
  5
504
100
AcDbEntity
  8
0
100
AcDbSpline
 62
7
  6
CONTINUOUS
 70
0
 71
3
 72
10
 73
6
 74
0
 42
0.0000001
 43
0.0000001
 44
0.0000000001
 40
0.0
 40
0.0
 40
0.0
 40
0.0
 40
0.1847920674
 40
0.4177086222
 40
1.0
 40
1.0
 40
1.0
 40
1.0
 10
12.5364270159
 20
19.0567570989
 30
0.0
 10
12.5369995612
 20
19.0568986818
 30
0.0
 10
12.5383162997
 20
19.0571246919
 30
0.0
 10
12.5414923173
 20
19.0574467638
 30
0.0
 10
12.5440974894
 20
19.05751465
 30
0.0
 10
12.5459559587
 20
19.05751465
 30
0.0
  0
SPLINE
  5
505
100
AcDbEntity
  8
0
100
AcDbSpline
 62
7
  6
CONTINUOUS
 70
0
 71
3
 72
10
 73
6
 74
0
 42
0.0000001
 43
0.0000001
 44
0.0000000001
 40
0.0
 40
0.0
 40
0.0
 40
0.0
 40
0.3359774152
 40
0.622041809
 40
1.0
 40
1.0
 40
1.0
 40
1.0
 10
12.3877188922
 20
19.0563586211
 30
0.0
 10
12.3877174097
 20
19.0565468218
 30
0.0
 10
12.3880483178
 20
19.0568276076
 30
0.0
 10
12.3885553372
 20
19.0570055974
 30
0.0
 10
12.3889221631
 20
19.0571001064
 30
0.0
 10
12.3891294524
 20
19.057143209
 30
0.0
  0
SPLINE
  5
506
100
AcDbEntity
  8
0
100
AcDbSpline
 62
7
  6
CONTINUOUS
 70
0
 71
3
 72
9
 73
5
 74
0
 42
0.0000001
 43
0.0000001
 44
0.0000000001
 40
0.0
 40
0.0
 40
0.0
 40
0.0
 40
0.4194905903
 40
1.0
 40
1.0
 40
1.0
 40
1.0
 10
12.3891294524
 20
19.057143209
 30
0.0
 10
12.38986139
 20
19.0572954038
 30
0.0
 10
12.391641649
 20
19.0574709733
 30
0.0
 10
12.3934227959
 20
19.05751465
 30
0.0
 10
12.3944573483
 20
19.05751465
 30
0.0
  0
SPLINE
  5
507
100
AcDbEntity
  8
0
100
AcDbSpline
 62
7
  6
CONTINUOUS
 70
0
 71
3
 72
13
 73
9
 74
0
 42
0.0000001
 43
0.0000001
 44
0.0000000001
 40
0.0
 40
0.0
 40
0.0
 40
0.0
 40
0.1198509713
 40
0.2440494031
 40
0.4979249647
 40
0.7529648739
 40
0.878451722
 40
1.0
 40
1.0
 40
1.0
 40
1.0
 10
5.4911384561
 20
9.1595111879
 30
0.0
 10
5.496288263
 20
9.1612575694
 30
0.0
 10
5.50651254
 20
9.1656390054
 30
0.0
 10
5.5258585305
 20
9.1773984269
 30
0.0
 10
5.5470943164
 20
9.1974620126
 30
0.0
 10
5.5608856499
 20
9.2232864078
 30
0.0
 10
5.5671800301
 20
9.2452304687
 30
0.0
 10
5.5687077262
 20
9.2563877767
 30
0.0
 10
5.5690206641
 20
9.2618937644
 30
0.0
  0
SPLINE
  5
508
100
AcDbEntity
  8
0
100
AcDbSpline
 62
7
  6
CONTINUOUS
 70
0
 71
3
 72
9
 73
5
 74
0
 42
0.0000001
 43
0.0000001
 44
0.0000000001
 40
0.0
 40
0.0
 40
0.0
 40
0.0
 40
0.310091701
 40
1.0
 40
1.0
 40
1.0
 40
1.0
 10
12.2751375973
 20
19.0569849965
 30
0.0
 10
12.2751461539
 20
19.0571332331
 30
0.0
 10
12.275710629
 20
19.057383682
 30
0.0
 10
12.2761281466
 20
19.0574139381
 30
0.0
 10
12.2764569493
 20
19.0574459098
 30
0.0
  0
LINE
  5
509
100
AcDbEntity
  8
0
100
AcDbLine
 62
7
  6
CONTINUOUS
 10
12.2764569493
 20
19.0574459098
 11
12.2782083759
 21
19.05751465
  0
SPLINE
  5
50A
100
AcDbEntity
  8
0
100
AcDbSpline
 62
7
  6
CONTINUOUS
 70
0
 71
3
 72
13
 73
9
 74
0
 42
0.0000001
 43
0.0000001
 44
0.0000000001
 40
0.0
 40
0.0
 40
0.0
 40
0.0
 40
0.1203095816
 40
0.24517257
 40
0.4999994176
 40
0.7548265953
 40
0.8796899451
 40
1.0
 40
1.0
 40
1.0
 40
1.0
 10
6.3992059587
 20
9.0661375225
 30
0.0
 10
6.3992059286
 20
9.0710396673
 30
0.0
 10
6.3983738988
 20
9.0810460622
 30
0.0
 10
6.39369186
 20
9.100920965
 30
0.0
 10
6.3822050888
 20
9.1246270626
 30
0.0
 10
6.363443656
 20
9.1431185319
 30
0.0
 10
6.3461251249
 20
9.1539353557
 30
0.0
 10
6.3369159461
 20
9.1579368473
 30
0.0
 10
6.3322734613
 20
9.1595111879
 30
0.0
  0
SPLINE
  5
50B
100
AcDbEntity
  8
0
100
AcDbSpline
 62
7
  6
CONTINUOUS
 70
0
 71
3
 72
13
 73
9
 74
0
 42
0.0000001
 43
0.0000001
 44
0.0000000001
 40
0.0
 40
0.0
 40
0.0
 40
0.0
 40
0.120309523
 40
0.2451725232
 40
0.499999442
 40
0.7548266772
 40
0.8796900236
 40
1.0
 40
1.0
 40
1.0
 40
1.0
 10
5.4242059587
 20
9.0661365478
 30
0.0
 10
5.4242059404
 20
9.0710387289
 30
0.0
 10
5.4250378855
 20
9.0810452092
 30
0.0
 10
5.4297198016
 20
9.1009203076
 30
0.0
 10
5.4412065152
 20
9.1246266799
 30
0.0
 10
5.4599680441
 20
9.1431183669
 30
0.0
 10
5.4772866917
 20
9.1539353069
 30
0.0
 10
5.4864959378
 20
9.1579368359
 30
0.0
 10
5.4911384561
 20
9.1595111879
 30
0.0
  0
SPLINE
  5
50C
100
AcDbEntity
  8
0
100
AcDbSpline
 62
7
  6
CONTINUOUS
 70
0
 71
3
 72
10
 73
6
 74
0
 42
0.0000001
 43
0.0000001
 44
0.0000000001
 40
0.0
 40
0.0
 40
0.0
 40
0.0
 40
0.2402468881
 40
0.489240087
 40
1.0
 40
1.0
 40
1.0
 40
1.0
 10
6.3322734613
 20
9.1595111879
 30
0.0
 10
6.3269293448
 20
9.1613234629
 30
0.0
 10
6.3163254482
 20
9.1659002466
 30
0.0
 10
6.2963135956
 20
9.1782794464
 30
0.0
 10
6.2832896106
 20
9.1910416603
 30
0.0
 10
6.2762293061
 20
9.2007411386
 30
0.0
  0
LINE
  5
50D
100
AcDbEntity
  8
0
100
AcDbLine
 62
7
  6
CONTINUOUS
 10
13.3898489599
 20
18.9904788786
 11
13.3918541325
 21
18.991194641
  0
LINE
  5
50E
100
AcDbEntity
  8
0
100
AcDbLine
 62
7
  6
CONTINUOUS
 10
13.3918541325
 20
18.991194641
 11
13.4012309104
 21
18.9932388973
  0
LINE
  5
50F
100
AcDbEntity
  8
0
100
AcDbLine
 62
7
  6
CONTINUOUS
 10
13.4151252964
 20
18.9957463547
 11
13.4282342966
 21
18.9977461164
  0
LINE
  5
510
100
AcDbEntity
  8
0
100
AcDbLine
 62
7
  6
CONTINUOUS
 10
13.4282342966
 20
18.9977461164
 11
13.4353426554
 21
18.9984961596
  0
SPLINE
  5
511
100
AcDbEntity
  8
0
100
AcDbSpline
 62
7
  6
CONTINUOUS
 70
0
 71
3
 72
17
 73
13
 74
0
 42
0.0000001
 43
0.0000001
 44
0.0000000001
 40
0.0
 40
0.0
 40
0.0
 40
0.0
 40
0.0106589307
 40
0.0298059302
 40
0.05847107
 40
0.0964662255
 40
0.198643261
 40
0.3312139723
 40
0.4863822636
 40
0.6558907968
 40
0.8304501836
 40
1.0
 40
1.0
 40
1.0
 40
1.0
 10
13.3189362434
 20
18.9910622282
 30
0.0
 10
13.3189305614
 20
18.991176541
 30
0.0
 10
13.3191583609
 20
18.9914628484
 30
0.0
 10
13.3196871993
 20
18.9917689624
 30
0.0
 10
13.3205343535
 20
18.9921556864
 30
0.0
 10
13.3222392656
 20
18.9927622657
 30
0.0
 10
13.3250650046
 20
18.993552839
 30
0.0
 10
13.3291452477
 20
18.9944883513
 30
0.0
 10
13.3339646258
 20
18.9954330395
 30
0.0
 10
13.3392515493
 20
18.996321902
 30
0.0
 10
13.3447108497
 20
18.9971081012
 30
0.0
 10
13.3483794917
 20
18.9975521551
 30
0.0
 10
13.3501897281
 20
18.9977461164
 30
0.0
  0
SPLINE
  5
512
100
AcDbEntity
  8
0
100
AcDbSpline
 62
7
  6
CONTINUOUS
 70
0
 71
3
 72
9
 73
5
 74
0
 42
0.0000001
 43
0.0000001
 44
0.0000000001
 40
0.0
 40
0.0
 40
0.0
 40
0.0
 40
0.5658490377
 40
1.0
 40
1.0
 40
1.0
 40
1.0
 10
13.3501897281
 20
18.9977461164
 30
0.0
 10
13.3522707277
 20
18.9979690892
 30
0.0
 10
13.3559543503
 20
18.9983032346
 30
0.0
 10
13.3596514857
 20
18.9984961596
 30
0.0
 10
13.3612572838
 20
18.9984961596
 30
0.0
  0
SPLINE
  5
513
100
AcDbEntity
  8
0
100
AcDbSpline
 62
7
  6
CONTINUOUS
 70
0
 71
3
 72
10
 73
6
 74
0
 42
0.0000001
 43
0.0000001
 44
0.0000000001
 40
0.0
 40
0.0
 40
0.0
 40
0.0
 40
0.3260170644
 40
0.6157617712
 40
1.0
 40
1.0
 40
1.0
 40
1.0
 10
12.5092313028
 20
18.9974857659
 30
0.0
 10
12.5092308198
 20
18.9976776606
 30
0.0
 10
12.5096114349
 20
18.9979420332
 30
0.0
 10
12.51014445
 20
18.9981024066
 30
0.0
 10
12.5105412814
 20
18.9981883502
 30
0.0
 10
12.5107641868
 20
18.9982266066
 30
0.0
  0
LINE
  5
514
100
AcDbEntity
  8
0
100
AcDbLine
 62
7
  6
CONTINUOUS
 10
12.5107641868
 20
18.9982266066
 11
12.5151873881
 21
18.9984961596
  0
SPLINE
  5
515
100
AcDbEntity
  8
0
100
AcDbSpline
 62
7
  6
CONTINUOUS
 70
0
 71
3
 72
9
 73
5
 74
0
 42
0.0000001
 43
0.0000001
 44
0.0000000001
 40
0.0
 40
0.0
 40
0.0
 40
0.0
 40
0.2527116806
 40
1.0
 40
1.0
 40
1.0
 40
1.0
 10
13.2425015856
 20
19.8495554939
 30
0.0
 10
13.2471993663
 20
19.8557784893
 30
0.0
 10
13.2663884017
 20
19.879943789
 30
0.0
 10
13.2879373813
 20
19.9022446851
 30
0.0
 10
13.3051859313
 20
19.9175448975
 30
0.0
  0
SPLINE
  5
516
100
AcDbEntity
  8
0
100
AcDbSpline
 62
7
  6
CONTINUOUS
 70
0
 71
3
 72
9
 73
5
 74
0
 42
0.0000001
 43
0.0000001
 44
0.0000000001
 40
0.0
 40
0.0
 40
0.0
 40
0.0
 40
0.2528651982
 40
1.0
 40
1.0
 40
1.0
 40
1.0
 10
12.5809109231
 20
19.8495602774
 30
0.0
 10
12.5762105714
 20
19.8557860587
 30
0.0
 10
12.5570222546
 20
19.8799471004
 30
0.0
 10
12.5354748884
 20
19.9022439374
 30
0.0
 10
12.5182322367
 20
19.9175393687
 30
0.0
  0
LINE
  5
517
100
AcDbEntity
  8
0
100
AcDbLine
 62
7
  6
CONTINUOUS
 10
14.4993628041
 20
11.5705545898
 11
14.4993629189
 21
11.5719024773
  0
SPLINE
  5
518
100
AcDbEntity
  8
0
100
AcDbSpline
 62
7
  6
CONTINUOUS
 70
0
 71
3
 72
9
 73
5
 74
0
 42
0.0000001
 43
0.0000001
 44
0.0000000001
 40
0.0
 40
0.0
 40
0.0
 40
0.0
 40
0.2506436028
 40
1.0
 40
1.0
 40
1.0
 40
1.0
 10
14.0417094459
 20
8.1819835463
 30
0.0
 10
14.0418387281
 20
8.1733881089
 30
0.0
 10
14.0425459427
 20
8.1390973453
 30
0.0
 10
14.0437771129
 20
8.1048210154
 30
0.0
 10
14.0445884098
 20
8.0791328904
 30
0.0
  0
LINE
  5
519
100
AcDbEntity
  8
0
100
AcDbLine
 62
7
  6
CONTINUOUS
 10
15.5409939759
 20
11.5705551511
 11
15.5409938611
 21
11.5719019192
  0
SPLINE
  5
51A
100
AcDbEntity
  8
0
100
AcDbSpline
 62
7
  6
CONTINUOUS
 70
0
 71
3
 72
9
 73
5
 74
0
 42
0.0000001
 43
0.0000001
 44
0.0000000001
 40
0.0
 40
0.0
 40
0.0
 40
0.0
 40
0.249217102
 40
1.0
 40
1.0
 40
1.0
 40
1.0
 10
15.9957683968
 20
8.0791327663
 30
0.0
 10
15.996078974
 20
8.0889665132
 30
0.0
 10
15.997390705
 20
8.1284220333
 30
0.0
 10
15.9985980456
 20
8.1678884178
 30
0.0
 10
15.9988255873
 20
8.1975271245
 30
0.0
  0
LINE
  5
51B
100
AcDbEntity
  8
0
100
AcDbLine
 62
7
  6
CONTINUOUS
 10
15.9981061305
 20
8.2207426677
 11
15.9978395067
 21
8.2329596555
  0
LINE
  5
51C
100
AcDbEntity
  8
0
100
AcDbLine
 62
7
  6
CONTINUOUS
 10
14.0425257171
 20
8.2332890032
 11
14.042244377
 21
8.2203953095
  0
SPLINE
  5
51D
100
AcDbEntity
  8
0
100
AcDbSpline
 62
7
  6
CONTINUOUS
 70
0
 71
3
 72
38
 73
34
 74
0
 42
0.0000001
 43
0.0000001
 44
0.0000000001
 40
0.0
 40
0.0
 40
0.0
 40
0.0
 40
0.0153910998
 40
0.0308113828
 40
0.0463101201
 40
0.0619239685
 40
0.0935579014
 40
0.1257395165
 40
0.1583434071
 40
0.1911580884
 40
0.2239343649
 40
0.2564297365
 40
0.272513935
 40
0.2884893674
 40
0.3201684105
 40
0.3827599426
 40
0.4447908243
 40
0.4757052655
 40
0.5065863036
 40
0.5374515791
 40
0.5528828331
 40
0.5683152776
 40
0.5991841292
 40
0.6300558041
 40
0.6917951579
 40
0.7535098941
 40
0.7843526924
 40
0.8151843031
 40
0.8460049814
 40
0.8768163053
 40
0.9076205295
 40
0.9384190851
 40
1.0
 40
1.0
 40
1.0
 40
1.0
 10
15.9988804235
 20
8.2107072297
 30
0.0
 10
15.9988747705
 20
8.2282081096
 30
0.0
 10
15.998320517
 20
8.2632480866
 30
0.0
 10
15.9950418826
 20
8.3158301276
 30
0.0
 10
15.9886640465
 20
8.3683844361
 30
0.0
 10
15.9765012278
 20
8.4387123803
 30
0.0
 10
15.9552030159
 20
8.526584967
 30
0.0
 10
15.9227289032
 20
8.6313438865
 30
0.0
 10
15.8857109986
 20
8.7359827279
 30
0.0
 10
15.8466121413
 20
8.84056817
 30
0.0
 10
15.8078921408
 20
8.9451632235
 30
0.0
 10
15.7778641519
 20
9.0326871262
 30
0.0
 10
15.75651085
 20
9.1029245589
 30
0.0
 10
15.7370664212
 20
9.1727492433
 30
0.0
 10
15.7074564352
 20
9.2945996281
 30
0.0
 10
15.6758289891
 20
9.4696529646
 30
0.0
 10
15.6546253687
 20
9.6452942192
 30
0.0
 10
15.641485817
 20
9.7854821423
 30
0.0
 10
15.6329025129
 20
9.8904963437
 30
0.0
 10
15.6262789536
 20
9.9780028661
 30
0.0
 10
15.6209895538
 20
10.0479939597
 30
0.0
 10
15.6155914445
 20
10.117980845
 30
0.0
 10
15.608652788
 20
10.2054578542
 30
0.0
 10
15.597371187
 20
10.3454101308
 30
0.0
 10
15.583325377
 20
10.5203275359
 30
0.0
 10
15.570415565
 20
10.6953026815
 30
0.0
 10
15.5614091717
 20
10.8353175632
 30
0.0
 10
15.5554774557
 20
10.940325528
 30
0.0
 10
15.550522892
 20
11.0453489546
 30
0.0
 10
15.5467229874
 20
11.1503894928
 30
0.0
 10
15.5439842455
 20
11.2554374413
 30
0.0
 10
15.5415783985
 20
11.3954876373
 30
0.0
 10
15.5409974007
 20
11.500532848
 30
0.0
 10
15.5409938682
 20
11.5705551511
 30
0.0
  0
SPLINE
  5
51E
100
AcDbEntity
  8
0
100
AcDbSpline
 62
7
  6
CONTINUOUS
 70
0
 71
3
 72
9
 73
5
 74
0
 42
0.0000001
 43
0.0000001
 44
0.0000000001
 40
0.0
 40
0.0
 40
0.0
 40
0.0
 40
0.2492292756
 40
1.0
 40
1.0
 40
1.0
 40
1.0
 10
15.9957683922
 20
8.0777942533
 30
0.0
 10
15.9960717354
 20
8.0873990258
 30
0.0
 10
15.9973513788
 20
8.125934101
 30
0.0
 10
15.9985395957
 20
8.1644786941
 30
0.0
 10
15.9988023951
 20
8.1934250533
 30
0.0
  0
SPLINE
  5
51F
100
AcDbEntity
  8
0
100
AcDbSpline
 62
7
  6
CONTINUOUS
 70
0
 71
3
 72
38
 73
34
 74
0
 42
0.0000001
 43
0.0000001
 44
0.0000000001
 40
0.0
 40
0.0
 40
0.0
 40
0.0
 40
0.0153910909
 40
0.0308113102
 40
0.0463099222
 40
0.061923613
 40
0.0935572011
 40
0.1257385218
 40
0.158342231
 40
0.1911568709
 40
0.2239332442
 40
0.2564288254
 40
0.2725131448
 40
0.2884886813
 40
0.3201678885
 40
0.3827596173
 40
0.444790593
 40
0.4757050611
 40
0.5065861181
 40
0.537451407
 40
0.552882666
 40
0.5683151149
 40
0.5991839758
 40
0.630055661
 40
0.6917950376
 40
0.7535097985
 40
0.7843526094
 40
0.8151842325
 40
0.846004923
 40
0.8768162588
 40
0.9076204948
 40
0.9384190619
 40
1.0
 40
1.0
 40
1.0
 40
1.0
 10
14.0414762599
 20
8.2106369073
 30
0.0
 10
14.0414811758
 20
8.2281381352
 30
0.0
 10
14.0420336696
 20
8.2631787609
 30
0.0
 10
14.0453084628
 20
8.3157618843
 30
0.0
 10
14.051682617
 20
8.3683173432
 30
0.0
 10
14.063841338
 20
8.4386467635
 30
0.0
 10
14.0851356738
 20
8.5265213033
 30
0.0
 10
14.1176070119
 20
8.6312824817
 30
0.0
 10
14.1546237823
 20
8.7359235226
 30
0.0
 10
14.1937229978
 20
8.8405111186
 30
0.0
 10
14.2324446689
 20
8.9451083011
 30
0.0
 10
14.2624750781
 20
9.0326338734
 30
0.0
 10
14.2838307255
 20
9.1028726787
 30
0.0
 10
14.3032772236
 20
9.1726987862
 30
0.0
 10
14.33289041
 20
9.294551581
 30
0.0
 10
14.3645212961
 20
9.469608548
 30
0.0
 10
14.3857270519
 20
9.6452535678
 30
0.0
 10
14.3988676597
 20
9.7854444445
 30
0.0
 10
14.4074514748
 20
9.8904608343
 30
0.0
 10
14.4140752636
 20
9.9779691816
 30
0.0
 10
14.4193647428
 20
10.0479617347
 30
0.0
 10
14.4247628891
 20
10.1179500782
 30
0.0
 10
14.4317016478
 20
10.2054289068
 30
0.0
 10
14.4429834683
 20
10.3453840946
 30
0.0
 10
14.4570296557
 20
10.5203051351
 30
0.0
 10
14.4699399088
 20
10.6952839137
 30
0.0
 10
14.4789466547
 20
10.8353017043
 30
0.0
 10
14.4848786239
 20
10.9403118514
 30
0.0
 10
14.4898334227
 20
11.0453374608
 30
0.0
 10
14.4936335218
 20
11.1503801837
 30
0.0
 10
14.4963723981
 20
11.2554303184
 30
0.0
 10
14.4987783632
 20
11.39548343
 30
0.0
 10
14.4993593897
 20
11.5005308285
 30
0.0
 10
14.4993629251
 20
11.5705545898
 30
0.0
  0
SPLINE
  5
520
100
AcDbEntity
  8
0
100
AcDbSpline
 62
7
  6
CONTINUOUS
 70
0
 71
3
 72
9
 73
5
 74
0
 42
0.0000001
 43
0.0000001
 44
0.0000000001
 40
0.0
 40
0.0
 40
0.0
 40
0.0
 40
0.2506975103
 40
1.0
 40
1.0
 40
1.0
 40
1.0
 10
14.0415312088
 20
8.1961884715
 30
0.0
 10
14.0416071896
 20
8.1862915447
 30
0.0
 10
14.0422117916
 20
8.1468158913
 30
0.0
 10
14.0436545942
 20
8.1073610397
 30
0.0
 10
14.0445883954
 20
8.0777942738
 30
0.0
  0
SPLINE
  5
521
100
AcDbEntity
  8
0
100
AcDbSpline
 62
7
  6
CONTINUOUS
 70
0
 71
3
 72
11
 73
7
 74
0
 42
0.0000001
 43
0.0000001
 44
0.0000000001
 40
0.0
 40
0.0
 40
0.0
 40
0.0
 40
0.2500544602
 40
0.4999329747
 40
0.7496442803
 40
1.0
 40
1.0
 40
1.0
 40
1.0
 10
14.4993629251
 20
11.5705545898
 30
0.0
 10
14.4993665944
 20
11.643228238
 30
0.0
 10
14.498549405
 20
11.7885245587
 30
0.0
 10
14.495903123
 20
12.0063787403
 30
0.0
 10
14.4929638231
 20
12.2243165106
 30
0.0
 10
14.4912123953
 20
12.369641263
 30
0.0
 10
14.4904599427
 20
12.442398576
 30
0.0
  0
SPLINE
  5
522
100
AcDbEntity
  8
0
100
AcDbSpline
 62
7
  6
CONTINUOUS
 70
0
 71
3
 72
44
 73
40
 74
0
 42
0.0000001
 43
0.0000001
 44
0.0000000001
 40
0.0
 40
0.0
 40
0.0
 40
0.0
 40
0.0624817968
 40
0.0937173849
 40
0.1249498747
 40
0.1561811516
 40
0.1874130881
 40
0.2186469508
 40
0.2498836183
 40
0.2811243098
 40
0.3123696647
 40
0.3436195472
 40
0.3748731173
 40
0.4061290958
 40
0.4373862786
 40
0.4686412402
 40
0.4998860562
 40
0.5311136393
 40
0.5623196173
 40
0.5935042618
 40
0.6246767966
 40
0.6558315366
 40
0.6713936744
 40
0.6869426516
 40
0.7024786479
 40
0.7180055927
 40
0.7490622785
 40
0.7801591792
 40
0.8113192935
 40
0.8425797499
 40
0.8582605578
 40
0.8739818533
 40
0.8897282849
 40
0.9054774166
 40
0.9212168686
 40
0.9369476393
 40
0.9526859971
 40
0.9684459421
 40
1.0
 40
1.0
 40
1.0
 40
1.0
 10
14.4993707947
 20
11.5705547178
 30
0.0
 10
14.499389451
 20
11.4995065803
 30
0.0
 10
14.498836085
 20
11.3929373037
 30
0.0
 10
14.496332394
 20
11.2508769322
 30
0.0
 10
14.4933989032
 20
11.1443696753
 30
0.0
 10
14.4893570534
 20
11.0379030709
 30
0.0
 10
14.4843043616
 20
10.9314784002
 30
0.0
 10
14.4783100147
 20
10.8250966228
 30
0.0
 10
14.4714434489
 20
10.7187579235
 30
0.0
 10
14.463870001
 20
10.6124545488
 30
0.0
 10
14.4557690224
 20
10.506175285
 30
0.0
 10
14.4473098142
 20
10.3999094455
 30
0.0
 10
14.4386932674
 20
10.2936442434
 30
0.0
 10
14.4301293488
 20
10.1873663897
 30
0.0
 10
14.4218853617
 20
10.0810614674
 30
0.0
 10
14.4139770034
 20
9.9747440178
 30
0.0
 10
14.4057786883
 20
9.8684819079
 30
0.0
 10
14.3967686448
 20
9.7623400213
 30
0.0
 10
14.3863873516
 20
9.6563897164
 30
0.0
 10
14.3740402379
 20
9.550709536
 30
0.0
 10
14.3591550217
 20
9.4454119191
 30
0.0
 10
14.344113595
 20
9.3581109756
 30
0.0
 10
14.3301291641
 20
9.2886989354
 30
0.0
 10
14.318585562
 20
9.2369235498
 30
0.0
 10
14.3058860663
 20
9.1854597855
 30
0.0
 10
14.2873322053
 20
9.1172978607
 30
0.0
 10
14.2614327065
 20
9.0328253143
 30
0.0
 10
14.2270353752
 20
8.9324342121
 30
0.0
 10
14.1902363937
 20
8.8326621196
 30
0.0
 10
14.1591474448
 20
8.7494719828
 30
0.0
 10
14.1349755904
 20
8.6824422073
 30
0.0
 10
14.1174023597
 20
8.6317893408
 30
0.0
 10
14.1007776062
 20
8.5807327684
 30
0.0
 10
14.085541384
 20
8.5292189552
 30
0.0
 10
14.0721347059
 20
8.4772127982
 30
0.0
 10
14.0609778135
 20
8.4246824404
 30
0.0
 10
14.0525947048
 20
8.3716104504
 30
0.0
 10
14.04492951
 20
8.3003027907
 30
0.0
 10
14.0425853987
 20
8.2464891057
 30
0.0
 10
14.0421128106
 20
8.2106120541
 30
0.0
  0
SPLINE
  5
523
100
AcDbEntity
  8
0
100
AcDbSpline
 62
7
  6
CONTINUOUS
 70
0
 71
3
 72
11
 73
7
 74
0
 42
0.0000001
 43
0.0000001
 44
0.0000000001
 40
0.0
 40
0.0
 40
0.0
 40
0.0
 40
0.2500544606
 40
0.4999329747
 40
0.7496442801
 40
1.0
 40
1.0
 40
1.0
 40
1.0
 10
15.5409938682
 20
11.5705551511
 30
0.0
 10
15.5409902018
 20
11.6432287921
 30
0.0
 10
15.5418073962
 20
11.7885250983
 30
0.0
 10
15.5444536837
 20
12.0063792579
 30
0.0
 10
15.5473929884
 20
12.2243170062
 30
0.0
 10
15.5491444195
 20
12.3696417439
 30
0.0
 10
15.5498968737
 20
12.4423990496
 30
0.0
  0
SPLINE
  5
524
100
AcDbEntity
  8
0
100
AcDbSpline
 62
7
  6
CONTINUOUS
 70
0
 71
3
 72
44
 73
40
 74
0
 42
0.0000001
 43
0.0000001
 44
0.0000000001
 40
0.0
 40
0.0
 40
0.0
 40
0.0
 40
0.031554058
 40
0.0473139782
 40
0.0630523171
 40
0.0787830944
 40
0.0945225635
 40
0.1102717047
 40
0.1260181249
 40
0.1417393811
 40
0.1574201489
 40
0.1886805463
 40
0.2198406253
 40
0.250937506
 40
0.2819941867
 40
0.2975211392
 40
0.3130571496
 40
0.3286061418
 40
0.3441682936
 40
0.3753230539
 40
0.4064955978
 40
0.4376802554
 40
0.4688862477
 40
0.5001138436
 40
0.5313586703
 40
0.5626136398
 40
0.5938708287
 40
0.6251268129
 40
0.6563803883
 40
0.6876302761
 40
0.7188756362
 40
0.750116333
 40
0.7813530062
 40
0.8125868746
 40
0.8438188171
 40
0.8750501001
 40
0.9062825963
 40
0.9375181908
 40
1.0
 40
1.0
 40
1.0
 40
1.0
 10
15.9982430612
 20
8.2106823694
 30
0.0
 10
15.9977690588
 20
8.2465586654
 30
0.0
 10
15.9954224649
 20
8.3003711287
 30
0.0
 10
15.9877533812
 20
8.3716768487
 30
0.0
 10
15.9793668962
 20
8.4247471468
 30
0.0
 10
15.9682071888
 20
8.4772757729
 30
0.0
 10
15.9547983475
 20
8.5292802648
 30
0.0
 10
15.939560551
 20
8.5807924739
 30
0.0
 10
15.9229347821
 20
8.6318475022
 30
0.0
 10
15.9053610885
 20
8.6824989307
 30
0.0
 10
15.881189043
 20
8.7495269128
 30
0.0
 10
15.8501005252
 20
8.8327150975
 30
0.0
 10
15.8133031427
 20
8.9324853185
 30
0.0
 10
15.7789079815
 20
9.0328747921
 30
0.0
 10
15.7530105316
 20
9.1173460524
 30
0.0
 10
15.7344584808
 20
9.1855069867
 30
0.0
 10
15.721760359
 20
9.2369700111
 30
0.0
 10
15.7102179664
 20
9.288744599
 30
0.0
 10
15.6962350011
 20
9.3581555075
 30
0.0
 10
15.6811951113
 20
9.4454549152
 30
0.0
 10
15.6663113182
 20
9.5507505733
 30
0.0
 10
15.6539653098
 20
9.6564287222
 30
0.0
 10
15.6435848217
 20
9.7623769534
 30
0.0
 10
15.634575325
 20
9.8685167329
 30
0.0
 10
15.6263773488
 20
9.9747767088
 30
0.0
 10
15.6184691441
 20
10.081092002
 30
0.0
 10
15.6102251866
 20
10.1873947523
 30
0.0
 10
15.6016614076
 20
10.2936704395
 30
0.0
 10
15.593045046
 20
10.3999334781
 30
0.0
 10
15.5845860696
 20
10.5061971576
 30
0.0
 10
15.5764853429
 20
10.6124742629
 30
0.0
 10
15.5689121577
 20
10.7187754801
 30
0.0
 10
15.5620458573
 20
10.8251120223
 30
0.0
 10
15.5560517554
 20
10.9314916413
 30
0.0
 10
15.5509992784
 20
11.0379141516
 30
0.0
 10
15.54695761
 20
11.1443785937
 30
0.0
 10
15.5440242623
 20
11.2508836865
 30
0.0
 10
15.5415206888
 20
11.3929411695
 30
0.0
 10
15.5409673479
 20
11.4995082784
 30
0.0
 10
15.5409860047
 20
11.5705549706
 30
0.0
  0
SPLINE
  5
525
100
AcDbEntity
  8
0
100
AcDbSpline
 62
7
  6
CONTINUOUS
 70
0
 71
3
 72
19
 73
15
 74
0
 42
0.0000001
 43
0.0000001
 44
0.0000000001
 40
0.0
 40
0.0
 40
0.0
 40
0.0
 40
0.0623934685
 40
0.1248163027
 40
0.2496306806
 40
0.3744232573
 40
0.4368340711
 40
0.4992362899
 40
0.6241360137
 40
0.7494269434
 40
0.8121714297
 40
0.8748582556
 40
0.9374607392
 40
1.0
 40
1.0
 40
1.0
 40
1.0
 10
15.549959586
 20
12.4533563604
 30
0.0
 10
15.5499662928
 20
12.4907540521
 30
0.0
 10
15.5460874987
 20
12.5656274901
 30
0.0
 10
15.5233382952
 20
12.7137117506
 30
0.0
 10
15.4677857599
 20
12.8936112449
 30
0.0
 10
15.3787770012
 20
13.0595179291
 30
0.0
 10
15.289205464
 20
13.179629279
 30
0.0
 10
15.1878287069
 20
13.2900745787
 30
0.0
 10
15.0399744006
 20
13.4074020961
 30
0.0
 10
14.8719444047
 20
13.4935281151
 30
0.0
 10
14.7295162959
 20
13.5420826905
 30
0.0
 10
14.619603319
 20
13.5678770826
 30
0.0
 10
14.5077964279
 20
13.5825301007
 30
0.0
 10
14.4326498978
 20
13.5845496615
 30
0.0
 10
14.3951783331
 20
13.5835432284
 30
0.0
  0
SPLINE
  5
526
100
AcDbEntity
  8
0
100
AcDbSpline
 62
7
  6
CONTINUOUS
 70
0
 71
3
 72
9
 73
5
 74
0
 42
0.0000001
 43
0.0000001
 44
0.0000000001
 40
0.0
 40
0.0
 40
0.0
 40
0.0
 40
0.2604208631
 40
1.0
 40
1.0
 40
1.0
 40
1.0
 10
10.2939027798
 20
13.025126439
 30
0.0
 10
10.2938166465
 20
13.0227566777
 30
0.0
 10
10.2934468181
 20
13.0136584689
 30
0.0
 10
10.2929205768
 20
13.0045661145
 30
0.0
 10
10.2924172229
 20
12.9978505325
 30
0.0
  0
SPLINE
  5
527
100
AcDbEntity
  8
0
100
AcDbSpline
 62
7
  6
CONTINUOUS
 70
0
 71
3
 72
9
 73
5
 74
0
 42
0.0000001
 43
0.0000001
 44
0.0000000001
 40
0.0
 40
0.0
 40
0.0
 40
0.0
 40
0.5363280472
 40
1.0
 40
1.0
 40
1.0
 40
1.0
 10
10.2924172229
 20
12.9978505325
 30
0.0
 10
10.2920028996
 20
12.9923227692
 30
0.0
 10
10.2910837051
 20
12.9820266711
 30
0.0
 10
10.2897912596
 20
12.9717674677
 30
0.0
 10
10.2890430913
 20
12.9670339042
 30
0.0
  0
SPLINE
  5
528
100
AcDbEntity
  8
0
100
AcDbSpline
 62
7
  6
CONTINUOUS
 70
0
 71
3
 72
15
 73
11
 74
0
 42
0.0000001
 43
0.0000001
 44
0.0000000001
 40
0.0
 40
0.0
 40
0.0
 40
0.0
 40
0.124000666
 40
0.2367801503
 40
0.339899183
 40
0.4376939796
 40
0.5449219108
 40
0.6735868342
 40
0.8257070619
 40
1.0
 40
1.0
 40
1.0
 40
1.0
 10
10.2890430913
 20
12.9670339042
 30
0.0
 10
10.2887077829
 20
12.9649124512
 30
0.0
 10
10.2880082941
 20
12.9608704171
 30
0.0
 10
10.2867685834
 20
12.9551126773
 30
0.0
 10
10.285378012
 20
12.9498596793
 30
0.0
 10
10.2836943928
 20
12.9447829732
 30
0.0
 10
10.281064246
 20
12.939613802
 30
0.0
 10
10.2769614342
 20
12.9341976369
 30
0.0
 10
10.2702951547
 20
12.9296990049
 30
0.0
 10
10.2645871903
 20
12.9284193631
 30
0.0
 10
10.2615683007
 20
12.9284193631
 30
0.0
  0
SPLINE
  5
529
100
AcDbEntity
  8
0
100
AcDbSpline
 62
7
  6
CONTINUOUS
 70
0
 71
3
 72
15
 73
11
 74
0
 42
0.0000001
 43
0.0000001
 44
0.0000000001
 40
0.0
 40
0.0
 40
0.0
 40
0.0
 40
0.1748629501
 40
0.3342343926
 40
0.4730781233
 40
0.5940241687
 40
0.7033131572
 40
0.803576028
 40
0.9003452998
 40
1.0
 40
1.0
 40
1.0
 40
1.0
 10
10.2615683007
 20
13.1884193631
 30
0.0
 10
10.2638712918
 20
13.1884193631
 30
0.0
 10
10.2683025012
 20
13.1876452617
 30
0.0
 10
10.2739198205
 20
13.1848034062
 30
0.0
 10
10.2781634793
 20
13.1811920293
 30
0.0
 10
10.2810615137
 20
13.1772450073
 30
0.0
 10
10.2830035036
 20
13.1733387347
 30
0.0
 10
10.2845193346
 20
13.1695970572
 30
0.0
 10
10.2857085801
 20
13.1658714015
 30
0.0
 10
10.2863475437
 20
13.1633636082
 30
0.0
 10
10.286650971
 20
13.1620866852
 30
0.0
  0
SPLINE
  5
52A
100
AcDbEntity
  8
0
100
AcDbSpline
 62
7
  6
CONTINUOUS
 70
0
 71
3
 72
9
 73
5
 74
0
 42
0.0000001
 43
0.0000001
 44
0.0000000001
 40
0.0
 40
0.0
 40
0.0
 40
0.0
 40
0.2299574068
 40
1.0
 40
1.0
 40
1.0
 40
1.0
 10
10.286650971
 20
13.1620866852
 30
0.0
 10
10.2868757848
 20
13.161140594
 30
0.0
 10
10.2878034837
 20
13.1570145313
 30
0.0
 10
10.2885523312
 20
13.1528496182
 30
0.0
 10
10.2890618734
 20
13.1496334049
 30
0.0
  0
SPLINE
  5
52B
100
AcDbEntity
  8
0
100
AcDbSpline
 62
7
  6
CONTINUOUS
 70
0
 71
3
 72
9
 73
5
 74
0
 42
0.0000001
 43
0.0000001
 44
0.0000000001
 40
0.0
 40
0.0
 40
0.0
 40
0.0
 40
0.2269219175
 40
1.0
 40
1.0
 40
1.0
 40
1.0
 10
10.2890618734
 20
13.1496334049
 30
0.0
 10
10.2893563724
 20
13.1477745373
 30
0.0
 10
10.2905507268
 20
13.1395664587
 30
0.0
 10
10.2913961702
 20
13.1313108595
 30
0.0
 10
10.2919417131
 20
13.1249223327
 30
0.0
  0
SPLINE
  5
52C
100
AcDbEntity
  8
0
100
AcDbSpline
 62
7
  6
CONTINUOUS
 70
0
 71
3
 72
9
 73
5
 74
0
 42
0.0000001
 43
0.0000001
 44
0.0000000001
 40
0.0
 40
0.0
 40
0.0
 40
0.0
 40
0.2358644118
 40
1.0
 40
1.0
 40
1.0
 40
1.0
 10
10.2919417131
 20
13.1249223327
 30
0.0
 10
10.2921392929
 20
13.1226085952
 30
0.0
 10
10.2929121988
 20
13.1127934875
 30
0.0
 10
10.2934505191
 20
13.1029605511
 30
0.0
 10
10.2937584449
 20
13.0954437036
 30
0.0
  0
SPLINE
  5
52D
100
AcDbEntity
  8
0
100
AcDbSpline
 62
7
  6
CONTINUOUS
 70
0
 71
3
 72
9
 73
5
 74
0
 42
0.0000001
 43
0.0000001
 44
0.0000000001
 40
0.0
 40
0.0
 40
0.0
 40
0.0
 40
0.2604208631
 40
1.0
 40
1.0
 40
1.0
 40
1.0
 10
9.5184855156
 20
13.025126439
 30
0.0
 10
9.518571649
 20
13.0227566777
 30
0.0
 10
9.5189414773
 20
13.0136584689
 30
0.0
 10
9.5194677186
 20
13.0045661145
 30
0.0
 10
9.5199710726
 20
12.9978505325
 30
0.0
  0
SPLINE
  5
52E
100
AcDbEntity
  8
0
100
AcDbSpline
 62
7
  6
CONTINUOUS
 70
0
 71
3
 72
9
 73
5
 74
0
 42
0.0000001
 43
0.0000001
 44
0.0000000001
 40
0.0
 40
0.0
 40
0.0
 40
0.0
 40
0.5363280472
 40
1.0
 40
1.0
 40
1.0
 40
1.0
 10
9.5199710726
 20
12.9978505325
 30
0.0
 10
9.5203853958
 20
12.9923227692
 30
0.0
 10
9.5213045903
 20
12.9820266711
 30
0.0
 10
9.5225970358
 20
12.9717674677
 30
0.0
 10
9.5233452041
 20
12.9670339042
 30
0.0
  0
SPLINE
  5
52F
100
AcDbEntity
  8
0
100
AcDbSpline
 62
7
  6
CONTINUOUS
 70
0
 71
3
 72
15
 73
11
 74
0
 42
0.0000001
 43
0.0000001
 44
0.0000000001
 40
0.0
 40
0.0
 40
0.0
 40
0.0
 40
0.124000666
 40
0.2367801503
 40
0.339899183
 40
0.4376939796
 40
0.5449219108
 40
0.6735868342
 40
0.8257070619
 40
1.0
 40
1.0
 40
1.0
 40
1.0
 10
9.5233452041
 20
12.9670339042
 30
0.0
 10
9.5236805125
 20
12.9649124512
 30
0.0
 10
9.5243800013
 20
12.9608704171
 30
0.0
 10
9.525619712
 20
12.9551126773
 30
0.0
 10
9.5270102834
 20
12.9498596793
 30
0.0
 10
9.5286939026
 20
12.9447829732
 30
0.0
 10
9.5313240494
 20
12.939613802
 30
0.0
 10
9.5354268612
 20
12.9341976369
 30
0.0
 10
9.5420931407
 20
12.9296990049
 30
0.0
 10
9.5478011051
 20
12.9284193631
 30
0.0
 10
9.5508199947
 20
12.9284193631
 30
0.0
  0
SPLINE
  5
530
100
AcDbEntity
  8
0
100
AcDbSpline
 62
7
  6
CONTINUOUS
 70
0
 71
3
 72
15
 73
11
 74
0
 42
0.0000001
 43
0.0000001
 44
0.0000000001
 40
0.0
 40
0.0
 40
0.0
 40
0.0
 40
0.1748629501
 40
0.3342343926
 40
0.4730781233
 40
0.5940241687
 40
0.7033131572
 40
0.803576028
 40
0.9003452998
 40
1.0
 40
1.0
 40
1.0
 40
1.0
 10
9.5508199947
 20
13.1884193631
 30
0.0
 10
9.5485170036
 20
13.1884193631
 30
0.0
 10
9.5440857942
 20
13.1876452617
 30
0.0
 10
9.5384684749
 20
13.1848034062
 30
0.0
 10
9.5342248161
 20
13.1811920293
 30
0.0
 10
9.5313267817
 20
13.1772450073
 30
0.0
 10
9.5293847918
 20
13.1733387347
 30
0.0
 10
9.5278689608
 20
13.1695970572
 30
0.0
 10
9.5266797154
 20
13.1658714015
 30
0.0
 10
9.5260407517
 20
13.1633636082
 30
0.0
 10
9.5257373244
 20
13.1620866852
 30
0.0
  0
SPLINE
  5
531
100
AcDbEntity
  8
0
100
AcDbSpline
 62
7
  6
CONTINUOUS
 70
0
 71
3
 72
9
 73
5
 74
0
 42
0.0000001
 43
0.0000001
 44
0.0000000001
 40
0.0
 40
0.0
 40
0.0
 40
0.0
 40
0.2299574068
 40
1.0
 40
1.0
 40
1.0
 40
1.0
 10
9.5257373244
 20
13.1620866852
 30
0.0
 10
9.5255125106
 20
13.161140594
 30
0.0
 10
9.5245848117
 20
13.1570145313
 30
0.0
 10
9.5238359642
 20
13.1528496182
 30
0.0
 10
9.523326422
 20
13.1496334049
 30
0.0
  0
SPLINE
  5
532
100
AcDbEntity
  8
0
100
AcDbSpline
 62
7
  6
CONTINUOUS
 70
0
 71
3
 72
9
 73
5
 74
0
 42
0.0000001
 43
0.0000001
 44
0.0000000001
 40
0.0
 40
0.0
 40
0.0
 40
0.0
 40
0.2269219175
 40
1.0
 40
1.0
 40
1.0
 40
1.0
 10
9.523326422
 20
13.1496334049
 30
0.0
 10
9.523031923
 20
13.1477745373
 30
0.0
 10
9.5218375686
 20
13.1395664587
 30
0.0
 10
9.5209921253
 20
13.1313108595
 30
0.0
 10
9.5204465823
 20
13.1249223327
 30
0.0
  0
SPLINE
  5
533
100
AcDbEntity
  8
0
100
AcDbSpline
 62
7
  6
CONTINUOUS
 70
0
 71
3
 72
9
 73
5
 74
0
 42
0.0000001
 43
0.0000001
 44
0.0000000001
 40
0.0
 40
0.0
 40
0.0
 40
0.0
 40
0.2358644118
 40
1.0
 40
1.0
 40
1.0
 40
1.0
 10
9.5204465823
 20
13.1249223327
 30
0.0
 10
9.5202490026
 20
13.1226085952
 30
0.0
 10
9.5194760966
 20
13.1127934875
 30
0.0
 10
9.5189377764
 20
13.1029605511
 30
0.0
 10
9.5186298505
 20
13.0954437036
 30
0.0
  0
LINE
  5
534
100
AcDbEntity
  8
0
100
AcDbLine
 62
7
  6
CONTINUOUS
 10
12.1802059587
 20
19.05751465
 11
12.1842467217
 21
19.0568224526
  0
LINE
  5
535
100
AcDbEntity
  8
0
100
AcDbLine
 62
7
  6
CONTINUOUS
 10
12.1842467217
 20
19.0568224526
 11
12.1916183455
 21
19.0555501895
  0
LINE
  5
536
100
AcDbEntity
  8
0
100
AcDbLine
 62
7
  6
CONTINUOUS
 10
12.223171388
 20
19.0499571305
 11
12.2262059587
 21
19.0494036089
  0
LINE
  5
537
100
AcDbEntity
  8
0
100
AcDbLine
 62
7
  6
CONTINUOUS
 10
13.5452035416
 20
19.05751465
 11
13.5469287977
 21
19.0574486327
  0
SPLINE
  5
538
100
AcDbEntity
  8
0
100
AcDbSpline
 62
7
  6
CONTINUOUS
 70
0
 71
3
 72
9
 73
5
 74
0
 42
0.0000001
 43
0.0000001
 44
0.0000000001
 40
0.0
 40
0.0
 40
0.0
 40
0.0
 40
0.6910924387
 40
1.0
 40
1.0
 40
1.0
 40
1.0
 10
13.5469287977
 20
19.0574486327
 30
0.0
 10
13.5472646089
 20
19.0574169809
 30
0.0
 10
13.5476885036
 20
19.0573873981
 30
0.0
 10
13.5482679929
 20
19.0571359032
 30
0.0
 10
13.5482762477
 20
19.0569853617
 30
0.0
  0
SPLINE
  5
539
100
AcDbEntity
  8
0
100
AcDbSpline
 62
7
  6
CONTINUOUS
 70
0
 71
3
 72
11
 73
7
 74
0
 42
0.0000001
 43
0.0000001
 44
0.0000000001
 40
0.0
 40
0.0
 40
0.0
 40
0.0
 40
0.3511657815
 40
0.6386512169
 40
0.8563062951
 40
1.0
 40
1.0
 40
1.0
 40
1.0
 10
13.4289545692
 20
19.05751465
 30
0.0
 10
13.4297138282
 20
19.05751465
 30
0.0
 10
13.4310941355
 20
19.057490101
 30
0.0
 10
13.4329452084
 20
19.0573652111
 30
0.0
 10
13.4343285391
 20
19.0571589555
 30
0.0
 10
13.4350945321
 20
19.0569444816
 30
0.0
 10
13.4353634835
 20
19.056788956
 30
0.0
  0
SPLINE
  5
53A
100
AcDbEntity
  8
0
100
AcDbSpline
 62
7
  6
CONTINUOUS
 70
0
 71
3
 72
10
 73
6
 74
0
 42
0.0000001
 43
0.0000001
 44
0.0000000001
 40
0.0
 40
0.0
 40
0.0
 40
0.0
 40
0.5795113489
 40
0.8129785011
 40
1.0
 40
1.0
 40
1.0
 40
1.0
 10
13.2774559587
 20
19.05751465
 30
0.0
 10
13.2792797067
 20
19.05751465
 30
0.0
 10
13.2818411875
 20
19.0574488564
 30
0.0
 10
13.2849737633
 20
19.0571404399
 30
0.0
 10
13.2862816885
 20
19.0569237885
 30
0.0
 10
13.2868546011
 20
19.056788956
 30
0.0
  0
SPLINE
  5
53B
100
AcDbEntity
  8
0
100
AcDbSpline
 62
7
  6
CONTINUOUS
 70
0
 71
3
 72
10
 73
6
 74
0
 42
0.0000001
 43
0.0000001
 44
0.0000000001
 40
0.0
 40
0.0
 40
0.0
 40
0.0
 40
0.3751647563
 40
0.6588743675
 40
1.0
 40
1.0
 40
1.0
 40
1.0
 10
13.2868546011
 20
19.056788956
 30
0.0
 10
13.2871641795
 20
19.0567160981
 30
0.0
 10
13.2877106013
 20
19.056559676
 30
0.0
 10
13.2884685175
 20
19.0562570639
 30
0.0
 10
13.2889543174
 20
19.0558248977
 30
0.0
 10
13.2889552072
 20
19.0555357186
 30
0.0
  0
SPLINE
  5
53C
100
AcDbEntity
  8
0
100
AcDbSpline
 62
7
  6
CONTINUOUS
 70
0
 71
3
 72
16
 73
12
 74
0
 42
0.0000001
 43
0.0000001
 44
0.0000000001
 40
0.0
 40
0.0
 40
0.0
 40
0.0
 40
0.0824214013
 40
0.2051026827
 40
0.3553443281
 40
0.5181055257
 40
0.6780210946
 40
0.8202703167
 40
0.9310674903
 40
0.9713567808
 40
1.0
 40
1.0
 40
1.0
 40
1.0
 10
12.4128114932
 20
18.9984961596
 30
0.0
 10
12.4140307
 20
18.9984961596
 30
0.0
 10
12.4170609201
 20
18.9982717321
 30
0.0
 10
12.4222869625
 20
18.9977214197
 30
0.0
 10
12.4286756846
 20
18.9968617739
 30
0.0
 10
12.4355890761
 20
18.9957918572
 30
0.0
 10
12.442362334
 20
18.9945948286
 30
0.0
 10
12.4483517462
 20
18.9933939067
 30
0.0
 10
12.4525809505
 20
18.99241194
 30
0.0
 10
12.45513761
 20
18.9916837505
 30
0.0
 10
12.4561054163
 20
18.9913569715
 30
0.0
 10
12.4564956232
 20
18.9911918627
 30
0.0
  0
SPLINE
  5
53D
100
AcDbEntity
  8
0
100
AcDbSpline
 62
7
  6
CONTINUOUS
 70
0
 71
3
 72
13
 73
9
 74
0
 42
0.0000001
 43
0.0000001
 44
0.0000000001
 40
0.0
 40
0.0
 40
0.0
 40
0.0
 40
0.1089797572
 40
0.2381776829
 40
0.5245722953
 40
0.7967086098
 40
0.9098727276
 40
1.0
 40
1.0
 40
1.0
 40
1.0
 10
12.5151873881
 20
18.9984961596
 30
0.0
 10
12.5165436831
 20
18.9984961596
 30
0.0
 10
12.5195077079
 20
18.9984003488
 30
0.0
 10
12.5260220971
 20
18.9979594553
 30
0.0
 10
12.5345305229
 20
18.9969933899
 30
0.0
 10
12.5427864003
 20
18.9956403486
 30
0.0
 10
12.5485607274
 20
18.9943454249
 30
0.0
 10
12.5510015644
 20
18.9936687748
 30
0.0
 10
12.5520648749
 20
18.9933116878
 30
0.0
  0
SPLINE
  5
53E
100
AcDbEntity
  8
0
100
AcDbSpline
 62
7
  6
CONTINUOUS
 70
0
 71
3
 72
10
 73
6
 74
0
 42
0.0000001
 43
0.0000001
 44
0.0000000001
 40
0.0
 40
0.0
 40
0.0
 40
0.0
 40
0.679862005
 40
0.8801807058
 40
1.0
 40
1.0
 40
1.0
 40
1.0
 10
12.5520648749
 20
18.9933116878
 30
0.0
 10
12.5528727623
 20
18.9930403784
 30
0.0
 10
12.5539267378
 20
18.9926476391
 30
0.0
 10
12.5549748951
 20
18.9919903179
 30
0.0
 10
12.5552365464
 20
18.9916274261
 30
0.0
 10
12.5552368454
 20
18.9914772294
 30
0.0
  0
SPLINE
  5
53F
100
AcDbEntity
  8
0
100
AcDbSpline
 62
7
  6
CONTINUOUS
 70
0
 71
3
 72
15
 73
11
 74
0
 42
0.0000001
 43
0.0000001
 44
0.0000000001
 40
0.0
 40
0.0
 40
0.0
 40
0.0
 40
0.298207319
 40
0.4551052036
 40
0.6049186605
 40
0.7402824993
 40
0.8542265358
 40
0.941844862
 40
0.9747365438
 40
1.0
 40
1.0
 40
1.0
 40
1.0
 10
12.5459559587
 20
19.05751465
 30
0.0
 10
12.5493930714
 20
19.05751465
 30
0.0
 10
12.5546393785
 20
19.0572640644
 30
0.0
 10
12.5615814049
 20
19.0566102656
 30
0.0
 10
12.5666342303
 20
19.0559445265
 30
0.0
 10
12.5711701045
 20
19.0551648049
 30
0.0
 10
12.5749568975
 20
19.0543009344
 30
0.0
 10
12.5775474242
 20
19.0535055815
 30
0.0
 10
12.5790862981
 20
19.0528287882
 30
0.0
 10
12.5796678988
 20
19.0524872264
 30
0.0
 10
12.5798983108
 20
19.0523091851
 30
0.0
  0
SPLINE
  5
540
100
AcDbEntity
  8
0
100
AcDbSpline
 62
7
  6
CONTINUOUS
 70
0
 71
3
 72
13
 73
9
 74
0
 42
0.0000001
 43
0.0000001
 44
0.0000000001
 40
0.0
 40
0.0
 40
0.0
 40
0.0
 40
0.114150559
 40
0.2472704646
 40
0.5367776464
 40
0.8055265431
 40
0.9148348614
 40
1.0
 40
1.0
 40
1.0
 40
1.0
 10
12.3944573483
 20
19.05751465
 30
0.0
 10
12.3958695664
 20
19.05751465
 30
0.0
 10
12.3989285469
 20
19.0574196029
 30
0.0
 10
12.4055555215
 20
19.0569780997
 30
0.0
 10
12.4140583309
 20
19.0560125346
 30
0.0
 10
12.4222124961
 20
19.0546533306
 30
0.0
 10
12.4277938668
 20
19.0533498193
 30
0.0
 10
12.4301059651
 20
19.0526708692
 30
0.0
 10
12.4310955649
 20
19.0523091851
 30
0.0
  0
SPLINE
  5
541
100
AcDbEntity
  8
0
100
AcDbSpline
 62
7
  6
CONTINUOUS
 70
0
 71
3
 72
10
 73
6
 74
0
 42
0.0000001
 43
0.0000001
 44
0.0000000001
 40
0.0
 40
0.0
 40
0.0
 40
0.0
 40
0.6700197481
 40
0.8716785316
 40
1.0
 40
1.0
 40
1.0
 40
1.0
 10
12.4310955649
 20
19.0523091851
 30
0.0
 10
12.4317692074
 20
19.0520629788
 30
0.0
 10
12.4326490167
 20
19.0517077126
 30
0.0
 10
12.4335196928
 20
19.0510926932
 30
0.0
 10
12.433721716
 20
19.05076252
 30
0.0
 10
12.4337227416
 20
19.0506251616
 30
0.0
  0
SPLINE
  5
542
100
AcDbEntity
  8
0
100
AcDbSpline
 62
7
  6
CONTINUOUS
 70
0
 71
3
 72
19
 73
15
 74
0
 42
0.0000001
 43
0.0000001
 44
0.0000000001
 40
0.0
 40
0.0
 40
0.0
 40
0.0
 40
0.1093389572
 40
0.2563828953
 40
0.424457801
 40
0.5957615719
 40
0.6771508894
 40
0.7530383945
 40
0.8214797753
 40
0.8805645678
 40
0.928822863
 40
0.9652017746
 40
0.9888304212
 40
1.0
 40
1.0
 40
1.0
 40
1.0
 10
12.2782083759
 20
19.05751465
 30
0.0
 10
12.2798068626
 20
19.05751465
 30
0.0
 10
12.283552755
 20
19.0572940062
 30
0.0
 10
12.2897287144
 20
19.0566926015
 30
0.0
 10
12.2967811254
 20
19.0557678205
 30
0.0
 10
12.3028575082
 20
19.0548039753
 30
0.0
 10
12.3075824402
 20
19.0539375502
 30
0.0
 10
12.3108182765
 20
19.0532867454
 30
0.0
 10
12.3137201566
 20
19.052643726
 30
0.0
 10
12.3162188103
 20
19.0520184305
 30
0.0
 10
12.3182254387
 20
19.0514460834
 30
0.0
 10
12.3197532114
 20
19.0509023386
 30
0.0
 10
12.3206374216
 20
19.0505106364
 30
0.0
 10
12.3211254794
 20
19.0501293666
 30
0.0
 10
12.321116635
 20
19.049966312
 30
0.0
  0
SPLINE
  5
543
100
AcDbEntity
  8
0
100
AcDbSpline
 62
7
  6
CONTINUOUS
 70
0
 71
3
 72
15
 73
11
 74
0
 42
0.0000001
 43
0.0000001
 44
0.0000000001
 40
0.0
 40
0.0
 40
0.0
 40
0.0
 40
0.0274065941
 40
0.0669525115
 40
0.1773551697
 40
0.3199523413
 40
0.4802533326
 40
0.7931561548
 40
0.9160593801
 40
1.0
 40
1.0
 40
1.0
 40
1.0
 10
12.2051312168
 20
19.05751465
 30
0.0
 10
12.2055363212
 20
19.05751465
 30
0.0
 10
12.2065253628
 20
19.0574596446
 30
0.0
 10
12.2091366189
 20
19.0572304049
 30
0.0
 10
12.2134303139
 20
19.0567073161
 30
0.0
 10
12.2194786936
 20
19.0558478292
 30
0.0
 10
12.2284679734
 20
19.0544172562
 30
0.0
 10
12.2371438895
 20
19.0528616986
 30
0.0
 10
12.2446580292
 20
19.0512668899
 30
0.0
 10
12.2476342117
 20
19.0505554723
 30
0.0
 10
12.248823301
 20
19.0502011766
 30
0.0
  0
LINE
  5
544
100
AcDbEntity
  8
0
100
AcDbLine
 62
7
  6
CONTINUOUS
 10
12.248823301
 20
19.0502011766
 11
12.2503262294
 21
19.0495505851
  0
LINE
  5
545
100
AcDbEntity
  8
0
100
AcDbLine
 62
7
  6
CONTINUOUS
 10
13.6401534034
 20
19.0569919938
 11
13.6432059587
 21
19.05751465
  0
LINE
  5
546
100
AcDbEntity
  8
0
100
AcDbLine
 62
7
  6
CONTINUOUS
 10
13.5972059587
 20
19.0494036089
 11
13.6086920881
 21
19.0514772875
  0
LINE
  5
547
100
AcDbEntity
  8
0
100
AcDbLine
 62
9
  6
CONTINUOUS
 10
5.5711456549
 20
9.2774795516
 11
5.5945485135
 21
9.2773436864
  0
SPLINE
  5
548
100
AcDbEntity
  8
0
100
AcDbSpline
 62
9
  6
CONTINUOUS
 70
0
 71
3
 72
26
 73
22
 74
0
 42
0.0000001
 43
0.0000001
 44
0.0000000001
 40
0.0
 40
0.0
 40
0.0
 40
0.0
 40
0.1040170094
 40
0.177660114
 40
0.2696597272
 40
0.3240303799
 40
0.3853057727
 40
0.4547916317
 40
0.5341528093
 40
0.6259584549
 40
0.6774010258
 40
0.7331661341
 40
0.7937260163
 40
0.8258172769
 40
0.8590239885
 40
0.8932027441
 40
0.9282197934
 40
0.9460096493
 40
0.9639687845
 40
0.9820023596
 40
1.0
 40
1.0
 40
1.0
 40
1.0
 10
5.5945485135
 20
9.2773436864
 30
0.0
 10
5.6055565925
 20
9.2772950071
 30
0.0
 10
5.6243583751
 20
9.2772312613
 30
0.0
 10
5.6528965098
 20
9.2771468711
 30
0.0
 10
5.6761805337
 20
9.2770674357
 30
0.0
 10
5.6981555857
 20
9.2769673429
 30
0.0
 10
5.7177478149
 20
9.2768401158
 30
0.0
 10
5.7399843919
 20
9.2766471203
 30
0.0
 10
5.7654508496
 20
9.2763180208
 30
0.0
 10
5.7890050591
 20
9.2758360023
 30
0.0
 10
5.8100593988
 20
9.2752719137
 30
0.0
 10
5.8278021065
 20
9.2746011274
 30
0.0
 10
5.8434908105
 20
9.2738399692
 30
0.0
 10
5.8567921956
 20
9.2731430875
 30
0.0
 10
5.867302473
 20
9.2725365203
 30
0.0
 10
5.8781151893
 20
9.2718012557
 30
0.0
 10
5.8872901295
 20
9.271047818
 30
0.0
 10
5.8947551447
 20
9.2704451493
 30
0.0
 10
5.9004331989
 20
9.2700495139
 30
0.0
 10
5.9061283039
 20
9.2695804163
 30
0.0
 10
5.9098981018
 20
9.2689329266
 30
0.0
 10
5.9117450987
 20
9.2684676404
 30
0.0
  0
LINE
  5
549
100
AcDbEntity
  8
0
100
AcDbLine
 62
9
  6
CONTINUOUS
 10
5.5690206641
 20
9.2618937644
 11
5.6319922052
 21
9.2621047559
  0
SPLINE
  5
54A
100
AcDbEntity
  8
0
100
AcDbSpline
 62
9
  6
CONTINUOUS
 70
0
 71
3
 72
14
 73
10
 74
0
 42
0.0000001
 43
0.0000001
 44
0.0000000001
 40
0.0
 40
0.0
 40
0.0
 40
0.0
 40
0.1341004636
 40
0.3196010342
 40
0.440541521
 40
0.5887659833
 40
0.7748819224
 40
0.8840176294
 40
1.0
 40
1.0
 40
1.0
 40
1.0
 10
5.6319922052
 20
9.2621047559
 30
0.0
 10
5.6445016832
 20
9.2621342618
 30
0.0
 10
5.6743154727
 20
9.2622015682
 30
0.0
 10
5.7154109863
 20
9.2623520681
 30
0.0
 10
5.7578233199
 20
9.2626702581
 30
0.0
 10
5.8002898555
 20
9.263272938
 30
0.0
 10
5.8416487944
 20
9.2643397416
 30
0.0
 10
5.879970699
 20
9.2661202572
 30
0.0
 10
5.9009259362
 20
9.2675435735
 30
0.0
 10
5.9117059587
 20
9.2684654997
 30
0.0
  0
LINE
  5
54B
100
AcDbEntity
  8
0
100
AcDbLine
 62
9
  6
CONTINUOUS
 10
9.8080581965
 20
13.5395787352
 11
9.8099822637
 21
13.5404709274
  0
SPLINE
  5
54C
100
AcDbEntity
  8
0
100
AcDbSpline
 62
9
  6
CONTINUOUS
 70
0
 71
3
 72
29
 73
25
 74
0
 42
0.0000001
 43
0.0000001
 44
0.0000000001
 40
0.0
 40
0.0
 40
0.0
 40
0.0
 40
0.0001881565
 40
0.0004954232
 40
0.0009541382
 40
0.0023273217
 40
0.0043063662
 40
0.0068873689
 40
0.0100659263
 40
0.0181972814
 40
0.0286630585
 40
0.0414254149
 40
0.056446363
 40
0.0736872145
 40
0.1146064948
 40
0.1636721782
 40
0.2203582036
 40
0.2841392016
 40
0.3545366314
 40
0.4311503861
 40
0.5135880159
 40
0.6014576409
 40
0.7920107172
 40
1.0
 40
1.0
 40
1.0
 40
1.0
 10
12.2438537147
 20
13.8049056051
 30
0.0
 10
12.2438564224
 20
13.8049176308
 30
0.0
 10
12.2439050838
 20
13.8048798342
 30
0.0
 10
12.2439238371
 20
13.8048373566
 30
0.0
 10
12.244008593
 20
13.8047122074
 30
0.0
 10
12.2441204917
 20
13.8044980701
 30
0.0
 10
12.2443054061
 20
13.8041515937
 30
0.0
 10
12.2445329971
 20
13.8037003145
 30
0.0
 10
12.244938962
 20
13.8028849988
 30
0.0
 10
12.2455627592
 20
13.8016025474
 30
0.0
 10
12.2464531559
 20
13.7997508299
 30
0.0
 10
12.2475324351
 20
13.797489442
 30
0.0
 10
12.2487991375
 20
13.7948255814
 30
0.0
 10
12.2508550177
 20
13.7904944536
 30
0.0
 10
12.2538651814
 20
13.7841473931
 30
0.0
 10
12.2579861573
 20
13.7754670942
 30
0.0
 10
12.2627578484
 20
13.7654377649
 30
0.0
 10
12.2681447776
 20
13.7541535468
 30
0.0
 10
12.2741062405
 20
13.7416969546
 30
0.0
 10
12.2805861693
 20
13.728133478
 30
0.0
 10
12.2875345848
 20
13.7135252556
 30
0.0
 10
12.2976329896
 20
13.6921495196
 30
0.0
 10
12.3110928015
 20
13.6632650028
 30
0.0
 10
12.321899387
 20
13.6394960188
 30
0.0
 10
12.3274693129
 20
13.6270604348
 30
0.0
  0
LINE
  5
54D
100
AcDbEntity
  8
0
100
AcDbLine
 62
9
  6
CONTINUOUS
 10
12.3443784942
 20
13.5887514753
 11
12.3473400865
 21
13.5819456671
  0
SPLINE
  5
54E
100
AcDbEntity
  8
0
100
AcDbSpline
 62
7
  6
CONTINUOUS
 70
0
 71
3
 72
9
 73
5
 74
0
 42
0.0000001
 43
0.0000001
 44
0.0000000001
 40
0.0
 40
0.0
 40
0.0
 40
0.0
 40
0.5000022994
 40
1.0
 40
1.0
 40
1.0
 40
1.0
 10
12.2682298541
 20
13.0584193631
 30
0.0
 10
12.2682298541
 20
13.0472389399
 30
0.0
 10
12.2678620501
 20
13.0248767486
 30
0.0
 10
12.2667036972
 20
13.0025394145
 30
0.0
 10
12.2658838595
 20
12.9913891935
 30
0.0
  0
SPLINE
  5
54F
100
AcDbEntity
  8
0
100
AcDbSpline
 62
7
  6
CONTINUOUS
 70
0
 71
3
 72
18
 73
14
 74
0
 42
0.0000001
 43
0.0000001
 44
0.0000000001
 40
0.0
 40
0.0
 40
0.0
 40
0.0
 40
0.1250166107
 40
0.2500323342
 40
0.3750450932
 40
0.5000502753
 40
0.625035693
 40
0.6875570461
 40
0.7500818647
 40
0.8126070098
 40
0.8751352046
 40
0.9376008641
 40
1.0
 40
1.0
 40
1.0
 40
1.0
 10
12.2658838595
 20
12.9913891935
 30
0.0
 10
12.2652681777
 20
12.9830155985
 30
0.0
 10
12.2637640148
 20
12.9662865276
 30
0.0
 10
12.2605004505
 20
12.9413025584
 30
0.0
 10
12.2559509072
 20
12.9165135062
 30
0.0
 10
12.2497051038
 20
12.8920915916
 30
0.0
 10
12.2425711923
 20
12.8722926022
 30
0.0
 10
12.2352014133
 20
12.8571846991
 30
0.0
 10
12.2286472272
 20
12.8463991664
 30
0.0
 10
12.2208275374
 20
12.8364726062
 30
0.0
 10
12.2114611175
 20
12.8279306179
 30
0.0
 10
12.2003206305
 20
12.8217727442
 30
0.0
 10
12.1918849197
 20
12.820136927
 30
0.0
 10
12.1876941522
 20
12.820136927
 30
0.0
  0
SPLINE
  5
550
100
AcDbEntity
  8
0
100
AcDbSpline
 62
7
  6
CONTINUOUS
 70
0
 71
3
 72
13
 73
9
 74
0
 42
0.0000001
 43
0.0000001
 44
0.0000000001
 40
0.0
 40
0.0
 40
0.0
 40
0.0
 40
0.1249155315
 40
0.2499009217
 40
0.374991189
 40
0.50007938
 40
0.7499567161
 40
1.0
 40
1.0
 40
1.0
 40
1.0
 10
12.1876941522
 20
12.820136927
 30
0.0
 10
12.1840349351
 20
12.820136927
 30
0.0
 10
12.1766795676
 20
12.8213829983
 30
0.0
 10
12.1666787032
 20
12.8261801215
 30
0.0
 10
12.1580200636
 20
12.8330615093
 30
0.0
 10
12.1481589318
 20
12.8439542253
 30
0.0
 10
12.1384744152
 20
12.8596472356
 30
0.0
 10
12.1327069482
 20
12.873141768
 30
0.0
 10
12.130173529
 20
12.8800143437
 30
0.0
  0
SPLINE
  5
551
100
AcDbEntity
  8
0
100
AcDbSpline
 62
7
  6
CONTINUOUS
 70
0
 71
3
 72
13
 73
9
 74
0
 42
0.0000001
 43
0.0000001
 44
0.0000000001
 40
0.0
 40
0.0
 40
0.0
 40
0.0
 40
0.250043334
 40
0.4999206857
 40
0.625009039
 40
0.7500991494
 40
0.8750850306
 40
1.0
 40
1.0
 40
1.0
 40
1.0
 10
12.130173529
 20
13.2368243825
 30
0.0
 10
12.1327069463
 20
13.2436969532
 30
0.0
 10
12.1384744034
 20
13.2571914842
 30
0.0
 10
12.1481589279
 20
13.2728844531
 30
0.0
 10
12.1580200154
 20
13.28377723
 30
0.0
 10
12.1666787159
 20
13.2906584526
 30
0.0
 10
12.1766794319
 20
13.2954560947
 30
0.0
 10
12.1840349547
 20
13.2967012014
 30
0.0
 10
12.1876941519
 20
13.2967012014
 30
0.0
  0
SPLINE
  5
552
100
AcDbEntity
  8
0
100
AcDbSpline
 62
7
  6
CONTINUOUS
 70
0
 71
3
 72
18
 73
14
 74
0
 42
0.0000001
 43
0.0000001
 44
0.0000000001
 40
0.0
 40
0.0
 40
0.0
 40
0.0
 40
0.0623995424
 40
0.1248651593
 40
0.1873931463
 40
0.2499181782
 40
0.3124429867
 40
0.3749643203
 40
0.4999497105
 40
0.6249548832
 40
0.7499676478
 40
0.8749833805
 40
1.0
 40
1.0
 40
1.0
 40
1.0
 10
12.1876941519
 20
13.2967012014
 30
0.0
 10
12.1918839943
 20
13.2967012014
 30
0.0
 10
12.2003180143
 20
13.2950671826
 30
0.0
 10
12.2114563227
 20
13.2889111284
 30
0.0
 10
12.2208216673
 20
13.2803723941
 30
0.0
 10
12.2286406533
 20
13.2704489214
 30
0.0
 10
12.2351945232
 20
13.2596665739
 30
0.0
 10
12.2425641727
 20
13.2445628557
 30
0.0
 10
12.2496983193
 20
13.2247690307
 30
0.0
 10
12.2559447434
 20
13.2003531841
 30
0.0
 10
12.2604951044
 20
13.1755701016
 30
0.0
 10
12.2637596097
 20
13.1505920267
 30
0.0
 10
12.2652644596
 20
13.1338668482
 30
0.0
 10
12.2658805009
 20
13.1254951926
 30
0.0
  0
SPLINE
  5
553
100
AcDbEntity
  8
0
100
AcDbSpline
 62
7
  6
CONTINUOUS
 70
0
 71
3
 72
9
 73
5
 74
0
 42
0.0000001
 43
0.0000001
 44
0.0000000001
 40
0.0
 40
0.0
 40
0.0
 40
0.0
 40
0.4999976911
 40
1.0
 40
1.0
 40
1.0
 40
1.0
 10
12.2658805009
 20
13.1254951926
 30
0.0
 10
12.2667015635
 20
13.1143374122
 30
0.0
 10
12.2678615544
 20
13.0919848678
 30
0.0
 10
12.2682298541
 20
13.0696074156
 30
0.0
 10
12.2682298541
 20
13.0584193631
 30
0.0
  0
SPLINE
  5
554
100
AcDbEntity
  8
0
100
AcDbSpline
 62
7
  6
CONTINUOUS
 70
0
 71
3
 72
11
 73
7
 74
0
 42
0.0000001
 43
0.0000001
 44
0.0000000001
 40
0.0
 40
0.0
 40
0.0
 40
0.0
 40
0.2499989441
 40
0.5000151232
 40
0.7500233057
 40
1.0
 40
1.0
 40
1.0
 40
1.0
 10
12.0929950558
 20
13.0584193631
 30
0.0
 10
12.0929950558
 20
13.0431557501
 30
0.0
 10
12.0948850534
 20
13.0125985663
 30
0.0
 10
12.102881518
 20
12.967432175
 30
0.0
 10
12.1149402643
 20
12.9232091031
 30
0.0
 10
12.1248946851
 20
12.8943346169
 30
0.0
 10
12.130173529
 20
12.8800143437
 30
0.0
  0
SPLINE
  5
555
100
AcDbEntity
  8
0
100
AcDbSpline
 62
7
  6
CONTINUOUS
 70
0
 71
3
 72
17
 73
13
 74
0
 42
0.0000001
 43
0.0000001
 44
0.0000000001
 40
0.0
 40
0.0
 40
0.0
 40
0.0
 40
0.1335322027
 40
0.2613233267
 40
0.3227718876
 40
0.3827639391
 40
0.5000010503
 40
0.6172391127
 40
0.677231755
 40
0.738680327
 40
0.8664695665
 40
1.0
 40
1.0
 40
1.0
 40
1.0
 10
12.130173529
 20
12.6332027829
 30
0.0
 10
12.1249850938
 20
12.6261652752
 30
0.0
 10
12.1152108168
 20
12.6121029719
 30
0.0
 10
12.1049598713
 20
12.593540207
 30
0.0
 10
12.0988811772
 20
12.5783700624
 30
0.0
 10
12.0945479106
 20
12.5633292393
 30
0.0
 10
12.0923267907
 20
12.5440003507
 30
0.0
 10
12.0945495148
 20
12.5246716649
 30
0.0
 10
12.0988833427
 20
12.5096309251
 30
0.0
 10
12.1049617229
 20
12.4944607701
 30
0.0
 10
12.115211505
 20
12.4758976588
 30
0.0
 10
12.1249851625
 20
12.4618351781
 30
0.0
 10
12.130173529
 20
12.4547977636
 30
0.0
  0
SPLINE
  5
556
100
AcDbEntity
  8
0
100
AcDbSpline
 62
9
  6
CONTINUOUS
 70
0
 71
3
 72
33
 73
29
 74
0
 42
0.0000001
 43
0.0000001
 44
0.0000000001
 40
0.0
 40
0.0
 40
0.0
 40
0.0
 40
0.1809753452
 40
0.2613956738
 40
0.3336671018
 40
0.3982097941
 40
0.4561370898
 40
0.5559975677
 40
0.6393937026
 40
0.7099873031
 40
0.7702383751
 40
0.821682898
 40
0.8654599754
 40
0.9023168802
 40
0.9328134272
 40
0.9458205319
 40
0.9573935269
 40
0.9675428419
 40
0.9762752573
 40
0.9835975687
 40
0.9895224242
 40
0.9940845243
 40
0.9958670036
 40
0.997323759
 40
0.9984598233
 40
0.999280344
 40
0.9997908923
 40
1.0
 40
1.0
 40
1.0
 40
1.0
 10
5.9188759554
 20
9.2684193631
 30
0.0
 10
5.9395085135
 20
9.2607636658
 30
0.0
 10
5.9692981011
 20
9.2494864832
 30
0.0
 10
6.0086619358
 20
9.2395127253
 30
0.0
 10
6.0345256885
 20
9.2341255105
 30
0.0
 10
6.0578400651
 20
9.2299573665
 30
0.0
 10
6.0845570055
 20
9.2258055162
 30
0.0
 10
6.1136311754
 20
9.221938278
 30
0.0
 10
6.144245052
 20
9.2179815287
 30
0.0
 10
6.1700882918
 20
9.2146872358
 30
0.0
 10
6.1920823953
 20
9.2119252683
 30
0.0
 10
6.2108370126
 20
9.2095381546
 30
0.0
 10
6.2267630098
 20
9.2074590783
 30
0.0
 10
6.2401582964
 20
9.2056733949
 30
0.0
 10
6.2498423086
 20
9.2043645024
 30
0.0
 10
6.2564781076
 20
9.2034576969
 30
0.0
 10
6.2606619583
 20
9.2028826133
 30
0.0
 10
6.2643307069
 20
9.2023773079
 30
0.0
 10
6.2674875678
 20
9.2019439696
 30
0.0
 10
6.2701361344
 20
9.2015846186
 30
0.0
 10
6.2722829949
 20
9.2013009888
 30
0.0
 10
6.2737629666
 20
9.2011093836
 30
0.0
 10
6.2747030198
 20
9.2009855842
 30
0.0
 10
6.275231524
 20
9.2009158854
 30
0.0
 10
6.2756395077
 20
9.2008554353
 30
0.0
 10
6.2759430615
 20
9.2008159081
 30
0.0
 10
6.2761142863
 20
9.2007706957
 30
0.0
 10
6.2762143415
 20
9.200761697
 30
0.0
 10
6.2762293061
 20
9.2007411386
 30
0.0
  0
SPLINE
  5
557
100
AcDbEntity
  8
0
100
AcDbSpline
 62
7
  6
CONTINUOUS
 70
0
 71
3
 72
12
 73
8
 74
0
 42
0.0000001
 43
0.0000001
 44
0.0000000001
 40
0.0
 40
0.0
 40
0.0
 40
0.0
 40
0.1989215408
 40
0.4222988136
 40
0.6862075822
 40
0.8382173375
 40
1.0
 40
1.0
 40
1.0
 40
1.0
 10
12.130173529
 20
12.6332027829
 30
0.0
 10
12.1328182582
 20
12.6367900499
 30
0.0
 10
12.1390550514
 20
12.6439748186
 30
0.0
 10
12.1512221145
 20
12.653540737
 30
0.0
 10
12.1643855943
 20
12.6596245873
 30
0.0
 10
12.1770276019
 20
12.6625624367
 30
0.0
 10
12.1840694452
 20
12.6631438486
 30
0.0
 10
12.1876941565
 20
12.6631438486
 30
0.0
  0
SPLINE
  5
558
100
AcDbEntity
  8
0
100
AcDbSpline
 62
7
  6
CONTINUOUS
 70
0
 71
3
 72
13
 73
9
 74
0
 42
0.0000001
 43
0.0000001
 44
0.0000000001
 40
0.0
 40
0.0
 40
0.0
 40
0.0
 40
0.1887123286
 40
0.34147585
 40
0.4695497981
 40
0.5845751441
 40
0.7966273709
 40
1.0
 40
1.0
 40
1.0
 40
1.0
 10
12.1876941565
 20
12.6631438486
 30
0.0
 10
12.1960746589
 20
12.6631438486
 30
0.0
 10
12.2113956473
 20
12.6603189871
 30
0.0
 10
12.2298061354
 20
12.6499564621
 30
0.0
 10
12.2424894176
 20
12.6375598192
 30
0.0
 10
12.2538673295
 20
12.6207326445
 30
0.0
 10
12.2624024627
 20
12.5984928156
 30
0.0
 10
12.2656600671
 20
12.5802709846
 30
0.0
 10
12.2666995489
 20
12.5712994535
 30
0.0
  0
SPLINE
  5
559
100
AcDbEntity
  8
0
100
AcDbSpline
 62
7
  6
CONTINUOUS
 70
0
 71
3
 72
17
 73
13
 74
0
 42
0.0000001
 43
0.0000001
 44
0.0000000001
 40
0.0
 40
0.0
 40
0.0
 40
0.0
 40
0.1076203243
 40
0.2150460304
 40
0.3228455345
 40
0.4319194094
 40
0.5442919989
 40
0.6649714549
 40
0.7321653289
 40
0.8077402084
 40
0.8964779002
 40
1.0
 40
1.0
 40
1.0
 40
1.0
 10
12.2666995489
 20
12.5712994535
 30
0.0
 10
12.2674759593
 20
12.5645984322
 30
0.0
 10
12.2683989128
 20
12.5511305479
 30
0.0
 10
12.2681638872
 20
12.5308761382
 30
0.0
 10
12.2662540945
 20
12.5106114688
 30
0.0
 10
12.2622235375
 20
12.4903216068
 30
0.0
 10
12.2551039967
 20
12.469996382
 30
0.0
 10
12.2452363836
 20
12.453711316
 30
0.0
 10
12.2337565538
 20
12.4417445703
 30
0.0
 10
12.2218955424
 20
12.4332117506
 30
0.0
 10
12.20630414
 20
12.4265908634
 30
0.0
 10
12.1941831225
 20
12.4248565966
 30
0.0
 10
12.1876941566
 20
12.4248565966
 30
0.0
  0
SPLINE
  5
55A
100
AcDbEntity
  8
0
100
AcDbSpline
 62
7
  6
CONTINUOUS
 70
0
 71
3
 72
12
 73
8
 74
0
 42
0.0000001
 43
0.0000001
 44
0.0000000001
 40
0.0
 40
0.0
 40
0.0
 40
0.0
 40
0.1617828651
 40
0.3137924032
 40
0.5777011361
 40
0.8010784471
 40
1.0
 40
1.0
 40
1.0
 40
1.0
 10
12.1876941566
 20
12.4248565966
 30
0.0
 10
12.1840694403
 20
12.4248565966
 30
0.0
 10
12.1770276091
 20
12.4254381609
 30
0.0
 10
12.1643855926
 20
12.4283759304
 30
0.0
 10
12.1512221201
 20
12.4344598145
 30
0.0
 10
12.1390550533
 20
12.4440257239
 30
0.0
 10
12.1328182587
 20
12.4512104959
 30
0.0
 10
12.130173529
 20
12.4547977636
 30
0.0
  0
SPLINE
  5
55B
100
AcDbEntity
  8
0
100
AcDbSpline
 62
9
  6
CONTINUOUS
 70
0
 71
3
 72
34
 73
30
 74
0
 42
0.0000001
 43
0.0000001
 44
0.0000000001
 40
0.0
 40
0.0
 40
0.0
 40
0.0
 40
0.0000415398
 40
0.0001683879
 40
0.0003807763
 40
0.0006789232
 40
0.0015333593
 40
0.002733426
 40
0.0042808518
 40
0.0061773645
 40
0.0084246921
 40
0.0110245623
 40
0.0172888416
 40
0.0249840249
 40
0.034123935
 40
0.044722395
 40
0.0568025752
 40
0.0704250323
 40
0.1025763997
 40
0.1417357831
 40
0.1884625246
 40
0.2434571721
 40
0.3079849093
 40
0.3836474076
 40
0.4728279033
 40
0.5783133831
 40
0.7030912131
 40
0.8462192699
 40
1.0
 40
1.0
 40
1.0
 40
1.0
 10
6.2633141841
 20
9.2943515163
 30
0.0
 10
6.2633166376
 20
9.2943556239
 30
0.0
 10
6.2632794314
 20
9.2943448575
 30
0.0
 10
6.2632530302
 20
9.2943522955
 30
0.0
 10
6.2631698129
 20
9.2943427133
 30
0.0
 10
6.2630189111
 20
9.2943371389
 30
0.0
 10
6.2627438666
 20
9.2943187641
 30
0.0
 10
6.2623319102
 20
9.2942954412
 30
0.0
 10
6.2617970972
 20
9.2942631131
 30
0.0
 10
6.26114305
 20
9.2942241452
 30
0.0
 10
6.2603675816
 20
9.2941776503
 30
0.0
 10
6.2590900807
 20
9.2941011581
 30
0.0
 10
6.2571861285
 20
9.2939872267
 30
0.0
 10
6.2545302416
 20
9.2938287949
 30
0.0
 10
6.2513759653
 20
9.2936413339
 30
0.0
 10
6.2477174587
 20
9.2934248363
 30
0.0
 10
6.2435434768
 20
9.2931790005
 30
0.0
 10
6.2368911191
 20
9.2927901847
 30
0.0
 10
6.2271245463
 20
9.2922280554
 30
0.0
 10
6.2135502287
 20
9.2914651522
 30
0.0
 10
6.1973476533
 20
9.2905776579
 30
0.0
 10
6.1782260282
 20
9.2895573218
 30
0.0
 10
6.1557747952
 20
9.2883874686
 30
0.0
 10
6.1293901525
 20
9.2870353769
 30
0.0
 10
6.0982982583
 20
9.2853616396
 30
0.0
 10
6.0615663967
 20
9.2832220308
 30
0.0
 10
6.0186601025
 20
9.2802336989
 30
0.0
 10
5.9703173963
 20
9.2754098911
 30
0.0
 10
5.9364365
 20
9.270735999
 30
0.0
 10
5.9188759996
 20
9.268419027
 30
0.0
  0
SPLINE
  5
55C
100
AcDbEntity
  8
0
100
AcDbSpline
 62
9
  6
CONTINUOUS
 70
0
 71
3
 72
33
 73
29
 74
0
 42
0.0000001
 43
0.0000001
 44
0.0000000001
 40
0.0
 40
0.0
 40
0.0
 40
0.0
 40
0.2211963212
 40
0.3232192026
 40
0.4191296658
 40
0.5086310156
 40
0.5914265378
 40
0.6672195005
 40
0.7357131555
 40
0.796639512
 40
0.8498456093
 40
0.8952072277
 40
0.914907537
 40
0.9326001412
 40
0.9482695111
 40
0.9619001169
 40
0.9734764286
 40
0.9829829157
 40
0.9869551217
 40
0.9904040475
 40
0.9933277517
 40
0.9957242928
 40
0.9975917295
 40
0.9989281202
 40
0.9993965667
 40
0.9997315237
 40
0.9999327487
 40
1.0
 40
1.0
 40
1.0
 40
1.0
 10
13.2576154562
 20
11.9110779838
 30
0.0
 10
13.2741377176
 20
11.9111518624
 30
0.0
 10
13.2982804935
 20
11.9112804823
 30
0.0
 10
13.329587025
 20
11.9114865138
 30
0.0
 10
13.3510565985
 20
11.9116443999
 30
0.0
 10
13.3710898953
 20
11.9118063504
 30
0.0
 10
13.3896204419
 20
11.9119688587
 30
0.0
 10
13.4065817647
 20
11.9121284149
 30
0.0
 10
13.4219095388
 20
11.9122815477
 30
0.0
 10
13.4355501818
 20
11.9124248676
 30
0.0
 10
13.4474629905
 20
11.9125560374
 30
0.0
 10
13.4562965261
 20
11.9126576505
 30
0.0
 10
13.4624775023
 20
11.9127310793
 30
0.0
 10
13.466440739
 20
11.9127790997
 30
0.0
 10
13.4699506172
 20
11.9128224378
 30
0.0
 10
13.4730036628
 20
11.9128608252
 30
0.0
 10
13.47559639
 20
11.9128939765
 30
0.0
 10
13.4774677463
 20
11.9129183065
 30
0.0
 10
13.4787320394
 20
11.9129348877
 30
0.0
 10
13.479504732
 20
11.9129451654
 30
0.0
 10
13.4801595628
 20
11.9129536774
 30
0.0
 10
13.4806967683
 20
11.9129613607
 30
0.0
 10
13.4811141194
 20
11.9129655879
 30
0.0
 10
13.4813903416
 20
11.9129720375
 30
0.0
 10
13.4815475457
 20
11.912970342
 30
0.0
 10
13.4816268886
 20
11.91297752
 30
0.0
 10
13.4816643407
 20
11.9129670566
 30
0.0
 10
13.4816922978
 20
11.9129786816
 30
0.0
 10
13.4816940702
 20
11.9129739813
 30
0.0
  0
LINE
  5
55D
100
AcDbEntity
  8
0
100
AcDbLine
 62
9
  6
CONTINUOUS
 10
13.4816271194
 20
11.9043804107
 11
13.4669411071
 21
11.9049097292
  0
SPLINE
  5
55E
100
AcDbEntity
  8
0
100
AcDbSpline
 62
7
  6
CONTINUOUS
 70
0
 71
3
 72
11
 73
7
 74
0
 42
0.0000001
 43
0.0000001
 44
0.0000000001
 40
0.0
 40
0.0
 40
0.0
 40
0.0
 40
0.2499788888
 40
0.499989013
 40
0.7500034044
 40
1.0
 40
1.0
 40
1.0
 40
1.0
 10
12.130173529
 20
13.2368243825
 30
0.0
 10
12.1248946378
 20
13.2225039811
 30
0.0
 10
12.1149397823
 20
13.1936293472
 30
0.0
 10
12.1028819859
 20
13.1494058965
 30
0.0
 10
12.0948842013
 20
13.104239854
 30
0.0
 10
12.0929950558
 20
13.0736828354
 30
0.0
 10
12.0929950558
 20
13.0584193631
 30
0.0
  0
SPLINE
  5
55F
100
AcDbEntity
  8
0
100
AcDbSpline
 62
7
  6
CONTINUOUS
 70
0
 71
3
 72
9
 73
5
 74
0
 42
0.0000001
 43
0.0000001
 44
0.0000000001
 40
0.0
 40
0.0
 40
0.0
 40
0.0
 40
0.5724759917
 40
1.0
 40
1.0
 40
1.0
 40
1.0
 10
13.5159212404
 20
19.0502011766
 30
0.0
 10
13.5139141736
 20
19.0499682876
 30
0.0
 10
13.5104024941
 20
19.0496175746
 30
0.0
 10
13.5068753035
 20
19.0494036089
 30
0.0
 10
13.505366373
 20
19.0494036089
 30
0.0
  0
SPLINE
  5
560
100
AcDbEntity
  8
0
100
AcDbSpline
 62
7
  6
CONTINUOUS
 70
0
 71
3
 72
17
 73
13
 74
0
 42
0.0000001
 43
0.0000001
 44
0.0000000001
 40
0.0
 40
0.0
 40
0.0
 40
0.0
 40
0.1335304374
 40
0.2613196671
 40
0.3227682319
 40
0.3827608722
 40
0.4999989544
 40
0.6172360898
 40
0.6772281419
 40
0.7386766957
 40
0.8664678015
 40
1.0
 40
1.0
 40
1.0
 40
1.0
 10
12.130173529
 20
13.6620409626
 30
0.0
 10
12.1249851628
 20
13.6550035486
 30
0.0
 10
12.1152115038
 20
13.6409410715
 30
0.0
 10
12.1049617219
 20
13.6223779629
 30
0.0
 10
12.0988833505
 20
13.607207807
 30
0.0
 10
12.0945495404
 20
13.5921670627
 30
0.0
 10
12.0923268283
 20
13.5728383759
 30
0.0
 10
12.0945479435
 20
13.5535094872
 30
0.0
 10
12.0988811951
 20
13.5384686601
 30
0.0
 10
12.1049598791
 20
13.5232985147
 30
0.0
 10
12.1152108189
 20
13.5047357507
 30
0.0
 10
12.1249850944
 20
13.4906734501
 30
0.0
 10
12.130173529
 20
13.4836359433
 30
0.0
  0
SPLINE
  5
561
100
AcDbEntity
  8
0
100
AcDbSpline
 62
7
  6
CONTINUOUS
 70
0
 71
3
 72
15
 73
11
 74
0
 42
0.0000001
 43
0.0000001
 44
0.0000000001
 40
0.0
 40
0.0
 40
0.0
 40
0.0
 40
0.0126032129
 40
0.0319094344
 40
0.0954904253
 40
0.1927439031
 40
0.3195016985
 40
0.4702666317
 40
0.6390656771
 40
1.0
 40
1.0
 40
1.0
 40
1.0
 10
13.4356930544
 20
19.056358705
 30
0.0
 10
13.4356922278
 20
19.0562426566
 30
0.0
 10
13.4355348111
 20
19.0559643903
 30
0.0
 10
13.4348324268
 20
19.0554365847
 30
0.0
 10
13.4332916226
 20
19.0547714652
 30
0.0
 10
13.4307713967
 20
19.0539757391
 30
0.0
 10
13.4274202657
 20
19.0531337158
 30
0.0
 10
13.4233978671
 20
19.0522916945
 30
0.0
 10
13.417225213
 20
19.0512076309
 30
0.0
 10
13.4123882034
 20
19.0505554952
 30
0.0
 10
13.4090836338
 20
19.0502011766
 30
0.0
  0
SPLINE
  5
562
100
AcDbEntity
  8
0
100
AcDbSpline
 62
7
  6
CONTINUOUS
 70
0
 71
3
 72
9
 73
5
 74
0
 42
0.0000001
 43
0.0000001
 44
0.0000000001
 40
0.0
 40
0.0
 40
0.0
 40
0.0
 40
0.542024224
 40
1.0
 40
1.0
 40
1.0
 40
1.0
 10
13.4090836338
 20
19.0502011766
 30
0.0
 10
13.4068048311
 20
19.0499568416
 30
0.0
 10
13.4025917349
 20
19.0495887349
 30
0.0
 10
13.3983641357
 20
19.0494036089
 30
0.0
 10
13.3964276572
 20
19.0494036089
 30
0.0
  0
SPLINE
  5
563
100
AcDbEntity
  8
0
100
AcDbSpline
 62
9
  6
CONTINUOUS
 70
0
 71
3
 72
13
 73
9
 74
0
 42
0.0000001
 43
0.0000001
 44
0.0000000001
 40
0.0
 40
0.0
 40
0.0
 40
0.0
 40
0.1262757823
 40
0.2518785892
 40
0.3769901627
 40
0.5017984371
 40
0.7509409963
 40
1.0
 40
1.0
 40
1.0
 40
1.0
 10
12.6402117427
 20
13.8601097117
 30
0.0
 10
12.6284444836
 20
13.8511356817
 30
0.0
 10
12.6056619415
 20
13.8323207468
 30
0.0
 10
12.5734359134
 20
13.8020595727
 30
0.0
 10
12.5433025557
 20
13.769944028
 30
0.0
 10
12.5059225077
 20
13.7249225536
 30
0.0
 10
12.4642536534
 20
13.6647706836
 30
0.0
 10
12.4361688447
 20
13.6134672051
 30
0.0
 10
12.4232971182
 20
13.5872705674
 30
0.0
  0
LINE
  5
564
100
AcDbEntity
  8
0
100
AcDbLine
 62
7
  6
CONTINUOUS
 10
9.779074078
 20
13.3824880194
 11
9.7793224482
 21
13.3846713656
  0
SPLINE
  5
565
100
AcDbEntity
  8
0
100
AcDbSpline
 62
7
  6
CONTINUOUS
 70
0
 71
3
 72
9
 73
5
 74
0
 42
0.0000001
 43
0.0000001
 44
0.0000000001
 40
0.0
 40
0.0
 40
0.0
 40
0.0
 40
0.7510638399
 40
1.0
 40
1.0
 40
1.0
 40
1.0
 10
9.7793224482
 20
13.3846713656
 30
0.0
 10
9.7796030089
 20
13.3868975572
 30
0.0
 10
9.7800531122
 20
13.38985618
 30
0.0
 10
9.7801732648
 20
13.3928444683
 30
0.0
 10
9.7801732665
 20
13.3935881644
 30
0.0
  0
SPLINE
  5
566
100
AcDbEntity
  8
0
100
AcDbSpline
 62
7
  6
CONTINUOUS
 70
0
 71
3
 72
9
 73
5
 74
0
 42
0.0000001
 43
0.0000001
 44
0.0000000001
 40
0.0
 40
0.0
 40
0.0
 40
0.0
 40
0.2777709345
 40
1.0
 40
1.0
 40
1.0
 40
1.0
 10
9.793304879
 20
13.3850490873
 30
0.0
 10
9.792668476
 20
13.3852507191
 30
0.0
 10
9.7903984199
 20
13.3860443562
 30
0.0
 10
9.7882191085
 20
13.3870775564
 30
0.0
 10
9.7866858411
 20
13.3878911822
 30
0.0
  0
LINE
  5
567
100
AcDbEntity
  8
0
100
AcDbLine
 62
7
  6
CONTINUOUS
 10
9.7866858411
 20
13.3878911822
 11
9.7825327689
 21
13.3904077206
  0
SPLINE
  5
568
100
AcDbEntity
  8
0
100
AcDbSpline
 62
7
  6
CONTINUOUS
 70
0
 71
3
 72
11
 73
7
 74
0
 42
0.0000001
 43
0.0000001
 44
0.0000000001
 40
0.0
 40
0.0
 40
0.0
 40
0.0
 40
0.2864066059
 40
0.5381909986
 40
0.7671210049
 40
1.0
 40
1.0
 40
1.0
 40
1.0
 10
9.7825327689
 20
13.3904077206
 30
0.0
 10
9.7823086109
 20
13.3905733171
 30
0.0
 10
9.7818945029
 20
13.3908948509
 30
0.0
 10
9.7813670101
 20
13.3914287179
 30
0.0
 10
9.7810109261
 20
13.3920376948
 30
0.0
 10
9.7809358764
 20
13.3924926592
 30
0.0
 10
9.7809358769
 20
13.3927192651
 30
0.0
  0
SPLINE
  5
569
100
AcDbEntity
  8
0
100
AcDbSpline
 62
7
  6
CONTINUOUS
 70
0
 71
3
 72
9
 73
5
 74
0
 42
0.0000001
 43
0.0000001
 44
0.0000000001
 40
0.0
 40
0.0
 40
0.0
 40
0.0
 40
0.2489905576
 40
1.0
 40
1.0
 40
1.0
 40
1.0
 10
9.7801732665
 20
13.3935881644
 30
0.0
 10
9.7801732685
 20
13.3945193867
 30
0.0
 10
9.7799940657
 20
13.3982601137
 30
0.0
 10
9.7793718497
 20
13.4019555906
 30
0.0
 10
9.7790967492
 20
13.4047508543
 30
0.0
  0
SPLINE
  5
56A
100
AcDbEntity
  8
0
100
AcDbSpline
 62
7
  6
CONTINUOUS
 70
0
 71
3
 72
8
 73
4
 74
0
 42
0.0000001
 43
0.0000001
 44
0.0000000001
 40
0.0
 40
0.0
 40
0.0
 40
0.0
 40
1.0
 40
1.0
 40
1.0
 40
1.0
 10
9.7790967492
 20
13.4047508543
 30
0.0
 10
9.7787338358
 20
13.4084383749
 30
0.0
 10
9.7787102219
 20
13.4121789615
 30
0.0
 10
9.7790695938
 20
13.415866829
 30
0.0
  0
SPLINE
  5
56B
100
AcDbEntity
  8
0
100
AcDbSpline
 62
7
  6
CONTINUOUS
 70
0
 71
3
 72
9
 73
5
 74
0
 42
0.0000001
 43
0.0000001
 44
0.0000000001
 40
0.0
 40
0.0
 40
0.0
 40
0.0
 40
0.7510360601
 40
1.0
 40
1.0
 40
1.0
 40
1.0
 10
9.7790695938
 20
13.415866829
 30
0.0
 10
9.7793402614
 20
13.4186444149
 30
0.0
 10
9.7799851045
 20
13.4223123652
 30
0.0
 10
9.7801725839
 20
13.4260289097
 30
0.0
 10
9.7801725865
 20
13.4269540241
 30
0.0
  0
SPLINE
  5
56C
100
AcDbEntity
  8
0
100
AcDbSpline
 62
7
  6
CONTINUOUS
 70
0
 71
3
 72
9
 73
5
 74
0
 42
0.0000001
 43
0.0000001
 44
0.0000000001
 40
0.0
 40
0.0
 40
0.0
 40
0.0
 40
0.2777704955
 40
1.0
 40
1.0
 40
1.0
 40
1.0
 10
9.7933042525
 20
13.4184152118
 30
0.0
 10
9.7926678128
 20
13.4186168102
 30
0.0
 10
9.7903976124
 20
13.4194103124
 30
0.0
 10
9.7882181116
 20
13.4204433351
 30
0.0
 10
9.7866847339
 20
13.4212568991
 30
0.0
  0
LINE
  5
56D
100
AcDbEntity
  8
0
100
AcDbLine
 62
7
  6
CONTINUOUS
 10
9.7866847339
 20
13.4212568991
 11
9.7825316009
 21
13.423773506
  0
SPLINE
  5
56E
100
AcDbEntity
  8
0
100
AcDbSpline
 62
7
  6
CONTINUOUS
 70
0
 71
3
 72
11
 73
7
 74
0
 42
0.0000001
 43
0.0000001
 44
0.0000000001
 40
0.0
 40
0.0
 40
0.0
 40
0.0
 40
0.2863878682
 40
0.5381667151
 40
0.7671061506
 40
1.0
 40
1.0
 40
1.0
 40
1.0
 10
9.7825316009
 20
13.423773506
 30
0.0
 10
9.7823074496
 20
13.4239391355
 30
0.0
 10
9.7818933561
 20
13.4242607502
 30
0.0
 10
9.7813659096
 20
13.4247947672
 30
0.0
 10
9.7810098821
 20
13.4254038879
 30
0.0
 10
9.7809348454
 20
13.4258589252
 30
0.0
 10
9.780934846
 20
13.4260855719
 30
0.0
  0
SPLINE
  5
56F
100
AcDbEntity
  8
0
100
AcDbSpline
 62
7
  6
CONTINUOUS
 70
0
 71
3
 72
9
 73
5
 74
0
 42
0.0000001
 43
0.0000001
 44
0.0000000001
 40
0.0
 40
0.0
 40
0.0
 40
0.0
 40
0.5011480232
 40
1.0
 40
1.0
 40
1.0
 40
1.0
 10
9.7801725865
 20
13.4269540241
 30
0.0
 10
9.7801725971
 20
13.4306860224
 30
0.0
 10
9.7787631296
 20
13.4380470797
 30
0.0
 10
9.7787085873
 20
13.4455457427
 30
0.0
 10
9.7790682155
 20
13.4492431943
 30
0.0
  0
SPLINE
  5
570
100
AcDbEntity
  8
0
100
AcDbSpline
 62
7
  6
CONTINUOUS
 70
0
 71
3
 72
9
 73
5
 74
0
 42
0.0000001
 43
0.0000001
 44
0.0000000001
 40
0.0
 40
0.0
 40
0.0
 40
0.0
 40
0.7510405146
 40
1.0
 40
1.0
 40
1.0
 40
1.0
 10
9.7790682155
 20
13.4492431943
 30
0.0
 10
9.7793380521
 20
13.4520174692
 30
0.0
 10
9.7799826876
 20
13.4556809042
 30
0.0
 10
9.7801697021
 20
13.4593929582
 30
0.0
 10
9.78016958
 20
13.4603169315
 30
0.0
  0
SPLINE
  5
571
100
AcDbEntity
  8
0
100
AcDbSpline
 62
7
  6
CONTINUOUS
 70
0
 71
3
 72
9
 73
5
 74
0
 42
0.0000001
 43
0.0000001
 44
0.0000000001
 40
0.0
 40
0.0
 40
0.0
 40
0.0
 40
0.2777810242
 40
1.0
 40
1.0
 40
1.0
 40
1.0
 10
9.7933063599
 20
13.4517901349
 30
0.0
 10
9.7926696677
 20
13.4519915856
 30
0.0
 10
9.7903985703
 20
13.4527843606
 30
0.0
 10
9.7882178205
 20
13.4538160726
 30
0.0
 10
9.7866833852
 20
13.4546285352
 30
0.0
  0
LINE
  5
572
100
AcDbEntity
  8
0
100
AcDbLine
 62
7
  6
CONTINUOUS
 10
9.7866833852
 20
13.4546285352
 11
9.7825278581
 21
13.4571412102
  0
SPLINE
  5
573
100
AcDbEntity
  8
0
100
AcDbSpline
 62
7
  6
CONTINUOUS
 70
0
 71
3
 72
11
 73
7
 74
0
 42
0.0000001
 43
0.0000001
 44
0.0000000001
 40
0.0
 40
0.0
 40
0.0
 40
0.0
 40
0.2864832858
 40
0.5382889749
 40
0.7671867066
 40
1.0
 40
1.0
 40
1.0
 40
1.0
 10
9.7825278581
 20
13.4571412102
 30
0.0
 10
9.7823036074
 20
13.4573065692
 30
0.0
 10
9.7818893605
 20
13.457627649
 30
0.0
 10
9.7813616758
 20
13.4581608877
 30
0.0
 10
9.7810054272
 20
13.458769288
 30
0.0
 10
9.7809303019
 20
13.4592239259
 30
0.0
 10
9.7809302729
 20
13.4594503533
 30
0.0
  0
SPLINE
  5
574
100
AcDbEntity
  8
0
100
AcDbSpline
 62
7
  6
CONTINUOUS
 70
0
 71
3
 72
10
 73
6
 74
0
 42
0.0000001
 43
0.0000001
 44
0.0000000001
 40
0.0
 40
0.0
 40
0.0
 40
0.0
 40
0.5290223327
 40
0.7768095214
 40
1.0
 40
1.0
 40
1.0
 40
1.0
 10
9.78016958
 20
13.4603169315
 30
0.0
 10
9.7801687519
 20
13.4665839706
 30
0.0
 10
9.7797797344
 20
13.4757843364
 30
0.0
 10
9.7790914173
 20
13.4876095346
 30
0.0
 10
9.7787945988
 20
13.4931815751
 30
0.0
 10
9.778694168
 20
13.495823683
 30
0.0
  0
SPLINE
  5
575
100
AcDbEntity
  8
0
100
AcDbSpline
 62
7
  6
CONTINUOUS
 70
0
 71
3
 72
9
 73
5
 74
0
 42
0.0000001
 43
0.0000001
 44
0.0000000001
 40
0.0
 40
0.0
 40
0.0
 40
0.0
 40
0.5968873527
 40
1.0
 40
1.0
 40
1.0
 40
1.0
 10
9.778694168
 20
13.495823683
 30
0.0
 10
9.7785509467
 20
13.4995915113
 30
0.0
 10
9.7784557312
 20
13.5059114637
 30
0.0
 10
9.7786390161
 20
13.5122261437
 30
0.0
 10
9.7786941423
 20
13.5147720176
 30
0.0
  0
LINE
  5
576
100
AcDbEntity
  8
0
100
AcDbLine
 62
7
  6
CONTINUOUS
 10
9.7786941423
 20
13.5147720176
 11
9.778698081
 21
13.5197832751
  0
LINE
  5
577
100
AcDbEntity
  8
0
100
AcDbLine
 62
9
  6
CONTINUOUS
 10
13.2297425026
 20
11.1658085359
 11
13.1857650083
 21
11.176833408
  0
SPLINE
  5
578
100
AcDbEntity
  8
0
100
AcDbSpline
 62
9
  6
CONTINUOUS
 70
0
 71
3
 72
9
 73
5
 74
0
 42
0.0000001
 43
0.0000001
 44
0.0000000001
 40
0.0
 40
0.0
 40
0.0
 40
0.0
 40
0.4942911386
 40
1.0
 40
1.0
 40
1.0
 40
1.0
 10
12.6418573255
 20
11.2876560092
 30
0.0
 10
12.6229153721
 20
11.2908421361
 30
0.0
 10
12.5845644684
 20
11.2971133545
 30
0.0
 10
12.5461461565
 20
11.3029652708
 30
0.0
 10
12.5266921554
 20
11.3057460168
 30
0.0
  0
SPLINE
  5
579
100
AcDbEntity
  8
0
100
AcDbSpline
 62
9
  6
CONTINUOUS
 70
0
 71
3
 72
13
 73
9
 74
0
 42
0.0000001
 43
0.0000001
 44
0.0000000001
 40
0.0
 40
0.0
 40
0.0
 40
0.0
 40
0.0638879948
 40
0.1376473224
 40
0.2277670313
 40
0.3377077923
 40
0.6230205808
 40
1.0
 40
1.0
 40
1.0
 40
1.0
 10
10.2615683007
 20
12.9284193631
 30
0.0
 10
10.2618236423
 20
12.9284193631
 30
0.0
 10
10.2623772311
 20
12.9285467042
 30
0.0
 10
10.2631420208
 20
12.9290635436
 30
0.0
 10
10.2638841933
 20
12.9298764913
 30
0.0
 10
10.2649524582
 20
12.9315020788
 30
0.0
 10
10.2662011433
 20
12.9343417912
 30
0.0
 10
10.2670036593
 20
12.9368655255
 30
0.0
 10
10.2674147884
 20
12.9383150239
 30
0.0
  0
SPLINE
  5
57A
100
AcDbEntity
  8
0
100
AcDbSpline
 62
9
  6
CONTINUOUS
 70
0
 71
3
 72
12
 73
8
 74
0
 42
0.0000001
 43
0.0000001
 44
0.0000000001
 40
0.0
 40
0.0
 40
0.0
 40
0.0
 40
0.0792951265
 40
0.1735696202
 40
0.4036260823
 40
0.6824577696
 40
1.0
 40
1.0
 40
1.0
 40
1.0
 10
10.2674147884
 20
12.9383150239
 30
0.0
 10
10.2679264885
 20
12.9401191009
 30
0.0
 10
10.2688929578
 20
12.9441115136
 30
0.0
 10
10.2706969939
 20
12.9534867504
 30
0.0
 10
10.2726320175
 20
12.9676282587
 30
0.0
 10
10.2744542136
 20
12.9870901292
 30
0.0
 10
10.2753185133
 20
13.0011698455
 30
0.0
 10
10.2756829705
 20
13.0086705169
 30
0.0
  0
SPLINE
  5
57B
100
AcDbEntity
  8
0
100
AcDbSpline
 62
7
  6
CONTINUOUS
 70
0
 71
3
 72
18
 73
14
 74
0
 42
0.0000001
 43
0.0000001
 44
0.0000000001
 40
0.0
 40
0.0
 40
0.0
 40
0.0
 40
0.0122322834
 40
0.0248658379
 40
0.0428762607
 40
0.0682146767
 40
0.1015411953
 40
0.1430965397
 40
0.251016118
 40
0.3917528139
 40
0.5643979444
 40
0.7676963547
 40
1.0
 40
1.0
 40
1.0
 40
1.0
 10
10.030351077
 20
13.5177288654
 30
0.0
 10
10.0303831658
 20
13.5176878416
 30
0.0
 10
10.030431145
 20
13.5175801224
 30
0.0
 10
10.0303463742
 20
13.5174018879
 30
0.0
 10
10.0301588776
 20
13.5172519727
 30
0.0
 10
10.0298712265
 20
13.51709522
 30
0.0
 10
10.0294748748
 20
13.516935663
 30
0.0
 10
10.0287343397
 20
13.5166948491
 30
0.0
 10
10.0275327607
 20
13.5164010241
 30
0.0
 10
10.0257714209
 20
13.5160600726
 30
0.0
 10
10.0235982069
 20
13.5157156565
 30
0.0
 10
10.0210309746
 20
13.5153731808
 30
0.0
 10
10.0191879745
 20
13.5151638787
 30
0.0
 10
10.0182043507
 20
13.5150598335
 30
0.0
  0
SPLINE
  5
57C
100
AcDbEntity
  8
0
100
AcDbSpline
 62
7
  6
CONTINUOUS
 70
0
 71
3
 72
17
 73
13
 74
0
 42
0.0000001
 43
0.0000001
 44
0.0000000001
 40
0.0
 40
0.0
 40
0.0
 40
0.0
 40
0.0252212784
 40
0.0479019091
 40
0.0991194203
 40
0.1334874879
 40
0.1751100249
 40
0.2815529496
 40
0.4192781083
 40
0.5868188713
 40
0.7815491585
 40
1.0
 40
1.0
 40
1.0
 40
1.0
 10
10.0299812413
 20
13.5040283697
 30
0.0
 10
10.0301242067
 20
13.5038464497
 30
0.0
 10
10.0303563784
 20
13.5034619396
 30
0.0
 10
10.0304839928
 20
13.5025302974
 30
0.0
 10
10.0299225924
 20
13.5016036711
 30
0.0
 10
10.0290530414
 20
13.5008378953
 30
0.0
 10
10.0276498385
 20
13.4999096259
 30
0.0
 10
10.0252519693
 20
13.4988263502
 30
0.0
 10
10.0216620117
 20
13.4976409874
 30
0.0
 10
10.0172075884
 20
13.4965323137
 30
0.0
 10
10.0119730487
 20
13.4955317356
 30
0.0
 10
10.0082204518
 20
13.4949882817
 30
0.0
 10
10.0062321892
 20
13.4947374885
 30
0.0
  0
SPLINE
  5
57D
100
AcDbEntity
  8
0
100
AcDbSpline
 62
7
  6
CONTINUOUS
 70
0
 71
3
 72
17
 73
13
 74
0
 42
0.0000001
 43
0.0000001
 44
0.0000000001
 40
0.0
 40
0.0
 40
0.0
 40
0.0
 40
0.0671637541
 40
0.0978670217
 40
0.1301475797
 40
0.1664675519
 40
0.208503948
 40
0.3129299892
 40
0.4464319926
 40
0.6078043789
 40
0.7938400374
 40
1.0
 40
1.0
 40
1.0
 40
1.0
 10
10.0292036405
 20
13.4776830987
 30
0.0
 10
10.0297246646
 20
13.4770473517
 30
0.0
 10
10.0303407681
 20
13.4759266401
 30
0.0
 10
10.0303300356
 20
13.4743052499
 30
0.0
 10
10.0299314679
 20
13.4731381396
 30
0.0
 10
10.0291672862
 20
13.4720061292
 30
0.0
 10
10.0275667353
 20
13.4704283408
 30
0.0
 10
10.0246187477
 20
13.4686156236
 30
0.0
 10
10.0200929223
 20
13.466751185
 30
0.0
 10
10.014430549
 20
13.4651095709
 30
0.0
 10
10.0077908731
 20
13.463740783
 30
0.0
 10
10.003035621
 20
13.4630651429
 30
0.0
 10
10.0005294389
 20
13.4627738182
 30
0.0
  0
SPLINE
  5
57E
100
AcDbEntity
  8
0
100
AcDbSpline
 62
9
  6
CONTINUOUS
 70
0
 71
3
 72
11
 73
7
 74
0
 42
0.0000001
 43
0.0000001
 44
0.0000000001
 40
0.0
 40
0.0
 40
0.0
 40
0.0
 40
0.2394916939
 40
0.4891702906
 40
0.743731017
 40
1.0
 40
1.0
 40
1.0
 40
1.0
 10
9.6368903235
 20
12.7316307715
 30
0.0
 10
9.6334418919
 20
12.7326867274
 30
0.0
 10
9.626595432
 20
12.7355314856
 30
0.0
 10
9.6171070985
 20
12.7415799412
 30
0.0
 10
9.6086349049
 20
12.7493839117
 30
0.0
 10
9.6040998916
 20
12.7556774693
 30
0.0
 10
9.6021759916
 20
12.7590228397
 30
0.0
  0
SPLINE
  5
57F
100
AcDbEntity
  8
0
100
AcDbSpline
 62
7
  6
CONTINUOUS
 70
0
 71
3
 72
17
 73
13
 74
0
 42
0.0000001
 43
0.0000001
 44
0.0000000001
 40
0.0
 40
0.0
 40
0.0
 40
0.0
 40
0.0701660341
 40
0.1013716373
 40
0.13355481
 40
0.1694165699
 40
0.210819436
 40
0.313893465
 40
0.4463675649
 40
0.6070077166
 40
0.7929413406
 40
1.0
 40
1.0
 40
1.0
 40
1.0
 10
10.0279683646
 20
13.4448831288
 30
0.0
 10
10.0285112461
 20
13.4442614585
 30
0.0
 10
10.0291737319
 20
13.4431812215
 30
0.0
 10
10.0292587631
 20
13.4415842313
 30
0.0
 10
10.0289315162
 20
13.4404436567
 30
0.0
 10
10.0282402164
 20
13.4393426596
 30
0.0
 10
10.0267571307
 20
13.4378109092
 30
0.0
 10
10.0239772005
 20
13.4360464118
 30
0.0
 10
10.0196820542
 20
13.4342192101
 30
0.0
 10
10.0142763465
 20
13.4325927221
 30
0.0
 10
10.0079028239
 20
13.4312331683
 30
0.0
 10
10.0033269364
 20
13.430555485
 30
0.0
 10
10.0009092102
 20
13.4302611429
 30
0.0
  0
SPLINE
  5
580
100
AcDbEntity
  8
0
100
AcDbSpline
 62
7
  6
CONTINUOUS
 70
0
 71
3
 72
15
 73
11
 74
0
 42
0.0000001
 43
0.0000001
 44
0.0000000001
 40
0.0
 40
0.0
 40
0.0
 40
0.0
 40
0.090913212
 40
0.1696547274
 40
0.2513995687
 40
0.349841429
 40
0.4722978441
 40
0.6216610613
 40
0.7980051719
 40
1.0
 40
1.0
 40
1.0
 40
1.0
 10
10.0279743252
 20
13.4115081686
 30
0.0
 10
10.0283882922
 20
13.4110339667
 30
0.0
 10
10.0290654275
 20
13.4100385145
 30
0.0
 10
10.0293513609
 20
13.4082515497
 30
0.0
 10
10.0287080703
 20
13.4065106527
 30
0.0
 10
10.027300733
 20
13.4049215223
 30
0.0
 10
10.0252095354
 20
13.4034166281
 30
0.0
 10
10.0224426769
 20
13.4019945101
 30
0.0
 10
10.019034042
 20
13.4006664516
 30
0.0
 10
10.0165237633
 20
13.3999088808
 30
0.0
 10
10.0151733461
 20
13.3995449769
 30
0.0
  0
SPLINE
  5
581
100
AcDbEntity
  8
0
100
AcDbSpline
 62
7
  6
CONTINUOUS
 70
0
 71
3
 72
9
 73
5
 74
0
 42
0.0000001
 43
0.0000001
 44
0.0000000001
 40
0.0
 40
0.0
 40
0.0
 40
0.0
 40
0.2276892027
 40
1.0
 40
1.0
 40
1.0
 40
1.0
 10
10.0151733461
 20
13.3995449769
 30
0.0
 10
10.0141097921
 20
13.3992583755
 30
0.0
 10
10.0094085436
 20
13.3981119172
 30
0.0
 10
10.004620486
 20
13.3973447333
 30
0.0
 10
10.0009116071
 20
13.3968936255
 30
0.0
  0
SPLINE
  5
582
100
AcDbEntity
  8
0
100
AcDbSpline
 62
9
  6
CONTINUOUS
 70
0
 71
3
 72
10
 73
6
 74
0
 42
0.0000001
 43
0.0000001
 44
0.0000000001
 40
0.0
 40
0.0
 40
0.0
 40
0.0
 40
0.4917279449
 40
0.7432172196
 40
1.0
 40
1.0
 40
1.0
 40
1.0
 10
12.6418672886
 20
11.184778689
 30
0.0
 10
12.5970740065
 20
11.1971418921
 30
0.0
 10
12.5291445883
 20
11.2150326768
 30
0.0
 10
12.4372190029
 20
11.2369499999
 30
0.0
 10
12.3902766715
 20
11.2471543524
 30
0.0
 10
12.3664812197
 20
11.2519093264
 30
0.0
  0
SPLINE
  5
583
100
AcDbEntity
  8
0
100
AcDbSpline
 62
9
  6
CONTINUOUS
 70
0
 71
3
 72
9
 73
5
 74
0
 42
0.0000001
 43
0.0000001
 44
0.0000000001
 40
0.0
 40
0.0
 40
0.0
 40
0.0
 40
0.2555623046
 40
1.0
 40
1.0
 40
1.0
 40
1.0
 10
9.5355678585
 20
13.0509873439
 30
0.0
 10
9.5355925245
 20
13.0473811235
 30
0.0
 10
9.5357594805
 20
13.0332708559
 30
0.0
 10
9.5361954915
 20
13.0191630878
 30
0.0
 10
9.5367053249
 20
13.0086705169
 30
0.0
  0
SPLINE
  5
584
100
AcDbEntity
  8
0
100
AcDbSpline
 62
9
  6
CONTINUOUS
 70
0
 71
3
 72
19
 73
15
 74
0
 42
0.0000001
 43
0.0000001
 44
0.0000000001
 40
0.0
 40
0.0
 40
0.0
 40
0.0
 40
0.2065016163
 40
0.3956560446
 40
0.5636341213
 40
0.7070566285
 40
0.7687240006
 40
0.8232786575
 40
0.870442754
 40
0.9100716867
 40
0.942239718
 40
0.967224244
 40
0.9857885266
 40
1.0
 40
1.0
 40
1.0
 40
1.0
 10
9.5367053249
 20
13.0086705169
 30
0.0
 10
9.5369823595
 20
13.002969036
 30
0.0
 10
9.5376205641
 20
12.9920498277
 30
0.0
 10
9.5388858901
 20
12.9765193792
 30
0.0
 10
9.5403958961
 20
12.9627635227
 30
0.0
 10
9.541892969
 20
12.9525562934
 30
0.0
 10
9.5432240892
 20
12.9455025603
 30
0.0
 10
9.5442094526
 20
12.9410939456
 30
0.0
 10
9.5452266886
 20
12.9373196283
 30
0.0
 10
9.5462718027
 20
12.9341994214
 30
0.0
 10
9.5473337185
 20
12.9317377912
 30
0.0
 10
9.5484165951
 20
12.9299382454
 30
0.0
 10
9.5495251196
 20
12.9287565664
 30
0.0
 10
9.550427155
 20
12.9284193631
 30
0.0
 10
9.5508199947
 20
12.9284193631
 30
0.0
  0
SPLINE
  5
585
100
AcDbEntity
  8
0
100
AcDbSpline
 62
7
  6
CONTINUOUS
 70
0
 71
3
 72
21
 73
17
 74
0
 42
0.0000001
 43
0.0000001
 44
0.0000000001
 40
0.0
 40
0.0
 40
0.0
 40
0.0
 40
0.1418034961
 40
0.2085171373
 40
0.2721411072
 40
0.332675018
 40
0.3903572212
 40
0.4458028381
 40
0.5000001673
 40
0.5541975319
 40
0.6096431669
 40
0.6673252965
 40
0.7278590437
 40
0.7914829172
 40
0.8581964821
 40
1.0
 40
1.0
 40
1.0
 40
1.0
 10
12.2815606294
 20
14.0349390918
 30
0.0
 10
12.2899540024
 20
14.024382863
 30
0.0
 10
12.3030146147
 20
14.0093771906
 30
0.0
 10
12.3220144331
 20
13.9917670665
 30
0.0
 10
12.3363782412
 20
13.9806198356
 30
0.0
 10
12.351135177
 20
13.9715246398
 30
0.0
 10
12.3662598163
 20
13.9647499308
 30
0.0
 10
12.3816848204
 20
13.9605481123
 30
0.0
 10
12.3972869197
 20
13.9591267204
 30
0.0
 10
12.4128890276
 20
13.9605481052
 30
0.0
 10
12.4283140047
 20
13.9647500046
 30
0.0
 10
12.4434386507
 20
13.9715246427
 30
0.0
 10
12.4581955303
 20
13.980619876
 30
0.0
 10
12.4725593146
 20
13.9917670805
 30
0.0
 10
12.4915591276
 20
14.009377191
 30
0.0
 10
12.504619734
 20
14.0243828614
 30
0.0
 10
12.5130131083
 20
14.0349390918
 30
0.0
  0
SPLINE
  5
586
100
AcDbEntity
  8
0
100
AcDbSpline
 62
7
  6
CONTINUOUS
 70
0
 71
3
 72
21
 73
17
 74
0
 42
0.0000001
 43
0.0000001
 44
0.0000000001
 40
0.0
 40
0.0
 40
0.0
 40
0.0
 40
0.1418034961
 40
0.2085171373
 40
0.2721411072
 40
0.332675018
 40
0.3903572212
 40
0.4458028381
 40
0.5000001673
 40
0.5541975319
 40
0.6096431669
 40
0.6673252965
 40
0.7278590437
 40
0.7914829172
 40
0.8581964821
 40
1.0
 40
1.0
 40
1.0
 40
1.0
 10
13.3103988091
 20
14.0349390918
 30
0.0
 10
13.3187921821
 20
14.024382863
 30
0.0
 10
13.3318527944
 20
14.0093771906
 30
0.0
 10
13.3508526128
 20
13.9917670665
 30
0.0
 10
13.3652164209
 20
13.9806198356
 30
0.0
 10
13.3799733567
 20
13.9715246398
 30
0.0
 10
13.395097996
 20
13.9647499308
 30
0.0
 10
13.4105230001
 20
13.9605481123
 30
0.0
 10
13.4261250994
 20
13.9591267204
 30
0.0
 10
13.4417272073
 20
13.9605481052
 30
0.0
 10
13.4571521844
 20
13.9647500046
 30
0.0
 10
13.4722768304
 20
13.9715246427
 30
0.0
 10
13.48703371
 20
13.980619876
 30
0.0
 10
13.5013974943
 20
13.9917670805
 30
0.0
 10
13.5203973073
 20
14.009377191
 30
0.0
 10
13.5334579137
 20
14.0243828614
 30
0.0
 10
13.541851288
 20
14.0349390918
 30
0.0
  0
SPLINE
  5
587
100
AcDbEntity
  8
0
100
AcDbSpline
 62
7
  6
CONTINUOUS
 70
0
 71
3
 72
14
 73
10
 74
0
 42
0.0000001
 43
0.0000001
 44
0.0000000001
 40
0.0
 40
0.0
 40
0.0
 40
0.0
 40
0.0354028088
 40
0.0629056819
 40
0.0979145414
 40
0.1902203891
 40
0.3106528565
 40
0.6236334791
 40
1.0
 40
1.0
 40
1.0
 40
1.0
 10
13.2889552072
 20
19.0555357186
 30
0.0
 10
13.2889559937
 20
19.0552801294
 30
0.0
 10
13.2886238804
 20
19.0548734972
 30
0.0
 10
13.288054465
 20
19.0544834918
 30
0.0
 10
13.2870582309
 20
19.0539555254
 30
0.0
 10
13.2853826023
 20
19.0533298865
 30
0.0
 10
13.2817316382
 20
19.0522779346
 30
0.0
 10
13.2759866265
 20
19.0511548759
 30
0.0
 10
13.2710524882
 20
19.0504886346
 30
0.0
 10
13.2683505605
 20
19.0502011766
 30
0.0
  0
SPLINE
  5
588
100
AcDbEntity
  8
0
100
AcDbSpline
 62
7
  6
CONTINUOUS
 70
0
 71
3
 72
9
 73
5
 74
0
 42
0.0000001
 43
0.0000001
 44
0.0000000001
 40
0.0
 40
0.0
 40
0.0
 40
0.0
 40
0.5189609657
 40
1.0
 40
1.0
 40
1.0
 40
1.0
 10
13.2683505605
 20
19.0502011766
 30
0.0
 10
13.2659557627
 20
19.0499463942
 30
0.0
 10
13.2613288674
 20
19.0495685369
 30
0.0
 10
13.2566882894
 20
19.0494036089
 30
0.0
 10
13.2544559587
 20
19.0494036089
 30
0.0
  0
SPLINE
  5
589
100
AcDbEntity
  8
0
100
AcDbSpline
 62
7
  6
CONTINUOUS
 70
0
 71
3
 72
21
 73
17
 74
0
 42
0.0000001
 43
0.0000001
 44
0.0000000001
 40
0.0
 40
0.0
 40
0.0
 40
0.0
 40
0.1418034961
 40
0.2085171373
 40
0.2721411072
 40
0.332675018
 40
0.3903572212
 40
0.4458028381
 40
0.5000001673
 40
0.5541975319
 40
0.6096431669
 40
0.6673252965
 40
0.7278590437
 40
0.7914829172
 40
0.8581964821
 40
1.0
 40
1.0
 40
1.0
 40
1.0
 10
13.541851288
 20
14.3811122328
 30
0.0
 10
13.533457915
 20
14.3916684616
 30
0.0
 10
13.5203973028
 20
14.4066741341
 30
0.0
 10
13.5013974843
 20
14.4242842581
 30
0.0
 10
13.4870336763
 20
14.435431489
 30
0.0
 10
13.4722767404
 20
14.4445266849
 30
0.0
 10
13.4571521012
 20
14.4513013938
 30
0.0
 10
13.4417270971
 20
14.4555032123
 30
0.0
 10
13.4261249978
 20
14.4569246042
 30
0.0
 10
13.4105228899
 20
14.4555032194
 30
0.0
 10
13.3950979128
 20
14.4513013201
 30
0.0
 10
13.3799732667
 20
14.4445266819
 30
0.0
 10
13.3652163871
 20
14.4354314487
 30
0.0
 10
13.3508526029
 20
14.4242842442
 30
0.0
 10
13.3318527898
 20
14.4066741336
 30
0.0
 10
13.3187921834
 20
14.3916684632
 30
0.0
 10
13.3103988091
 20
14.3811122328
 30
0.0
  0
SPLINE
  5
58A
100
AcDbEntity
  8
0
100
AcDbSpline
 62
7
  6
CONTINUOUS
 70
0
 71
3
 72
21
 73
17
 74
0
 42
0.0000001
 43
0.0000001
 44
0.0000000001
 40
0.0
 40
0.0
 40
0.0
 40
0.0
 40
0.1418034961
 40
0.2085171373
 40
0.2721411072
 40
0.332675018
 40
0.3903572212
 40
0.4458028381
 40
0.5000001673
 40
0.5541975319
 40
0.6096431669
 40
0.6673252965
 40
0.7278590437
 40
0.7914829172
 40
0.8581964821
 40
1.0
 40
1.0
 40
1.0
 40
1.0
 10
12.5130131083
 20
14.3811122328
 30
0.0
 10
12.5046197353
 20
14.3916684616
 30
0.0
 10
12.4915591231
 20
14.4066741341
 30
0.0
 10
12.4725593046
 20
14.4242842581
 30
0.0
 10
12.4581954966
 20
14.435431489
 30
0.0
 10
12.4434385607
 20
14.4445266849
 30
0.0
 10
12.4283139215
 20
14.4513013938
 30
0.0
 10
12.4128889174
 20
14.4555032123
 30
0.0
 10
12.3972868181
 20
14.4569246042
 30
0.0
 10
12.3816847102
 20
14.4555032194
 30
0.0
 10
12.3662597331
 20
14.4513013201
 30
0.0
 10
12.351135087
 20
14.4445266819
 30
0.0
 10
12.3363782074
 20
14.4354314487
 30
0.0
 10
12.3220144232
 20
14.4242842442
 30
0.0
 10
12.3030146101
 20
14.4066741336
 30
0.0
 10
12.2899540037
 20
14.3916684632
 30
0.0
 10
12.2815606294
 20
14.3811122328
 30
0.0
  0
LINE
  5
58B
100
AcDbEntity
  8
0
100
AcDbLine
 62
7
  6
CONTINUOUS
 10
9.7830772317
 20
13.5197397242
 11
9.781981651
 21
13.5197860829
  0
LINE
  5
58C
100
AcDbEntity
  8
0
100
AcDbLine
 62
7
  6
CONTINUOUS
 10
9.7933476694
 20
13.5089638433
 11
9.7866339831
 21
13.5103910536
  0
SPLINE
  5
58D
100
AcDbEntity
  8
0
100
AcDbSpline
 62
7
  6
CONTINUOUS
 70
0
 71
3
 72
12
 73
8
 74
0
 42
0.0000001
 43
0.0000001
 44
0.0000000001
 40
0.0
 40
0.0
 40
0.0
 40
0.0
 40
0.3846299288
 40
0.6748920754
 40
0.7854927441
 40
0.8745125324
 40
1.0
 40
1.0
 40
1.0
 40
1.0
 10
9.7866339831
 20
13.5103910536
 30
0.0
 10
9.7859614575
 20
13.5105776961
 30
0.0
 10
9.784790005
 20
13.5109386258
 30
0.0
 10
9.78346758
 20
13.5114785709
 30
0.0
 10
9.7826984287
 20
13.5119351398
 30
0.0
 10
9.7822396388
 20
13.512294638
 30
0.0
 10
9.7819942494
 20
13.512651389
 30
0.0
 10
9.7819815441
 20
13.5128787422
 30
0.0
  0
SPLINE
  5
58E
100
AcDbEntity
  8
0
100
AcDbSpline
 62
7
  6
CONTINUOUS
 70
0
 71
3
 72
9
 73
5
 74
0
 42
0.0000001
 43
0.0000001
 44
0.0000000001
 40
0.0
 40
0.0
 40
0.0
 40
0.0
 40
0.2809122055
 40
1.0
 40
1.0
 40
1.0
 40
1.0
 10
9.7933404094
 20
13.4849007566
 30
0.0
 10
9.7926971764
 20
13.4850959559
 30
0.0
 10
9.7904203434
 20
13.4858293879
 30
0.0
 10
9.7881843914
 20
13.4867138806
 30
0.0
 10
9.786654685
 20
13.4875018286
 30
0.0
  0
SPLINE
  5
58F
100
AcDbEntity
  8
0
100
AcDbSpline
 62
7
  6
CONTINUOUS
 70
0
 71
3
 72
11
 73
7
 74
0
 42
0.0000001
 43
0.0000001
 44
0.0000000001
 40
0.0
 40
0.0
 40
0.0
 40
0.0
 40
0.334999089
 40
0.6066228035
 40
0.8223756516
 40
1.0
 40
1.0
 40
1.0
 40
1.0
 10
9.786654685
 20
13.4875018286
 30
0.0
 10
9.785967054
 20
13.4878560257
 30
0.0
 10
9.7847492617
 20
13.4885561863
 30
0.0
 10
9.7832536308
 20
13.489741276
 30
0.0
 10
9.7822790171
 20
13.4909533172
 30
0.0
 10
9.7820020527
 20
13.4918553326
 30
0.0
 10
9.7819885758
 20
13.4922652354
 30
0.0
  0
SPLINE
  5
590
100
AcDbEntity
  8
0
100
AcDbSpline
 62
7
  6
CONTINUOUS
 70
0
 71
3
 72
9
 73
5
 74
0
 42
0.0000001
 43
0.0000001
 44
0.0000000001
 40
0.0
 40
0.0
 40
0.0
 40
0.0
 40
0.4735230092
 40
1.0
 40
1.0
 40
1.0
 40
1.0
 10
9.7819885758
 20
13.4922652354
 30
0.0
 10
9.7819780764
 20
13.4925845769
 30
0.0
 10
9.7820987509
 20
13.493269164
 30
0.0
 10
9.7824590133
 20
13.4938549034
 30
0.0
 10
9.7826797764
 20
13.4941332248
 30
0.0
  0
SPLINE
  5
591
100
AcDbEntity
  8
0
100
AcDbSpline
 62
9
  6
CONTINUOUS
 70
0
 71
3
 72
31
 73
27
 74
0
 42
0.0000001
 43
0.0000001
 44
0.0000000001
 40
0.0
 40
0.0
 40
0.0
 40
0.0
 40
0.0002649625
 40
0.0005958563
 40
0.0010588488
 40
0.0023806011
 40
0.0042291613
 40
0.0066034718
 40
0.009502475
 40
0.0129251133
 40
0.0168703292
 40
0.0263242649
 40
0.0378558251
 40
0.0514565545
 40
0.0671179996
 40
0.0848292483
 40
0.1045704784
 40
0.1500555289
 40
0.2033984493
 40
0.2644245431
 40
0.3329461301
 40
0.4087242832
 40
0.4915074557
 40
0.5810441238
 40
0.7791588094
 40
1.0
 40
1.0
 40
1.0
 40
1.0
 10
13.5350345471
 20
12.0662410714
 30
0.0
 10
13.5350165075
 20
12.066252837
 30
0.0
 10
13.5349625656
 20
12.0662331276
 30
0.0
 10
13.534879356
 20
12.0662417482
 30
0.0
 10
13.5347057805
 20
12.0662337363
 30
0.0
 10
13.5344116846
 20
12.0662338185
 30
0.0
 10
13.5339604528
 20
12.0662256873
 30
0.0
 10
13.5333818332
 20
12.0662187479
 30
0.0
 10
13.5326749661
 20
12.0662092182
 30
0.0
 10
13.5318405267
 20
12.0661986124
 30
0.0
 10
13.5304732725
 20
12.0661813936
 30
0.0
 10
13.5284469497
 20
12.0661568033
 30
0.0
 10
13.5256358138
 20
12.0661241228
 30
0.0
 10
13.5223201218
 20
12.0660873545
 30
0.0
 10
13.5185021246
 20
12.0660470573
 30
0.0
 10
13.5141850046
 20
12.0660038029
 30
0.0
 10
13.5074437788
 20
12.0659394892
 30
0.0
 10
13.4978063217
 20
12.0658541747
 30
0.0
 10
13.4848130924
 20
12.0657492999
 30
0.0
 10
13.4699473273
 20
12.0656402475
 30
0.0
 10
13.4532578924
 20
12.0655296857
 30
0.0
 10
13.4347998947
 20
12.0654216247
 30
0.0
 10
13.4146336367
 20
12.0653200339
 30
0.0
 10
13.3845233249
 20
12.0651943454
 30
0.0
 10
13.3431909206
 20
12.0650791597
 30
0.0
 10
13.3091363175
 20
12.0650431977
 30
0.0
 10
13.2911853609
 20
12.0650394829
 30
0.0
  0
SPLINE
  5
592
100
AcDbEntity
  8
0
100
AcDbSpline
 62
9
  6
CONTINUOUS
 70
0
 71
3
 72
38
 73
34
 74
0
 42
0.0000001
 43
0.0000001
 44
0.0000000001
 40
0.0
 40
0.0
 40
0.0
 40
0.0
 40
0.1179200373
 40
0.2274955527
 40
0.4270004448
 40
0.5170281863
 40
0.6002741859
 40
0.6764508949
 40
0.7452022304
 40
0.8061816765
 40
0.8591555281
 40
0.8825754379
 40
0.9039140145
 40
0.9231429132
 40
0.9402337009
 40
0.9551628178
 40
0.9679264332
 40
0.9734965284
 40
0.9785256782
 40
0.9830140438
 40
0.9869618083
 40
0.9903691942
 40
0.9932364962
 40
0.9955641532
 40
0.9973529287
 40
0.9980457236
 40
0.9986046021
 40
0.9990303559
 40
0.9993248425
 40
0.9994942753
 40
0.9995792236
 40
0.9997283664
 40
1.0
 40
1.0
 40
1.0
 40
1.0
 10
12.3664812197
 20
11.2519093264
 30
0.0
 10
12.3433393472
 20
11.2565336976
 30
0.0
 10
12.2987105565
 20
11.2655427917
 30
0.0
 10
12.2148048622
 20
11.281750064
 30
0.0
 10
12.1361657223
 20
11.2957751059
 30
0.0
 10
12.0625268366
 20
11.3077442933
 30
0.0
 10
12.0131778032
 20
11.3152950325
 30
0.0
 10
11.9679787017
 20
11.3218022471
 30
0.0
 10
11.9271441689
 20
11.3273432733
 30
0.0
 10
11.8908763936
 20
11.3319963357
 30
0.0
 10
11.8635846163
 20
11.3353144793
 30
0.0
 10
11.8441580443
 20
11.3375886592
 30
0.0
 10
11.831435362
 20
11.3390456296
 30
0.0
 10
11.8199683819
 20
11.3403344344
 30
0.0
 10
11.809774351
 20
11.3414642319
 30
0.0
 10
11.8008656118
 20
11.3424448277
 30
0.0
 10
11.7942487784
 20
11.3431741408
 30
0.0
 10
11.7896019762
 20
11.3436924628
 30
0.0
 10
11.7866015818
 20
11.344031514
 30
0.0
 10
11.7839244734
 20
11.3443399573
 30
0.0
 10
11.7815706995
 20
11.344618893
 30
0.0
 10
11.7795402268
 20
11.344869373
 30
0.0
 10
11.7778332031
 20
11.3450923735
 30
0.0
 10
11.7764491304
 20
11.3452887195
 30
0.0
 10
11.775499241
 20
11.3454411263
 30
0.0
 10
11.7749003076
 20
11.345553429
 30
0.0
 10
11.7745741316
 20
11.3456257434
 30
0.0
 10
11.7743214092
 20
11.3456874917
 30
0.0
 10
11.7741634413
 20
11.3457518996
 30
0.0
 10
11.7740467341
 20
11.3457924273
 30
0.0
 10
11.7740360004
 20
11.3458886229
 30
0.0
 10
11.7741547942
 20
11.3459232375
 30
0.0
 10
11.7742272004
 20
11.3459444737
 30
0.0
 10
11.7742805638
 20
11.3459548465
 30
0.0
  0
SPLINE
  5
593
100
AcDbEntity
  8
0
100
AcDbSpline
 62
9
  6
CONTINUOUS
 70
0
 71
3
 72
19
 73
15
 74
0
 42
0.0000001
 43
0.0000001
 44
0.0000000001
 40
0.0
 40
0.0
 40
0.0
 40
0.0
 40
0.0142114734
 40
0.032775756
 40
0.057760282
 40
0.0899283133
 40
0.129557246
 40
0.1767213425
 40
0.2312759994
 40
0.2929433715
 40
0.4363658787
 40
0.6043439554
 40
0.7934983837
 40
1.0
 40
1.0
 40
1.0
 40
1.0
 10
9.5508199947
 20
13.1884193631
 30
0.0
 10
9.550427155
 20
13.1884193631
 30
0.0
 10
9.5495251196
 20
13.1880821598
 30
0.0
 10
9.5484165951
 20
13.1869004808
 30
0.0
 10
9.5473337185
 20
13.185100935
 30
0.0
 10
9.5462718027
 20
13.1826393048
 30
0.0
 10
9.5452266886
 20
13.1795190979
 30
0.0
 10
9.5442094526
 20
13.1757447806
 30
0.0
 10
9.5432240892
 20
13.1713361659
 30
0.0
 10
9.541892969
 20
13.1642824328
 30
0.0
 10
9.5403958961
 20
13.1540752035
 30
0.0
 10
9.5388858901
 20
13.140319347
 30
0.0
 10
9.5376205641
 20
13.1247888985
 30
0.0
 10
9.5369823595
 20
13.1138696902
 30
0.0
 10
9.5367053249
 20
13.1081682093
 30
0.0
  0
SPLINE
  5
594
100
AcDbEntity
  8
0
100
AcDbSpline
 62
9
  6
CONTINUOUS
 70
0
 71
3
 72
16
 73
12
 74
0
 42
0.0000001
 43
0.0000001
 44
0.0000000001
 40
0.0
 40
0.0
 40
0.0
 40
0.0
 40
0.112925818
 40
0.2188412494
 40
0.413860067
 40
0.5855436736
 40
0.7310792429
 40
0.8472941238
 40
0.9318579551
 40
0.9829333662
 40
1.0
 40
1.0
 40
1.0
 40
1.0
 10
12.5266921581
 20
11.3057460165
 30
0.0
 10
12.5045572552
 20
11.3089101394
 30
0.0
 10
12.461673649
 20
11.3151262474
 30
0.0
 10
12.3805269086
 20
11.3265486796
 30
0.0
 10
12.2877639303
 20
11.3389074374
 30
0.0
 10
12.1870943162
 20
11.3512827427
 30
0.0
 10
12.1018219287
 20
11.3609904146
 30
0.0
 10
12.0336347444
 20
11.3682503887
 30
0.0
 10
11.984013672
 20
11.3732144733
 30
0.0
 10
11.9539127849
 20
11.3760761905
 30
0.0
 10
11.9404768424
 20
11.3773108045
 30
0.0
 10
11.9371104564
 20
11.3776057714
 30
0.0
  0
SPLINE
  5
595
100
AcDbEntity
  8
0
100
AcDbSpline
 62
9
  6
CONTINUOUS
 70
0
 71
3
 72
20
 73
16
 74
0
 42
0.0000001
 43
0.0000001
 44
0.0000000001
 40
0.0
 40
0.0
 40
0.0
 40
0.0
 40
0.0140734145
 40
0.0231965282
 40
0.0339415477
 40
0.0606277138
 40
0.0945097327
 40
0.1356598291
 40
0.1839965766
 40
0.2393388035
 40
0.3014561533
 40
0.4448219118
 40
0.6113378754
 40
0.7976606628
 40
1.0
 40
1.0
 40
1.0
 40
1.0
 10
9.6195189884
 20
13.3459462007
 30
0.0
 10
9.6186954255
 20
13.3456603812
 30
0.0
 10
9.6175209129
 20
13.3447167033
 30
0.0
 10
9.616209911
 20
13.3430832235
 30
0.0
 10
9.6146687132
 20
13.3406345857
 30
0.0
 10
9.6128235876
 20
13.3366079307
 30
0.0
 10
9.6107436488
 20
13.3306551972
 30
0.0
 10
9.6086900824
 20
13.3232903297
 30
0.0
 10
9.6066727655
 20
13.3145468245
 30
0.0
 10
9.6047050163
 20
13.3044655551
 30
0.0
 10
9.6020361033
 20
13.2885297166
 30
0.0
 10
9.5989971063
 20
13.2656820357
 30
0.0
 10
9.5958909541
 20
13.2350995835
 30
0.0
 10
9.5932757924
 20
13.2008066639
 30
0.0
 10
9.5919516865
 20
13.1767663744
 30
0.0
 10
9.5913774931
 20
13.1642460176
 30
0.0
  0
SPLINE
  5
596
100
AcDbEntity
  8
0
100
AcDbSpline
 62
9
  6
CONTINUOUS
 70
0
 71
3
 72
11
 73
7
 74
0
 42
0.0000001
 43
0.0000001
 44
0.0000000001
 40
0.0
 40
0.0
 40
0.0
 40
0.0
 40
0.2479333006
 40
0.504744007
 40
0.7591510359
 40
1.0
 40
1.0
 40
1.0
 40
1.0
 10
9.5913774931
 20
13.1642460176
 30
0.0
 10
9.5904869827
 20
13.1448283319
 30
0.0
 10
9.5892323617
 20
13.105270726
 30
0.0
 10
9.5888174062
 20
13.0457486906
 30
0.0
 10
9.5898430147
 20
12.9867896593
 30
0.0
 10
9.5914964138
 20
12.9479907885
 30
0.0
 10
9.5925898143
 20
12.9291397925
 30
0.0
  0
SPLINE
  5
597
100
AcDbEntity
  8
0
100
AcDbSpline
 62
9
  6
CONTINUOUS
 70
0
 71
3
 72
18
 73
14
 74
0
 42
0.0000001
 43
0.0000001
 44
0.0000000001
 40
0.0
 40
0.0
 40
0.0
 40
0.0
 40
0.2118437835
 40
0.4006226395
 40
0.4847829602
 40
0.5615889857
 40
0.6306174034
 40
0.6908635314
 40
0.7416618171
 40
0.7851982941
 40
0.8620111731
 40
0.9332049412
 40
1.0
 40
1.0
 40
1.0
 40
1.0
 10
9.5925898143
 20
12.9291397925
 30
0.0
 10
9.5933555457
 20
12.9159380423
 30
0.0
 10
9.5950737556
 20
12.8909863874
 30
0.0
 10
9.5979613476
 20
12.8608576251
 30
0.0
 10
9.6006098257
 20
12.8391855992
 30
0.0
 10
9.6026135364
 20
12.8249682493
 30
0.0
 10
9.6046652578
 20
12.8122676973
 30
0.0
 10
9.6067870388
 20
12.8012261322
 30
0.0
 10
9.6090857835
 20
12.7918486692
 30
0.0
 10
9.6122824355
 20
12.7816474196
 30
0.0
 10
9.616818151
 20
12.7705642351
 30
0.0
 10
9.6227111736
 20
12.7585173765
 30
0.0
 10
9.6266664445
 20
12.7508652957
 30
0.0
 10
9.6285944441
 20
12.7471682719
 30
0.0
  0
LINE
  5
598
100
AcDbEntity
  8
0
100
AcDbLine
 62
9
  6
CONTINUOUS
 10
9.6285944441
 20
12.7471682719
 11
9.6368903235
 21
12.7316307715
  0
SPLINE
  5
599
100
AcDbEntity
  8
0
100
AcDbSpline
 62
9
  6
CONTINUOUS
 70
0
 71
3
 72
11
 73
7
 74
0
 42
0.0000001
 43
0.0000001
 44
0.0000000001
 40
0.0
 40
0.0
 40
0.0
 40
0.0
 40
0.068761102
 40
0.2693202887
 40
0.5870686709
 40
1.0
 40
1.0
 40
1.0
 40
1.0
 10
13.4794533243
 20
11.8434092849
 30
0.0
 10
13.4726393047
 20
11.8436918374
 30
0.0
 10
13.4459491153
 20
11.8447643093
 30
0.0
 10
13.3877600077
 20
11.8468608478
 30
0.0
 10
13.2954479007
 20
11.8499030631
 30
0.0
 10
13.223008975
 20
11.8520410095
 30
0.0
 10
13.182069671
 20
11.8531874571
 30
0.0
  0
SPLINE
  5
59A
100
AcDbEntity
  8
0
100
AcDbSpline
 62
9
  6
CONTINUOUS
 70
0
 71
3
 72
24
 73
20
 74
0
 42
0.0000001
 43
0.0000001
 44
0.0000000001
 40
0.0
 40
0.0
 40
0.0
 40
0.0
 40
0.0006405053
 40
0.0025460829
 40
0.0056528384
 40
0.009896952
 40
0.0215425132
 40
0.0369747849
 40
0.0556883781
 40
0.077181197
 40
0.1266108195
 40
0.1827681145
 40
0.2441859703
 40
0.30946518
 40
0.3773783439
 40
0.5198721831
 40
0.6712002592
 40
0.8312812417
 40
1.0
 40
1.0
 40
1.0
 40
1.0
 10
12.4850009662
 20
18.7543270223
 30
0.0
 10
12.4850032149
 20
18.7543329568
 30
0.0
 10
12.4850073058
 20
18.7542791071
 30
0.0
 10
12.485021746
 20
18.754252511
 30
0.0
 10
12.4850422176
 20
18.754147898
 30
0.0
 10
12.4850874029
 20
18.7539740077
 30
0.0
 10
12.4851633041
 20
18.7536668242
 30
0.0
 10
12.4852802888
 20
18.7532312642
 30
0.0
 10
12.4854296145
 20
18.752699565
 30
0.0
 10
12.4856837274
 20
18.7518489487
 30
0.0
 10
12.4860794293
 20
18.7506529891
 30
0.0
 10
12.4866614402
 20
18.7491036356
 30
0.0
 10
12.4873664571
 20
18.7474340945
 30
0.0
 10
12.4881942745
 20
18.7456917574
 30
0.0
 10
12.489490084
 20
18.7432859421
 30
0.0
 10
12.491433082
 20
18.7402662216
 30
0.0
 10
12.4942364959
 20
18.736740193
 30
0.0
 10
12.4975555635
 20
18.7333219057
 30
0.0
 10
12.5000459582
 20
18.7312122374
 30
0.0
 10
12.5013712107
 20
18.730193275
 30
0.0
  0
SPLINE
  5
59B
100
AcDbEntity
  8
0
100
AcDbSpline
 62
9
  6
CONTINUOUS
 70
0
 71
3
 72
9
 73
5
 74
0
 42
0.0000001
 43
0.0000001
 44
0.0000000001
 40
0.0
 40
0.0
 40
0.0
 40
0.0
 40
0.2337095488
 40
1.0
 40
1.0
 40
1.0
 40
1.0
 10
12.5013712107
 20
18.730193275
 30
0.0
 10
12.502254472
 20
18.7295141516
 30
0.0
 10
12.5061252938
 20
18.7267275082
 30
0.0
 10
12.5103511545
 20
18.7244497525
 30
0.0
 10
12.5136849452
 20
18.7229560212
 30
0.0
  0
SPLINE
  5
59C
100
AcDbEntity
  8
0
100
AcDbSpline
 62
9
  6
CONTINUOUS
 70
0
 71
3
 72
11
 73
7
 74
0
 42
0.0000001
 43
0.0000001
 44
0.0000000001
 40
0.0
 40
0.0
 40
0.0
 40
0.0
 40
0.306421238
 40
0.4496994025
 40
0.5838609827
 40
1.0
 40
1.0
 40
1.0
 40
1.0
 10
13.1942718026
 20
12.2803361233
 30
0.0
 10
13.1939026881
 20
12.278733942
 30
0.0
 10
13.1931142744
 20
12.2764325313
 30
0.0
 10
13.191608633
 20
12.2736633713
 30
0.0
 10
13.1895081715
 20
12.2706627115
 30
0.0
 10
13.1868038835
 20
12.2684206258
 30
0.0
 10
13.1845710255
 20
12.2684203445
 30
0.0
  0
LINE
  5
59D
100
AcDbEntity
  8
0
100
AcDbLine
 62
9
  6
CONTINUOUS
 10
9.7074916442
 20
12.618798274
 11
9.7075124696
 21
12.6872995271
  0
SPLINE
  5
59E
100
AcDbEntity
  8
0
100
AcDbSpline
 62
9
  6
CONTINUOUS
 70
0
 71
3
 72
11
 73
7
 74
0
 42
0.0000001
 43
0.0000001
 44
0.0000000001
 40
0.0
 40
0.0
 40
0.0
 40
0.0
 40
0.2414725103
 40
0.491887497
 40
0.7459174516
 40
1.0
 40
1.0
 40
1.0
 40
1.0
 10
10.17549797
 20
12.7316307755
 30
0.0
 10
10.1789727121
 20
12.7326947878
 30
0.0
 10
10.1858501684
 20
12.7355630381
 30
0.0
 10
10.1953454822
 20
12.7416486384
 30
0.0
 10
10.2037786297
 20
12.7494372858
 30
0.0
 10
10.2082965028
 20
12.7556847216
 30
0.0
 10
10.2102078198
 20
12.7589965343
 30
0.0
  0
SPLINE
  5
59F
100
AcDbEntity
  8
0
100
AcDbSpline
 62
9
  6
CONTINUOUS
 70
0
 71
3
 72
31
 73
27
 74
0
 42
0.0000001
 43
0.0000001
 44
0.0000000001
 40
0.0
 40
0.0
 40
0.0
 40
0.0
 40
0.0672985914
 40
0.1304051333
 40
0.2476663543
 40
0.4538338679
 40
0.5442016095
 40
0.6263946213
 40
0.7004978074
 40
0.7664685336
 40
0.8242371666
 40
0.8500445983
 40
0.8738011157
 40
0.8955051201
 40
0.9151513176
 40
0.9327325274
 40
0.9482402938
 40
0.9616688678
 40
0.9730271174
 40
0.982326605
 40
0.9895776166
 40
0.9947891847
 40
0.997969225
 40
0.998799832
 40
0.9991267032
 40
1.0
 40
1.0
 40
1.0
 40
1.0
 10
11.6283905809
 20
11.1026597232
 30
0.0
 10
11.6157243118
 20
11.1065531766
 30
0.0
 10
11.5912008267
 20
11.1141625426
 30
0.0
 10
11.5445412476
 20
11.1283416575
 30
0.0
 10
11.4713998264
 20
11.1494006055
 30
0.0
 10
11.392246826
 20
11.1689407825
 30
0.0
 10
11.3190982389
 20
11.1834886963
 30
0.0
 10
11.2711999209
 20
11.1915714778
 30
0.0
 10
11.2278453307
 20
11.1975929602
 30
0.0
 10
11.1891168988
 20
11.2018396858
 30
0.0
 10
11.159762708
 20
11.2042168953
 30
0.0
 10
11.1386647215
 20
11.2054588817
 30
0.0
 10
11.1246455104
 20
11.2060857652
 30
0.0
 10
11.1118315533
 20
11.2064787469
 30
0.0
 10
11.1002290949
 20
11.2066727978
 30
0.0
 10
11.089845353
 20
11.2067028752
 30
0.0
 10
11.0806857691
 20
11.2066039649
 30
0.0
 10
11.072755273
 20
11.2064107418
 30
0.0
 10
11.0660440224
 20
11.2061582525
 30
0.0
 10
11.0605671845
 20
11.2058807625
 30
0.0
 10
11.0562606672
 20
11.2056143918
 30
0.0
 10
11.0532566508
 20
11.2053895659
 30
0.0
 10
11.0513282861
 20
11.2052509798
 30
0.0
 10
11.0505953212
 20
11.2051877255
 30
0.0
 10
11.0500416741
 20
11.2051815686
 30
0.0
 10
11.0505870976
 20
11.2052830868
 30
0.0
 10
11.0507558914
 20
11.205315897
 30
0.0
  0
LINE
  5
5A0
100
AcDbEntity
  8
0
100
AcDbLine
 62
9
  6
CONTINUOUS
 10
12.6417060863
 20
12.279704623
 11
12.6354793459
 21
12.280017511
  0
LINE
  5
5A1
100
AcDbEntity
  8
0
100
AcDbLine
 62
9
  6
CONTINUOUS
 10
12.6354793459
 20
12.280017511
 11
12.6291389958
 21
12.2803361503
  0
SPLINE
  5
5A2
100
AcDbEntity
  8
0
100
AcDbSpline
 62
9
  6
CONTINUOUS
 70
0
 71
3
 72
9
 73
5
 74
0
 42
0.0000001
 43
0.0000001
 44
0.0000000001
 40
0.0
 40
0.0
 40
0.0
 40
0.0
 40
0.2550360563
 40
1.0
 40
1.0
 40
1.0
 40
1.0
 10
10.2768459092
 20
13.0584193631
 30
0.0
 10
10.2768459092
 20
13.0626499909
 30
0.0
 10
10.2767472965
 20
13.0792380554
 30
0.0
 10
10.276282724
 20
13.0958250477
 30
0.0
 10
10.2756829705
 20
13.1081682093
 30
0.0
  0
SPLINE
  5
5A3
100
AcDbEntity
  8
0
100
AcDbSpline
 62
9
  6
CONTINUOUS
 70
0
 71
3
 72
19
 73
15
 74
0
 42
0.0000001
 43
0.0000001
 44
0.0000000001
 40
0.0
 40
0.0
 40
0.0
 40
0.0
 40
0.2065016163
 40
0.3956560446
 40
0.5636341213
 40
0.7070566285
 40
0.7687240006
 40
0.8232786575
 40
0.870442754
 40
0.9100716867
 40
0.942239718
 40
0.967224244
 40
0.9857885266
 40
1.0
 40
1.0
 40
1.0
 40
1.0
 10
10.2756829705
 20
13.1081682093
 30
0.0
 10
10.2754059359
 20
13.1138696902
 30
0.0
 10
10.2747677313
 20
13.1247888985
 30
0.0
 10
10.2735024053
 20
13.140319347
 30
0.0
 10
10.2719923993
 20
13.1540752035
 30
0.0
 10
10.2704953264
 20
13.1642824328
 30
0.0
 10
10.2691642062
 20
13.1713361659
 30
0.0
 10
10.2681788428
 20
13.1757447806
 30
0.0
 10
10.2671616068
 20
13.1795190979
 30
0.0
 10
10.2661164927
 20
13.1826393048
 30
0.0
 10
10.2650545769
 20
13.185100935
 30
0.0
 10
10.2639717003
 20
13.1869004808
 30
0.0
 10
10.2628631758
 20
13.1880821598
 30
0.0
 10
10.2619611405
 20
13.1884193631
 30
0.0
 10
10.2615683007
 20
13.1884193631
 30
0.0
  0
SPLINE
  5
5A4
100
AcDbEntity
  8
0
100
AcDbSpline
 62
9
  6
CONTINUOUS
 70
0
 71
3
 72
9
 73
5
 74
0
 42
0.0000001
 43
0.0000001
 44
0.0000000001
 40
0.0
 40
0.0
 40
0.0
 40
0.0
 40
0.5031005344
 40
1.0
 40
1.0
 40
1.0
 40
1.0
 10
12.5349925973
 20
13.5953362902
 30
0.0
 10
12.550758544
 20
13.6139476722
 30
0.0
 10
12.5842860142
 20
13.6491517192
 30
0.0
 10
12.622018671
 20
13.6798480933
 30
0.0
 10
12.6416932659
 20
13.6937507188
 30
0.0
  0
SPLINE
  5
5A5
100
AcDbEntity
  8
0
100
AcDbSpline
 62
9
  6
CONTINUOUS
 70
0
 71
3
 72
9
 73
5
 74
0
 42
0.0000001
 43
0.0000001
 44
0.0000000001
 40
0.0
 40
0.0
 40
0.0
 40
0.0
 40
0.4968884895
 40
1.0
 40
1.0
 40
1.0
 40
1.0
 10
13.1817244814
 20
13.6937977626
 30
0.0
 10
13.2014488573
 20
13.6798692232
 30
0.0
 10
13.2392646373
 20
13.6490896981
 30
0.0
 10
13.2728195263
 20
13.6137550398
 30
0.0
 10
13.2886053246
 20
13.5950852894
 30
0.0
  0
SPLINE
  5
5A6
100
AcDbEntity
  8
0
100
AcDbSpline
 62
7
  6
CONTINUOUS
 70
0
 71
3
 72
12
 73
8
 74
0
 42
0.0000001
 43
0.0000001
 44
0.0000000001
 40
0.0
 40
0.0
 40
0.0
 40
0.0
 40
0.1989215405
 40
0.422298813
 40
0.686207581
 40
0.8382173359
 40
1.0
 40
1.0
 40
1.0
 40
1.0
 10
12.130173529
 20
13.6620409626
 30
0.0
 10
12.1328182582
 20
13.6656282296
 30
0.0
 10
12.1390550514
 20
13.6728129982
 30
0.0
 10
12.1512221145
 20
13.6823789167
 30
0.0
 10
12.1643855943
 20
13.6884627667
 30
0.0
 10
12.1770276018
 20
13.6914006168
 30
0.0
 10
12.1840694451
 20
13.6919820277
 30
0.0
 10
12.1876941565
 20
13.6919820277
 30
0.0
  0
SPLINE
  5
5A7
100
AcDbEntity
  8
0
100
AcDbSpline
 62
7
  6
CONTINUOUS
 70
0
 71
3
 72
17
 73
13
 74
0
 42
0.0000001
 43
0.0000001
 44
0.0000000001
 40
0.0
 40
0.0
 40
0.0
 40
0.0
 40
0.1034965836
 40
0.1922745923
 40
0.2679065138
 40
0.3351486333
 40
0.4558820905
 40
0.5682619236
 40
0.6773134441
 40
0.7850727955
 40
0.8924464063
 40
1.0
 40
1.0
 40
1.0
 40
1.0
 10
12.1876941565
 20
13.6919820277
 30
0.0
 10
12.1941613265
 20
13.6919820277
 30
0.0
 10
12.2062450254
 20
13.6902588906
 30
0.0
 10
12.2217998154
 20
13.6836771654
 30
0.0
 10
12.2336463694
 20
13.6751871358
 30
0.0
 10
12.2451222972
 20
13.6632746676
 30
0.0
 10
12.2550002138
 20
13.6470572644
 30
0.0
 10
12.2621427477
 20
13.6268082868
 30
0.0
 10
12.2661997086
 20
13.6065927254
 30
0.0
 10
12.2681389292
 20
13.5864016731
 30
0.0
 10
12.2684104099
 20
13.5662208182
 30
0.0
 10
12.2675214659
 20
13.5528005441
 30
0.0
 10
12.2667663002
 20
13.5461224262
 30
0.0
  0
SPLINE
  5
5A8
100
AcDbEntity
  8
0
100
AcDbSpline
 62
7
  6
CONTINUOUS
 70
0
 71
3
 72
9
 73
5
 74
0
 42
0.0000001
 43
0.0000001
 44
0.0000000001
 40
0.0
 40
0.0
 40
0.0
 40
0.0
 40
0.4937277847
 40
1.0
 40
1.0
 40
1.0
 40
1.0
 10
12.2667663002
 20
13.5461224262
 30
0.0
 10
12.2659547883
 20
13.5389460254
 30
0.0
 10
12.2635882337
 20
13.5244808258
 30
0.0
 10
12.2592518791
 20
13.5104247557
 30
0.0
 10
12.2563883371
 20
13.5035951466
 30
0.0
  0
SPLINE
  5
5A9
100
AcDbEntity
  8
0
100
AcDbSpline
 62
7
  6
CONTINUOUS
 70
0
 71
3
 72
11
 73
7
 74
0
 42
0.0000001
 43
0.0000001
 44
0.0000000001
 40
0.0
 40
0.0
 40
0.0
 40
0.0
 40
0.1964732371
 40
0.4121388059
 40
0.6693747079
 40
1.0
 40
1.0
 40
1.0
 40
1.0
 10
12.2563883371
 20
13.5035951466
 30
0.0
 10
12.2541129364
 20
13.4981682674
 30
0.0
 10
12.2484354697
 20
13.4871271125
 30
0.0
 10
12.2356425922
 20
13.4714380564
 30
0.0
 10
12.2154633066
 20
13.4576084869
 30
0.0
 10
12.197596758
 20
13.4536947756
 30
0.0
 10
12.1876941566
 20
13.4536947756
 30
0.0
  0
SPLINE
  5
5AA
100
AcDbEntity
  8
0
100
AcDbSpline
 62
7
  6
CONTINUOUS
 70
0
 71
3
 72
12
 73
8
 74
0
 42
0.0000001
 43
0.0000001
 44
0.0000000001
 40
0.0
 40
0.0
 40
0.0
 40
0.0
 40
0.1617828632
 40
0.3137924018
 40
0.5777011354
 40
0.8010784468
 40
1.0
 40
1.0
 40
1.0
 40
1.0
 10
12.1876941566
 20
13.4536947756
 30
0.0
 10
12.1840694403
 20
13.4536947756
 30
0.0
 10
12.1770276093
 20
13.4542763411
 30
0.0
 10
12.1643855927
 20
13.4572141097
 30
0.0
 10
12.1512221202
 20
13.4632979942
 30
0.0
 10
12.1390550533
 20
13.4728639035
 30
0.0
 10
12.1328182587
 20
13.4800486756
 30
0.0
 10
12.130173529
 20
13.4836359433
 30
0.0
  0
LINE
  5
5AB
100
AcDbEntity
  8
0
100
AcDbLine
 62
9
  6
CONTINUOUS
 10
9.7482775973
 20
13.3706727845
 11
9.82510817
 21
13.3827270505
  0
SPLINE
  5
5AC
100
AcDbEntity
  8
0
100
AcDbSpline
 62
9
  6
CONTINUOUS
 70
0
 71
3
 72
35
 73
31
 74
0
 42
0.0000001
 43
0.0000001
 44
0.0000000001
 40
0.0
 40
0.0
 40
0.0
 40
0.0
 40
0.2144496479
 40
0.3147550007
 40
0.409799686
 40
0.499099874
 40
0.5822049203
 40
0.6587343471
 40
0.728316587
 40
0.7905826238
 40
0.8452190677
 40
0.8695949835
 40
0.8919664863
 40
0.9123014154
 40
0.9305676071
 40
0.9467334439
 40
0.9607786794
 40
0.9726937858
 40
0.9824696552
 40
0.986552531
 40
0.9900971845
 40
0.9931024798
 40
0.9955672836
 40
0.9974904673
 40
0.9982486028
 40
0.9988709175
 40
0.9993572799
 40
0.999707571
 40
0.9999217166
 40
1.0
 40
1.0
 40
1.0
 40
1.0
 10
12.6397665924
 20
12.0651694446
 30
0.0
 10
12.614647571
 20
12.0650944263
 30
0.0
 10
12.5777794049
 20
12.0650182951
 30
0.0
 10
12.5297783239
 20
12.0650119646
 30
0.0
 10
12.4964363938
 20
12.0650433178
 30
0.0
 10
12.4651092335
 20
12.0651043269
 30
0.0
 10
12.435950883
 20
12.0651883159
 30
0.0
 10
12.4091022363
 20
12.0652925463
 30
0.0
 10
12.3846946222
 20
12.0654134932
 30
0.0
 10
12.3628515182
 20
12.0655488324
 30
0.0
 10
12.3463036116
 20
12.0656724677
 30
0.0
 10
12.3344286225
 20
12.0657709785
 30
0.0
 10
12.3265713667
 20
12.0658398721
 30
0.0
 10
12.3194297592
 20
12.0659053012
 30
0.0
 10
12.3130150278
 20
12.0659660219
 30
0.0
 10
12.3073370016
 20
12.066020563
 30
0.0
 10
12.302402868
 20
12.0660684424
 30
0.0
 10
12.2982171851
 20
12.066110211
 30
0.0
 10
12.2951983843
 20
12.0661418394
 30
0.0
 10
12.2931599958
 20
12.0661647415
 30
0.0
 10
12.2919146401
 20
12.0661796164
 30
0.0
 10
12.2908587716
 20
12.0661931984
 30
0.0
 10
12.2899929493
 20
12.0662057641
 30
0.0
 10
12.2893900526
 20
12.0662154861
 30
0.0
 10
12.2890034669
 20
12.0662236244
 30
0.0
 10
12.2887842212
 20
12.0662277609
 30
0.0
 10
12.2886150507
 20
12.0662348355
 30
0.0
 10
12.2884882468
 20
12.0662338692
 30
0.0
 10
12.2884199002
 20
12.0662473682
 30
0.0
 10
12.2883782865
 20
12.0662399037
 30
0.0
 10
12.2883726254
 20
12.0662471171
 30
0.0
  0
SPLINE
  5
5AD
100
AcDbEntity
  8
0
100
AcDbSpline
 62
9
  6
CONTINUOUS
 70
0
 71
3
 72
31
 73
27
 74
0
 42
0.0000001
 43
0.0000001
 44
0.0000000001
 40
0.0
 40
0.0
 40
0.0
 40
0.0
 40
0.0006743815
 40
0.0012958821
 40
0.0025174333
 40
0.0044348687
 40
0.0070514896
 40
0.0103550159
 40
0.0143287163
 40
0.0189541957
 40
0.0242123547
 40
0.0300837954
 40
0.0435885304
 40
0.0593128694
 40
0.0771167074
 40
0.0969348913
 40
0.1187263662
 40
0.1680620315
 40
0.2247867263
 40
0.2885609882
 40
0.3590042402
 40
0.4356704028
 40
0.5181093871
 40
0.6058733527
 40
0.7954095551
 40
1.0
 40
1.0
 40
1.0
 40
1.0
 10
12.3557132611
 20
12.3512811164
 30
0.0
 10
12.3557292408
 20
12.3512405021
 30
0.0
 10
12.3557856178
 20
12.351142183
 30
0.0
 10
12.3559559342
 20
12.3512509385
 30
0.0
 10
12.3560676566
 20
12.3514544493
 30
0.0
 10
12.3562438233
 20
12.351789402
 30
0.0
 10
12.3564374738
 20
12.3522561085
 30
0.0
 10
12.3566711981
 20
12.3528531036
 30
0.0
 10
12.3569368375
 20
12.3535759289
 30
0.0
 10
12.3572385853
 20
12.3544205619
 30
0.0
 10
12.3575763715
 20
12.3553826021
 30
0.0
 10
12.3581017411
 20
12.356887857
 30
0.0
 10
12.3588522893
 20
12.3590319312
 30
0.0
 10
12.3598795778
 20
12.3618972969
 30
0.0
 10
12.3610827141
 20
12.3651334374
 30
0.0
 10
12.3624526558
 20
12.3687262909
 30
0.0
 10
12.3645808879
 20
12.3742139056
 30
0.0
 10
12.3676161749
 20
12.381911483
 30
0.0
 10
12.3716668749
 20
12.3921292557
 30
0.0
 10
12.3762037542
 20
12.4036237827
 30
0.0
 10
12.3811664198
 20
12.4163376497
 30
0.0
 10
12.386495965
 20
12.430204843
 30
0.0
 10
12.3921324755
 20
12.4451546731
 30
0.0
 10
12.4001741891
 20
12.4670037764
 30
0.0
 10
12.4106203806
 20
12.4963898723
 30
0.0
 10
12.4191570971
 20
12.5204261724
 30
0.0
 10
12.423647594
 20
12.5328822208
 30
0.0
  0
LINE
  5
5AE
100
AcDbEntity
  8
0
100
AcDbLine
 62
9
  6
CONTINUOUS
 10
10.0641012083
 20
13.3706757399
 11
10.0641072072
 21
13.3771327974
  0
LINE
  5
5AF
100
AcDbEntity
  8
0
100
AcDbLine
 62
9
  6
CONTINUOUS
 10
10.0641072072
 20
13.3771327974
 11
10.0641058704
 21
13.3836293692
  0
LINE
  5
5B0
100
AcDbEntity
  8
0
100
AcDbLine
 62
9
  6
CONTINUOUS
 10
9.9872559989
 20
13.3827306259
 11
10.0641105681
 21
13.3706731592
  0
SPLINE
  5
5B1
100
AcDbEntity
  8
0
100
AcDbSpline
 62
9
  6
CONTINUOUS
 70
0
 71
3
 72
9
 73
5
 74
0
 42
0.0000001
 43
0.0000001
 44
0.0000000001
 40
0.0
 40
0.0
 40
0.0
 40
0.0
 40
0.258216781
 40
1.0
 40
1.0
 40
1.0
 40
1.0
 10
10.0120009433
 20
13.3912741404
 30
0.0
 10
10.0116867164
 20
13.3914564867
 30
0.0
 10
10.0104383021
 20
13.3921063753
 30
0.0
 10
10.009053684
 20
13.3924989311
 30
0.0
 10
10.0080163461
 20
13.3926136725
 30
0.0
  0
SPLINE
  5
5B2
100
AcDbEntity
  8
0
100
AcDbSpline
 62
9
  6
CONTINUOUS
 70
0
 71
3
 72
13
 73
9
 74
0
 42
0.0000001
 43
0.0000001
 44
0.0000000001
 40
0.0
 40
0.0
 40
0.0
 40
0.0
 40
0.2506495257
 40
0.3757335819
 40
0.5006411371
 40
0.6254778437
 40
0.7503702333
 40
1.0
 40
1.0
 40
1.0
 40
1.0
 10
12.4336719262
 20
12.5324700767
 30
0.0
 10
12.4460417483
 20
12.5086724914
 30
0.0
 10
12.4658833032
 20
12.4736390102
 30
0.0
 10
12.4953028309
 20
12.4288513935
 30
0.0
 10
12.5188968515
 20
12.3963978176
 30
0.0
 10
12.5440304907
 20
12.3651439109
 30
0.0
 10
12.5795293068
 20
12.3251965142
 30
0.0
 10
12.6085740905
 20
12.2973857964
 30
0.0
 10
12.6291356689
 20
12.2803353486
 30
0.0
  0
SPLINE
  5
5B3
100
AcDbEntity
  8
0
100
AcDbSpline
 62
9
  6
CONTINUOUS
 70
0
 71
3
 72
14
 73
10
 74
0
 42
0.0000001
 43
0.0000001
 44
0.0000000001
 40
0.0
 40
0.0
 40
0.0
 40
0.0
 40
0.1034486059
 40
0.2037197289
 40
0.3067193077
 40
0.4177095294
 40
0.5407187802
 40
0.6781745484
 40
1.0
 40
1.0
 40
1.0
 40
1.0
 10
10.0120009437
 20
13.4246422832
 30
0.0
 10
10.0112375763
 20
13.4250852659
 30
0.0
 10
10.0096234344
 20
13.4257877734
 30
0.0
 10
10.0070012027
 20
13.4261573581
 30
0.0
 10
10.004312705
 20
13.4258139813
 30
0.0
 10
10.0016054345
 20
13.424781048
 30
0.0
 10
9.9989090991
 20
13.4230845787
 30
0.0
 10
9.9951562997
 20
13.4198078236
 30
0.0
 10
9.9927295489
 20
13.4166805866
 30
0.0
 10
9.9912126684
 20
13.4143919225
 30
0.0
  0
SPLINE
  5
5B4
100
AcDbEntity
  8
0
100
AcDbSpline
 62
9
  6
CONTINUOUS
 70
0
 71
3
 72
9
 73
5
 74
0
 42
0.0000001
 43
0.0000001
 44
0.0000000001
 40
0.0
 40
0.0
 40
0.0
 40
0.0
 40
0.2340073571
 40
1.0
 40
1.0
 40
1.0
 40
1.0
 10
9.9912126684
 20
13.4143919225
 30
0.0
 10
9.9907181074
 20
13.4136457305
 30
0.0
 10
9.9886873335
 20
13.4104022839
 30
0.0
 10
9.98695698
 20
13.4069764452
 30
0.0
 10
9.9857619196
 20
13.4043008669
 30
0.0
  0
SPLINE
  5
5B5
100
AcDbEntity
  8
0
100
AcDbSpline
 62
9
  6
CONTINUOUS
 70
0
 71
3
 72
14
 73
10
 74
0
 42
0.0000001
 43
0.0000001
 44
0.0000000001
 40
0.0
 40
0.0
 40
0.0
 40
0.0
 40
0.1034468748
 40
0.2037162193
 40
0.3067145864
 40
0.417704392
 40
0.5407139685
 40
0.6781708049
 40
1.0
 40
1.0
 40
1.0
 40
1.0
 10
10.0120009444
 20
13.4580104119
 30
0.0
 10
10.0112375441
 20
13.4584534191
 30
0.0
 10
10.0096233284
 20
13.4591559653
 30
0.0
 10
10.0070009609
 20
13.4595255206
 30
0.0
 10
10.0043123322
 20
13.4591820402
 30
0.0
 10
10.0016049391
 20
13.4581489474
 30
0.0
 10
9.9989084882
 20
13.45645227
 30
0.0
 10
9.9951555363
 20
13.4531751465
 30
0.0
 10
9.9927287079
 20
13.4500476045
 30
0.0
 10
9.9912117808
 20
13.4477587258
 30
0.0
  0
SPLINE
  5
5B6
100
AcDbEntity
  8
0
100
AcDbSpline
 62
9
  6
CONTINUOUS
 70
0
 71
3
 72
9
 73
5
 74
0
 42
0.0000001
 43
0.0000001
 44
0.0000000001
 40
0.0
 40
0.0
 40
0.0
 40
0.0
 40
0.2340095269
 40
1.0
 40
1.0
 40
1.0
 40
1.0
 10
9.9912117808
 20
13.4477587258
 30
0.0
 10
9.9907172804
 20
13.4470125782
 30
0.0
 10
9.9886867645
 20
13.4437693684
 30
0.0
 10
9.9869565996
 20
13.4403438166
 30
0.0
 10
9.9857616656
 20
13.4376684736
 30
0.0
  0
LINE
  5
5B7
100
AcDbEntity
  8
0
100
AcDbLine
 62
9
  6
CONTINUOUS
 10
12.4872306273
 20
18.7291688924
 11
12.4879103788
 21
18.7243393182
  0
SPLINE
  5
5B8
100
AcDbEntity
  8
0
100
AcDbSpline
 62
9
  6
CONTINUOUS
 70
0
 71
3
 72
10
 73
6
 74
0
 42
0.0000001
 43
0.0000001
 44
0.0000000001
 40
0.0
 40
0.0
 40
0.0
 40
0.0
 40
0.2335809779
 40
0.4840672014
 40
1.0
 40
1.0
 40
1.0
 40
1.0
 10
12.4906792601
 20
18.7087926027
 30
0.0
 10
12.4927831689
 20
18.6985481545
 30
0.0
 10
12.4983640842
 20
18.6775381726
 30
0.0
 10
12.5149010503
 20
18.6358862555
 30
0.0
 10
12.5344082894
 20
18.6067009669
 30
0.0
 10
12.5504982664
 20
18.590125984
 30
0.0
  0
SPLINE
  5
5B9
100
AcDbEntity
  8
0
100
AcDbSpline
 62
9
  6
CONTINUOUS
 70
0
 71
3
 72
9
 73
5
 74
0
 42
0.0000001
 43
0.0000001
 44
0.0000000001
 40
0.0
 40
0.0
 40
0.0
 40
0.0
 40
0.4777985251
 40
1.0
 40
1.0
 40
1.0
 40
1.0
 10
13.3517954528
 20
20.3188914367
 30
0.0
 10
13.3594146948
 20
20.3178495624
 30
0.0
 10
13.3753961222
 20
20.3159238148
 30
0.0
 10
13.3914139494
 20
20.3143385036
 30
0.0
 10
13.399785986
 20
20.3135969961
 30
0.0
  0
SPLINE
  5
5BA
100
AcDbEntity
  8
0
100
AcDbSpline
 62
9
  6
CONTINUOUS
 70
0
 71
3
 72
9
 73
5
 74
0
 42
0.0000001
 43
0.0000001
 44
0.0000000001
 40
0.0
 40
0.0
 40
0.0
 40
0.0
 40
0.5226999108
 40
1.0
 40
1.0
 40
1.0
 40
1.0
 10
12.4236259315
 20
20.3135969961
 30
0.0
 10
12.4320781124
 20
20.314345602
 30
0.0
 10
12.4482337266
 20
20.315946039
 30
0.0
 10
12.4643521985
 20
20.3178935172
 30
0.0
 10
12.4720283928
 20
20.318947891
 30
0.0
  0
SPLINE
  5
5BB
100
AcDbEntity
  8
0
100
AcDbSpline
 62
9
  6
CONTINUOUS
 70
0
 71
3
 72
14
 73
10
 74
0
 42
0.0000001
 43
0.0000001
 44
0.0000000001
 40
0.0
 40
0.0
 40
0.0
 40
0.0
 40
0.1035593577
 40
0.2039601527
 40
0.3070579085
 40
0.4181113026
 40
0.5411491736
 40
0.6785547684
 40
1.0
 40
1.0
 40
1.0
 40
1.0
 10
10.010901137
 20
13.4928923982
 30
0.0
 10
10.0101079789
 20
13.4933312465
 30
0.0
 10
10.0084349986
 20
13.4940173069
 30
0.0
 10
10.0057349812
 20
13.4943431115
 30
0.0
 10
10.0029815178
 20
13.4939359968
 30
0.0
 10
10.0002246018
 20
13.4928187004
 30
0.0
 10
9.9974955371
 20
13.4910195047
 30
0.0
 10
9.9937210398
 20
13.4875780392
 30
0.0
 10
9.9913059955
 20
13.4843170319
 30
0.0
 10
9.9898066851
 20
13.4819361229
 30
0.0
  0
SPLINE
  5
5BC
100
AcDbEntity
  8
0
100
AcDbSpline
 62
9
  6
CONTINUOUS
 70
0
 71
3
 72
9
 73
5
 74
0
 42
0.0000001
 43
0.0000001
 44
0.0000000001
 40
0.0
 40
0.0
 40
0.0
 40
0.0
 40
0.2334431666
 40
1.0
 40
1.0
 40
1.0
 40
1.0
 10
9.9898066851
 20
13.4819361229
 30
0.0
 10
9.9892893668
 20
13.48111462
 30
0.0
 10
9.9871708591
 20
13.4775342514
 30
0.0
 10
9.9854038648
 20
13.4737529333
 30
0.0
 10
9.9841999477
 20
13.4708011384
 30
0.0
  0
SPLINE
  5
5BD
100
AcDbEntity
  8
0
100
AcDbSpline
 62
9
  6
CONTINUOUS
 70
0
 71
3
 72
11
 73
7
 74
0
 42
0.0000001
 43
0.0000001
 44
0.0000000001
 40
0.0
 40
0.0
 40
0.0
 40
0.0
 40
0.2142409761
 40
0.4331886322
 40
0.6894493228
 40
1.0
 40
1.0
 40
1.0
 40
1.0
 10
10.0082384387
 20
13.5215905047
 30
0.0
 10
10.0067698164
 20
13.5223091058
 30
0.0
 10
10.0034261405
 20
13.523163879
 30
0.0
 10
9.9981538534
 20
13.5218277288
 30
0.0
 10
9.9932555049
 20
13.5182022485
 30
0.0
 10
9.9905077532
 20
13.5148171263
 30
0.0
 10
9.9891704566
 20
13.5128604581
 30
0.0
  0
SPLINE
  5
5BE
100
AcDbEntity
  8
0
100
AcDbSpline
 62
9
  6
CONTINUOUS
 70
0
 71
3
 72
9
 73
5
 74
0
 42
0.0000001
 43
0.0000001
 44
0.0000000001
 40
0.0
 40
0.0
 40
0.0
 40
0.0
 40
0.2354791504
 40
1.0
 40
1.0
 40
1.0
 40
1.0
 10
9.9891704566
 20
13.5128604581
 30
0.0
 10
9.9887905939
 20
13.5123046612
 30
0.0
 10
9.9872348088
 20
13.5099052386
 30
0.0
 10
9.9858914243
 20
13.5073718677
 30
0.0
 10
9.98495823
 20
13.5053954307
 30
0.0
  0
SPLINE
  5
5BF
100
AcDbEntity
  8
0
100
AcDbSpline
 62
9
  6
CONTINUOUS
 70
0
 71
3
 72
11
 73
7
 74
0
 42
0.0000001
 43
0.0000001
 44
0.0000000001
 40
0.0
 40
0.0
 40
0.0
 40
0.0
 40
0.2273519248
 40
0.4536823312
 40
0.7053631483
 40
1.0
 40
1.0
 40
1.0
 40
1.0
 10
10.0053912952
 20
13.5370705946
 30
0.0
 10
10.0040952983
 20
13.5376270773
 30
0.0
 10
10.0012776234
 20
13.5383093076
 30
0.0
 10
9.9968613276
 20
13.5375048705
 30
0.0
 10
9.9926876723
 20
13.5349961015
 30
0.0
 10
9.9903145726
 20
13.5325321741
 30
0.0
 10
9.9891679512
 20
13.531108716
 30
0.0
  0
SPLINE
  5
5C0
100
AcDbEntity
  8
0
100
AcDbSpline
 62
7
  6
CONTINUOUS
 70
0
 71
3
 72
21
 73
17
 74
0
 42
0.0000001
 43
0.0000001
 44
0.0000000001
 40
0.0
 40
0.0
 40
0.0
 40
0.0
 40
0.1418034961
 40
0.2085171373
 40
0.2721411072
 40
0.332675018
 40
0.3903572212
 40
0.4458028381
 40
0.5000001673
 40
0.5541975319
 40
0.6096431669
 40
0.6673252965
 40
0.7278590437
 40
0.7914829172
 40
0.8581964821
 40
1.0
 40
1.0
 40
1.0
 40
1.0
 10
13.6640918292
 20
12.6610650954
 30
0.0
 10
13.6535356004
 20
12.6526717224
 30
0.0
 10
13.6385299279
 20
12.6396111101
 30
0.0
 10
13.6209198039
 20
12.6206112917
 30
0.0
 10
13.609772573
 20
12.6062474836
 30
0.0
 10
13.6006773771
 20
12.5914905478
 30
0.0
 10
13.5939026682
 20
12.5763659086
 30
0.0
 10
13.5897008496
 20
12.5609409044
 30
0.0
 10
13.5882794578
 20
12.5453388051
 30
0.0
 10
13.5897008426
 20
12.5297366972
 30
0.0
 10
13.5939027419
 20
12.5143117201
 30
0.0
 10
13.6006773801
 20
12.4991870741
 30
0.0
 10
13.6097726133
 20
12.4844301945
 30
0.0
 10
13.6209198178
 20
12.4700664103
 30
0.0
 10
13.6385299283
 20
12.4510665972
 30
0.0
 10
13.6535355988
 20
12.4380059908
 30
0.0
 10
13.6640918292
 20
12.4296126165
 30
0.0
  0
SPLINE
  5
5C1
100
AcDbEntity
  8
0
100
AcDbSpline
 62
9
  6
CONTINUOUS
 70
0
 71
3
 72
9
 73
5
 74
0
 42
0.0000001
 43
0.0000001
 44
0.0000000001
 40
0.0
 40
0.0
 40
0.0
 40
0.0
 40
0.257591996
 40
1.0
 40
1.0
 40
1.0
 40
1.0
 10
10.0024060317
 20
13.5391323447
 30
0.0
 10
10.0020673921
 20
13.5392581014
 30
0.0
 10
10.0007332011
 20
13.5396909837
 30
0.0
 10
9.9993164909
 20
13.5398772922
 30
0.0
 10
9.9982756172
 20
13.5398545604
 30
0.0
  0
SPLINE
  5
5C2
100
AcDbEntity
  8
0
100
AcDbSpline
 62
9
  6
CONTINUOUS
 70
0
 71
3
 72
9
 73
5
 74
0
 42
0.0000001
 43
0.0000001
 44
0.0000000001
 40
0.0
 40
0.0
 40
0.0
 40
0.0
 40
0.2733775483
 40
1.0
 40
1.0
 40
1.0
 40
1.0
 10
12.6337949468
 20
19.8655658786
 30
0.0
 10
12.6299845628
 20
19.8668165639
 30
0.0
 10
12.6160624304
 20
19.8714394955
 30
0.0
 10
12.6022070843
 20
19.8762689067
 30
0.0
 10
12.5922126672
 20
19.8799749049
 30
0.0
  0
SPLINE
  5
5C3
100
AcDbEntity
  8
0
100
AcDbSpline
 62
9
  6
CONTINUOUS
 70
0
 71
3
 72
10
 73
6
 74
0
 42
0.0000001
 43
0.0000001
 44
0.0000000001
 40
0.0
 40
0.0
 40
0.0
 40
0.0
 40
0.5698544878
 40
0.8015429105
 40
1.0
 40
1.0
 40
1.0
 40
1.0
 10
12.5794173703
 20
19.8848597835
 30
0.0
 10
12.5687397054
 20
19.8890659349
 30
0.0
 10
12.5538555911
 20
19.8953922496
 30
0.0
 10
12.5360595278
 20
19.904841009
 30
0.0
 10
12.5287089224
 20
19.9094492381
 30
0.0
 10
12.5254402865
 20
19.9117491732
 30
0.0
  0
SPLINE
  5
5C4
100
AcDbEntity
  8
0
100
AcDbSpline
 62
9
  6
CONTINUOUS
 70
0
 71
3
 72
9
 73
5
 74
0
 42
0.0000001
 43
0.0000001
 44
0.0000000001
 40
0.0
 40
0.0
 40
0.0
 40
0.0
 40
0.2657176014
 40
1.0
 40
1.0
 40
1.0
 40
1.0
 10
12.5254402865
 20
19.9117491732
 30
0.0
 10
12.5247713298
 20
19.9122198762
 30
0.0
 10
12.5222740117
 20
19.9140195087
 30
0.0
 10
12.5198596751
 20
19.9159371635
 30
0.0
 10
12.5181616345
 20
19.9174290968
 30
0.0
  0
SPLINE
  5
5C5
100
AcDbEntity
  8
0
100
AcDbSpline
 62
9
  6
CONTINUOUS
 70
0
 71
3
 72
18
 73
14
 74
0
 42
0.0000001
 43
0.0000001
 44
0.0000000001
 40
0.0
 40
0.0
 40
0.0
 40
0.0
 40
0.1934199013
 40
0.3800575379
 40
0.551719337
 40
0.7021078413
 40
0.8256909838
 40
0.9180823079
 40
0.9514160311
 40
0.9759040624
 40
0.9848659372
 40
0.9917160208
 40
1.0
 40
1.0
 40
1.0
 40
1.0
 10
13.4197076198
 20
20.3118325457
 30
0.0
 10
13.4251773861
 20
20.311348091
 30
0.0
 10
13.4359317389
 20
20.3104694723
 30
0.0
 10
13.4515594748
 20
20.3094065052
 30
0.0
 10
13.465982158
 20
20.3086556273
 30
0.0
 10
13.478627833
 20
20.3082328646
 30
0.0
 10
13.489029729
 20
20.3081636864
 30
0.0
 10
13.4961078144
 20
20.3083707907
 30
0.0
 10
13.5003571347
 20
20.3087892638
 30
0.0
 10
13.5022246927
 20
20.3090954459
 30
0.0
 10
13.503335487
 20
20.3094215
 30
0.0
 10
13.5039456777
 20
20.3096720646
 30
0.0
 10
13.5043515478
 20
20.309992202
 30
0.0
 10
13.5043729043
 20
20.310226412
 30
0.0
  0
SPLINE
  5
5C6
100
AcDbEntity
  8
0
100
AcDbSpline
 62
9
  6
CONTINUOUS
 70
0
 71
3
 72
19
 73
15
 74
0
 42
0.0000001
 43
0.0000001
 44
0.0000000001
 40
0.0
 40
0.0
 40
0.0
 40
0.0
 40
0.0792032214
 40
0.1478480218
 40
0.2100563123
 40
0.2674766789
 40
0.3719743717
 40
0.4655984923
 40
0.6270035076
 40
0.7585426718
 40
0.862008957
 40
0.9374672075
 40
0.9840447115
 40
1.0
 40
1.0
 40
1.0
 40
1.0
 10
7.1615027674
 20
10.1994085526
 30
0.0
 10
7.1482790968
 20
10.2023993575
 30
0.0
 10
7.1237110959
 20
10.2085026036
 30
0.0
 10
7.0890655629
 20
10.2181304399
 30
0.0
 10
7.0581655555
 20
10.2272906892
 30
0.0
 10
7.0215339261
 20
10.2386945827
 30
0.0
 10
6.9799262112
 20
10.2521974252
 30
0.0
 10
6.9215675384
 20
10.2717359545
 30
0.0
 10
6.858942058
 20
10.2931060774
 30
0.0
 10
6.7946741282
 20
10.3148791742
 30
0.0
 10
6.7442281273
 20
10.3315986864
 30
0.0
 10
6.7074741726
 20
10.3433963352
 30
0.0
 10
6.6849059884
 20
10.3503715779
 30
0.0
 10
6.6746421987
 20
10.3534101212
 30
0.0
 10
6.6720205814
 20
10.3541759738
 30
0.0
  0
LINE
  5
5C7
100
AcDbEntity
  8
0
100
AcDbLine
 62
9
  6
CONTINUOUS
 10
9.8677456586
 20
12.6506506433
 11
9.86775788
 21
12.5840659905
  0
SPLINE
  5
5C8
100
AcDbEntity
  8
0
100
AcDbSpline
 62
9
  6
CONTINUOUS
 70
0
 71
3
 72
26
 73
22
 74
0
 42
0.0000001
 43
0.0000001
 44
0.0000000001
 40
0.0
 40
0.0
 40
0.0
 40
0.0
 40
0.0098668429
 40
0.0209908617
 40
0.0335145019
 40
0.0475108488
 40
0.0800006233
 40
0.1184262933
 40
0.1625424931
 40
0.2120742549
 40
0.2667269799
 40
0.3262331741
 40
0.3903498902
 40
0.4589156001
 40
0.5318724193
 40
0.6094712247
 40
0.6922294641
 40
0.781520328
 40
0.829452389
 40
0.8806327932
 40
1.0
 40
1.0
 40
1.0
 40
1.0
 10
7.7455083561
 20
9.9422940594
 30
0.0
 10
7.7434237973
 20
9.9419638977
 30
0.0
 10
7.7389172226
 20
9.9416978636
 30
0.0
 10
7.7317574286
 20
9.942285748
 30
0.0
 10
7.7238339778
 20
9.9437838514
 30
0.0
 10
7.7116485628
 20
9.9471128347
 30
0.0
 10
7.6946188762
 20
9.9535205411
 30
0.0
 10
7.6722451762
 20
9.9637799085
 30
0.0
 10
7.6471078688
 20
9.976687459
 30
0.0
 10
7.6192782451
 20
9.9919150945
 30
0.0
 10
7.5888000925
 20
10.0091513472
 30
0.0
 10
7.5556871254
 20
10.0280641705
 30
0.0
 10
7.519922836
 20
10.0483359249
 30
0.0
 10
7.4814335122
 20
10.0696317345
 30
0.0
 10
7.4400571768
 20
10.0916577338
 30
0.0
 10
7.3954496565
 20
10.1140501795
 30
0.0
 10
7.3470142517
 20
10.1365600685
 30
0.0
 10
7.3035724155
 20
10.1546845944
 30
0.0
 10
7.2658343665
 20
10.1688409458
 30
0.0
 10
7.2215919145
 20
10.1839002944
 30
0.0
 10
7.186406707
 20
10.1937760147
 30
0.0
 10
7.1615027674
 20
10.1994085526
 30
0.0
  0
LINE
  5
5C9
100
AcDbEntity
  8
0
100
AcDbLine
 62
9
  6
CONTINUOUS
 10
9.9446425921
 20
12.6506481032
 11
9.9446302866
 21
12.5840659679
  0
SPLINE
  5
5CA
100
AcDbEntity
  8
0
100
AcDbSpline
 62
7
  6
CONTINUOUS
 70
0
 71
3
 72
21
 73
17
 74
0
 42
0.0000001
 43
0.0000001
 44
0.0000000001
 40
0.0
 40
0.0
 40
0.0
 40
0.0
 40
0.1418034961
 40
0.2085171373
 40
0.2721411072
 40
0.332675018
 40
0.3903572212
 40
0.4458028381
 40
0.5000001673
 40
0.5541975319
 40
0.6096431669
 40
0.6673252965
 40
0.7278590437
 40
0.7914829172
 40
0.8581964821
 40
1.0
 40
1.0
 40
1.0
 40
1.0
 10
14.0102649702
 20
12.4296126165
 30
0.0
 10
14.020821199
 20
12.4380059895
 30
0.0
 10
14.0358268714
 20
12.4510666017
 30
0.0
 10
14.0534369954
 20
12.4700664202
 30
0.0
 10
14.0645842264
 20
12.4844302282
 30
0.0
 10
14.0736794222
 20
12.4991871641
 30
0.0
 10
14.0804541312
 20
12.5143118033
 30
0.0
 10
14.0846559497
 20
12.5297368074
 30
0.0
 10
14.0860773415
 20
12.5453389067
 30
0.0
 10
14.0846559567
 20
12.5609410146
 30
0.0
 10
14.0804540574
 20
12.5763659917
 30
0.0
 10
14.0736794192
 20
12.5914906378
 30
0.0
 10
14.064584186
 20
12.6062475174
 30
0.0
 10
14.0534369815
 20
12.6206113016
 30
0.0
 10
14.035826871
 20
12.6396111147
 30
0.0
 10
14.0208212006
 20
12.6526717211
 30
0.0
 10
14.0102649702
 20
12.6610650954
 30
0.0
  0
SPLINE
  5
5CB
100
AcDbEntity
  8
0
100
AcDbSpline
 62
9
  6
CONTINUOUS
 70
0
 71
3
 72
15
 73
11
 74
0
 42
0.0000001
 43
0.0000001
 44
0.0000000001
 40
0.0
 40
0.0
 40
0.0
 40
0.0
 40
0.0269765821
 40
0.0493930359
 40
0.0789518389
 40
0.115924337
 40
0.1604073887
 40
0.2719427828
 40
0.5827436083
 40
1.0
 40
1.0
 40
1.0
 40
1.0
 10
13.5488164937
 20
20.8095956419
 30
0.0
 10
13.5488164937
 20
20.8093688715
 30
0.0
 10
13.5484379077
 20
20.8090296097
 30
0.0
 10
13.5478490648
 20
20.808781211
 30
0.0
 10
13.5471252059
 20
20.8085571637
 30
0.0
 10
13.5462152243
 20
20.8083617963
 30
0.0
 10
13.5446118866
 20
20.8081019824
 30
0.0
 10
13.5407051809
 20
20.8077160701
 30
0.0
 10
13.5336451233
 20
20.8074956667
 30
0.0
 10
13.527525056
 20
20.8075343605
 30
0.0
 10
13.5240181201
 20
20.8075993745
 30
0.0
  0
SPLINE
  5
5CC
100
AcDbEntity
  8
0
100
AcDbSpline
 62
9
  6
CONTINUOUS
 70
0
 71
3
 72
9
 73
5
 74
0
 42
0.0000001
 43
0.0000001
 44
0.0000000001
 40
0.0
 40
0.0
 40
0.0
 40
0.0
 40
0.2238782924
 40
1.0
 40
1.0
 40
1.0
 40
1.0
 10
13.5240181201
 20
20.8075993745
 30
0.0
 10
13.5219667781
 20
20.8076374037
 30
0.0
 10
13.5128052743
 20
20.8078737847
 30
0.0
 10
13.5036502206
 20
20.8083236815
 30
0.0
 10
13.4965501868
 20
20.8087468865
 30
0.0
  0
SPLINE
  5
5CD
100
AcDbEntity
  8
0
100
AcDbSpline
 62
9
  6
CONTINUOUS
 70
0
 71
3
 72
16
 73
12
 74
0
 42
0.0000001
 43
0.0000001
 44
0.0000000001
 40
0.0
 40
0.0
 40
0.0
 40
0.0
 40
0.3627062917
 40
0.5304161065
 40
0.6801089259
 40
0.80615858
 40
0.903889909
 40
0.940801988
 40
0.9692842086
 40
0.9890960717
 40
1.0
 40
1.0
 40
1.0
 40
1.0
 10
13.4641495502
 20
20.8111652555
 30
0.0
 10
13.4651217418
 20
20.8220884316
 30
0.0
 10
13.4665252009
 20
20.8380639561
 30
0.0
 10
13.4682839229
 20
20.858551568
 30
0.0
 10
13.4694101492
 20
20.8719119006
 30
0.0
 10
13.4703349201
 20
20.8831658437
 30
0.0
 10
13.4709593023
 20
20.891023192
 30
0.0
 10
13.471326067
 20
20.8959415002
 30
0.0
 10
13.4715087917
 20
20.8985114312
 30
0.0
 10
13.471616415
 20
20.9002976336
 30
0.0
 10
13.4716667756
 20
20.9012255766
 30
0.0
 10
13.4716667756
 20
20.9015552548
 30
0.0
  0
SPLINE
  5
5CE
100
AcDbEntity
  8
0
100
AcDbSpline
 62
7
  6
CONTINUOUS
 70
0
 71
3
 72
12
 73
8
 74
0
 42
0.0000001
 43
0.0000001
 44
0.0000000001
 40
0.0
 40
0.0
 40
0.0
 40
0.0
 40
0.2499369921
 40
0.4999415807
 40
0.6249983393
 40
0.7500944639
 40
1.0
 40
1.0
 40
1.0
 40
1.0
 10
14.0102649702
 20
12.8283054669
 30
0.0
 10
14.0211995495
 20
12.8456938742
 30
0.0
 10
14.0415737621
 20
12.8814581323
 30
0.0
 10
14.0618166685
 20
12.9288319257
 30
0.0
 10
14.0738700085
 20
12.9681716986
 30
0.0
 10
14.0827762185
 20
13.0083208907
 30
0.0
 10
14.0856091803
 20
13.0392197974
 30
0.0
 10
14.0856091803
 20
13.0597579458
 30
0.0
  0
SPLINE
  5
5CF
100
AcDbEntity
  8
0
100
AcDbSpline
 62
9
  6
CONTINUOUS
 70
0
 71
3
 72
11
 73
7
 74
0
 42
0.0000001
 43
0.0000001
 44
0.0000000001
 40
0.0
 40
0.0
 40
0.0
 40
0.0
 40
0.3064208366
 40
0.4496991164
 40
0.5838608769
 40
1.0
 40
1.0
 40
1.0
 40
1.0
 10
12.6291399638
 20
12.2803361311
 30
0.0
 10
12.6295090838
 20
12.2787339556
 30
0.0
 10
12.6302975012
 20
12.2764325524
 30
0.0
 10
12.6318031389
 20
12.2736633958
 30
0.0
 10
12.6339035919
 20
12.2706627354
 30
0.0
 10
12.6366078703
 20
12.268420634
 30
0.0
 10
12.6388407257
 20
12.2684203544
 30
0.0
  0
LINE
  5
5D0
100
AcDbEntity
  8
0
100
AcDbLine
 62
9
  6
CONTINUOUS
 10
10.0641044361
 20
13.3836392658
 11
10.0641043831
 21
13.5299865379
  0
SPLINE
  5
5D1
100
AcDbEntity
  8
0
100
AcDbSpline
 62
7
  6
CONTINUOUS
 70
0
 71
3
 72
12
 73
8
 74
0
 42
0.0000001
 43
0.0000001
 44
0.0000000001
 40
0.0
 40
0.0
 40
0.0
 40
0.0
 40
0.2499273288
 40
0.3750438579
 40
0.5000947057
 40
0.7500813038
 40
1.0
 40
1.0
 40
1.0
 40
1.0
 10
14.0856091803
 20
13.0597579458
 30
0.0
 10
14.0856091803
 20
13.0802978779
 30
0.0
 10
14.082769557
 20
13.1111993633
 30
0.0
 10
14.0738701119
 20
13.1513529567
 30
0.0
 10
14.0618155501
 20
13.190692288
 30
0.0
 10
14.0415705235
 20
13.2380611903
 30
0.0
 10
14.0211987452
 20
13.2738232964
 30
0.0
 10
14.0102649702
 20
13.2912104247
 30
0.0
  0
SPLINE
  5
5D2
100
AcDbEntity
  8
0
100
AcDbSpline
 62
7
  6
CONTINUOUS
 70
0
 71
3
 72
21
 73
17
 74
0
 42
0.0000001
 43
0.0000001
 44
0.0000000001
 40
0.0
 40
0.0
 40
0.0
 40
0.0
 40
0.1418034961
 40
0.2085171373
 40
0.2721411072
 40
0.332675018
 40
0.3903572212
 40
0.4458028381
 40
0.5000001673
 40
0.5541975319
 40
0.6096431669
 40
0.6673252965
 40
0.7278590437
 40
0.7914829172
 40
0.8581964821
 40
1.0
 40
1.0
 40
1.0
 40
1.0
 10
14.0102649702
 20
13.4584507962
 30
0.0
 10
14.020821199
 20
13.4668441692
 30
0.0
 10
14.0358268714
 20
13.4799047814
 30
0.0
 10
14.0534369954
 20
13.4989045999
 30
0.0
 10
14.0645842264
 20
13.5132684079
 30
0.0
 10
14.0736794222
 20
13.5280253438
 30
0.0
 10
14.0804541312
 20
13.543149983
 30
0.0
 10
14.0846559497
 20
13.5585749871
 30
0.0
 10
14.0860773415
 20
13.5741770864
 30
0.0
 10
14.0846559567
 20
13.5897791943
 30
0.0
 10
14.0804540574
 20
13.6052041714
 30
0.0
 10
14.0736794192
 20
13.6203288175
 30
0.0
 10
14.064584186
 20
13.6350856971
 30
0.0
 10
14.0534369815
 20
13.6494494813
 30
0.0
 10
14.035826871
 20
13.6684492944
 30
0.0
 10
14.0208212006
 20
13.6815099008
 30
0.0
 10
14.0102649702
 20
13.6899032751
 30
0.0
  0
SPLINE
  5
5D3
100
AcDbEntity
  8
0
100
AcDbSpline
 62
9
  6
CONTINUOUS
 70
0
 71
3
 72
12
 73
8
 74
0
 42
0.0000001
 43
0.0000001
 44
0.0000000001
 40
0.0
 40
0.0
 40
0.0
 40
0.0
 40
0.2998263065
 40
0.5674097295
 40
0.8013471123
 40
0.9051779866
 40
1.0
 40
1.0
 40
1.0
 40
1.0
 10
12.641554484
 20
19.1141283091
 30
0.0
 10
12.6362606075
 20
19.0874338291
 30
0.0
 10
12.626140764
 20
19.0369349737
 30
0.0
 10
12.6111299881
 20
18.9657641679
 30
0.0
 10
12.598796798
 20
18.9122112109
 30
0.0
 10
12.5888820256
 20
18.8742158562
 30
0.0
 10
12.5838824763
 20
18.8568882401
 30
0.0
 10
12.5813475679
 20
18.8486632944
 30
0.0
  0
SPLINE
  5
5D4
100
AcDbEntity
  8
0
100
AcDbSpline
 62
9
  6
CONTINUOUS
 70
0
 71
3
 72
9
 73
5
 74
0
 42
0.0000001
 43
0.0000001
 44
0.0000000001
 40
0.0
 40
0.0
 40
0.0
 40
0.0
 40
0.2686794196
 40
1.0
 40
1.0
 40
1.0
 40
1.0
 10
12.5813475679
 20
18.8486632944
 30
0.0
 10
12.5802569892
 20
18.8451247244
 30
0.0
 10
12.5760935914
 20
18.8319872256
 30
0.0
 10
12.5715093778
 20
18.8189805513
 30
0.0
 10
12.5678625131
 20
18.8095847546
 30
0.0
  0
SPLINE
  5
5D5
100
AcDbEntity
  8
0
100
AcDbSpline
 62
9
  6
CONTINUOUS
 70
0
 71
3
 72
11
 73
7
 74
0
 42
0.0000001
 43
0.0000001
 44
0.0000000001
 40
0.0
 40
0.0
 40
0.0
 40
0.0
 40
0.3710679962
 40
0.6533895504
 40
0.8597200558
 40
1.0
 40
1.0
 40
1.0
 40
1.0
 10
12.5620876309
 20
18.7954284488
 30
0.0
 10
12.5577998013
 20
18.7854404788
 30
0.0
 10
12.5495532688
 20
18.768120906
 30
0.0
 10
12.5360433457
 20
18.7467904854
 30
0.0
 10
12.5242262766
 20
18.7325857604
 30
0.0
 10
12.516804309
 20
18.7256308069
 30
0.0
 10
12.5136849394
 20
18.7229560214
 30
0.0
  0
SPLINE
  5
5D6
100
AcDbEntity
  8
0
100
AcDbSpline
 62
9
  6
CONTINUOUS
 70
0
 71
3
 72
12
 73
8
 74
0
 42
0.0000001
 43
0.0000001
 44
0.0000000001
 40
0.0
 40
0.0
 40
0.0
 40
0.0
 40
0.153110561
 40
0.2986400607
 40
0.5663115764
 40
0.8006809538
 40
1.0
 40
1.0
 40
1.0
 40
1.0
 10
13.1818680671
 20
19.1138664094
 30
0.0
 10
13.1845778175
 20
19.100340726
 30
0.0
 10
13.1899207857
 20
19.0739705822
 30
0.0
 10
13.2001275783
 20
19.0239805172
 30
0.0
 10
13.2120836936
 20
18.9668737455
 30
0.0
 10
13.2261775847
 20
18.9052737913
 30
0.0
 10
13.2362437294
 20
18.8674977551
 30
0.0
 10
13.24147893
 20
18.8503202201
 30
0.0
  0
SPLINE
  5
5D7
100
AcDbEntity
  8
0
100
AcDbSpline
 62
9
  6
CONTINUOUS
 70
0
 71
3
 72
15
 73
11
 74
0
 42
0.0000001
 43
0.0000001
 44
0.0000000001
 40
0.0
 40
0.0
 40
0.0
 40
0.0
 40
0.2128784163
 40
0.3964851784
 40
0.5526321629
 40
0.6834141817
 40
0.7913749473
 40
0.878859879
 40
0.9478575638
 40
1.0
 40
1.0
 40
1.0
 40
1.0
 10
13.24147893
 20
18.8503202201
 30
0.0
 10
13.2445064623
 20
18.8403863999
 30
0.0
 10
13.2505538833
 20
18.8220040419
 30
0.0
 10
13.2603550415
 20
18.7968740342
 30
0.0
 10
13.2700216689
 20
18.7760348009
 30
0.0
 10
13.279389069
 20
18.7591800405
 30
0.0
 10
13.2882052366
 20
18.7459095954
 30
0.0
 10
13.2962305549
 20
18.7357882561
 30
0.0
 10
13.3032489131
 20
18.7283992054
 30
0.0
 10
13.3077158736
 20
18.7245127748
 30
0.0
 10
13.3097287017
 20
18.7229575089
 30
0.0
  0
SPLINE
  5
5D8
100
AcDbEntity
  8
0
100
AcDbSpline
 62
9
  6
CONTINUOUS
 70
0
 71
3
 72
11
 73
7
 74
0
 42
0.0000001
 43
0.0000001
 44
0.0000000001
 40
0.0
 40
0.0
 40
0.0
 40
0.0
 40
0.2852403977
 40
0.545582937
 40
0.7821324943
 40
1.0
 40
1.0
 40
1.0
 40
1.0
 10
12.640071026
 20
18.6527304738
 30
0.0
 10
12.627410759
 20
18.6581475962
 30
0.0
 10
12.6035026701
 20
18.6692419177
 30
0.0
 10
12.5701399137
 20
18.6869570772
 30
0.0
 10
12.5405096234
 20
18.7046704029
 30
0.0
 10
12.5222773008
 20
18.7168897915
 30
0.0
 10
12.5136849396
 20
18.7229560216
 30
0.0
  0
SPLINE
  5
5D9
100
AcDbEntity
  8
0
100
AcDbSpline
 62
7
  6
CONTINUOUS
 70
0
 71
3
 72
12
 73
8
 74
0
 42
0.0000001
 43
0.0000001
 44
0.0000000001
 40
0.0
 40
0.0
 40
0.0
 40
0.0
 40
0.2499303865
 40
0.4999291261
 40
0.6249834841
 40
0.7500863517
 40
1.0
 40
1.0
 40
1.0
 40
1.0
 10
13.6640918292
 20
12.8283054669
 30
0.0
 10
13.6531575421
 20
12.8456934095
 30
0.0
 10
13.6327850486
 20
12.881457441
 30
0.0
 10
13.6125412424
 20
12.9288293294
 30
0.0
 10
13.6004863793
 20
12.9681685838
 30
0.0
 10
13.5915822854
 20
13.0083192711
 30
0.0
 10
13.5887476191
 20
13.0392191368
 30
0.0
 10
13.5887476191
 20
13.0597579458
 30
0.0
  0
SPLINE
  5
5DA
100
AcDbEntity
  8
0
100
AcDbSpline
 62
7
  6
CONTINUOUS
 70
0
 71
3
 72
12
 73
8
 74
0
 42
0.0000001
 43
0.0000001
 44
0.0000000001
 40
0.0
 40
0.0
 40
0.0
 40
0.0
 40
0.2499232819
 40
0.3750353744
 40
0.500087159
 40
0.7500778119
 40
1.0
 40
1.0
 40
1.0
 40
1.0
 10
13.5887476191
 20
13.0597579458
 30
0.0
 10
13.5887476191
 20
13.0802975387
 30
0.0
 10
13.5915854376
 20
13.1111985387
 30
0.0
 10
13.6004865398
 20
13.1513511747
 30
0.0
 10
13.6125418425
 20
13.1906902654
 30
0.0
 10
13.6327865325
 20
13.2380599865
 30
0.0
 10
13.6531579049
 20
13.2738230591
 30
0.0
 10
13.6640918292
 20
13.2912104247
 30
0.0
  0
LINE
  5
5DB
100
AcDbEntity
  8
0
100
AcDbLine
 62
9
  6
CONTINUOUS
 10
9.7482823361
 20
13.3836050211
 11
9.7482784239
 21
13.3771208921
  0
LINE
  5
5DC
100
AcDbEntity
  8
0
100
AcDbLine
 62
9
  6
CONTINUOUS
 10
9.7482784239
 20
13.3771208921
 11
9.7482775973
 21
13.3706727845
  0
SPLINE
  5
5DD
100
AcDbEntity
  8
0
100
AcDbSpline
 62
9
  6
CONTINUOUS
 70
0
 71
3
 72
29
 73
25
 74
0
 42
0.0000001
 43
0.0000001
 44
0.0000000001
 40
0.0
 40
0.0
 40
0.0
 40
0.0
 40
0.0004216486
 40
0.0015388415
 40
0.0033619543
 40
0.0058931482
 40
0.0091335238
 40
0.0130838828
 40
0.0231172138
 40
0.0359981656
 40
0.0517314248
 40
0.0703215907
 40
0.0917732395
 40
0.1160903383
 40
0.1431989092
 40
0.2048622447
 40
0.2748164651
 40
0.3510962147
 40
0.4317359923
 40
0.5147703916
 40
0.5982343031
 40
0.6805342962
 40
0.841645545
 40
1.0
 40
1.0
 40
1.0
 40
1.0
 10
9.7482401809
 20
13.5299604098
 30
0.0
 10
9.748220801
 20
13.5299534139
 30
0.0
 10
9.7482234403
 20
13.5298542323
 30
0.0
 10
9.7481912769
 20
13.529713374
 30
0.0
 10
9.7481809362
 20
13.5294341744
 30
0.0
 10
9.7481581334
 20
13.5290689811
 30
0.0
 10
9.7481403113
 20
13.5285922035
 30
0.0
 10
9.7481121741
 20
13.5277519792
 30
0.0
 10
9.7480816079
 20
13.5264389213
 30
0.0
 10
9.7480501415
 20
13.5245509273
 30
0.0
 10
9.7480245752
 20
13.5222442956
 30
0.0
 10
9.7480062419
 20
13.5195189134
 30
0.0
 10
9.7479969941
 20
13.5163739835
 30
0.0
 10
9.7479986349
 20
13.5128128011
 30
0.0
 10
9.748017307
 20
13.5072866846
 30
0.0
 10
9.7480665531
 20
13.4995306121
 30
0.0
 10
9.7481484443
 20
13.4893719542
 30
0.0
 10
9.7482431668
 20
13.4782860792
 30
0.0
 10
9.7483377713
 20
13.4665610115
 30
0.0
 10
9.7484192785
 20
13.4544847763
 30
0.0
 10
9.748474876
 20
13.4423272548
 30
0.0
 10
9.748496535
 20
13.4263543538
 30
0.0
 10
9.7484458579
 20
13.4067219148
 30
0.0
 10
9.7483673892
 20
13.3911112914
 30
0.0
 10
9.7483310921
 20
13.3833733205
 30
0.0
  0
SPLINE
  5
5DE
100
AcDbEntity
  8
0
100
AcDbSpline
 62
9
  6
CONTINUOUS
 70
0
 71
3
 72
21
 73
17
 74
0
 42
0.0000001
 43
0.0000001
 44
0.0000000001
 40
0.0
 40
0.0
 40
0.0
 40
0.0
 40
0.0062264549
 40
0.0243009175
 40
0.0533190198
 40
0.0923808312
 40
0.1405742351
 40
0.1969226846
 40
0.3301510527
 40
0.4842363739
 40
0.6512242243
 40
0.7372707377
 40
0.8240148457
 40
0.9111629805
 40
0.9551272189
 40
1.0
 40
1.0
 40
1.0
 40
1.0
 10
12.42724904
 20
10.6838089374
 30
0.0
 10
12.4257285047
 20
10.6849111711
 30
0.0
 10
12.4197571859
 20
10.6891618989
 30
0.0
 10
12.4065902716
 20
10.698396005
 30
0.0
 10
12.3851541778
 20
10.7130857196
 30
0.0
 10
12.3560041209
 20
10.7325857271
 30
0.0
 10
12.3197055044
 20
10.7562200806
 30
0.0
 10
12.259126691
 20
10.7946075921
 30
0.0
 10
12.1704440858
 20
10.8483004323
 30
0.0
 10
12.0511142249
 20
10.9156987297
 30
0.0
 10
11.9420741411
 20
10.9722540993
 30
0.0
 10
11.8494899423
 20
11.016222845
 30
0.0
 10
11.7777392413
 20
11.0478544215
 30
0.0
 10
11.7167183657
 20
11.0722846451
 30
0.0
 10
11.6667863303
 20
11.0903067406
 30
0.0
 10
11.6413276612
 20
11.0986830259
 30
0.0
 10
11.6283905809
 20
11.1026597232
 30
0.0
  0
SPLINE
  5
5DF
100
AcDbEntity
  8
0
100
AcDbSpline
 62
7
  6
CONTINUOUS
 70
0
 71
3
 72
21
 73
17
 74
0
 42
0.0000001
 43
0.0000001
 44
0.0000000001
 40
0.0
 40
0.0
 40
0.0
 40
0.0
 40
0.1418034961
 40
0.2085171373
 40
0.2721411072
 40
0.332675018
 40
0.3903572212
 40
0.4458028381
 40
0.5000001673
 40
0.5541975319
 40
0.6096431669
 40
0.6673252965
 40
0.7278590437
 40
0.7914829172
 40
0.8581964821
 40
1.0
 40
1.0
 40
1.0
 40
1.0
 10
13.6640918292
 20
13.6899032751
 30
0.0
 10
13.6535356004
 20
13.6815099021
 30
0.0
 10
13.6385299279
 20
13.6684492898
 30
0.0
 10
13.6209198039
 20
13.6494494714
 30
0.0
 10
13.609772573
 20
13.6350856633
 30
0.0
 10
13.6006773771
 20
13.6203287275
 30
0.0
 10
13.5939026682
 20
13.6052040882
 30
0.0
 10
13.5897008496
 20
13.5897790841
 30
0.0
 10
13.5882794578
 20
13.5741769848
 30
0.0
 10
13.5897008426
 20
13.5585748769
 30
0.0
 10
13.5939027419
 20
13.5431498998
 30
0.0
 10
13.6006773801
 20
13.5280252538
 30
0.0
 10
13.6097726133
 20
13.5132683742
 30
0.0
 10
13.6209198178
 20
13.49890459
 30
0.0
 10
13.6385299283
 20
13.4799047769
 30
0.0
 10
13.6535355988
 20
13.4668441705
 30
0.0
 10
13.6640918292
 20
13.4584507962
 30
0.0
  0
SPLINE
  5
5E0
100
AcDbEntity
  8
0
100
AcDbSpline
 62
9
  6
CONTINUOUS
 70
0
 71
3
 72
11
 73
7
 74
0
 42
0.0000001
 43
0.0000001
 44
0.0000000001
 40
0.0
 40
0.0
 40
0.0
 40
0.0
 40
0.2218407237
 40
0.4449891709
 40
0.6982099904
 40
1.0
 40
1.0
 40
1.0
 40
1.0
 10
10.0005978738
 20
13.3952626652
 30
0.0
 10
9.9991974028
 20
13.3957349013
 30
0.0
 10
9.9961583169
 20
13.3961692501
 30
0.0
 10
9.9915995439
 20
13.3947162486
 30
0.0
 10
9.9874977278
 20
13.3914102009
 30
0.0
 10
9.9853058412
 20
13.388390551
 30
0.0
 10
9.9842647413
 20
13.3866705043
 30
0.0
  0
LINE
  5
5E1
100
AcDbEntity
  8
0
100
AcDbLine
 62
7
  6
CONTINUOUS
 10
10.0336941298
 20
13.3777896853
 11
10.033694138
 21
13.4131083286
  0
LINE
  5
5E2
100
AcDbEntity
  8
0
100
AcDbLine
 62
7
  6
CONTINUOUS
 10
10.033694138
 20
13.4131083286
 11
10.0336943599
 21
13.4536044967
  0
LINE
  5
5E3
100
AcDbEntity
  8
0
100
AcDbLine
 62
7
  6
CONTINUOUS
 10
10.0336943599
 20
13.4536044967
 11
10.0336943548
 21
13.4582214301
  0
LINE
  5
5E4
100
AcDbEntity
  8
0
100
AcDbLine
 62
7
  6
CONTINUOUS
 10
10.0336943548
 20
13.4582214301
 11
10.0336941925
 21
13.4888751872
  0
LINE
  5
5E5
100
AcDbEntity
  8
0
100
AcDbLine
 62
7
  6
CONTINUOUS
 10
10.0336941925
 20
13.4888751872
 11
10.0336941979
 21
13.5117388024
  0
LINE
  5
5E6
100
AcDbEntity
  8
0
100
AcDbLine
 62
7
  6
CONTINUOUS
 10
10.0336941979
 20
13.5117388024
 11
10.0336941814
 21
13.5192631277
  0
SPLINE
  5
5E7
100
AcDbEntity
  8
0
100
AcDbSpline
 62
9
  6
CONTINUOUS
 70
0
 71
3
 72
9
 73
5
 74
0
 42
0.0000001
 43
0.0000001
 44
0.0000000001
 40
0.0
 40
0.0
 40
0.0
 40
0.0
 40
0.2265312711
 40
1.0
 40
1.0
 40
1.0
 40
1.0
 10
12.5504982924
 20
18.5901260394
 30
0.0
 10
12.5567857932
 20
18.5836490756
 30
0.0
 10
12.5850654189
 20
18.5555789084
 30
0.0
 10
12.6158299352
 20
18.5299382412
 30
0.0
 10
12.6410167442
 20
18.5121738616
 30
0.0
  0
SPLINE
  5
5E8
100
AcDbEntity
  8
0
100
AcDbSpline
 62
9
  6
CONTINUOUS
 70
0
 71
3
 72
9
 73
5
 74
0
 42
0.0000001
 43
0.0000001
 44
0.0000000001
 40
0.0
 40
0.0
 40
0.0
 40
0.0
 40
0.2716943026
 40
1.0
 40
1.0
 40
1.0
 40
1.0
 10
13.182390627
 20
18.5121706516
 30
0.0
 10
13.1912398298
 20
18.5184119088
 30
0.0
 10
13.2231588553
 20
18.5423050679
 30
0.0
 10
13.2526948963
 20
18.5692980526
 30
0.0
 10
13.2729136253
 20
18.590126038
 30
0.0
  0
SPLINE
  5
5E9
100
AcDbEntity
  8
0
100
AcDbSpline
 62
9
  6
CONTINUOUS
 70
0
 71
3
 72
27
 73
23
 74
0
 42
0.0000001
 43
0.0000001
 44
0.0000000001
 40
0.0
 40
0.0
 40
0.0
 40
0.0
 40
0.1448914521
 40
0.2881060651
 40
0.4296279405
 40
0.4997031373
 40
0.5692410876
 40
0.6380881433
 40
0.7057434774
 40
0.7716006126
 40
0.8350344548
 40
0.8655594081
 40
0.8947264201
 40
0.9219403784
 40
0.9466033559
 40
0.9679941549
 40
0.9770937137
 40
0.9849084442
 40
0.9912724771
 40
0.996019822
 40
0.9989843879
 40
1.0
 40
1.0
 40
1.0
 40
1.0
 10
13.2729136357
 20
18.5901260039
 30
0.0
 10
13.2781379847
 20
18.5955077322
 30
0.0
 10
13.2878978036
 20
18.6068364923
 30
0.0
 10
13.3005250323
 20
18.6251876741
 30
0.0
 10
13.3094284797
 20
18.6412862915
 30
0.0
 10
13.315591741
 20
18.6544740962
 30
0.0
 10
13.3197313484
 20
18.6644435161
 30
0.0
 10
13.3234040535
 20
18.6744602065
 30
0.0
 10
13.326623374
 20
18.6844312795
 30
0.0
 10
13.3293933563
 20
18.6942451997
 30
0.0
 10
13.3313513658
 20
18.702285219
 30
0.0
 10
13.3326884821
 20
18.7085174518
 30
0.0
 10
13.3335625974
 20
18.7129304865
 30
0.0
 10
13.3343193045
 20
18.7170577385
 30
0.0
 10
13.3349539843
 20
18.7207952046
 30
0.0
 10
13.3353958631
 20
18.7236210112
 30
0.0
 10
13.3356856956
 20
18.7255741043
 30
0.0
 10
13.3358580277
 20
18.7267863779
 30
0.0
 10
13.3359888109
 20
18.727703367
 30
0.0
 10
13.3360959139
 20
18.7285535235
 30
0.0
 10
13.336137203
 20
18.7287661241
 30
0.0
 10
13.3361824086
 20
18.7292213303
 30
0.0
 10
13.3361812879
 20
18.7291687681
 30
0.0
  0
SPLINE
  5
5EA
100
AcDbEntity
  8
0
100
AcDbSpline
 62
9
  6
CONTINUOUS
 70
0
 71
3
 72
10
 73
6
 74
0
 42
0.0000001
 43
0.0000001
 44
0.0000000001
 40
0.0
 40
0.0
 40
0.0
 40
0.0
 40
0.2848036634
 40
0.5477155829
 40
1.0
 40
1.0
 40
1.0
 40
1.0
 10
13.1827932666
 20
18.6524739294
 30
0.0
 10
13.1954960356
 20
18.6578784069
 30
0.0
 10
13.2196192052
 20
18.6690126596
 30
0.0
 10
13.2623799893
 20
18.6918766994
 30
0.0
 10
13.2917075938
 20
18.7104699622
 30
0.0
 10
13.3097269787
 20
18.7229560231
 30
0.0
  0
SPLINE
  5
5EB
100
AcDbEntity
  8
0
100
AcDbSpline
 62
9
  6
CONTINUOUS
 70
0
 71
3
 72
11
 73
7
 74
0
 42
0.0000001
 43
0.0000001
 44
0.0000000001
 40
0.0
 40
0.0
 40
0.0
 40
0.0
 40
0.241384102
 40
0.4912720166
 40
0.7461987645
 40
1.0
 40
1.0
 40
1.0
 40
1.0
 10
13.3097269787
 20
18.7229560231
 30
0.0
 10
13.3013611164
 20
18.7150274402
 30
0.0
 10
13.2868516291
 20
18.6961061557
 30
0.0
 10
13.27333666
 20
18.6627075061
 30
0.0
 10
13.2687479627
 20
18.6264368516
 30
0.0
 10
13.2707599855
 20
18.6020521222
 30
0.0
 10
13.2729136277
 20
18.5901260399
 30
0.0
  0
SPLINE
  5
5EC
100
AcDbEntity
  8
0
100
AcDbSpline
 62
9
  6
CONTINUOUS
 70
0
 71
3
 72
11
 73
7
 74
0
 42
0.0000001
 43
0.0000001
 44
0.0000000001
 40
0.0
 40
0.0
 40
0.0
 40
0.0
 40
0.2306862961
 40
0.4761252793
 40
0.7347106694
 40
1.0
 40
1.0
 40
1.0
 40
1.0
 10
12.5136849452
 20
18.7229560212
 30
0.0
 10
12.5216803608
 20
18.7153785173
 30
0.0
 10
12.5358749267
 20
18.6971837515
 30
0.0
 10
12.549618586
 20
18.6644748022
 30
0.0
 10
12.5546730208
 20
18.6277353568
 30
0.0
 10
12.5527494836
 20
18.6025924524
 30
0.0
 10
12.5504982691
 20
18.5901260489
 30
0.0
  0
SPLINE
  5
5ED
100
AcDbEntity
  8
0
100
AcDbSpline
 62
9
  6
CONTINUOUS
 70
0
 71
3
 72
11
 73
7
 74
0
 42
0.0000001
 43
0.0000001
 44
0.0000000001
 40
0.0
 40
0.0
 40
0.0
 40
0.0
 40
0.3048615953
 40
0.570859541
 40
0.8058553067
 40
1.0
 40
1.0
 40
1.0
 40
1.0
 10
13.3097269754
 20
18.7229560243
 30
0.0
 10
13.3135447581
 20
18.7246666696
 30
0.0
 10
13.3204547041
 20
18.7284919166
 30
0.0
 10
13.3288022044
 20
18.7358750536
 30
0.0
 10
13.3344635129
 20
18.7436504368
 30
0.0
 10
13.3368308116
 20
18.7490919152
 30
0.0
 10
13.3376515354
 20
18.7516265308
 30
0.0
  0
LINE
  5
5EE
100
AcDbEntity
  8
0
100
AcDbLine
 62
9
  6
CONTINUOUS
 10
13.3376515354
 20
18.7516265308
 11
13.3384109555
 21
18.7543269451
  0
LINE
  5
5EF
100
AcDbEntity
  8
0
100
AcDbLine
 62
9
  6
CONTINUOUS
 10
10.1048843271
 20
12.6187963303
 11
10.104884329
 21
12.686631232
  0
SPLINE
  5
5F0
100
AcDbEntity
  8
0
100
AcDbSpline
 62
9
  6
CONTINUOUS
 70
0
 71
3
 72
9
 73
5
 74
0
 42
0.0000001
 43
0.0000001
 44
0.0000000001
 40
0.0
 40
0.0
 40
0.0
 40
0.0
 40
0.2802500309
 40
1.0
 40
1.0
 40
1.0
 40
1.0
 10
12.5202267342
 20
18.8188840701
 30
0.0
 10
12.5196720151
 20
18.8184010513
 30
0.0
 10
12.5176690122
 20
18.8167050555
 30
0.0
 10
12.5155749853
 20
18.815115092
 30
0.0
 10
12.514014677
 20
18.8140502269
 30
0.0
  0
SPLINE
  5
5F1
100
AcDbEntity
  8
0
100
AcDbSpline
 62
9
  6
CONTINUOUS
 70
0
 71
3
 72
18
 73
14
 74
0
 42
0.0000001
 43
0.0000001
 44
0.0000000001
 40
0.0
 40
0.0
 40
0.0
 40
0.0
 40
0.2352405427
 40
0.4381468401
 40
0.609366674
 40
0.7493663208
 40
0.8584270579
 40
0.901394735
 40
0.9366480488
 40
0.9641696924
 40
0.9839308324
 40
0.9958912589
 40
1.0
 40
1.0
 40
1.0
 40
1.0
 10
12.514014677
 20
18.8140502269
 30
0.0
 10
12.5133960586
 20
18.8136280378
 30
0.0
 10
12.5122277014
 20
18.8128649257
 30
0.0
 10
12.5105579177
 20
18.8118759416
 30
0.0
 10
12.5091136198
 20
18.8111044997
 30
0.0
 10
12.5079064179
 20
18.8105263959
 30
0.0
 10
12.5070505754
 20
18.8101621464
 30
0.0
 10
12.506494422
 20
18.8099472667
 30
0.0
 10
12.5061770827
 20
18.8098341478
 30
0.0
 10
12.5059296337
 20
18.8097474157
 30
0.0
 10
12.505746053
 20
18.8096973013
 30
0.0
 10
12.5056430479
 20
18.8096536749
 30
0.0
 10
12.5055869829
 20
18.809651963
 30
0.0
 10
12.5055772863
 20
18.8096431825
 30
0.0
  0
SPLINE
  5
5F2
100
AcDbEntity
  8
0
100
AcDbSpline
 62
7
  6
CONTINUOUS
 70
0
 71
3
 72
9
 73
5
 74
0
 42
0.0000001
 43
0.0000001
 44
0.0000000001
 40
0.0
 40
0.0
 40
0.0
 40
0.0
 40
0.5657928715
 40
1.0
 40
1.0
 40
1.0
 40
1.0
 10
13.3336156297
 20
18.9911918627
 30
0.0
 10
13.3315462563
 20
18.9909543136
 30
0.0
 10
13.3278823743
 20
18.9905954123
 30
0.0
 10
13.3242028037
 20
18.9903851185
 30
0.0
 10
13.3226042726
 20
18.9903851185
 30
0.0
  0
SPLINE
  5
5F3
100
AcDbEntity
  8
0
100
AcDbSpline
 62
9
  6
CONTINUOUS
 70
0
 71
3
 72
17
 73
13
 74
0
 42
0.0000001
 43
0.0000001
 44
0.0000000001
 40
0.0
 40
0.0
 40
0.0
 40
0.0
 40
0.2391313059
 40
0.4437854187
 40
0.615276714
 40
0.7543674529
 40
0.8616709535
 40
0.9377581977
 40
0.9642861311
 40
0.983259021
 40
0.9948714706
 40
1.0
 40
1.0
 40
1.0
 40
1.0
 10
13.3032809986
 20
18.8189347489
 30
0.0
 10
13.3043254823
 20
18.8180249437
 30
0.0
 10
13.3063024903
 20
18.8163801351
 30
0.0
 10
13.3091409284
 20
18.8142233347
 30
0.0
 10
13.3115779697
 20
18.812499981
 30
0.0
 10
13.3136060191
 20
18.8111759083
 30
0.0
 10
13.315210354
 20
18.8102217794
 30
0.0
 10
13.3162924254
 20
18.8096561627
 30
0.0
 10
13.3169307745
 20
18.8093709325
 30
0.0
 10
13.3172530269
 20
18.8092604873
 30
0.0
 10
13.3174345637
 20
18.8092072294
 30
0.0
 10
13.3175587262
 20
18.8092170574
 30
0.0
 10
13.3175701793
 20
18.8092444679
 30
0.0
  0
SPLINE
  5
5F4
100
AcDbEntity
  8
0
100
AcDbSpline
 62
9
  6
CONTINUOUS
 70
0
 71
3
 72
22
 73
18
 74
0
 42
0.0000001
 43
0.0000001
 44
0.0000000001
 40
0.0
 40
0.0
 40
0.0
 40
0.0
 40
0.0209541278
 40
0.0334880665
 40
0.0474991175
 40
0.0800245644
 40
0.1184696778
 40
0.1625542912
 40
0.211981083
 40
0.2664372255
 40
0.3256427625
 40
0.3893504669
 40
0.4574150181
 40
0.5298129118
 40
0.6068677084
 40
0.7783769377
 40
1.0
 40
1.0
 40
1.0
 40
1.0
 10
7.3555675087
 20
9.8805334965
 30
0.0
 10
7.3512890557
 20
9.8798558561
 30
0.0
 10
7.3442416577
 20
9.8801939046
 30
0.0
 10
7.3346197121
 20
9.8821030551
 30
0.0
 10
7.3228589392
 20
9.8854548341
 30
0.0
 10
7.3064683015
 20
9.8918536767
 30
0.0
 10
7.2849649845
 20
9.9020412165
 30
0.0
 10
7.2608444993
 20
9.9147946165
 30
0.0
 10
7.234167105
 20
9.9297636048
 30
0.0
 10
7.204965775
 20
9.9466154833
 30
0.0
 10
7.1732389617
 20
9.9649968827
 30
0.0
 10
7.1389516516
 20
9.9845705072
 30
0.0
 10
7.1020037649
 20
10.0049786299
 30
0.0
 10
7.0621983602
 20
10.025906066
 30
0.0
 10
7.0025891341
 20
10.0550722341
 30
0.0
 10
6.9129224322
 20
10.092842176
 30
0.0
 10
6.8344271939
 20
10.1154171468
 30
0.0
 10
6.7894569543
 20
10.12417702
 30
0.0
  0
SPLINE
  5
5F5
100
AcDbEntity
  8
0
100
AcDbSpline
 62
9
  6
CONTINUOUS
 70
0
 71
3
 72
18
 73
14
 74
0
 42
0.0000001
 43
0.0000001
 44
0.0000000001
 40
0.0
 40
0.0
 40
0.0
 40
0.0
 40
0.014733684
 40
0.0349498686
 40
0.0617355683
 40
0.095479471
 40
0.1362841427
 40
0.1841272937
 40
0.3003809679
 40
0.4426341396
 40
0.6085864792
 40
0.7954447912
 40
1.0
 40
1.0
 40
1.0
 40
1.0
 10
10.1928269358
 20
13.3459607076
 30
0.0
 10
10.1935798585
 20
13.3457026025
 30
0.0
 10
10.1951450037
 20
13.3445183758
 30
0.0
 10
10.1970838917
 20
13.3417914258
 30
0.0
 10
10.1990348647
 20
13.3378735605
 30
0.0
 10
10.2009618404
 20
13.3327448006
 30
0.0
 10
10.2028734499
 20
13.3264115063
 30
0.0
 10
10.2055580841
 20
13.3156699564
 30
0.0
 10
10.2086777045
 20
13.2994063289
 30
0.0
 10
10.2120173138
 20
13.2767172192
 30
0.0
 10
10.215054706
 20
13.2501421298
 30
0.0
 10
10.2177155996
 20
13.2201478741
 30
0.0
 10
10.2191358862
 20
13.1990492492
 30
0.0
 10
10.2197783066
 20
13.1880175838
 30
0.0
  0
SPLINE
  5
5F6
100
AcDbEntity
  8
0
100
AcDbSpline
 62
9
  6
CONTINUOUS
 70
0
 71
3
 72
11
 73
7
 74
0
 42
0.0000001
 43
0.0000001
 44
0.0000000001
 40
0.0
 40
0.0
 40
0.0
 40
0.0
 40
0.244779046
 40
0.5034372121
 40
0.7603453876
 40
1.0
 40
1.0
 40
1.0
 40
1.0
 10
10.2197783066
 20
13.1880175838
 30
0.0
 10
10.2210744189
 20
13.1657606969
 30
0.0
 10
10.2229179434
 20
13.1199352422
 30
0.0
 10
10.2236789251
 20
13.0506779285
 30
0.0
 10
10.2224919941
 20
12.9818937866
 30
0.0
 10
10.2203701895
 20
12.9367061331
 30
0.0
 10
10.2189143241
 20
12.9149268804
 30
0.0
  0
SPLINE
  5
5F7
100
AcDbEntity
  8
0
100
AcDbSpline
 62
9
  6
CONTINUOUS
 70
0
 71
3
 72
20
 73
16
 74
0
 42
0.0000001
 43
0.0000001
 44
0.0000000001
 40
0.0
 40
0.0
 40
0.0
 40
0.0
 40
0.2136050467
 40
0.4021703939
 40
0.4855003536
 40
0.5609611359
 40
0.6283229287
 40
0.687157184
 40
0.7370067777
 40
0.7795518694
 40
0.8186753486
 40
0.857100324
 40
0.8948094094
 40
0.9313946883
 40
1.0
 40
1.0
 40
1.0
 40
1.0
 10
10.2189143241
 20
12.9149268804
 30
0.0
 10
10.2180852487
 20
12.902524194
 30
0.0
 10
10.2162565657
 20
12.8791891531
 30
0.0
 10
10.2132728678
 20
12.8510901371
 30
0.0
 10
10.2106813743
 20
12.8310423967
 30
0.0
 10
10.208746655
 20
12.818023712
 30
0.0
 10
10.2067107148
 20
12.8064647207
 30
0.0
 10
10.2045622069
 20
12.7964445857
 30
0.0
 10
10.2022242627
 20
12.7879522765
 30
0.0
 10
10.1996243172
 20
12.7807473802
 30
0.0
 10
10.1969074849
 20
12.7743074312
 30
0.0
 10
10.1942121851
 20
12.7681654813
 30
0.0
 10
10.1914555368
 20
12.7622126232
 30
0.0
 10
10.1877726093
 20
12.7547559154
 30
0.0
 10
10.1849019224
 20
12.7493486969
 30
0.0
 10
10.1830409543
 20
12.7458165915
 30
0.0
  0
LINE
  5
5F8
100
AcDbEntity
  8
0
100
AcDbLine
 62
9
  6
CONTINUOUS
 10
10.1830409543
 20
12.7458165915
 11
10.1754979717
 21
12.7316307716
  0
SPLINE
  5
5F9
100
AcDbEntity
  8
0
100
AcDbSpline
 62
9
  6
CONTINUOUS
 70
0
 71
3
 72
13
 73
9
 74
0
 42
0.0000001
 43
0.0000001
 44
0.0000000001
 40
0.0
 40
0.0
 40
0.0
 40
0.0
 40
0.0800377356
 40
0.1662331662
 40
0.2634947315
 40
0.3752063893
 40
0.6497190587
 40
1.0
 40
1.0
 40
1.0
 40
1.0
 10
15.5499019753
 20
12.4423987695
 30
0.0
 10
15.5499019753
 20
12.4431886988
 30
0.0
 10
15.5496533892
 20
12.4448372413
 30
0.0
 10
15.5485766177
 20
12.4472313706
 30
0.0
 10
15.5468298875
 20
12.4495844774
 30
0.0
 10
15.5433845585
 20
12.4529084146
 30
0.0
 10
15.5372478927
 20
12.4569004689
 30
0.0
 10
15.5316603822
 20
12.4595279331
 30
0.0
 10
15.528475126
 20
12.4608716492
 30
0.0
  0
SPLINE
  5
5FA
100
AcDbEntity
  8
0
100
AcDbSpline
 62
9
  6
CONTINUOUS
 70
0
 71
3
 72
36
 73
32
 74
0
 42
0.0000001
 43
0.0000001
 44
0.0000000001
 40
0.0
 40
0.0
 40
0.0
 40
0.0
 40
0.0154506451
 40
0.0344051434
 40
0.0567662837
 40
0.0824152117
 40
0.1111837662
 40
0.1428542331
 40
0.2139223064
 40
0.2934772816
 40
0.3790395225
 40
0.4679492915
 40
0.5574191083
 40
0.6446575748
 40
0.7269290874
 40
0.7654035552
 40
0.8016907596
 40
0.8355143875
 40
0.8666318533
 40
0.8948011896
 40
0.9198129931
 40
0.9415114246
 40
0.9597810522
 40
0.9676011504
 40
0.9745425179
 40
0.980616977
 40
0.985849252
 40
0.9902867876
 40
0.9940128154
 40
0.9971712739
 40
1.0
 40
1.0
 40
1.0
 40
1.0
 10
15.528475126
 20
12.4608716492
 30
0.0
 10
15.523473608
 20
12.4629815642
 30
0.0
 10
15.5120426405
 20
12.4669775615
 30
0.0
 10
15.4927902897
 20
12.4722133249
 30
0.0
 10
15.4698002009
 20
12.4772496748
 30
0.0
 10
15.4432468694
 20
12.4820259651
 30
0.0
 10
15.4133301976
 20
12.4864996926
 30
0.0
 10
15.3674810791
 20
12.4922346484
 30
0.0
 10
15.3037003136
 20
12.498220306
 30
0.0
 10
15.2208783736
 20
12.5034870069
 30
0.0
 10
15.1316859762
 20
12.5068887157
 30
0.0
 10
15.0389575601
 20
12.5083126437
 30
0.0
 10
14.9456311771
 20
12.5077007197
 30
0.0
 10
14.8546726533
 20
12.5050864174
 30
0.0
 10
14.7816934522
 20
12.5012218517
 30
0.0
 10
14.7266729513
 20
12.4971224714
 30
0.0
 10
14.6886764225
 20
12.4936860878
 30
0.0
 10
14.6533171183
 20
12.4898467255
 30
0.0
 10
14.6208725611
 20
12.4856432521
 30
0.0
 10
14.5916014255
 20
12.481106952
 30
0.0
 10
14.5657351484
 20
12.4762758113
 30
0.0
 10
14.5434720323
 20
12.4711935733
 30
0.0
 10
14.5273089302
 20
12.466597332
 30
0.0
 10
14.5163612806
 20
12.4627357718
 30
0.0
 10
14.5095856973
 20
12.4599543977
 30
0.0
 10
14.5038179773
 20
12.4571420639
 30
0.0
 10
14.4990619411
 20
12.4543004688
 30
0.0
 10
14.4953159865
 20
12.4514278259
 30
0.0
 10
14.4925782904
 20
12.4485079347
 30
0.0
 10
14.4908632262
 20
12.4455089659
 30
0.0
 10
14.4904548242
 20
12.4433925836
 30
0.0
 10
14.4904548242
 20
12.4423987546
 30
0.0
  0
SPLINE
  5
5FB
100
AcDbEntity
  8
0
100
AcDbSpline
 62
9
  6
CONTINUOUS
 70
0
 71
3
 72
11
 73
7
 74
0
 42
0.0000001
 43
0.0000001
 44
0.0000000001
 40
0.0
 40
0.0
 40
0.0
 40
0.0
 40
0.2465218901
 40
0.4957127112
 40
0.7467935051
 40
1.0
 40
1.0
 40
1.0
 40
1.0
 10
14.4618081747
 20
12.5123734925
 30
0.0
 10
14.457509259
 20
12.5167231883
 30
0.0
 10
14.448005011
 20
12.5246588129
 30
0.0
 10
14.4317667451
 20
12.5337831318
 30
0.0
 10
14.4139614665
 20
12.5398146031
 30
0.0
 10
14.4014575591
 20
12.5414600587
 30
0.0
 10
14.3951783977
 20
12.5416287079
 30
0.0
  0
SPLINE
  5
5FC
100
AcDbEntity
  8
0
100
AcDbSpline
 62
9
  6
CONTINUOUS
 70
0
 71
3
 72
19
 73
15
 74
0
 42
0.0000001
 43
0.0000001
 44
0.0000000001
 40
0.0
 40
0.0
 40
0.0
 40
0.0
 40
0.0059375313
 40
0.0194002561
 40
0.040447284
 40
0.0690796319
 40
0.1052888549
 40
0.149063608
 40
0.2003913606
 40
0.2592590078
 40
0.399560049
 40
0.5698576904
 40
0.7700413951
 40
1.0
 40
1.0
 40
1.0
 40
1.0
 10
14.0445958711
 20
8.0777987721
 30
0.0
 10
14.0446422431
 20
8.0778334715
 30
0.0
 10
14.0448448042
 20
8.077843803
 30
0.0
 10
14.0452249603
 20
8.0778987975
 30
0.0
 10
14.04584617
 20
8.0779302966
 30
0.0
 10
14.0466801626
 20
8.0779756671
 30
0.0
 10
14.0477398841
 20
8.0780164532
 30
0.0
 10
14.0490196742
 20
8.0780596193
 30
0.0
 10
14.0505210827
 20
8.0781024327
 30
0.0
 10
14.0529637144
 20
8.0781638279
 30
0.0
 10
14.0565669107
 20
8.0782390559
 30
0.0
 10
14.0615485336
 20
8.0783262712
 30
0.0
 10
14.0674048316
 20
8.0784145146
 30
0.0
 10
14.0716002587
 20
8.0784701959
 30
0.0
 10
14.0738431968
 20
8.0784985034
 30
0.0
  0
SPLINE
  5
5FD
100
AcDbEntity
  8
0
100
AcDbSpline
 62
9
  6
CONTINUOUS
 70
0
 71
3
 72
19
 73
15
 74
0
 42
0.0000001
 43
0.0000001
 44
0.0000000001
 40
0.0
 40
0.0
 40
0.0
 40
0.0
 40
0.0273601639
 40
0.0675821489
 40
0.119623233
 40
0.1821308683
 40
0.331628556
 40
0.4998542552
 40
0.6680983268
 40
0.8176544592
 40
0.8802062811
 40
0.9322991837
 40
0.9725785465
 40
1.0
 40
1.0
 40
1.0
 40
1.0
 10
14.0738431968
 20
8.0784985034
 30
0.0
 10
14.0911015712
 20
8.0787163169
 30
0.0
 10
14.133733347
 20
8.0790868575
 30
0.0
 10
14.2091943113
 20
8.0795660902
 30
0.0
 10
14.3068280805
 20
8.0800232816
 30
0.0
 10
14.4733967495
 20
8.0806160635
 30
0.0
 10
14.7132593754
 20
8.0811259787
 30
0.0
 10
15.0198246718
 20
8.08133812
 30
0.0
 10
15.3264268379
 20
8.0811269164
 30
0.0
 10
15.5663657985
 20
8.0806176711
 30
0.0
 10
15.7330319022
 20
8.0800253408
 30
0.0
 10
15.8307624319
 20
8.079568257
 30
0.0
 10
15.9063309476
 20
8.0790890393
 30
0.0
 10
15.9490375837
 20
8.0787184428
 30
0.0
 10
15.9663346266
 20
8.0785007695
 30
0.0
  0
SPLINE
  5
5FE
100
AcDbEntity
  8
0
100
AcDbSpline
 62
9
  6
CONTINUOUS
 70
0
 71
3
 72
19
 73
15
 74
0
 42
0.0000001
 43
0.0000001
 44
0.0000000001
 40
0.0
 40
0.0
 40
0.0
 40
0.0
 40
0.2299640277
 40
0.4301529549
 40
0.6004549656
 40
0.7407588671
 40
0.7996271714
 40
0.8509549537
 40
0.8947290235
 40
0.9309367613
 40
0.959566727
 40
0.9806103661
 40
0.9940685422
 40
1.0
 40
1.0
 40
1.0
 40
1.0
 10
15.9663346266
 20
8.0785007695
 30
0.0
 10
15.9685913376
 20
8.0784723701
 30
0.0
 10
15.9728125324
 20
8.0784165083
 30
0.0
 10
15.9787048012
 20
8.0783279797
 30
0.0
 10
15.9837170205
 20
8.0782404825
 30
0.0
 10
15.9873423374
 20
8.0781650118
 30
0.0
 10
15.9897999484
 20
8.0781034175
 30
0.0
 10
15.991310544
 20
8.078060467
 30
0.0
 10
15.9925981441
 20
8.0780171579
 30
0.0
 10
15.9936643099
 20
8.0779762498
 30
0.0
 10
15.9945033317
 20
8.0779307072
 30
0.0
 10
15.9951282613
 20
8.0778991666
 30
0.0
 10
15.9955105905
 20
8.0778438879
 30
0.0
 10
15.9957143216
 20
8.0778336515
 30
0.0
 10
15.9957609271
 20
8.0777987722
 30
0.0
  0
SPLINE
  5
5FF
100
AcDbEntity
  8
0
100
AcDbSpline
 62
9
  6
CONTINUOUS
 70
0
 71
3
 72
9
 73
5
 74
0
 42
0.0000001
 43
0.0000001
 44
0.0000000001
 40
0.0
 40
0.0
 40
0.0
 40
0.0
 40
0.235346024
 40
1.0
 40
1.0
 40
1.0
 40
1.0
 10
14.0645857855
 20
8.0584193631
 30
0.0
 10
14.0637675301
 20
8.0584193756
 30
0.0
 10
14.0602947449
 20
8.0586725023
 30
0.0
 10
14.0568929723
 20
8.0598273845
 30
0.0
 10
14.05457923
 20
8.061136794
 30
0.0
  0
LINE
  5
600
100
AcDbEntity
  8
0
100
AcDbLine
 62
9
  6
CONTINUOUS
 10
14.05457923
 20
8.061136794
 11
14.0514146787
 21
8.0633680564
  0
SPLINE
  5
601
100
AcDbEntity
  8
0
100
AcDbSpline
 62
9
  6
CONTINUOUS
 70
0
 71
3
 72
9
 73
5
 74
0
 42
0.0000001
 43
0.0000001
 44
0.0000000001
 40
0.0
 40
0.0
 40
0.0
 40
0.0
 40
0.7485527579
 40
1.0
 40
1.0
 40
1.0
 40
1.0
 10
14.0514146787
 20
8.0633680564
 30
0.0
 10
14.050160459
 20
8.0644628299
 30
0.0
 10
14.0486899681
 20
8.0661785307
 30
0.0
 10
14.0475324453
 20
8.0680776525
 30
0.0
 10
14.04726002
 20
8.0685660389
 30
0.0
  0
SPLINE
  5
602
100
AcDbEntity
  8
0
100
AcDbSpline
 62
9
  6
CONTINUOUS
 70
0
 71
3
 72
9
 73
5
 74
0
 42
0.0000001
 43
0.0000001
 44
0.0000000001
 40
0.0
 40
0.0
 40
0.0
 40
0.0
 40
0.2593872257
 40
1.0
 40
1.0
 40
1.0
 40
1.0
 10
14.04726002
 20
8.0685660389
 30
0.0
 10
14.0468532149
 20
8.0692953327
 30
0.0
 10
14.045450668
 20
8.0721931377
 30
0.0
 10
14.044669856
 20
8.0754155643
 30
0.0
 10
14.0445958711
 20
8.0777987721
 30
0.0
  0
SPLINE
  5
603
100
AcDbEntity
  8
0
100
AcDbSpline
 62
9
  6
CONTINUOUS
 70
0
 71
3
 72
9
 73
5
 74
0
 42
0.0000001
 43
0.0000001
 44
0.0000000001
 40
0.0
 40
0.0
 40
0.0
 40
0.0
 40
0.2373848997
 40
1.0
 40
1.0
 40
1.0
 40
1.0
 10
15.9757710137
 20
8.0584193631
 30
0.0
 10
15.9765965106
 20
8.0584193761
 30
0.0
 10
15.980070342
 20
8.0586785559
 30
0.0
 10
15.9834657014
 20
8.0598479945
 30
0.0
 10
15.9857744081
 20
8.0611529044
 30
0.0
  0
LINE
  5
604
100
AcDbEntity
  8
0
100
AcDbLine
 62
9
  6
CONTINUOUS
 10
15.9857744081
 20
8.0611529044
 11
15.9889296073
 21
8.063362748
  0
SPLINE
  5
605
100
AcDbEntity
  8
0
100
AcDbSpline
 62
9
  6
CONTINUOUS
 70
0
 71
3
 72
8
 73
4
 74
0
 42
0.0000001
 43
0.0000001
 44
0.0000000001
 40
0.0
 40
0.0
 40
0.0
 40
0.0
 40
1.0
 40
1.0
 40
1.0
 40
1.0
 10
15.9889296073
 20
8.063362748
 30
0.0
 10
15.9906137778
 20
8.0648160301
 30
0.0
 10
15.9920303133
 20
8.0666191447
 30
0.0
 10
15.993112595
 20
8.0685626275
 30
0.0
  0
SPLINE
  5
606
100
AcDbEntity
  8
0
100
AcDbSpline
 62
9
  6
CONTINUOUS
 70
0
 71
3
 72
9
 73
5
 74
0
 42
0.0000001
 43
0.0000001
 44
0.0000000001
 40
0.0
 40
0.0
 40
0.0
 40
0.0
 40
0.2611147147
 40
1.0
 40
1.0
 40
1.0
 40
1.0
 10
15.993112595
 20
8.0685626275
 30
0.0
 10
15.9935215542
 20
8.0692970069
 30
0.0
 10
15.9949177307
 20
8.0721981553
 30
0.0
 10
15.9956871112
 20
8.0754213234
 30
0.0
 10
15.9957609174
 20
8.0777987724
 30
0.0
  0
SPLINE
  5
607
100
AcDbEntity
  8
0
100
AcDbSpline
 62
9
  6
CONTINUOUS
 70
0
 71
3
 72
15
 73
11
 74
0
 42
0.0000001
 43
0.0000001
 44
0.0000000001
 40
0.0
 40
0.0
 40
0.0
 40
0.0
 40
0.019709136
 40
0.0751055669
 40
0.1608632523
 40
0.2728431439
 40
0.4081162132
 40
0.5660028406
 40
0.7517998174
 40
1.0
 40
1.0
 40
1.0
 40
1.0
 10
6.8883179138
 20
9.8065284309
 30
0.0
 10
6.8851063321
 20
9.8079761631
 30
0.0
 10
6.8728427691
 20
9.8134363339
 30
0.0
 10
6.8463984811
 20
9.8247271246
 30
0.0
 10
6.8044909267
 20
9.8417884818
 30
0.0
 10
6.7487752028
 20
9.8627565765
 30
0.0
 10
6.6801547738
 20
9.8859399061
 30
0.0
 10
6.5978721482
 20
9.9097038979
 30
0.0
 10
6.4946179305
 20
9.9330489218
 30
0.0
 10
6.417657569
 20
9.9438871771
 30
0.0
 10
6.3734811624
 20
9.9479458407
 30
0.0
  0
LINE
  5
608
100
AcDbEntity
  8
0
100
AcDbLine
 62
7
  6
CONTINUOUS
 10
10.0304070306
 20
13.5211246556
 11
10.0285053893
 21
13.5210392123
  0
SPLINE
  5
609
100
AcDbEntity
  8
0
100
AcDbSpline
 62
9
  6
CONTINUOUS
 70
0
 71
3
 72
30
 73
26
 74
0
 42
0.0000001
 43
0.0000001
 44
0.0000000001
 40
0.0
 40
0.0
 40
0.0
 40
0.0
 40
0.0002746388
 40
0.0006172153
 40
0.0010962966
 40
0.0024629738
 40
0.0043726711
 40
0.0068233898
 40
0.0098131312
 40
0.0174016901
 40
0.0271223675
 40
0.038959189
 40
0.0528961864
 40
0.0689173981
 40
0.0870068685
 40
0.1071486487
 40
0.1535252795
 40
0.2078700882
 40
0.2698743073
 40
0.3392078947
 40
0.4155411899
 40
0.4985449525
 40
0.5878898191
 40
0.7839725629
 40
1.0
 40
1.0
 40
1.0
 40
1.0
 10
12.3417060618
 20
11.9119038546
 30
0.0
 10
12.341731314
 20
11.9119144705
 30
0.0
 10
12.341796184
 20
11.9118940015
 30
0.0
 10
12.3419037314
 20
11.9118995024
 30
0.0
 10
12.342122844
 20
11.9118863361
 30
0.0
 10
12.3424964537
 20
11.9118770488
 30
0.0
 10
12.3430676854
 20
11.9118551338
 30
0.0
 10
12.3438002289
 20
11.9118305357
 30
0.0
 10
12.3450990743
 20
11.911785863
 30
0.0
 10
12.3471225607
 20
11.9117185549
 30
0.0
 10
12.3500281292
 20
11.9116242047
 30
0.0
 10
12.3535666524
 20
11.9115128439
 30
0.0
 10
12.3577334244
 20
11.9113856913
 30
0.0
 10
12.3625236941
 20
11.91124422
 30
0.0
 10
12.3679327258
 20
11.9110898083
 30
0.0
 10
12.3763684629
 20
11.9108574359
 30
0.0
 10
12.3884195086
 20
11.9105442462
 30
0.0
 10
12.4046454323
 20
11.9101566625
 30
0.0
 10
12.4231615782
 20
11.909763066
 30
0.0
 10
12.4438716211
 20
11.9093842452
 30
0.0
 10
12.4666770952
 20
11.9090416315
 30
0.0
 10
12.4914794703
 20
11.9087559645
 30
0.0
 10
12.5282264524
 20
11.9084732331
 30
0.0
 10
12.5782427531
 20
11.9083771811
 30
0.0
 10
12.6193472365
 20
11.9085263068
 30
0.0
 10
12.6408938156
 20
11.9086525413
 30
0.0
  0
SPLINE
  5
60A
100
AcDbEntity
  8
0
100
AcDbSpline
 62
7
  6
CONTINUOUS
 70
0
 71
3
 72
13
 73
9
 74
0
 42
0.0000001
 43
0.0000001
 44
0.0000000001
 40
0.0
 40
0.0
 40
0.0
 40
0.0
 40
0.0957754227
 40
0.1812616616
 40
0.2957905694
 40
0.4380192426
 40
0.6049759026
 40
1.0
 40
1.0
 40
1.0
 40
1.0
 10
12.5804540628
 20
19.0514813032
 30
0.0
 10
12.5804530354
 20
19.0510981565
 30
0.0
 10
12.5796968644
 20
19.0505708168
 30
0.0
 10
12.5786297584
 20
19.0502271394
 30
0.0
 10
12.5772685017
 20
19.0499269581
 30
0.0
 10
12.5755956611
 20
19.0497018914
 30
0.0
 10
12.572784617
 20
19.0494591037
 30
0.0
 10
12.5705362464
 20
19.0494036089
 30
0.0
 10
12.5689559587
 20
19.0494036089
 30
0.0
  0
SPLINE
  5
60B
100
AcDbEntity
  8
0
100
AcDbSpline
 62
7
  6
CONTINUOUS
 70
0
 71
3
 72
13
 73
9
 74
0
 42
0.0000001
 43
0.0000001
 44
0.0000000001
 40
0.0
 40
0.0
 40
0.0
 40
0.0
 40
0.0976517038
 40
0.1822956601
 40
0.2940448551
 40
0.4326670473
 40
0.5973041921
 40
1.0
 40
1.0
 40
1.0
 40
1.0
 10
12.5552368454
 20
18.9914772294
 30
0.0
 10
12.5552372492
 20
18.9912743161
 30
0.0
 10
12.5548562176
 20
18.9909851932
 30
0.0
 10
12.5543014378
 20
18.9908074463
 30
0.0
 10
12.5536117472
 20
18.9906506256
 30
0.0
 10
12.5527601283
 20
18.990535277
 30
0.0
 10
12.5512965099
 20
18.9904103683
 30
0.0
 10
12.5501173485
 20
18.9903851185
 30
0.0
 10
12.5492805736
 20
18.9903851185
 30
0.0
  0
LINE
  5
60C
100
AcDbEntity
  8
0
100
AcDbLine
 62
9
  6
CONTINUOUS
 10
12.6415758002
 20
11.8645563683
 11
12.3417059587
 21
11.8684193631
  0
SPLINE
  5
60D
100
AcDbEntity
  8
0
100
AcDbSpline
 62
9
  6
CONTINUOUS
 70
0
 71
3
 72
16
 73
12
 74
0
 42
0.0000001
 43
0.0000001
 44
0.0000000001
 40
0.0
 40
0.0
 40
0.0
 40
0.0
 40
0.1747304758
 40
0.3082572365
 40
0.5157967133
 40
0.6733094912
 40
0.794394884
 40
0.8851570128
 40
0.9488536417
 40
0.987140527
 40
1.0
 40
1.0
 40
1.0
 40
1.0
 10
6.3734811624
 20
9.9479458407
 30
0.0
 10
6.3493563287
 20
9.9501622859
 30
0.0
 10
6.306855486
 20
9.9547127651
 30
0.0
 10
6.2358162758
 20
9.962940958
 30
0.0
 10
6.1671276349
 20
9.9707438117
 30
0.0
 10
6.1000017517
 20
9.9769302187
 30
0.0
 10
6.0488814788
 20
9.9801409274
 30
0.0
 10
6.0106862264
 20
9.9812463452
 30
0.0
 10
5.9839552075
 20
9.9810863389
 30
0.0
 10
5.9680454355
 20
9.9803991964
 30
0.0
 10
5.9609684989
 20
9.9799171166
 30
0.0
 10
5.9591945074
 20
9.9797384092
 30
0.0
  0
SPLINE
  5
60E
100
AcDbEntity
  8
0
100
AcDbSpline
 62
9
  6
CONTINUOUS
 70
0
 71
3
 72
14
 73
10
 74
0
 42
0.0000001
 43
0.0000001
 44
0.0000000001
 40
0.0
 40
0.0
 40
0.0
 40
0.0
 40
0.1245090279
 40
0.249393651
 40
0.3745718156
 40
0.499706038
 40
0.6246950905
 40
0.7496679851
 40
1.0
 40
1.0
 40
1.0
 40
1.0
 10
13.194276821
 20
12.2803353486
 30
0.0
 10
13.2046701151
 20
12.2886343864
 30
0.0
 10
13.2247657048
 20
12.3061771128
 30
0.0
 10
13.2529024459
 20
12.3346641895
 30
0.0
 10
13.2792918531
 20
12.3648550337
 30
0.0
 10
13.3042322489
 20
12.3962583524
 30
0.0
 10
13.3277770601
 20
12.4286958965
 30
0.0
 10
13.3572593613
 20
12.4732837934
 30
0.0
 10
13.3771957358
 20
12.5081388792
 30
0.0
 10
13.3894968263
 20
12.5318822656
 30
0.0
  0
SPLINE
  5
60F
100
AcDbEntity
  8
0
100
AcDbSpline
 62
9
  6
CONTINUOUS
 70
0
 71
3
 72
9
 73
5
 74
0
 42
0.0000001
 43
0.0000001
 44
0.0000000001
 40
0.0
 40
0.0
 40
0.0
 40
0.0
 40
0.2669173155
 40
1.0
 40
1.0
 40
1.0
 40
1.0
 10
9.7976585246
 20
13.528809485
 30
0.0
 10
9.7979894815
 20
13.5293873827
 30
0.0
 10
9.7992747775
 20
13.5315252107
 30
0.0
 10
9.8007517284
 20
13.5335549738
 30
0.0
 10
9.8019698839
 20
13.5349193302
 30
0.0
  0
SPLINE
  5
610
100
AcDbEntity
  8
0
100
AcDbSpline
 62
9
  6
CONTINUOUS
 70
0
 71
3
 72
9
 73
5
 74
0
 42
0.0000001
 43
0.0000001
 44
0.0000000001
 40
0.0
 40
0.0
 40
0.0
 40
0.0
 40
0.276445292
 40
1.0
 40
1.0
 40
1.0
 40
1.0
 10
9.8019698839
 20
13.5349193302
 30
0.0
 10
9.8024840305
 20
13.5354951839
 30
0.0
 10
9.8044279865
 20
13.5374941914
 30
0.0
 10
9.8067870818
 20
13.5391439485
 30
0.0
 10
9.8086652674
 20
13.539888947
 30
0.0
  0
SPLINE
  5
611
100
AcDbEntity
  8
0
100
AcDbSpline
 62
9
  6
CONTINUOUS
 70
0
 71
3
 72
13
 73
9
 74
0
 42
0.0000001
 43
0.0000001
 44
0.0000000001
 40
0.0
 40
0.0
 40
0.0
 40
0.0
 40
0.2488887898
 40
0.4979782493
 40
0.6227894253
 40
0.747938757
 40
0.8736297516
 40
1.0
 40
1.0
 40
1.0
 40
1.0
 10
13.4003692044
 20
13.5871301205
 30
0.0
 10
13.3874439932
 20
13.6132657739
 30
0.0
 10
13.3592377509
 20
13.6644405169
 30
0.0
 10
13.3176754423
 20
13.7245936517
 30
0.0
 10
13.2803419066
 20
13.7696241185
 30
0.0
 10
13.2502467792
 20
13.801772356
 30
0.0
 10
13.2180681722
 20
13.8320955385
 30
0.0
 10
13.1953237662
 20
13.8509737302
 30
0.0
 10
13.1835617511
 20
13.859963582
 30
0.0
  0
SPLINE
  5
612
100
AcDbEntity
  8
0
100
AcDbSpline
 62
9
  6
CONTINUOUS
 70
0
 71
3
 72
11
 73
7
 74
0
 42
0.0000001
 43
0.0000001
 44
0.0000000001
 40
0.0
 40
0.0
 40
0.0
 40
0.0
 40
0.1842405895
 40
0.4106110141
 40
0.681197378
 40
1.0
 40
1.0
 40
1.0
 40
1.0
 10
13.3052494556
 20
19.9174283276
 30
0.0
 10
13.302036074
 20
19.9146050064
 30
0.0
 10
13.2943034534
 20
19.9089673092
 30
0.0
 10
13.2805956689
 20
19.9010501773
 30
0.0
 10
13.2635211737
 20
19.8928219336
 30
0.0
 10
13.2508788968
 20
19.8875716883
 30
0.0
 10
13.2439923362
 20
19.884858925
 30
0.0
  0
SPLINE
  5
613
100
AcDbEntity
  8
0
100
AcDbSpline
 62
9
  6
CONTINUOUS
 70
0
 71
3
 72
9
 73
5
 74
0
 42
0.0000001
 43
0.0000001
 44
0.0000000001
 40
0.0
 40
0.0
 40
0.0
 40
0.0
 40
0.2339966078
 40
1.0
 40
1.0
 40
1.0
 40
1.0
 10
13.2439923362
 20
19.884858925
 30
0.0
 10
13.2420266986
 20
19.8840846184
 30
0.0
 10
13.2336086097
 20
19.8808207735
 30
0.0
 10
13.2251263109
 20
19.8777240776
 30
0.0
 10
13.2186065603
 20
19.8754170382
 30
0.0
  0
LINE
  5
614
100
AcDbEntity
  8
0
100
AcDbLine
 62
9
  6
CONTINUOUS
 10
13.2186065603
 20
19.8754170382
 11
13.1896169664
 21
19.8655658872
  0
SPLINE
  5
615
100
AcDbEntity
  8
0
100
AcDbSpline
 62
9
  6
CONTINUOUS
 70
0
 71
3
 72
9
 73
5
 74
0
 42
0.0000001
 43
0.0000001
 44
0.0000000001
 40
0.0
 40
0.0
 40
0.0
 40
0.0
 40
0.5361650105
 40
1.0
 40
1.0
 40
1.0
 40
1.0
 10
9.7933476694
 20
13.5089638433
 30
0.0
 10
9.7944612493
 20
13.5122692401
 30
0.0
 10
9.7968858535
 20
13.5183232743
 30
0.0
 10
9.8001678511
 20
13.5239884426
 30
0.0
 10
9.8019697439
 20
13.5264087568
 30
0.0
  0
LINE
  5
616
100
AcDbEntity
  8
0
100
AcDbLine
 62
9
  6
CONTINUOUS
 10
9.8019697439
 20
13.5264087568
 11
9.8041599596
 21
13.5290629341
  0
SPLINE
  5
617
100
AcDbEntity
  8
0
100
AcDbSpline
 62
9
  6
CONTINUOUS
 70
0
 71
3
 72
9
 73
5
 74
0
 42
0.0000001
 43
0.0000001
 44
0.0000000001
 40
0.0
 40
0.0
 40
0.0
 40
0.0
 40
0.2795025297
 40
1.0
 40
1.0
 40
1.0
 40
1.0
 10
9.8041599596
 20
13.5290629341
 30
0.0
 10
9.8047449354
 20
13.5296981525
 30
0.0
 10
9.8069303304
 20
13.5318723869
 30
0.0
 10
9.8095958634
 20
13.5336477957
 30
0.0
 10
9.8117044585
 20
13.5343612234
 30
0.0
  0
LINE
  5
618
100
AcDbEntity
  8
0
100
AcDbLine
 62
9
  6
CONTINUOUS
 10
13.1942724716
 20
12.2803360109
 11
13.1817059204
 21
12.2797045132
  0
LINE
  5
619
100
AcDbEntity
  8
0
100
AcDbLine
 62
7
  6
CONTINUOUS
 10
9.8072852574
 20
13.4810019473
 11
9.7933404094
 21
13.4849007566
  0
SPLINE
  5
61A
100
AcDbEntity
  8
0
100
AcDbSpline
 62
9
  6
CONTINUOUS
 70
0
 71
3
 72
11
 73
7
 74
0
 42
0.0000001
 43
0.0000001
 44
0.0000000001
 40
0.0
 40
0.0
 40
0.0
 40
0.0
 40
0.3096337277
 40
0.583933091
 40
0.8139227679
 40
1.0
 40
1.0
 40
1.0
 40
1.0
 10
9.7933404094
 20
13.4849007566
 30
0.0
 10
9.7944641972
 20
13.4884330836
 30
0.0
 10
9.7969200072
 20
13.4949945031
 30
0.0
 10
9.8014378902
 20
13.5036680299
 30
0.0
 10
9.8064478099
 20
13.5102913385
 30
0.0
 10
9.8104076255
 20
13.5134791639
 30
0.0
 10
9.8123979209
 20
13.5144796818
 30
0.0
  0
LINE
  5
61B
100
AcDbEntity
  8
0
100
AcDbLine
 62
9
  6
CONTINUOUS
 10
9.8123979209
 20
13.5144796818
 11
9.814791389
 21
13.5154174529
  0
SPLINE
  5
61C
100
AcDbEntity
  8
0
100
AcDbSpline
 62
9
  6
CONTINUOUS
 70
0
 71
3
 72
14
 73
10
 74
0
 42
0.0000001
 43
0.0000001
 44
0.0000000001
 40
0.0
 40
0.0
 40
0.0
 40
0.0
 40
0.0278659166
 40
0.0508704918
 40
0.0809555314
 40
0.1631426999
 40
0.2750065153
 40
0.5850997436
 40
1.0
 40
1.0
 40
1.0
 40
1.0
 10
12.3190390131
 20
20.310226412
 30
0.0
 10
12.3190602566
 20
20.3099934424
 30
0.0
 10
12.3194624771
 20
20.3096743759
 30
0.0
 10
12.3200684947
 20
20.3094243713
 30
0.0
 10
12.3211705411
 20
20.3090992332
 30
0.0
 10
12.3230237574
 20
20.3087934678
 30
0.0
 10
12.3272405995
 20
20.3083747552
 30
0.0
 10
12.3342662491
 20
20.3081655804
 30
0.0
 10
12.3403532126
 20
20.3082021036
 30
0.0
 10
12.3438357278
 20
20.3082666648
 30
0.0
  0
SPLINE
  5
61D
100
AcDbEntity
  8
0
100
AcDbSpline
 62
9
  6
CONTINUOUS
 70
0
 71
3
 72
9
 73
5
 74
0
 42
0.0000001
 43
0.0000001
 44
0.0000000001
 40
0.0
 40
0.0
 40
0.0
 40
0.0
 40
0.4583306901
 40
1.0
 40
1.0
 40
1.0
 40
1.0
 10
12.3438357278
 20
20.3082666648
 30
0.0
 10
12.3529981176
 20
20.3084365234
 30
0.0
 10
12.372976988
 20
20.3093729837
 30
0.0
 10
12.392916274
 20
20.3108770553
 30
0.0
 10
12.4037042977
 20
20.3118325457
 30
0.0
  0
SPLINE
  5
61E
100
AcDbEntity
  8
0
100
AcDbSpline
 62
7
  6
CONTINUOUS
 70
0
 71
3
 72
9
 73
5
 74
0
 42
0.0000001
 43
0.0000001
 44
0.0000000001
 40
0.0
 40
0.0
 40
0.0
 40
0.0
 40
0.2587587525
 40
1.0
 40
1.0
 40
1.0
 40
1.0
 10
9.8078026169
 20
13.4476620138
 30
0.0
 10
9.806543646
 20
13.4479865951
 30
0.0
 10
9.8016854746
 20
13.4492685971
 30
0.0
 10
9.7968572409
 20
13.4506666291
 30
0.0
 10
9.7933063599
 20
13.4517901349
 30
0.0
  0
SPLINE
  5
61F
100
AcDbEntity
  8
0
100
AcDbSpline
 62
9
  6
CONTINUOUS
 70
0
 71
3
 72
9
 73
5
 74
0
 42
0.0000001
 43
0.0000001
 44
0.0000000001
 40
0.0
 40
0.0
 40
0.0
 40
0.0
 40
0.5274347445
 40
1.0
 40
1.0
 40
1.0
 40
1.0
 10
9.7933063599
 20
13.4517901349
 30
0.0
 10
9.7944267784
 20
13.455395651
 30
0.0
 10
9.7968788172
 20
13.4621344363
 30
0.0
 10
9.8000794103
 20
13.4685659567
 30
0.0
 10
9.8018311515
 20
13.4714598855
 30
0.0
  0
SPLINE
  5
620
100
AcDbEntity
  8
0
100
AcDbSpline
 62
9
  6
CONTINUOUS
 70
0
 71
3
 72
9
 73
5
 74
0
 42
0.0000001
 43
0.0000001
 44
0.0000000001
 40
0.0
 40
0.0
 40
0.0
 40
0.0
 40
0.5510397356
 40
1.0
 40
1.0
 40
1.0
 40
1.0
 10
9.8018311515
 20
13.4714598855
 30
0.0
 10
9.8033118022
 20
13.4739059647
 30
0.0
 10
9.80631128
 20
13.4781670924
 30
0.0
 10
9.8101938203
 20
13.4817314117
 30
0.0
 10
9.8121717559
 20
13.4829622296
 30
0.0
  0
SPLINE
  5
621
100
AcDbEntity
  8
0
100
AcDbSpline
 62
9
  6
CONTINUOUS
 70
0
 71
3
 72
9
 73
5
 74
0
 42
0.0000001
 43
0.0000001
 44
0.0000000001
 40
0.0
 40
0.0
 40
0.0
 40
0.0
 40
0.2645608232
 40
1.0
 40
1.0
 40
1.0
 40
1.0
 10
9.8121717559
 20
13.4829622296
 30
0.0
 10
9.8124973511
 20
13.483164839
 30
0.0
 10
9.8137516697
 20
13.4838907729
 30
0.0
 10
9.8151104552
 20
13.484446078
 30
0.0
 10
9.8161427932
 20
13.4847120011
 30
0.0
  0
SPLINE
  5
622
100
AcDbEntity
  8
0
100
AcDbSpline
 62
9
  6
CONTINUOUS
 70
0
 71
3
 72
14
 73
10
 74
0
 42
0.0000001
 43
0.0000001
 44
0.0000000001
 40
0.0
 40
0.0
 40
0.0
 40
0.0
 40
0.0309280107
 40
0.0928882561
 40
0.184600282
 40
0.3041623123
 40
0.4487192432
 40
0.6152869567
 40
1.0
 40
1.0
 40
1.0
 40
1.0
 10
13.4517451418
 20
20.9033197051
 30
0.0
 10
13.4517451418
 20
20.9027237712
 30
0.0
 10
13.4516211038
 20
20.9009364425
 30
0.0
 10
13.4513898594
 20
20.8973883179
 30
0.0
 10
13.4509829899
 20
20.8921385322
 30
0.0
 10
13.4504426906
 20
20.8853038394
 30
0.0
 10
13.4497649256
 20
20.8770327973
 30
0.0
 10
13.4486493943
 20
20.8636716337
 30
0.0
 10
13.4477433941
 20
20.853087998
 30
0.0
 10
13.4471046341
 20
20.8457027571
 30
0.0
  0
SPLINE
  5
623
100
AcDbEntity
  8
0
100
AcDbSpline
 62
9
  6
CONTINUOUS
 70
0
 71
3
 72
19
 73
15
 74
0
 42
0.0000001
 43
0.0000001
 44
0.0000000001
 40
0.0
 40
0.0
 40
0.0
 40
0.0
 40
0.1921193442
 40
0.3779048721
 40
0.5491501685
 40
0.6995213741
 40
0.8234412593
 40
0.8740742849
 40
0.9164727668
 40
0.9502110624
 40
0.9751507243
 40
0.9843447845
 40
0.9914188511
 40
1.0
 40
1.0
 40
1.0
 40
1.0
 10
13.4442279165
 20
20.8129297058
 30
0.0
 10
13.438729921
 20
20.8134166608
 30
0.0
 10
13.4279216055
 20
20.8144485604
 30
0.0
 10
13.4122375378
 20
20.8161620688
 30
0.0
 10
13.3977721706
 20
20.8179726667
 30
0.0
 10
13.3851026582
 20
20.8198018852
 30
0.0
 10
13.3758979117
 20
20.821366117
 30
0.0
 10
13.3697889331
 20
20.822607928
 30
0.0
 10
13.3662417816
 20
20.8234327518
 30
0.0
 10
13.3634409544
 20
20.8242143584
 30
0.0
 10
13.3616027266
 20
20.8248527794
 30
0.0
 10
13.3605238102
 20
20.825371901
 30
0.0
 10
13.359937284
 20
20.8257342961
 30
0.0
 10
13.359560973
 20
20.8261113866
 30
0.0
 10
13.359560973
 20
20.8263579198
 30
0.0
  0
SPLINE
  5
624
100
AcDbEntity
  8
0
100
AcDbSpline
 62
9
  6
CONTINUOUS
 70
0
 71
3
 72
19
 73
15
 74
0
 42
0.0000001
 43
0.0000001
 44
0.0000000001
 40
0.0
 40
0.0
 40
0.0
 40
0.0
 40
0.0085811489
 40
0.0156552155
 40
0.0248492757
 40
0.0497889376
 40
0.0835272332
 40
0.1259257151
 40
0.1765587407
 40
0.3004786259
 40
0.4508498315
 40
0.6220951279
 40
0.8078806558
 40
1.0
 40
1.0
 40
1.0
 40
1.0
 10
12.4638509445
 20
20.8263579198
 30
0.0
 10
12.4638509445
 20
20.8261113866
 30
0.0
 10
12.4634746334
 20
20.8257342961
 30
0.0
 10
12.4628881073
 20
20.825371901
 30
0.0
 10
12.4618091908
 20
20.8248527794
 30
0.0
 10
12.459970963
 20
20.8242143584
 30
0.0
 10
12.4571701358
 20
20.8234327518
 30
0.0
 10
12.4536229843
 20
20.822607928
 30
0.0
 10
12.4475140057
 20
20.821366117
 30
0.0
 10
12.4383092592
 20
20.8198018852
 30
0.0
 10
12.4256397469
 20
20.8179726667
 30
0.0
 10
12.4111743796
 20
20.8161620688
 30
0.0
 10
12.395490312
 20
20.8144485604
 30
0.0
 10
12.3846819965
 20
20.8134166608
 30
0.0
 10
12.379184001
 20
20.8129297058
 30
0.0
  0
SPLINE
  5
625
100
AcDbEntity
  8
0
100
AcDbSpline
 62
9
  6
CONTINUOUS
 70
0
 71
3
 72
14
 73
10
 74
0
 42
0.0000001
 43
0.0000001
 44
0.0000000001
 40
0.0
 40
0.0
 40
0.0
 40
0.0
 40
0.3847130433
 40
0.5512807568
 40
0.6958376877
 40
0.815399718
 40
0.9071117439
 40
0.9690719893
 40
1.0
 40
1.0
 40
1.0
 40
1.0
 10
12.3763072834
 20
20.8457027571
 30
0.0
 10
12.3756685233
 20
20.853087998
 30
0.0
 10
12.3747625232
 20
20.8636716337
 30
0.0
 10
12.3736469919
 20
20.8770327973
 30
0.0
 10
12.3729692269
 20
20.8853038394
 30
0.0
 10
12.3724289275
 20
20.8921385322
 30
0.0
 10
12.3720220581
 20
20.8973883179
 30
0.0
 10
12.3717908136
 20
20.9009364425
 30
0.0
 10
12.3716667756
 20
20.9027237712
 30
0.0
 10
12.3716667756
 20
20.9033197051
 30
0.0
  0
SPLINE
  5
626
100
AcDbEntity
  8
0
100
AcDbSpline
 62
9
  6
CONTINUOUS
 70
0
 71
3
 72
16
 73
12
 74
0
 42
0.0000001
 43
0.0000001
 44
0.0000000001
 40
0.0
 40
0.0
 40
0.0
 40
0.0
 40
0.0109039283
 40
0.0307157914
 40
0.059198012
 40
0.096110091
 40
0.19384142
 40
0.3198910741
 40
0.4695838935
 40
0.6372937083
 40
1.0
 40
1.0
 40
1.0
 40
1.0
 10
12.3517451418
 20
20.9015552548
 30
0.0
 10
12.3517451418
 20
20.9012255766
 30
0.0
 10
12.3517955024
 20
20.9002976336
 30
0.0
 10
12.3519031257
 20
20.8985114312
 30
0.0
 10
12.3520858504
 20
20.8959415002
 30
0.0
 10
12.3524526152
 20
20.891023192
 30
0.0
 10
12.3530769973
 20
20.8831658437
 30
0.0
 10
12.3540017683
 20
20.8719119006
 30
0.0
 10
12.3551279946
 20
20.858551568
 30
0.0
 10
12.3568867166
 20
20.8380639561
 30
0.0
 10
12.3582901757
 20
20.8220884316
 30
0.0
 10
12.3592623672
 20
20.8111652555
 30
0.0
  0
SPLINE
  5
627
100
AcDbEntity
  8
0
100
AcDbSpline
 62
9
  6
CONTINUOUS
 70
0
 71
3
 72
20
 73
16
 74
0
 42
0.0000001
 43
0.0000001
 44
0.0000000001
 40
0.0
 40
0.0
 40
0.0
 40
0.0
 40
0.2114530284
 40
0.4046946081
 40
0.5757300971
 40
0.7209992488
 40
0.7830685474
 40
0.8376313876
 40
0.8843558265
 40
0.9230201017
 40
0.9535804249
 40
0.976101973
 40
0.9844544815
 40
0.9910107751
 40
1.0
 40
1.0
 40
1.0
 40
1.0
 10
12.3268617307
 20
20.8087468865
 30
0.0
 10
12.3231518701
 20
20.8085257564
 30
0.0
 10
12.3160490902
 20
20.8081440743
 30
0.0
 10
12.3059379048
 20
20.8077393102
 30
0.0
 10
12.2969842264
 20
20.8075314302
 30
0.0
 10
12.2903330724
 20
20.807522434
 30
0.0
 10
12.2857310346
 20
20.8076320974
 30
0.0
 10
12.2828624752
 20
20.8077599113
 30
0.0
 10
12.2804087814
 20
20.8079373016
 30
0.0
 10
12.2783823526
 20
20.8081611502
 30
0.0
 10
12.2767917577
 20
20.8084319323
 30
0.0
 10
12.275743947
 20
20.8087028847
 30
0.0
 10
12.2751371492
 20
20.808969062
 30
0.0
 10
12.2747830362
 20
20.8091832518
 30
0.0
 10
12.2745954237
 20
20.8094376496
 30
0.0
 10
12.2745954237
 20
20.8095956419
 30
0.0
  0
SPLINE
  5
628
100
AcDbEntity
  8
0
100
AcDbSpline
 62
7
  6
CONTINUOUS
 70
0
 71
3
 72
9
 73
5
 74
0
 42
0.0000001
 43
0.0000001
 44
0.0000000001
 40
0.0
 40
0.0
 40
0.0
 40
0.0
 40
0.2587588526
 40
1.0
 40
1.0
 40
1.0
 40
1.0
 10
9.8077919255
 20
13.4142870164
 30
0.0
 10
9.8065336549
 20
13.4146114737
 30
0.0
 10
9.8016782167
 20
13.4158930822
 30
0.0
 10
9.79685283
 20
13.4172911655
 30
0.0
 10
9.7933042526
 20
13.4184152118
 30
0.0
  0
SPLINE
  5
629
100
AcDbEntity
  8
0
100
AcDbSpline
 62
9
  6
CONTINUOUS
 70
0
 71
3
 72
9
 73
5
 74
0
 42
0.0000001
 43
0.0000001
 44
0.0000000001
 40
0.0
 40
0.0
 40
0.0
 40
0.0
 40
0.5274404485
 40
1.0
 40
1.0
 40
1.0
 40
1.0
 10
9.7933042526
 20
13.4184152118
 30
0.0
 10
9.7944248751
 20
13.4220221363
 30
0.0
 10
9.7968774851
 20
13.4287634775
 30
0.0
 10
9.8000791156
 20
13.4351974001
 30
0.0
 10
9.8018315007
 20
13.4380923207
 30
0.0
  0
SPLINE
  5
62A
100
AcDbEntity
  8
0
100
AcDbSpline
 62
9
  6
CONTINUOUS
 70
0
 71
3
 72
9
 73
5
 74
0
 42
0.0000001
 43
0.0000001
 44
0.0000000001
 40
0.0
 40
0.0
 40
0.0
 40
0.0
 40
0.5510670441
 40
1.0
 40
1.0
 40
1.0
 40
1.0
 10
9.8018315007
 20
13.4380923207
 30
0.0
 10
9.803312776
 20
13.440539371
 30
0.0
 10
9.8063134839
 20
13.4448019067
 30
0.0
 10
9.8101981209
 20
13.4483668963
 30
0.0
 10
9.8121770624
 20
13.4495973905
 30
0.0
  0
SPLINE
  5
62B
100
AcDbEntity
  8
0
100
AcDbSpline
 62
9
  6
CONTINUOUS
 70
0
 71
3
 72
9
 73
5
 74
0
 42
0.0000001
 43
0.0000001
 44
0.0000000001
 40
0.0
 40
0.0
 40
0.0
 40
0.0
 40
0.2645383133
 40
1.0
 40
1.0
 40
1.0
 40
1.0
 10
9.8121770624
 20
13.4495973905
 30
0.0
 10
9.8125022341
 20
13.4497995804
 30
0.0
 10
9.8137549915
 20
13.4505240772
 30
0.0
 10
9.8151118993
 20
13.4510783131
 30
0.0
 10
9.8161427932
 20
13.4513438601
 30
0.0
  0
SPLINE
  5
62C
100
AcDbEntity
  8
0
100
AcDbSpline
 62
9
  6
CONTINUOUS
 70
0
 71
3
 72
9
 73
5
 74
0
 42
0.0000001
 43
0.0000001
 44
0.0000000001
 40
0.0
 40
0.0
 40
0.0
 40
0.0
 40
0.5063731247
 40
1.0
 40
1.0
 40
1.0
 40
1.0
 10
13.3223549911
 20
12.5248158084
 30
0.0
 10
13.3028706203
 20
12.4980707895
 30
0.0
 10
13.2603662679
 20
12.4480394536
 30
0.0
 10
13.2100508485
 20
12.4057409259
 30
0.0
 10
13.1835518372
 20
12.387347716
 30
0.0
  0
SPLINE
  5
62D
100
AcDbEntity
  8
0
100
AcDbSpline
 62
9
  6
CONTINUOUS
 70
0
 71
3
 72
9
 73
5
 74
0
 42
0.0000001
 43
0.0000001
 44
0.0000000001
 40
0.0
 40
0.0
 40
0.0
 40
0.0
 40
0.4935276133
 40
1.0
 40
1.0
 40
1.0
 40
1.0
 10
12.640618073
 20
12.3868266251
 30
0.0
 10
12.6136970432
 20
12.4054528681
 30
0.0
 10
12.562628853
 20
12.4484141627
 30
0.0
 10
12.5195809175
 20
12.4992871877
 30
0.0
 10
12.4998678263
 20
12.5264906502
 30
0.0
  0
LINE
  5
62E
100
AcDbEntity
  8
0
100
AcDbLine
 62
7
  6
CONTINUOUS
 10
9.8038620549
 20
13.3819594086
 11
9.793304879
 21
13.3850490873
  0
SPLINE
  5
62F
100
AcDbEntity
  8
0
100
AcDbSpline
 62
9
  6
CONTINUOUS
 70
0
 71
3
 72
9
 73
5
 74
0
 42
0.0000001
 43
0.0000001
 44
0.0000000001
 40
0.0
 40
0.0
 40
0.0
 40
0.0
 40
0.5274440779
 40
1.0
 40
1.0
 40
1.0
 40
1.0
 10
9.793304879
 20
13.3850490873
 30
0.0
 10
9.7944255933
 20
13.3886560836
 30
0.0
 10
9.7968783883
 20
13.3953975002
 30
0.0
 10
9.8000802776
 20
13.4018314488
 30
0.0
 10
9.8018328024
 20
13.4047263276
 30
0.0
  0
SPLINE
  5
630
100
AcDbEntity
  8
0
100
AcDbSpline
 62
9
  6
CONTINUOUS
 70
0
 71
3
 72
9
 73
5
 74
0
 42
0.0000001
 43
0.0000001
 44
0.0000000001
 40
0.0
 40
0.0
 40
0.0
 40
0.0
 40
0.5510718454
 40
1.0
 40
1.0
 40
1.0
 40
1.0
 10
9.8018328024
 20
13.4047263276
 30
0.0
 10
9.8033141639
 20
13.4071732897
 30
0.0
 10
9.806315025
 20
13.4114355999
 30
0.0
 10
9.8101999141
 20
13.4150002086
 30
0.0
 10
9.8121789475
 20
13.416230422
 30
0.0
  0
SPLINE
  5
631
100
AcDbEntity
  8
0
100
AcDbSpline
 62
9
  6
CONTINUOUS
 70
0
 71
3
 72
9
 73
5
 74
0
 42
0.0000001
 43
0.0000001
 44
0.0000000001
 40
0.0
 40
0.0
 40
0.0
 40
0.0
 40
0.264530289
 40
1.0
 40
1.0
 40
1.0
 40
1.0
 10
9.8121789475
 20
13.416230422
 30
0.0
 10
9.8125039689
 20
13.4164324628
 30
0.0
 10
9.8137561716
 20
13.4171564491
 30
0.0
 10
9.8151124123
 20
13.4177103055
 30
0.0
 10
9.8161427932
 20
13.4179757192
 30
0.0
  0
SPLINE
  5
632
100
AcDbEntity
  8
0
100
AcDbSpline
 62
9
  6
CONTINUOUS
 70
0
 71
3
 72
26
 73
22
 74
0
 42
0.0000001
 43
0.0000001
 44
0.0000000001
 40
0.0
 40
0.0
 40
0.0
 40
0.0
 40
0.1554004966
 40
0.2197793713
 40
0.2787219301
 40
0.4790129459
 40
0.5633139801
 40
0.6390163186
 40
0.7069619968
 40
0.7675590847
 40
0.8210731651
 40
0.8676353981
 40
0.9073219329
 40
0.9401274163
 40
0.9539374546
 40
0.9659939052
 40
0.9762701461
 40
0.984739315
 40
0.9913743169
 40
0.99614783
 40
1.0
 40
1.0
 40
1.0
 40
1.0
 10
6.7894569543
 20
10.12417702
 30
0.0
 10
6.7649562777
 20
10.1289495723
 30
0.0
 10
6.7305314925
 20
10.1368526168
 30
0.0
 10
6.687113583
 20
10.1477643613
 30
0.0
 10
6.6368228574
 20
10.1609133476
 30
0.0
 10
6.5835793513
 20
10.1754053471
 30
0.0
 10
6.5276440074
 20
10.1902532255
 30
0.0
 10
6.4921955892
 20
10.1994206998
 30
0.0
 10
6.4603590372
 20
10.2073427075
 30
0.0
 10
6.4319109045
 20
10.2141159316
 30
0.0
 10
6.406738232
 20
10.2198113155
 30
0.0
 10
6.3847859566
 20
10.2245088258
 30
0.0
 10
6.3660358576
 20
10.2282798027
 30
0.0
 10
6.3524170529
 20
10.2308421067
 30
0.0
 10
6.3431296454
 20
10.2324895354
 30
0.0
 10
6.3374261089
 20
10.2334640644
 30
0.0
 10
6.33248738
 20
10.2342730283
 30
0.0
 10
6.328618346
 20
10.2348876171
 30
0.0
 10
6.325052483
 20
10.2354193066
 30
0.0
 10
6.3236235389
 20
10.2356413794
 30
0.0
 10
6.3203204557
 20
10.2360845371
 30
0.0
 10
6.3209340844
 20
10.2360050606
 30
0.0
  0
SPLINE
  5
633
100
AcDbEntity
  8
0
100
AcDbSpline
 62
7
  6
CONTINUOUS
 70
0
 71
3
 72
13
 73
9
 74
0
 42
0.0000001
 43
0.0000001
 44
0.0000000001
 40
0.0
 40
0.0
 40
0.0
 40
0.0
 40
0.4019345552
 40
0.5670318053
 40
0.7063024896
 40
0.8186009159
 40
0.9034006644
 40
1.0
 40
1.0
 40
1.0
 40
1.0
 10
13.3964276572
 20
19.0494036089
 30
0.0
 10
13.3954834614
 20
19.0494036089
 30
0.0
 10
13.3941511637
 20
19.049432388
 30
0.0
 10
13.3924955789
 20
19.0495724742
 30
0.0
 10
13.3915288683
 20
19.0497016576
 30
0.0
 10
13.3907452443
 20
19.0498774528
 30
0.0
 10
13.3901185105
 20
19.0500743442
 30
0.0
 10
13.3896868119
 20
19.050398024
 30
0.0
 10
13.3896879678
 20
19.0506249453
 30
0.0
  0
SPLINE
  5
634
100
AcDbEntity
  8
0
100
AcDbSpline
 62
7
  6
CONTINUOUS
 70
0
 71
3
 72
13
 73
9
 74
0
 42
0.0000001
 43
0.0000001
 44
0.0000000001
 40
0.0
 40
0.0
 40
0.0
 40
0.0
 40
0.3951020686
 40
0.5620777055
 40
0.7043157248
 40
0.8188453002
 40
0.9043166864
 40
1.0
 40
1.0
 40
1.0
 40
1.0
 10
13.2544559587
 20
19.0494036089
 30
0.0
 10
13.252875184
 20
19.0494036089
 30
0.0
 10
13.25062618
 20
19.0494592567
 30
0.0
 10
13.2478144094
 20
19.0497023747
 30
0.0
 10
13.2461413154
 20
19.0499275749
 30
0.0
 10
13.2447798466
 20
19.0502278052
 30
0.0
 10
13.243713147
 20
19.0505709842
 30
0.0
 10
13.2429566865
 20
19.0510981334
 30
0.0
 10
13.242956166
 20
19.051480955
 30
0.0
  0
SPLINE
  5
635
100
AcDbEntity
  8
0
100
AcDbSpline
 62
9
  6
CONTINUOUS
 70
0
 71
3
 72
11
 73
7
 74
0
 42
0.0000001
 43
0.0000001
 44
0.0000000001
 40
0.0
 40
0.0
 40
0.0
 40
0.0
 40
0.2331952391
 40
0.4821962935
 40
0.7404282398
 40
1.0
 40
1.0
 40
1.0
 40
1.0
 10
13.2911775387
 20
12.0650458368
 30
0.0
 10
13.2857483853
 20
12.0539603412
 30
0.0
 10
13.2761204395
 20
12.0302367647
 30
0.0
 10
13.2656689195
 20
11.9923810781
 30
0.0
 10
13.2592766341
 20
11.9522227981
 30
0.0
 10
13.2577032584
 20
11.9248060052
 30
0.0
 10
13.257618207
 20
11.9110665185
 30
0.0
  0
SPLINE
  5
636
100
AcDbEntity
  8
0
100
AcDbSpline
 62
7
  6
CONTINUOUS
 70
0
 71
3
 72
13
 73
9
 74
0
 42
0.0000001
 43
0.0000001
 44
0.0000000001
 40
0.0
 40
0.0
 40
0.0
 40
0.0
 40
0.1091151907
 40
0.238555805
 40
0.5252303814
 40
0.7972946656
 40
0.9102566573
 40
1.0
 40
1.0
 40
1.0
 40
1.0
 10
12.5492805736
 20
18.9903851185
 30
0.0
 10
12.5479207019
 20
18.9903851185
 30
0.0
 10
12.54494791
 20
18.9904915803
 30
0.0
 10
12.5384190292
 20
18.9909734452
 30
0.0
 10
12.5299011319
 20
18.9920127903
 30
0.0
 10
12.5216442735
 20
18.9934244454
 30
0.0
 10
12.5158720894
 20
18.9947282823
 30
0.0
 10
12.5134335617
 20
18.9953974471
 30
0.0
 10
12.5123709307
 20
18.9957463547
 30
0.0
  0
SPLINE
  5
637
100
AcDbEntity
  8
0
100
AcDbSpline
 62
7
  6
CONTINUOUS
 70
0
 71
3
 72
10
 73
6
 74
0
 42
0.0000001
 43
0.0000001
 44
0.0000000001
 40
0.0
 40
0.0
 40
0.0
 40
0.0
 40
0.6845649018
 40
0.8840077327
 40
1.0
 40
1.0
 40
1.0
 40
1.0
 10
12.5123709307
 20
18.9957463547
 30
0.0
 10
12.5115736082
 20
18.9960081501
 30
0.0
 10
12.5105334906
 20
18.996384904
 30
0.0
 10
12.509498426
 20
18.9970006269
 30
0.0
 10
12.5092316607
 20
18.9973435725
 30
0.0
 10
12.5092313028
 20
18.9974857659
 30
0.0
  0
SPLINE
  5
638
100
AcDbEntity
  8
0
100
AcDbSpline
 62
7
  6
CONTINUOUS
 70
0
 71
3
 72
15
 73
11
 74
0
 42
0.0000001
 43
0.0000001
 44
0.0000000001
 40
0.0
 40
0.0
 40
0.0
 40
0.0
 40
0.2987757409
 40
0.4559671063
 40
0.6059006835
 40
0.7412595399
 40
0.8550973369
 40
0.9424110916
 40
0.9750578918
 40
1.0
 40
1.0
 40
1.0
 40
1.0
 10
12.5689559587
 20
19.0494036089
 30
0.0
 10
12.5655087643
 20
19.0494036089
 30
0.0
 10
12.560247241
 20
19.0496745324
 30
0.0
 10
12.553290426
 20
19.0503666473
 30
0.0
 10
12.5482319451
 20
19.0510654224
 30
0.0
 10
12.5436963873
 20
19.0518744645
 30
0.0
 10
12.5399146755
 20
19.0527562232
 30
0.0
 10
12.5373310643
 20
19.0535567211
 30
0.0
 10
12.5358000448
 20
19.0542304068
 30
0.0
 10
12.5352229459
 20
19.0545679424
 30
0.0
 10
12.5349949599
 20
19.0547435471
 30
0.0
  0
SPLINE
  5
639
100
AcDbEntity
  8
0
100
AcDbSpline
 62
7
  6
CONTINUOUS
 70
0
 71
3
 72
13
 73
9
 74
0
 42
0.0000001
 43
0.0000001
 44
0.0000000001
 40
0.0
 40
0.0
 40
0.0
 40
0.0
 40
0.1143163785
 40
0.247707234
 40
0.5375701133
 40
0.8062415979
 40
0.9152912311
 40
1.0
 40
1.0
 40
1.0
 40
1.0
 10
12.4269842602
 20
19.0494036089
 30
0.0
 10
12.4255678868
 20
19.0494036089
 30
0.0
 10
12.4224989876
 20
19.0495064679
 30
0.0
 10
12.4158543027
 20
19.0499782259
 30
0.0
 10
12.4073377611
 20
19.05099784
 30
0.0
 10
12.3991792485
 20
19.0524016562
 30
0.0
 10
12.3936012376
 20
19.0537132721
 30
0.0
 10
12.3912935893
 20
19.054387401
 30
0.0
 10
12.3903063266
 20
19.0547435471
 30
0.0
  0
SPLINE
  5
63A
100
AcDbEntity
  8
0
100
AcDbSpline
 62
7
  6
CONTINUOUS
 70
0
 71
3
 72
10
 73
6
 74
0
 42
0.0000001
 43
0.0000001
 44
0.0000000001
 40
0.0
 40
0.0
 40
0.0
 40
0.0
 40
0.6733475968
 40
0.874327637
 40
1.0
 40
1.0
 40
1.0
 40
1.0
 10
12.3903063266
 20
19.0547435471
 30
0.0
 10
12.3896442813
 20
19.0549823741
 30
0.0
 10
12.3887804006
 20
19.0553253221
 30
0.0
 10
12.3879227384
 20
19.0559110002
 30
0.0
 10
12.3877199269
 20
19.0562272682
 30
0.0
 10
12.3877188922
 20
19.0563586211
 30
0.0
  0
SPLINE
  5
63B
100
AcDbEntity
  8
0
100
AcDbSpline
 62
7
  6
CONTINUOUS
 70
0
 71
3
 72
20
 73
16
 74
0
 42
0.0000001
 43
0.0000001
 44
0.0000000001
 40
0.0
 40
0.0
 40
0.0
 40
0.0
 40
0.1094664615
 40
0.2566956503
 40
0.4248588418
 40
0.5962092076
 40
0.6776037088
 40
0.7534825306
 40
0.8219061685
 40
0.8809634083
 40
0.9291621715
 40
0.965431819
 40
0.9888727935
 40
0.9957434713
 40
1.0
 40
1.0
 40
1.0
 40
1.0
 10
12.3180455444
 20
19.0494036089
 30
0.0
 10
12.3164456335
 20
19.0494036089
 30
0.0
 10
12.3126966214
 20
19.0496407591
 30
0.0
 10
12.3065201507
 20
19.050276791
 30
0.0
 10
12.2994705997
 20
19.0512441356
 30
0.0
 10
12.2933985008
 20
19.0522348891
 30
0.0
 10
12.2886757865
 20
19.0531106002
 30
0.0
 10
12.2854419318
 20
19.0537617376
 30
0.0
 10
12.2825387645
 20
19.0544006176
 30
0.0
 10
12.280045018
 20
19.0550107438
 30
0.0
 10
12.2780224455
 20
19.0555759188
 30
0.0
 10
12.2765303519
 20
19.0560764799
 30
0.0
 10
12.2756293997
 20
19.0564709181
 30
0.0
 10
12.2752212064
 20
19.0567658347
 30
0.0
 10
12.2751340123
 20
19.0569228885
 30
0.0
 10
12.2751375973
 20
19.0569849965
 30
0.0
  0
SPLINE
  5
63C
100
AcDbEntity
  8
0
100
AcDbSpline
 62
9
  6
CONTINUOUS
 70
0
 71
3
 72
9
 73
5
 74
0
 42
0.0000001
 43
0.0000001
 44
0.0000000001
 40
0.0
 40
0.0
 40
0.0
 40
0.0
 40
0.5012203574
 40
1.0
 40
1.0
 40
1.0
 40
1.0
 10
10.003723028
 20
13.5412275297
 30
0.0
 10
10.0024210524
 20
13.5417439695
 30
0.0
 10
9.9996100631
 20
13.5423440242
 30
0.0
 10
9.996794153
 20
13.5417607169
 30
0.0
 10
9.9954974207
 20
13.5412495655
 30
0.0
  0
SPLINE
  5
63D
100
AcDbEntity
  8
0
100
AcDbSpline
 62
7
  6
CONTINUOUS
 70
0
 71
3
 72
13
 73
9
 74
0
 42
0.0000001
 43
0.0000001
 44
0.0000000001
 40
0.0
 40
0.0
 40
0.0
 40
0.0
 40
0.0965607428
 40
0.1813413187
 40
0.2936414586
 40
0.4329287501
 40
0.5980480556
 40
1.0
 40
1.0
 40
1.0
 40
1.0
 10
12.4337227416
 20
19.0506251616
 30
0.0
 10
12.433724435
 20
19.050398349
 30
0.0
 10
12.4332933295
 20
19.0500738091
 30
0.0
 10
12.4326666762
 20
19.0498771284
 30
0.0
 10
12.431883127
 20
19.0497012998
 30
0.0
 10
12.4309163584
 20
19.0495722497
 30
0.0
 10
12.4292607407
 20
19.0494323171
 30
0.0
 10
12.427928436
 20
19.0494036089
 30
0.0
 10
12.4269842602
 20
19.0494036089
 30
0.0
  0
ENDSEC
  0
SECTION
  2
OBJECTS
  0
DICTIONARY
  5
C
100
AcDbDictionary
280
0
281
1
  3
ACAD_GROUP
350
D
  3
ACAD_MLINESTYLE
350
17
  3
ACAD_LAYOUT
350
1A
  3
ACAD_PLOTSETTINGS
350
19
  3
ACAD_PLOTSTYLENAME
350
E
  0
DICTIONARY
  5
D
102
{ACAD_REACTORS
330
C
102
}
100
AcDbDictionary
280
0
281
1
  0
ACDBDICTIONARYWDFLT
  5
E
102
{ACAD_REACTORS
330
C
102
}
100
AcDbDictionary
281
1
  3
Normal
350
F
100
AcDbDictionaryWithDefault
340
F
  0
DICTIONARY
  5
17
102
{ACAD_REACTORS
330
C
102
}
100
AcDbDictionary
280
0
281
1
  3
Standard
350
18
  0
DICTIONARY
  5
19
102
{ACAD_REACTORS
330
C
102
}
100
AcDbDictionary
281
1
  0
DICTIONARY
  5
1A
102
{ACAD_REACTORS
330
C
102
}
100
AcDbDictionary
281
1
  3
Model
350
63E
  3
Layout1
350
63F
  0
ACDBPLACEHOLDER
  5
F
102
{ACAD_REACTORS
330
E
102
}
  0
MLINESTYLE
  5
18
102
{ACAD_REACTORS
330
17
102
}
100
AcDbMlineStyle
  2
STANDARD
 70
0
  3

 62
256
 51
90.0
 52
90.0
 71
2
 49
0.5
 62
256
  6
BYLAYER
 49
-0.5
 62
256
  6
BYLAYER
  0
LAYOUT
  5
63E
102
{ACAD_REACTORS
330
1A
102
}
100
AcDbPlotSettings
  1

  2
none_device
  4
ANSI_C_(22.00_x_17.00_Inches)
  6

 40
0.0
 41
0.0
 42
0.0
 43
0.0
 44
558.8
 45
431.8
 46
0.0
 47
0.0
 48
0.0
 49
0.0
140
0.0
141
0.0
142
1.0
143
1.0
 70
1024
 72
0
 73
0
 74
0
  7

 75
0
147
1.0
148
0.0
149
0.0
100
AcDbLayout
  1
Model
 70
0
 71
0
 10
0.0
 20
0.0
 11
22.0
 21
17.0
 12
0.0
 22
0.0
 32
0.0
 14
0.0
 24
0.0
 34
0.0
 15
0.0
 25
0.0
 35
0.0
146
0.0
 13
0.0
 23
0.0
 33
0.0
 16
1.0
 26
0.0
 36
0.0
 17
0.0
 27
1.0
 37
0.0
 76
0
330
202
345
0
346
0
  0
LAYOUT
  5
63F
102
{ACAD_REACTORS
330
1A
102
}
100
AcDbPlotSettings
  1

  2
none_device
  4
ANSI_C_(22.00_x_17.00_Inches)
  6

 40
0.0
 41
0.0
 42
0.0
 43
0.0
 44
558.8
 45
431.8
 46
0.0
 47
0.0
 48
0.0
 49
0.0
140
0.0
141
0.0
142
1.0
143
1.0
 70
0
 72
0
 73
0
 74
0
  7

 75
0
147
1.0
148
0.0
149
0.0
100
AcDbLayout
  1
Layout1
 70
0
 71
1
 10
0.0
 20
0.0
 11
22.0
 21
17.0
 12
0.0
 22
0.0
 32
0.0
 14
0.0
 24
0.0
 34
0.0
 15
0.0
 25
0.0
 35
0.0
146
0.0
 13
0.0
 23
0.0
 33
0.0
 16
1.0
 26
0.0
 36
0.0
 17
0.0
 27
1.0
 37
0.0
 76
0
330
203
345
0
346
0
  0
ENDSEC
  0
EOF
