999
DXF file: E:\BT Custom\CADOUTPUT\_TOP.dxf
999
Pro/ENGINEER 2018400 by Parametric Technology Corporation
  0
SECTION
  2
HEADER
  9
$ACADVER
  1
AC1018
  9
$DWGCODEPAGE
  3
ANSI_1252
  9
$EXTMAX
 10
22.0
 20
17.0
 30
0.0
  9
$EXTMIN
 10
0.0
 20
0.0
 30
0.0
  9
$LIMMIN
 10
0.0
 20
0.0
  9
$LIMMAX
 10
22.0
 20
17.0
  9
$VIEWCTR
 10
11.0
 20
8.5
  9
$VIEWSIZE
 40
17.0
  9
$CLAYER
  8
0
  9
$LTSCALE
 40
1.21
  9
$CELTYPE
  6
BYLAYER
  9
$DIMSCALE
 40
1.0
  9
$DIMASZ
 40
0.1
  9
$DIMEXO
 40
0.0625
  9
$DIMDLI
 40
0.836
  9
$DIMEXE
 40
0.125
  9
$DIMCEN
 40
0.198
  9
$DIMLFAC
 40
1.0
  9
$DIMBLK
  1
_FILLED
  9
$DIMALT
 70
1
  9
$DIMALTD
 70
2
  9
$DIMALTTD
 70
2
  9
$DIMALTF
 40
25.4
  9
$DIMTXT
 40
0.08
  9
$DIMTOL
 70
1
  9
$DIMLIM
 70
0
  9
$DIMTFAC
 40
1.0
  9
$DIMTP
 40
0.001
  9
$DIMTM
 40
0.001
  9
$DIMGAP
 40
0.09
  9
$DIMDSEP
 70
46
  9
$AUNITS
 70
0
  9
$PDMODE
 70
3
  9
$PDSIZE
 40
0.06
  9
$HANDSEED
  5
272
  9
$TILEMODE
 70
1
  9
$MEASUREMENT
 70
0
  9
$INSUNITS
 70
1
  0
ENDSEC
  0
SECTION
  2
CLASSES
  0
CLASS
  1
ACDBDICTIONARYWDFLT
  2
AcDbDictionaryWithDefault
  3
AutoCAD 2000
 90
0
 91
1
280
0
281
0
  0
CLASS
  1
ACDBPLACEHOLDER
  2
AcDbPlaceHolder
  3
AutoCAD 2000
 90
0
 91
1
280
0
281
0
  0
CLASS
  1
LAYOUT
  2
AcDbLayout
  3
AutoCAD 2000
 90
0
 91
0
280
0
281
0
  0
ENDSEC
  0
SECTION
  2
TABLES
  0
TABLE
  2
VPORT
  5
8
100
AcDbSymbolTable
 70
2
  0
VPORT
  5
1F4
100
AcDbSymbolTableRecord
100
AcDbViewportTableRecord
  2
*ACTIVE
 70
0
 10
0.0
 20
0.0
 11
1.0
 21
1.0
 12
11.0
 22
8.5
 13
0.0
 23
0.0
 14
1.0
 24
1.0
 15
0.0
 25
0.0
 16
0.0
 26
0.0
 36
1.0
 17
0.0
 27
0.0
 37
0.0
 40
17.0
 41
1.2941176471
 42
50.0
 43
0.0
 44
0.0
 50
0.0
 51
0.0
 71
0
 72
100
 73
1
 74
1
 75
0
 76
0
 77
0
 78
0
  0
ENDTAB
  0
TABLE
  2
LTYPE
  5
5
100
AcDbSymbolTable
 70
6
  0
LTYPE
  5
14
100
AcDbSymbolTableRecord
100
AcDbLinetypeTableRecord
  2
BYBLOCK
 70
0
  3

 72
65
 73
0
 40
0.0
  0
LTYPE
  5
15
100
AcDbSymbolTableRecord
100
AcDbLinetypeTableRecord
  2
BYLAYER
 70
0
  3

 72
65
 73
0
 40
0.0
  0
LTYPE
  5
16
100
AcDbSymbolTableRecord
100
AcDbLinetypeTableRecord
  2
CONTINUOUS
 70
64
  3
Solid line
 72
65
 73
0
 40
0.0
  0
LTYPE
  5
1F5
100
AcDbSymbolTableRecord
100
AcDbLinetypeTableRecord
  2
CENTER
 70
64
  3
____ _ ____ _ ____ _ ____ _ ____ _ ____ _ ____
 72
65
 73
4
 40
0.6
 49
0.375
 74
0
 49
-0.075
 74
0
 49
0.075
 74
0
 49
-0.075
 74
0
  0
LTYPE
  5
1F6
100
AcDbSymbolTableRecord
100
AcDbLinetypeTableRecord
  2
HIDDEN
 70
64
  3
- - - - - - - - - - - - - - - - - - - -
 72
65
 73
2
 40
0.2
 49
0.1
 74
0
 49
-0.1
 74
0
  0
LTYPE
  5
1F7
100
AcDbSymbolTableRecord
100
AcDbLinetypeTableRecord
  2
PHANTOM
 70
64
  3
_____ _ _ _____ _ _ _____ _ _ _____
 72
65
 73
6
 40
0.8
 49
0.45
 74
0
 49
-0.05
 74
0
 49
0.1
 74
0
 49
-0.05
 74
0
 49
0.1
 74
0
 49
-0.05
 74
0
  0
LTYPE
  5
1F8
100
AcDbSymbolTableRecord
100
AcDbLinetypeTableRecord
  2
DOT
 70
64
  3
. . . . . . . . . . . . . . . . . . . .
 72
65
 73
2
 40
0.2
 49
0.1
 74
0
 49
-0.1
 74
0
  0
LTYPE
  5
1F9
100
AcDbSymbolTableRecord
100
AcDbLinetypeTableRecord
  2
DASHED
 70
64
  3
- - - - - - - - - - - - - - - - - - - -
 72
65
 73
2
 40
0.2
 49
0.1
 74
0
 49
-0.1
 74
0
  0
ENDTAB
  0
TABLE
  2
LAYER
  5
2
100
AcDbSymbolTable
 70
36
  0
LAYER
  5
10
100
AcDbSymbolTableRecord
100
AcDbLayerTableRecord
  2
0
 70
0
 62
7
  6
CONTINUOUS
370
-3
390
F
  0
LAYER
  5
1FA
100
AcDbSymbolTableRecord
100
AcDbLayerTableRecord
  2
DEFAULT_1
 70
0
 62
7
  6
CENTER
370
-3
390
F
  0
LAYER
  5
1FB
100
AcDbSymbolTableRecord
100
AcDbLayerTableRecord
  2
DEFAULT_2
 70
0
 62
8
  6
HIDDEN
370
-3
390
F
  0
LAYER
  5
1FC
100
AcDbSymbolTableRecord
100
AcDbLayerTableRecord
  2
DEFAULT_3
 70
0
 62
7
  6
PHANTOM
370
-3
390
F
  0
LAYER
  5
1FD
100
AcDbSymbolTableRecord
100
AcDbLayerTableRecord
  2
ALL_FEATURES
 70
0
 62
7
  6
CONTINUOUS
370
-3
390
F
  0
LAYER
  5
1FE
100
AcDbSymbolTableRecord
100
AcDbLayerTableRecord
  2
AXES_FEATURES
 70
0
 62
7
  6
CONTINUOUS
370
-3
390
F
  0
LAYER
  5
1FF
100
AcDbSymbolTableRecord
100
AcDbLayerTableRecord
  2
DEFAULT_COORDINATE_SYSTEM
 70
0
 62
7
  6
CONTINUOUS
370
-3
390
F
  0
LAYER
  5
200
100
AcDbSymbolTableRecord
100
AcDbLayerTableRecord
  2
DEFAULT_DATUM_AXES
 70
0
 62
7
  6
CONTINUOUS
370
-3
390
F
  0
LAYER
  5
201
100
AcDbSymbolTableRecord
100
AcDbLayerTableRecord
  2
DEFAULT_DATUM_PLANES
 70
0
 62
7
  6
CONTINUOUS
370
-3
390
F
  0
LAYER
  5
202
100
AcDbSymbolTableRecord
100
AcDbLayerTableRecord
  2
DIMENSIONS
 70
0
 62
7
  6
CONTINUOUS
370
-3
390
F
  0
ENDTAB
  0
TABLE
  2
STYLE
  5
3
100
AcDbSymbolTable
 70
1
  0
STYLE
  5
11
100
AcDbSymbolTableRecord
100
AcDbTextStyleTableRecord
  2
STANDARD
 70
0
 40
0.0
 41
0.8
 50
0.0
 71
0
 42
0.2
  3
txt
  4

  0
STYLE
  5
203
100
AcDbSymbolTableRecord
100
AcDbTextStyleTableRecord
  2
TEXTSTYLE_1
 70
0
 40
0.0
 41
0.8
 50
0.0
 71
0
 42
0.2
  3
gdt
  4

  0
ENDTAB
  0
TABLE
  2
VIEW
  5
6
100
AcDbSymbolTable
 70
0
  0
ENDTAB
  0
TABLE
  2
UCS
  5
7
100
AcDbSymbolTable
 70
0
  0
ENDTAB
  0
TABLE
  2
APPID
  5
9
100
AcDbSymbolTable
 70
1
  0
APPID
  5
204
100
AcDbSymbolTableRecord
100
AcDbRegAppTableRecord
  2
ACAD
 70
0
  0
ENDTAB
  0
TABLE
  2
BLOCK_RECORD
  5
1
100
AcDbSymbolTable
 70
0
  0
BLOCK_RECORD
  5
205
100
AcDbSymbolTableRecord
100
AcDbBlockTableRecord
  2
*Model_Space
  0
BLOCK_RECORD
  5
206
100
AcDbSymbolTableRecord
100
AcDbBlockTableRecord
  2
*Paper_Space
  0
BLOCK_RECORD
  5
207
100
AcDbSymbolTableRecord
100
AcDbBlockTableRecord
  2
_FILLED
  0
ENDTAB
  0
TABLE
  2
DIMSTYLE
  5
A
100
AcDbSymbolTable
 70
1
100
AcDbDimStyleTable
 71
0
  0
DIMSTYLE
105
208
100
AcDbSymbolTableRecord
100
AcDbDimStyleTableRecord
  2
STANDARD
 70
0
  3

  4

 40
1.0
 41
0.1
 42
0.0625
 43
0.38
 44
0.125
 45
0.0
 46
0.0
 47
0.001
 48
0.001
140
0.08
141
0.09
142
0.0
143
25.4
144
1.0
145
0.0
146
1.0
147
0.09
 71
1.0
 72
0.0
 73
1
 74
1
 75
0
 76
0
 77
0
 78
4
 79
1
170
1
171
2
172
0
173
0
174
0
175
0
176
0
177
0
178
0
270
2
179
3
271
3
272
3
273
2
274
2
275
0
280
0
281
0
282
0
283
1
284
4
285
0
286
0
287
3
288
0
340
11
278
46
341
207
342
207
343
207
344
207
  0
ENDTAB
  0
ENDSEC
  0
SECTION
  2
BLOCKS
  0
BLOCK
  5
20
100
AcDbEntity
  8
0
100
AcDbBlockBegin
  2
*Model_Space
 70
0
 10
0.0
 20
0.0
 30
0.0
  3
*Model_Space
  1

  0
ENDBLK
  5
21
100
AcDbEntity
  8
0
100
AcDbBlockEnd
  0
BLOCK
  5
1C
100
AcDbEntity
  8
0
100
AcDbBlockBegin
  2
*Paper_Space
 70
0
 10
0.0
 20
0.0
 30
0.0
  3
*Paper_Space
  1

  0
ENDBLK
  5
1D
100
AcDbEntity
  8
0
100
AcDbBlockEnd
  0
BLOCK
  5
209
100
AcDbEntity
  8
0
100
AcDbBlockBegin
  2
_FILLED
 70
64
 10
0.0
 20
0.0
  3
_FILLED
  1

  0
SOLID
  5
20A
100
AcDbEntity
  8
0
  6
BYBLOCK
 62
0
100
AcDbTrace
 10
0.0
 20
0.0
 11
-1.0
 21
0.2
 12
-1.0
 22
-0.2
 13
-1.0
 23
-0.2
  0
ENDBLK
  5
20B
100
AcDbEntity
  8
0
  6
BYBLOCK
 62
0
100
AcDbBlockEnd
  0
ENDSEC
  0
SECTION
  2
ENTITIES
  0
LINE
  5
20C
100
AcDbEntity
  8
0
100
AcDbLine
 62
7
  6
CONTINUOUS
 10
12.6958406458
 20
12.0420840886
 11
12.7725683383
 21
12.0730840886
  0
LINE
  5
20D
100
AcDbEntity
  8
0
100
AcDbLine
 62
7
  6
CONTINUOUS
 10
12.5664272698
 20
10.903212653
 11
12.5673865146
 21
10.9036672879
  0
LINE
  5
20E
100
AcDbEntity
  8
0
100
AcDbLine
 62
7
  6
CONTINUOUS
 10
12.5664274918
 20
10.9032126838
 11
11.8397677895
 21
10.5817208155
  0
LINE
  5
20F
100
AcDbEntity
  8
0
100
AcDbLine
 62
7
  6
CONTINUOUS
 10
13.1925683383
 20
10.9630840886
 11
13.2687561646
 21
10.994160702
  0
LWPOLYLINE
  5
210
100
AcDbEntity
  8
0
100
AcDbPolyline
 62
7
  6
CONTINUOUS
 90
9
 70
0
 10
12.5673865146
 20
10.9036672879
 10
12.5701688502
 20
10.905368946
 10
12.5726610985
 20
10.9075114876
 10
12.5747475204
 20
10.9099880154
 10
12.5763627503
 20
10.9126595056
 10
12.5775056107
 20
10.9154047432
 10
12.578209084
 20
10.9181170799
 10
12.5785285787
 20
10.9206911535
 10
12.5785683383
 20
10.921988354
  0
LINE
  5
211
100
AcDbEntity
  8
0
100
AcDbLine
 62
7
  6
CONTINUOUS
 10
9.2138233513
 20
11.518381771
 11
9.213823275
 21
3.4024428756
  0
LINE
  5
212
100
AcDbEntity
  8
0
100
AcDbLine
 62
7
  6
CONTINUOUS
 10
13.3891595357
 20
11.0083499364
 11
13.3695242808
 21
10.9940840886
  0
LINE
  5
213
100
AcDbEntity
  8
0
100
AcDbLine
 62
7
  6
CONTINUOUS
 10
10.3533134016
 20
3.4024428756
 11
10.3533133672
 21
11.5182837979
  0
LINE
  5
214
100
AcDbEntity
  8
0
100
AcDbLine
 62
9
  6
CONTINUOUS
 10
12.5664282397
 20
10.9032130147
 11
12.5666602414
 21
10.9037098376
  0
LINE
  5
215
100
AcDbEntity
  8
0
100
AcDbLine
 62
7
  6
CONTINUOUS
 10
13.2825683383
 20
12.0180840886
 11
13.2964247447
 21
12.0420840886
  0
LINE
  5
216
100
AcDbEntity
  8
0
100
AcDbLine
 62
7
  6
CONTINUOUS
 10
11.4535683383
 20
10.5385840886
 11
11.4535683383
 21
12.4975840886
  0
LINE
  5
217
100
AcDbEntity
  8
0
100
AcDbLine
 62
7
  6
CONTINUOUS
 10
12.6485683383
 20
11.8965948859
 11
12.6958406458
 21
12.0420840886
  0
LINE
  5
218
100
AcDbEntity
  8
0
100
AcDbLine
 62
7
  6
CONTINUOUS
 10
13.2687561646
 20
10.994160702
 11
13.2825683383
 21
11.0180840886
  0
LINE
  5
219
100
AcDbEntity
  8
0
100
AcDbLine
 62
9
  6
CONTINUOUS
 10
11.6287923827
 20
12.5265126601
 11
11.6287923827
 21
10.5096555172
  0
LINE
  5
21A
100
AcDbEntity
  8
0
100
AcDbLine
 62
9
  6
CONTINUOUS
 10
11.6742951636
 20
10.543550077
 11
11.6742951636
 21
12.4926181003
  0
LINE
  5
21B
100
AcDbEntity
  8
0
100
AcDbLine
 62
9
  6
CONTINUOUS
 10
11.8397677895
 20
10.5817208155
 11
11.8397677895
 21
12.4544473617
  0
LINE
  5
21C
100
AcDbEntity
  8
0
100
AcDbLine
 62
7
  6
CONTINUOUS
 10
13.3891595357
 20
11.0083499364
 11
13.4085683383
 21
11.0680840886
  0
LINE
  5
21D
100
AcDbEntity
  8
0
100
AcDbLine
 62
9
  6
CONTINUOUS
 10
12.5666602414
 20
10.9037098376
 11
12.5666602414
 21
12.1324583397
  0
LINE
  5
21E
100
AcDbEntity
  8
0
100
AcDbLine
 62
7
  6
CONTINUOUS
 10
12.5785683357
 20
12.1141903515
 11
12.5785683383
 21
10.9219880284
  0
LINE
  5
21F
100
AcDbEntity
  8
0
100
AcDbLine
 62
7
  6
CONTINUOUS
 10
12.6485683383
 20
11.1395732913
 11
12.6485683383
 21
11.3375238076
  0
LINE
  5
220
100
AcDbEntity
  8
0
100
AcDbLine
 62
7
  6
CONTINUOUS
 10
12.6485683383
 20
11.6986443697
 11
12.6485683383
 21
11.8965948859
  0
LWPOLYLINE
  5
221
100
AcDbEntity
  8
0
100
AcDbPolyline
 62
7
  6
CONTINUOUS
 90
9
 70
0
 10
12.5785683357
 20
12.1141903515
 10
12.5785335274
 20
12.1153933065
 10
12.5782228241
 20
12.1179764428
 10
12.5775263344
 20
12.1206998746
 10
12.576387912
 20
12.1234573606
 10
12.5747740267
 20
12.1261415664
 10
12.5726851686
 20
12.1286307618
 10
12.5701868472
 20
12.1307844589
 10
12.56739602
 20
12.1324943169
  0
LINE
  5
222
100
AcDbEntity
  8
0
100
AcDbLine
 62
7
  6
CONTINUOUS
 10
12.6958406458
 20
10.9940840886
 11
12.6958406458
 21
11.2691345203
  0
LINE
  5
223
100
AcDbEntity
  8
0
100
AcDbLine
 62
7
  6
CONTINUOUS
 10
12.6958406458
 20
11.767033657
 11
12.6958406458
 21
12.0420840886
  0
LINE
  5
224
100
AcDbEntity
  8
0
100
AcDbLine
 62
7
  6
CONTINUOUS
 10
12.7725683383
 20
10.9630840886
 11
12.7725683383
 21
11.2018936738
  0
LINE
  5
225
100
AcDbEntity
  8
0
100
AcDbLine
 62
7
  6
CONTINUOUS
 10
12.7725683383
 20
11.8342745035
 11
12.7725683383
 21
12.0730840886
  0
LINE
  5
226
100
AcDbEntity
  8
0
100
AcDbLine
 62
7
  6
CONTINUOUS
 10
13.1925683383
 20
10.9630840886
 11
13.1925683383
 21
11.2018936738
  0
LINE
  5
227
100
AcDbEntity
  8
0
100
AcDbLine
 62
7
  6
CONTINUOUS
 10
13.1925683383
 20
11.8342745035
 11
13.1925683383
 21
12.0730840886
  0
LINE
  5
228
100
AcDbEntity
  8
0
100
AcDbLine
 62
7
  6
CONTINUOUS
 10
13.2687561646
 20
10.994160702
 11
13.2687561646
 21
11.2685546631
  0
LINE
  5
229
100
AcDbEntity
  8
0
100
AcDbLine
 62
7
  6
CONTINUOUS
 10
13.2687561646
 20
11.7676135142
 11
13.2687561646
 21
12.0420074753
  0
LINE
  5
22A
100
AcDbEntity
  8
0
100
AcDbLine
 62
7
  6
CONTINUOUS
 10
13.2825683383
 20
12.0180840886
 11
13.2825683383
 21
11.7506065977
  0
LINE
  5
22B
100
AcDbEntity
  8
0
100
AcDbLine
 62
7
  6
CONTINUOUS
 10
13.2825683383
 20
11.2855615795
 11
13.2825683383
 21
11.0180840886
  0
LINE
  5
22C
100
AcDbEntity
  8
0
100
AcDbLine
 62
7
  6
CONTINUOUS
 10
13.2964247447
 20
10.9940840886
 11
13.2964247447
 21
11.3047224774
  0
LINE
  5
22D
100
AcDbEntity
  8
0
100
AcDbLine
 62
7
  6
CONTINUOUS
 10
13.2964247447
 20
11.7314456998
 11
13.2964247447
 21
12.0420840886
  0
LINE
  5
22E
100
AcDbEntity
  8
0
100
AcDbLine
 62
7
  6
CONTINUOUS
 10
13.3695242808
 20
12.0420840886
 11
13.3695242808
 21
10.9940840886
  0
LINE
  5
22F
100
AcDbEntity
  8
0
100
AcDbLine
 62
7
  6
CONTINUOUS
 10
13.3891595357
 20
12.0278182409
 11
13.3891595357
 21
11.0083499364
  0
LINE
  5
230
100
AcDbEntity
  8
0
100
AcDbLine
 62
7
  6
CONTINUOUS
 10
13.4085683383
 20
11.0680840886
 11
13.4085683383
 21
11.9680840886
  0
LINE
  5
231
100
AcDbEntity
  8
0
100
AcDbLine
 62
9
  6
CONTINUOUS
 10
13.4594477408
 20
11.0880840886
 11
13.4594477408
 21
11.9480840886
  0
LINE
  5
232
100
AcDbEntity
  8
0
100
AcDbLine
 62
9
  6
CONTINUOUS
 10
13.5257711684
 20
11.1356965262
 11
13.5257711684
 21
11.9004716511
  0
LINE
  5
233
100
AcDbEntity
  8
0
100
AcDbLine
 62
7
  6
CONTINUOUS
 10
12.6485683383
 20
11.1395732913
 11
12.6958406458
 21
10.9940840886
  0
LINE
  5
234
100
AcDbEntity
  8
0
100
AcDbLine
 62
7
  6
CONTINUOUS
 10
11.4535683383
 20
10.6180840886
 11
10.3846285447
 21
10.6180840886
  0
LINE
  5
235
100
AcDbEntity
  8
0
100
AcDbLine
 62
7
  6
CONTINUOUS
 10
12.7725683383
 20
10.9630840886
 11
13.1925683383
 21
10.9630840886
  0
LINE
  5
236
100
AcDbEntity
  8
0
100
AcDbLine
 62
7
  6
CONTINUOUS
 10
13.2964247447
 20
10.9940840886
 11
13.3695242808
 21
10.9940840886
  0
LINE
  5
237
100
AcDbEntity
  8
0
100
AcDbLine
 62
9
  6
CONTINUOUS
 10
12.5666602414
 20
12.1324583397
 11
12.5664291269
 21
12.1329547667
  0
LINE
  5
238
100
AcDbEntity
  8
0
100
AcDbLine
 62
7
  6
CONTINUOUS
 10
13.4594477408
 20
11.0880840886
 11
13.4085683383
 21
11.0880840886
  0
LINE
  5
239
100
AcDbEntity
  8
0
100
AcDbLine
 62
7
  6
CONTINUOUS
 10
12.5785683383
 20
11.2180840886
 11
12.6485683383
 21
11.2180840886
  0
LINE
  5
23A
100
AcDbEntity
  8
0
100
AcDbLine
 62
7
  6
CONTINUOUS
 10
12.6958406458
 20
10.9940840886
 11
12.7725683383
 21
10.9630840886
  0
LINE
  5
23B
100
AcDbEntity
  8
0
100
AcDbLine
 62
7
  6
CONTINUOUS
 10
13.2825683383
 20
11.0180840886
 11
13.2964247447
 21
10.9940840886
  0
LINE
  5
23C
100
AcDbEntity
  8
0
100
AcDbLine
 62
7
  6
CONTINUOUS
 10
13.3891595357
 20
12.0278182409
 11
13.4085683383
 21
11.9680840886
  0
LINE
  5
23D
100
AcDbEntity
  8
0
100
AcDbLine
 62
7
  6
CONTINUOUS
 10
12.5785683383
 20
11.8180840886
 11
12.6485683383
 21
11.8180840886
  0
LINE
  5
23E
100
AcDbEntity
  8
0
100
AcDbLine
 62
7
  6
CONTINUOUS
 10
13.2687561646
 20
12.0420074753
 11
13.2825683383
 21
12.0180840886
  0
LINE
  5
23F
100
AcDbEntity
  8
0
100
AcDbLine
 62
7
  6
CONTINUOUS
 10
13.4594477408
 20
11.9480840886
 11
13.4085683383
 21
11.9480840886
  0
LINE
  5
240
100
AcDbEntity
  8
0
100
AcDbLine
 62
7
  6
CONTINUOUS
 10
13.2964247447
 20
12.0420840886
 11
13.3695242808
 21
12.0420840886
  0
LINE
  5
241
100
AcDbEntity
  8
0
100
AcDbLine
 62
7
  6
CONTINUOUS
 10
12.7725683383
 20
12.0730840886
 11
13.1925683383
 21
12.0730840886
  0
LINE
  5
242
100
AcDbEntity
  8
0
100
AcDbLine
 62
7
  6
CONTINUOUS
 10
11.4535683383
 20
12.4180840886
 11
10.3846285447
 21
12.4180840886
  0
LINE
  5
243
100
AcDbEntity
  8
0
100
AcDbLine
 62
7
  6
CONTINUOUS
 10
13.1925683383
 20
12.0730840886
 11
13.2687561646
 21
12.0420074753
  0
LINE
  5
244
100
AcDbEntity
  8
0
100
AcDbLine
 62
7
  6
CONTINUOUS
 10
12.5664271245
 20
12.1329556559
 11
11.8397677895
 21
12.4544473617
  0
LINE
  5
245
100
AcDbEntity
  8
0
100
AcDbLine
 62
7
  6
CONTINUOUS
 10
12.56739602
 20
12.1324943169
 11
12.5664292593
 21
12.1329528573
  0
LINE
  5
246
100
AcDbEntity
  8
0
100
AcDbLine
 62
7
  6
CONTINUOUS
 10
13.3891595357
 20
12.0278182409
 11
13.3695242808
 21
12.0420840886
  0
ARC
  5
247
100
AcDbEntity
  8
0
100
AcDbCircle
 62
7
  6
CONTINUOUS
 10
9.7835683383
 20
11.5180840886
 40
1.2775
100
AcDbArc
 50
296.5034556
 51
315.1728590039
  0
ARC
  5
248
100
AcDbEntity
  8
0
100
AcDbCircle
 62
7
  6
CONTINUOUS
 10
9.7835683383
 20
11.5180840886
 40
1.2775
100
AcDbArc
 50
44.8271409961
 51
243.4965444
  0
ARC
  5
249
100
AcDbEntity
  8
0
100
AcDbCircle
 62
7
  6
CONTINUOUS
 10
12.3929433383
 20
11.5180840886
 40
1.195625
100
AcDbArc
 50
341.3478200484
 51
18.6521799516
  0
ARC
  5
24A
100
AcDbEntity
  8
0
100
AcDbCircle
 62
9
  6
CONTINUOUS
 10
9.7835683383
 20
11.5180840886
 40
1.0873991348
100
AcDbArc
 50
55.9356944682
 51
238.4016958372
  0
ARC
  5
24B
100
AcDbEntity
  8
0
100
AcDbCircle
 62
9
  6
CONTINUOUS
 10
9.7835683383
 20
11.5180840886
 40
1.0873991348
100
AcDbArc
 50
301.5983041631
 51
304.0643055314
  0
ARC
  5
24C
100
AcDbEntity
  8
0
100
AcDbCircle
 62
7
  6
CONTINUOUS
 10
9.7835683383
 20
11.5180840886
 40
1.0825
100
AcDbArc
 50
301.7706014357
 51
238.2293985643
  0
ARC
  5
24D
100
AcDbEntity
  8
0
100
AcDbCircle
 62
7
  6
CONTINUOUS
 10
9.7835683383
 20
11.5180840886
 40
0.94
100
AcDbArc
 50
307.3211712223
 51
232.6788287777
  0
ARC
  5
24E
100
AcDbEntity
  8
0
100
AcDbCircle
 62
9
  6
CONTINUOUS
 10
9.7835683383
 20
11.5180840886
 40
0.91
100
AcDbArc
 50
308.7917926959
 51
231.2082073041
  0
ARC
  5
24F
100
AcDbEntity
  8
0
100
AcDbCircle
 62
7
  6
CONTINUOUS
 10
9.7730776141
 20
11.5180851934
 40
0.5802357872
100
AcDbArc
 50
0.0195987875
 51
2.7771656867
  0
ARC
  5
250
100
AcDbEntity
  8
0
100
AcDbCircle
 62
7
  6
CONTINUOUS
 10
9.7834861814
 20
11.5315110995
 40
0.5565729952
100
AcDbArc
 50
86.2757821281
 51
89.9915424569
  0
ARC
  5
251
100
AcDbEntity
  8
0
100
AcDbCircle
 62
7
  6
CONTINUOUS
 10
9.7836504951
 20
11.5315110995
 40
0.5565729952
100
AcDbArc
 50
90.0084575431
 51
93.7242178719
  0
ARC
  5
252
100
AcDbEntity
  8
0
100
AcDbCircle
 62
7
  6
CONTINUOUS
 10
11.6576999686
 20
12.0429242049
 40
0.45
100
AcDbArc
 50
66.1342398804
 51
87.8865549168
  0
ARC
  5
253
100
AcDbEntity
  8
0
100
AcDbCircle
 62
7
  6
CONTINUOUS
 10
11.6576999686
 20
10.9932439723
 40
0.45
100
AcDbArc
 50
272.1134450832
 51
293.8657601196
  0
CIRCLE
  5
254
100
AcDbEntity
  8
0
100
AcDbCircle
 62
7
  6
CONTINUOUS
 10
12.9825683383
 20
11.5180840886
 40
0.3797350868
  0
CIRCLE
  5
255
100
AcDbEntity
  8
0
100
AcDbCircle
 62
7
  6
CONTINUOUS
 10
12.9825683383
 20
11.5180840886
 40
0.2
  0
CIRCLE
  5
256
100
AcDbEntity
  8
0
100
AcDbCircle
 62
7
  6
CONTINUOUS
 10
12.9825683383
 20
11.5180840886
 40
0.18
  0
CIRCLE
  5
257
100
AcDbEntity
  8
0
100
AcDbCircle
 62
7
  6
CONTINUOUS
 10
12.9825683383
 20
11.5180840886
 40
0.15
  0
ARC
  5
258
100
AcDbEntity
  8
0
100
AcDbCircle
 62
7
  6
CONTINUOUS
 10
11.5435683383
 20
10.5385840886
 40
0.09
100
AcDbArc
 50
180.0
 51
341.250659153
  0
ARC
  5
259
100
AcDbEntity
  8
0
100
AcDbCircle
 62
7
  6
CONTINUOUS
 10
11.5435683383
 20
12.4975840886
 40
0.09
100
AcDbArc
 50
18.749340847
 51
180.0
  0
ARC
  5
25A
100
AcDbEntity
  8
0
100
AcDbCircle
 62
7
  6
CONTINUOUS
 10
13.4594477408
 20
11.8780840886
 40
0.07
100
AcDbArc
 50
18.6521799516
 51
90.0
  0
ARC
  5
25B
100
AcDbEntity
  8
0
100
AcDbCircle
 62
7
  6
CONTINUOUS
 10
13.4594477408
 20
11.1580840886
 40
0.07
100
AcDbArc
 50
270.0
 51
341.3478200484
  0
ARC
  5
25C
100
AcDbEntity
  8
0
100
AcDbCircle
 62
7
  6
CONTINUOUS
 10
11.6761390741
 20
10.4935840886
 40
0.05
100
AcDbArc
 50
92.1134450832
 51
161.250659153
  0
ARC
  5
25D
100
AcDbEntity
  8
0
100
AcDbCircle
 62
7
  6
CONTINUOUS
 10
11.6761390741
 20
12.5425840886
 40
0.05
100
AcDbArc
 50
198.749340847
 51
267.8865549168
  0
ARC
  5
25E
100
AcDbEntity
  8
0
100
AcDbCircle
 62
9
  6
CONTINUOUS
 10
12.5585805411
 20
10.9219927675
 40
0.0199884499
100
AcDbArc
 50
293.841876923
 51
359.9954737514
  0
ARC
  5
25F
100
AcDbEntity
  8
0
100
AcDbCircle
 62
9
  6
CONTINUOUS
 10
12.5585819461
 20
12.1141766702
 40
0.0199866577
100
AcDbArc
 50
0.0392207242
 51
66.1603463637
  0
LINE
  5
260
100
AcDbEntity
  8
0
100
AcDbLine
 62
7
  6
CONTINUOUS
 10
10.3533134016
 20
11.5180840886
 11
10.3533133673
 21
11.5182836708
  0
LINE
  5
261
100
AcDbEntity
  8
0
100
AcDbLine
 62
7
  6
CONTINUOUS
 10
9.2138233512
 20
11.5183815876
 11
9.213823275
 21
11.5180840886
  0
SPLINE
  5
262
100
AcDbEntity
  8
0
100
AcDbSpline
 62
7
  6
CONTINUOUS
 70
0
 71
3
 72
31
 73
27
 74
0
 42
0.0000001
 43
0.0000001
 44
0.0000000001
 40
0.0
 40
0.0
 40
0.0
 40
0.0
 40
0.062456473
 40
0.1249464086
 40
0.1874668439
 40
0.2499932285
 40
0.2812586891
 40
0.3125159006
 40
0.3437637726
 40
0.3750032371
 40
0.4062378138
 40
0.4374736956
 40
0.4687161879
 40
0.4999677294
 40
0.5624780426
 40
0.62500562
 40
0.6875215952
 40
0.7187770089
 40
0.7500230887
 40
0.7812612285
 40
0.7968797225
 40
0.8124980223
 40
0.8437348753
 40
0.8749790292
 40
0.9374761004
 40
1.0
 40
1.0
 40
1.0
 40
1.0
 10
9.7835683383
 20
12.0880840886
 30
0.0
 10
9.7649436518
 20
12.0880840886
 30
0.0
 10
9.7276585686
 20
12.0861916603
 30
0.0
 10
9.6722953751
 20
12.0778495413
 30
0.0
 10
9.6179797373
 20
12.0641773584
 30
0.0
 10
9.574007479
 20
12.0484763673
 30
0.0
 10
9.5398787268
 20
12.0334209235
 30
0.0
 10
9.5148632394
 20
12.0208995837
 30
0.0
 10
9.49049867
 20
12.0071712406
 30
0.0
 10
9.4668489585
 20
11.9922569134
 30
0.0
 10
9.4439803313
 20
11.9761760937
 30
0.0
 10
9.4219555605
 20
11.9589565907
 30
0.0
 10
9.4008128036
 20
11.9406567515
 30
0.0
 10
9.3738556937
 20
11.9148928668
 30
0.0
 10
9.3425564278
 20
11.8802522111
 30
0.0
 10
9.3091853716
 20
11.8352675423
 30
0.0
 10
9.2851070184
 20
11.7952665468
 30
0.0
 10
9.2682567039
 20
11.7619976441
 30
0.0
 10
9.2568608833
 20
11.7364598642
 30
0.0
 10
9.2484337563
 20
11.7147362934
 30
0.0
 10
9.2423550852
 20
11.6971238236
 30
0.0
 10
9.2367251002
 20
11.679363319
 30
0.0
 10
9.2305300348
 20
11.6569015445
 30
0.0
 10
9.2224183156
 20
11.62051322
 30
0.0
 10
9.2156490933
 20
11.5743306317
 30
0.0
 10
9.2138329177
 20
11.5370266817
 30
0.0
 10
9.2138233514
 20
11.5183818909
 30
0.0
  0
SPLINE
  5
263
100
AcDbEntity
  8
0
100
AcDbSpline
 62
7
  6
CONTINUOUS
 70
0
 71
3
 72
31
 73
27
 74
0
 42
0.0000001
 43
0.0000001
 44
0.0000000001
 40
0.0
 40
0.0
 40
0.0
 40
0.0
 40
0.0628159654
 40
0.1256514915
 40
0.1884906977
 40
0.2512972008
 40
0.2826847346
 40
0.3140504478
 40
0.3453921076
 40
0.3767095925
 40
0.4080054677
 40
0.4392852223
 40
0.4705539015
 40
0.5018138683
 40
0.5642880686
 40
0.6267107743
 40
0.6890570655
 40
0.7202052017
 40
0.7513301857
 40
0.7824344696
 40
0.7979816369
 40
0.8135258829
 40
0.8446071909
 40
0.8756873022
 40
0.9378371493
 40
1.0
 40
1.0
 40
1.0
 40
1.0
 10
9.7835683383
 20
2.8390099704
 30
0.0
 10
9.7649380004
 20
2.8390099704
 30
0.0
 10
9.7276463502
 20
2.8408813454
 30
0.0
 10
9.6722705422
 20
2.8491310403
 30
0.0
 10
9.6179426069
 20
2.8626519122
 30
0.0
 10
9.5739524446
 20
2.8781821373
 30
0.0
 10
9.5398083342
 20
2.8930759273
 30
0.0
 10
9.5147868086
 20
2.905460426
 30
0.0
 10
9.4904167671
 20
2.9190387299
 30
0.0
 10
9.4667622248
 20
2.9337900348
 30
0.0
 10
9.4438894363
 20
2.9496951333
 30
0.0
 10
9.4218610553
 20
2.9667264634
 30
0.0
 10
9.4007153813
 20
2.9848261946
 30
0.0
 10
9.3737630179
 20
3.010300947
 30
0.0
 10
9.3424692119
 20
3.0445516482
 30
0.0
 10
9.3090973645
 20
3.0890425349
 30
0.0
 10
9.2850156412
 20
3.1286141358
 30
0.0
 10
9.268167293
 20
3.1615248622
 30
0.0
 10
9.2567770995
 20
3.1867814091
 30
0.0
 10
9.2483548458
 20
3.2082675872
 30
0.0
 10
9.2422809895
 20
3.2256871831
 30
0.0
 10
9.236657227
 20
3.2432500158
 30
0.0
 10
9.2304701549
 20
3.2654619507
 30
0.0
 10
9.2223725915
 20
3.3014438638
 30
0.0
 10
9.2156219549
 20
3.3471132463
 30
0.0
 10
9.213823275
 20
3.3840062425
 30
0.0
 10
9.213823275
 20
3.4024428756
 30
0.0
  0
SPLINE
  5
264
100
AcDbEntity
  8
0
100
AcDbSpline
 62
7
  6
CONTINUOUS
 70
0
 71
3
 72
46
 73
42
 74
0
 42
0.0000001
 43
0.0000001
 44
0.0000000001
 40
0.0
 40
0.0
 40
0.0
 40
0.0
 40
0.0315469346
 40
0.0628476589
 40
0.0939269639
 40
0.124810037
 40
0.1555225803
 40
0.1860896241
 40
0.2165351642
 40
0.2468824677
 40
0.2771537735
 40
0.3073704205
 40
0.3375533092
 40
0.3677228223
 40
0.3978991927
 40
0.4281027353
 40
0.4583541376
 40
0.4886746183
 40
0.5190860139
 40
0.5496113792
 40
0.5802744026
 40
0.6110997883
 40
0.6421131079
 40
0.6733397763
 40
0.7048048006
 40
0.720637083
 40
0.7365373621
 40
0.7685440601
 40
0.8008441302
 40
0.8171089583
 40
0.8334474095
 40
0.849857902
 40
0.8663378725
 40
0.8828835531
 40
0.8994900425
 40
0.916151398
 40
0.9328605704
 40
0.9496094736
 40
0.9663888068
 40
0.9831893362
 40
1.0
 40
1.0
 40
1.0
 40
1.0
 10
10.3535215385
 20
3.8564258903
 30
0.0
 10
10.3707387264
 20
3.8411239479
 30
0.0
 10
10.4038689131
 20
3.8092937482
 30
0.0
 10
10.4495826755
 20
3.7580852315
 30
0.0
 10
10.4910172826
 20
3.7039635296
 30
0.0
 10
10.5280865572
 20
3.6472798256
 30
0.0
 10
10.5607278443
 20
3.5883648321
 30
0.0
 10
10.5888912568
 20
3.5275364439
 30
0.0
 10
10.6125381464
 20
3.4651005819
 30
0.0
 10
10.6316384538
 20
3.4013537487
 30
0.0
 10
10.646169382
 20
3.3365848838
 30
0.0
 10
10.6561143433
 20
3.2710772597
 30
0.0
 10
10.6614623422
 20
3.2051101684
 30
0.0
 10
10.6622075541
 20
3.1389604017
 30
0.0
 10
10.6583491647
 20
3.0729038709
 30
0.0
 10
10.6498913365
 20
3.0072169357
 30
0.0
 10
10.6368433482
 20
2.9421778947
 30
0.0
 10
10.6192199227
 20
2.8780686094
 30
0.0
 10
10.5970417357
 20
2.8151759423
 30
0.0
 10
10.5703363276
 20
2.7537937807
 30
0.0
 10
10.5391393465
 20
2.6942247649
 30
0.0
 10
10.5034967317
 20
2.6367826846
 30
0.0
 10
10.4634666996
 20
2.5817939937
 30
0.0
 10
10.4191268053
 20
2.5296026262
 30
0.0
 10
10.3787419855
 20
2.4888172817
 30
0.0
 10
10.34441987
 20
2.457959026
 30
0.0
 10
10.3086132131
 20
2.4282130805
 30
0.0
 10
10.2613732195
 20
2.393488327
 30
0.0
 10
10.2112663733
 20
2.3625295532
 30
0.0
 10
10.1694915788
 20
2.3401302241
 30
0.0
 10
10.1372705046
 20
2.3245306712
 30
0.0
 10
10.1042837744
 20
2.3102244802
 30
0.0
 10
10.0705837859
 20
2.2972617581
 30
0.0
 10
10.036229615
 20
2.2856911386
 30
0.0
 10
10.0012860649
 20
2.2755584716
 30
0.0
 10
9.9658238309
 20
2.2669059902
 30
0.0
 10
9.9299191442
 20
2.2597713291
 30
0.0
 10
9.8936536881
 20
2.254186871
 30
0.0
 10
9.8571129754
 20
2.2501785053
 30
0.0
 10
9.8203878037
 20
2.2477657663
 30
0.0
 10
9.7958428308
 20
2.2472287199
 30
0.0
 10
9.7835683383
 20
2.2472287199
 30
0.0
  0
SPLINE
  5
265
100
AcDbEntity
  8
0
100
AcDbSpline
 62
7
  6
CONTINUOUS
 70
0
 71
3
 72
46
 73
42
 74
0
 42
0.0000001
 43
0.0000001
 44
0.0000000001
 40
0.0
 40
0.0
 40
0.0
 40
0.0
 40
0.0168107001
 40
0.0336112292
 40
0.0503905484
 40
0.0671394083
 40
0.0838485167
 40
0.100509792
 40
0.117116191
 40
0.1336617523
 40
0.1501415858
 40
0.1665519597
 40
0.1828902839
 40
0.1991549696
 40
0.2314547428
 40
0.2634611759
 40
0.2793612931
 40
0.2951934305
 40
0.3266582267
 40
0.3578846704
 40
0.3888978148
 40
0.4197230009
 40
0.4503858951
 40
0.4809111459
 40
0.5113224838
 40
0.541642919
 40
0.5718943153
 40
0.6020978773
 40
0.6322743035
 40
0.6624439034
 40
0.6926269079
 40
0.7228437127
 40
0.7531151873
 40
0.7834627011
 40
0.8139084518
 40
0.8444757878
 40
0.8751886081
 40
0.9060720122
 40
0.9371516188
 40
0.9684527196
 40
1.0
 40
1.0
 40
1.0
 40
1.0
 10
9.7835683383
 20
2.2472287199
 30
0.0
 10
9.7712939866
 20
2.2472287199
 30
0.0
 10
9.7467493219
 20
2.2477657525
 30
0.0
 10
9.710024633
 20
2.2501784306
 30
0.0
 10
9.6734844543
 20
2.2541866811
 30
0.0
 10
9.6372195694
 20
2.2597709803
 30
0.0
 10
9.6013154878
 20
2.2669054218
 30
0.0
 10
9.5658538711
 20
2.27555761
 30
0.0
 10
9.5309109534
 20
2.2856899155
 30
0.0
 10
9.496557431
 20
2.2972601191
 30
0.0
 10
9.4628580874
 20
2.3102223834
 30
0.0
 10
9.4298719663
 20
2.3245280426
 30
0.0
 10
9.3976514495
 20
2.3401269761
 30
0.0
 10
9.3558773963
 20
2.3625254464
 30
0.0
 10
9.3057713808
 20
2.3934830495
 30
0.0
 10
9.2585320313
 20
2.4282064345
 30
0.0
 10
9.2227258234
 20
2.457951273
 30
0.0
 10
9.1884040084
 20
2.488808337
 30
0.0
 10
9.1480194704
 20
2.5295922433
 30
0.0
 10
9.1036796032
 20
2.5817818018
 30
0.0
 10
9.0636493996
 20
2.6367686783
 30
0.0
 10
9.028006382
 20
2.694208988
 30
0.0
 10
8.996808764
 20
2.7537762678
 30
0.0
 10
8.9701024886
 20
2.8151568152
 30
0.0
 10
8.9479232394
 20
2.878047974
 30
0.0
 10
8.9302985766
 20
2.9421558951
 30
0.0
 10
8.9172491834
 20
3.0071937069
 30
0.0
 10
8.9087898045
 20
3.0728795821
 30
0.0
 10
8.9049297294
 20
3.1389352286
 30
0.0
 10
8.9056731554
 20
3.2050843017
 30
0.0
 10
8.9110192817
 20
3.271050903
 30
0.0
 10
8.9209623058
 20
3.336558234
 30
0.0
 10
8.9354912466
 20
3.4013270186
 30
0.0
 10
8.9545895254
 20
3.4650739616
 30
0.0
 10
8.9782343876
 20
3.5275101749
 30
0.0
 10
9.0063957871
 20
3.5883391159
 30
0.0
 10
9.0390351081
 20
3.6472549001
 30
0.0
 10
9.0761024296
 20
3.703939572
 30
0.0
 10
9.1175351689
 20
3.7580624614
 30
0.0
 10
9.1632471298
 20
3.8092723369
 30
0.0
 10
9.1963762057
 20
3.8411035472
 30
0.0
 10
9.2135928145
 20
3.8564060486
 30
0.0
  0
SPLINE
  5
266
100
AcDbEntity
  8
0
100
AcDbSpline
 62
7
  6
CONTINUOUS
 70
0
 71
3
 72
33
 73
29
 74
0
 42
0.0000001
 43
0.0000001
 44
0.0000000001
 40
0.0
 40
0.0
 40
0.0
 40
0.0
 40
0.0311209943
 40
0.0622462783
 40
0.0933767466
 40
0.1245132513
 40
0.1867920276
 40
0.2491039491
 40
0.2802815938
 40
0.3114692081
 40
0.3426672021
 40
0.3738758995
 40
0.4050955417
 40
0.4363262878
 40
0.4988059803
 40
0.5613298361
 40
0.5926154101
 40
0.6239112092
 40
0.6552167883
 40
0.686531629
 40
0.7178551433
 40
0.7491866728
 40
0.8118557069
 40
0.8745474228
 40
0.9059071938
 40
0.9372695314
 40
0.9686348585
 40
1.0
 40
1.0
 40
1.0
 40
1.0
 10
10.6186721188
 20
2.8792379915
 30
0.0
 10
10.6167664706
 20
2.8670149019
 30
0.0
 10
10.612407114
 20
2.8426487962
 30
0.0
 10
10.6042401987
 20
2.8064287828
 30
0.0
 10
10.5944602438
 20
2.770602731
 30
0.0
 10
10.5792976991
 20
2.7234598457
 30
0.0
 10
10.55640891
 20
2.6658501734
 30
0.0
 10
10.528468055
 20
2.6104961653
 30
0.0
 10
10.503225239
 20
2.5678308756
 30
0.0
 10
10.4828748594
 20
2.5366852674
 30
0.0
 10
10.4611529668
 20
2.5064658072
 30
0.0
 10
10.4381023081
 20
2.4772310628
 30
0.0
 10
10.4137679143
 20
2.4490378828
 30
0.0
 10
10.3796758741
 20
2.4129099084
 30
0.0
 10
10.3340834826
 20
2.3706134778
 30
0.0
 10
10.2849143612
 20
2.3324989934
 30
0.0
 10
10.2436697433
 20
2.3046909512
 30
0.0
 10
10.2118249552
 20
2.2852057363
 30
0.0
 10
10.1791428513
 20
2.2671374117
 30
0.0
 10
10.1456871227
 20
2.2505205361
 30
0.0
 10
10.1115227037
 20
2.2353872938
 30
0.0
 10
10.0651189132
 20
2.2172282376
 30
0.0
 10
10.0056653458
 20
2.1983745215
 30
0.0
 10
9.9447762651
 20
2.1848065472
 30
0.0
 10
9.8954963914
 20
2.1771841341
 30
0.0
 10
9.8583080363
 20
2.173091344
 30
0.0
 10
9.8209752932
 20
2.170632797
 30
0.0
 10
9.7960361363
 20
2.1700859941
 30
0.0
 10
9.7835683383
 20
2.1700859941
 30
0.0
  0
SPLINE
  5
267
100
AcDbEntity
  8
0
100
AcDbSpline
 62
7
  6
CONTINUOUS
 70
0
 71
3
 72
43
 73
39
 74
0
 42
0.0000001
 43
0.0000001
 44
0.0000000001
 40
0.0
 40
0.0
 40
0.0
 40
0.0
 40
0.0312129117
 40
0.0468169239
 40
0.0624180767
 40
0.0936081639
 40
0.1247889061
 40
0.1403784214
 40
0.1559662114
 40
0.1871331937
 40
0.2182959972
 40
0.2494565286
 40
0.2806167331
 40
0.3117785612
 40
0.3429439362
 40
0.3741147217
 40
0.4052926869
 40
0.436479478
 40
0.4676765942
 40
0.4988853519
 40
0.5301068684
 40
0.5457248385
 40
0.5613463164
 40
0.5925958177
 40
0.6238600568
 40
0.6394998875
 40
0.6551434397
 40
0.6864373823
 40
0.717745771
 40
0.7490680017
 40
0.780403224
 40
0.8117503623
 40
0.8431081331
 40
0.8744750717
 40
0.90584952
 40
0.9372297989
 40
0.9686138236
 40
1.0
 40
1.0
 40
1.0
 40
1.0
 10
10.3535160729
 20
3.7153341205
 30
0.0
 10
10.361001045
 20
3.702925899
 30
0.0
 10
10.3716158969
 20
3.6839347966
 30
0.0
 10
10.3844809964
 20
3.6579645344
 30
0.0
 10
10.3964742013
 20
3.6315907359
 30
0.0
 10
10.4098112941
 20
3.5979074437
 30
0.0
 10
10.420881012
 20
3.5634179486
 30
0.0
 10
10.4283446372
 20
3.5354412113
 30
0.0
 10
10.434872904
 20
3.5072382095
 30
0.0
 10
10.4412679654
 20
3.4716042562
 30
0.0
 10
10.4460800099
 20
3.4284362475
 30
0.0
 10
10.4480096493
 20
3.3850459428
 30
0.0
 10
10.4470480709
 20
3.3416240983
 30
0.0
 10
10.4431996032
 20
3.2983601312
 30
0.0
 10
10.4364812444
 20
3.2554431289
 30
0.0
 10
10.4269227013
 20
3.2130604865
 30
0.0
 10
10.4145661854
 20
3.1713971564
 30
0.0
 10
10.3994662867
 20
3.1306348828
 30
0.0
 10
10.381689405
 20
3.0909509744
 30
0.0
 10
10.3613145143
 20
3.0525190814
 30
0.0
 10
10.3422445369
 20
3.0216744684
 30
0.0
 10
10.3257878669
 20
2.9977926315
 30
0.0
 10
10.3085431661
 20
2.9744571503
 30
0.0
 10
10.2855472187
 20
2.946365941
 30
0.0
 10
10.260742529
 20
2.9198467206
 30
0.0
 10
10.2398793013
 20
2.8996420301
 30
0.0
 10
10.2183520838
 20
2.8801259272
 30
0.0
 10
10.1902454483
 20
2.8570670129
 30
0.0
 10
10.154764185
 20
2.8316660726
 30
0.0
 10
10.1176758912
 20
2.8086370778
 30
0.0
 10
10.0791425892
 20
2.7880797159
 30
0.0
 10
10.0393312525
 20
2.770081923
 30
0.0
 10
9.9984145025
 20
2.7547208351
 30
0.0
 10
9.9565694307
 20
2.7420621766
 30
0.0
 10
9.9139772007
 20
2.7321600238
 30
0.0
 10
9.8708213183
 20
2.7250567548
 30
0.0
 10
9.8272905792
 20
2.7207825762
 30
0.0
 10
9.7981397679
 20
2.7198314377
 30
0.0
 10
9.7835683383
 20
2.7198314377
 30
0.0
  0
SPLINE
  5
268
100
AcDbEntity
  8
0
100
AcDbSpline
 62
7
  6
CONTINUOUS
 70
0
 71
3
 72
33
 73
29
 74
0
 42
0.0000001
 43
0.0000001
 44
0.0000000001
 40
0.0
 40
0.0
 40
0.0
 40
0.0
 40
0.0313650548
 40
0.062730299
 40
0.0940925538
 40
0.1254522455
 40
0.188143837
 40
0.2508127727
 40
0.2821442551
 40
0.3134677312
 40
0.3447825429
 40
0.3760881025
 40
0.4073838917
 40
0.4386694654
 40
0.5011933678
 40
0.5636731404
 40
0.5949039275
 40
0.6261236162
 40
0.6573323647
 40
0.6885304128
 40
0.7197180829
 40
0.7508957832
 40
0.8132078289
 40
0.8754867079
 40
0.9066232412
 40
0.9377537271
 40
0.9688790158
 40
1.0
 40
1.0
 40
1.0
 40
1.0
 10
9.7835683383
 20
2.1700859941
 30
0.0
 10
9.7711083733
 20
2.1700859941
 30
0.0
 10
9.7461848875
 20
2.1706321102
 30
0.0
 10
9.7088755085
 20
2.1730875699
 30
0.0
 10
9.6717102455
 20
2.1771752273
 30
0.0
 10
9.6224605908
 20
2.184788103
 30
0.0
 10
9.56160795
 20
2.198339155
 30
0.0
 10
9.5021881362
 20
2.2171695326
 30
0.0
 10
9.4558091949
 20
2.2353063081
 30
0.0
 10
9.4216622312
 20
2.2504210929
 30
0.0
 10
9.3882226511
 20
2.26701784
 30
0.0
 10
9.3555552761
 20
2.2850644448
 30
0.0
 10
9.3237236885
 20
2.3045264344
 30
0.0
 10
9.2824944704
 20
2.3323016487
 30
0.0
 10
9.2333402918
 20
2.3703717886
 30
0.0
 10
9.1877564661
 20
2.4126201814
 30
0.0
 10
9.153667112
 20
2.4487080284
 30
0.0
 10
9.1293325971
 20
2.4768703753
 30
0.0
 10
9.1062796169
 20
2.5060736841
 30
0.0
 10
9.0845531487
 20
2.5362612383
 30
0.0
 10
9.0641958937
 20
2.5673746056
 30
0.0
 10
9.0389407945
 20
2.6099966754
 30
0.0
 10
9.0109786821
 20
2.6652964915
 30
0.0
 10
8.9880606054
 20
2.7228527742
 30
0.0
 10
8.9728698329
 20
2.7699540698
 30
0.0
 10
8.9630663261
 20
2.8057496038
 30
0.0
 10
8.9548734946
 20
2.841939942
 30
0.0
 10
8.9504953005
 20
2.8662869241
 30
0.0
 10
8.9485798543
 20
2.8785006457
 30
0.0
  0
SPLINE
  5
269
100
AcDbEntity
  8
0
100
AcDbSpline
 62
7
  6
CONTINUOUS
 70
0
 71
3
 72
43
 73
39
 74
0
 42
0.0000001
 43
0.0000001
 44
0.0000000001
 40
0.0
 40
0.0
 40
0.0
 40
0.0
 40
0.0313861778
 40
0.0627702032
 40
0.0941504822
 40
0.1255249299
 40
0.1568918675
 40
0.1882496367
 40
0.2195967731
 40
0.2509319931
 40
0.2822542213
 40
0.3135626073
 40
0.3448565471
 40
0.3605000979
 40
0.3761399271
 40
0.4074041635
 40
0.4386536622
 40
0.4542751389
 40
0.4698931078
 40
0.5011146222
 40
0.5323233781
 40
0.563520493
 40
0.5947072831
 40
0.6258852479
 40
0.6570560334
 40
0.688221409
 40
0.7193832382
 40
0.7505434442
 40
0.7817039778
 40
0.8128667838
 40
0.8440337691
 40
0.8596215607
 40
0.8752110777
 40
0.9063918235
 40
0.9375819147
 40
0.9531830696
 40
0.968787084
 40
1.0
 40
1.0
 40
1.0
 40
1.0
 10
9.7835683383
 20
2.7198314377
 30
0.0
 10
9.7689969806
 20
2.7198314377
 30
0.0
 10
9.7398463137
 20
2.7207825668
 30
0.0
 10
9.6963157886
 20
2.7250567031
 30
0.0
 10
9.6531601157
 20
2.7321599018
 30
0.0
 10
9.6105680876
 20
2.7420619567
 30
0.0
 10
9.5687232075
 20
2.7547204903
 30
0.0
 10
9.5278066361
 20
2.7700814274
 30
0.0
 10
9.4879954621
 20
2.7880790447
 30
0.0
 10
9.4494623046
 20
2.8086362077
 30
0.0
 10
9.4123741344
 20
2.8316649819
 30
0.0
 10
9.3768929716
 20
2.8570656822
 30
0.0
 10
9.3487863982
 20
2.8801243811
 30
0.0
 10
9.3272592182
 20
2.8996403058
 30
0.0
 10
9.3063960164
 20
2.9198448113
 30
0.0
 10
9.281591343
 20
2.9463637945
 30
0.0
 10
9.2585953859
 20
2.9744547578
 30
0.0
 10
9.2413506616
 20
2.9977900389
 30
0.0
 10
9.2248939573
 20
3.0216716741
 30
0.0
 10
9.2058239166
 20
3.0525160324
 30
0.0
 10
9.1854489165
 20
3.090947619
 30
0.0
 10
9.1676718913
 20
3.1306312233
 30
0.0
 10
9.1525718152
 20
3.1713931985
 30
0.0
 10
9.1402150881
 20
3.2130562392
 30
0.0
 10
9.1306563005
 20
3.2554386043
 30
0.0
 10
9.123937665
 20
3.2983553446
 30
0.0
 10
9.1200888892
 20
3.3416190683
 30
0.0
 10
9.1191269729
 20
3.3850406907
 30
0.0
 10
9.1210562462
 20
3.4284307976
 30
0.0
 10
9.1258678987
 20
3.4715986355
 30
0.0
 10
9.1322626125
 20
3.5072324711
 30
0.0
 10
9.1387905925
 20
3.5354353942
 30
0.0
 10
9.1462539211
 20
3.5634120646
 30
0.0
 10
9.1573232585
 20
3.5979014966
 30
0.0
 10
9.1706599571
 20
3.6315847553
 30
0.0
 10
9.1826528371
 20
3.6579585471
 30
0.0
 10
9.1955176117
 20
3.6839288135
 30
0.0
 10
9.2061322135
 20
3.7029199346
 30
0.0
 10
9.213617018
 20
3.7153281753
 30
0.0
  0
SPLINE
  5
26A
100
AcDbEntity
  8
0
100
AcDbSpline
 62
7
  6
CONTINUOUS
 70
0
 71
3
 72
31
 73
27
 74
0
 42
0.0000001
 43
0.0000001
 44
0.0000000001
 40
0.0
 40
0.0
 40
0.0
 40
0.0
 40
0.0625239189
 40
0.1250210406
 40
0.1562652197
 40
0.1875020877
 40
0.2031203887
 40
0.218738879
 40
0.2499770007
 40
0.2812230563
 40
0.3124784462
 40
0.3749943865
 40
0.437521961
 40
0.5000322956
 40
0.5312838522
 40
0.5625263567
 40
0.5937622442
 40
0.624996817
 40
0.6562362717
 40
0.6874841321
 40
0.7187413332
 40
0.7500067862
 40
0.8125331612
 40
0.875053596
 40
0.9375435316
 40
1.0
 40
1.0
 40
1.0
 40
1.0
 10
10.3533133672
 20
11.518283876
 30
0.0
 10
10.3533069487
 20
11.5369307151
 30
0.0
 10
10.3514966764
 20
11.5742390801
 30
0.0
 10
10.3447338529
 20
11.6204278117
 30
0.0
 10
10.3366266624
 20
11.6568213566
 30
0.0
 10
10.3304341783
 20
11.6792865032
 30
0.0
 10
10.3248061165
 20
11.6970497612
 30
0.0
 10
10.3187292411
 20
11.7146650026
 30
0.0
 10
10.3103041057
 20
11.7363920704
 30
0.0
 10
10.2989102877
 20
11.7619340781
 30
0.0
 10
10.2820621444
 20
11.7952086326
 30
0.0
 10
10.2579856001
 20
11.8352166838
 30
0.0
 10
10.2246153877
 20
11.8802096291
 30
0.0
 10
10.1933158031
 20
11.9148569198
 30
0.0
 10
10.1663578759
 20
11.9406258817
 30
0.0
 10
10.145214236
 20
11.9589293967
 30
0.0
 10
10.1231883297
 20
11.9761524264
 30
0.0
 10
10.100318315
 20
11.9922365945
 30
0.0
 10
10.0766669525
 20
12.0071540336
 30
0.0
 10
10.0523004994
 20
12.0208852562
 30
0.0
 10
10.0272829142
 20
12.0334092335
 30
0.0
 10
9.9931511097
 20
12.0484678627
 30
0.0
 10
9.9491746055
 20
12.0641721994
 30
0.0
 10
9.8948533679
 20
12.0778473189
 30
0.0
 10
9.8394842315
 20
12.0861912458
 30
0.0
 10
9.8021950624
 20
12.0880840886
 30
0.0
 10
9.7835683383
 20
12.0880840886
 30
0.0
  0
SPLINE
  5
26B
100
AcDbEntity
  8
0
100
AcDbSpline
 62
7
  6
CONTINUOUS
 70
0
 71
3
 72
31
 73
27
 74
0
 42
0.0000001
 43
0.0000001
 44
0.0000000001
 40
0.0
 40
0.0
 40
0.0
 40
0.0
 40
0.0621628507
 40
0.1243126978
 40
0.1553928091
 40
0.1864741171
 40
0.2020183631
 40
0.2175655304
 40
0.2486698143
 40
0.2797947983
 40
0.3109429345
 40
0.3732892257
 40
0.4357119314
 40
0.4981861317
 40
0.5294460985
 40
0.5607147777
 40
0.5919945323
 40
0.6232904075
 40
0.6546078924
 40
0.6859495522
 40
0.7173152654
 40
0.7487027992
 40
0.8115093023
 40
0.8743485085
 40
0.9371840346
 40
1.0
 40
1.0
 40
1.0
 40
1.0
 10
10.3533134016
 20
3.4024428756
 30
0.0
 10
10.3533134016
 20
3.3840062425
 30
0.0
 10
10.3515147217
 20
3.3471132463
 30
0.0
 10
10.3447640851
 20
3.3014438638
 30
0.0
 10
10.3366665217
 20
3.2654619507
 30
0.0
 10
10.3304794496
 20
3.2432500158
 30
0.0
 10
10.3248556871
 20
3.2256871831
 30
0.0
 10
10.3187818308
 20
3.2082675872
 30
0.0
 10
10.3103595771
 20
3.1867814091
 30
0.0
 10
10.2989693836
 20
3.1615248622
 30
0.0
 10
10.2821210353
 20
3.1286141358
 30
0.0
 10
10.2580393121
 20
3.0890425349
 30
0.0
 10
10.2246674647
 20
3.0445516482
 30
0.0
 10
10.1933736586
 20
3.010300947
 30
0.0
 10
10.1664212953
 20
2.9848261946
 30
0.0
 10
10.1452756213
 20
2.9667264634
 30
0.0
 10
10.1232472403
 20
2.9496951333
 30
0.0
 10
10.1003744518
 20
2.9337900348
 30
0.0
 10
10.0767199095
 20
2.9190387299
 30
0.0
 10
10.052349868
 20
2.905460426
 30
0.0
 10
10.0273283424
 20
2.8930759273
 30
0.0
 10
9.9931842319
 20
2.8781821373
 30
0.0
 10
9.9491940697
 20
2.8626519122
 30
0.0
 10
9.8948661344
 20
2.8491310403
 30
0.0
 10
9.8394903263
 20
2.8408813454
 30
0.0
 10
9.8021986761
 20
2.8390099704
 30
0.0
 10
9.7835683383
 20
2.8390099704
 30
0.0
  0
SPLINE
  5
26C
100
AcDbEntity
  8
0
100
AcDbSpline
 62
9
  6
CONTINUOUS
 70
0
 71
3
 72
31
 73
27
 74
0
 42
0.0000001
 43
0.0000001
 44
0.0000000001
 40
0.0
 40
0.0
 40
0.0
 40
0.0
 40
0.0314056393
 40
0.0628118414
 40
0.0942140187
 40
0.1256126981
 40
0.1883798385
 40
0.2511172087
 40
0.2824789466
 40
0.3138301187
 40
0.3451698179
 40
0.3764972251
 40
0.4390983911
 40
0.5016427994
 40
0.5641273491
 40
0.6265506541
 40
0.6577464306
 40
0.6889271834
 40
0.7200932333
 40
0.7512450031
 40
0.8134937502
 40
0.8756929749
 40
0.9067832242
 40
0.9378637691
 40
0.9689356564
 40
1.0
 40
1.0
 40
1.0
 40
1.0
 10
9.7835683383
 20
2.7068529385
 30
0.0
 10
9.7742424757
 20
2.7068529385
 30
0.0
 10
9.7555881975
 20
2.7072442136
 30
0.0
 10
9.7276591145
 20
2.7090033719
 30
0.0
 10
9.6998294679
 20
2.7119321897
 30
0.0
 10
9.6629342867
 20
2.7173876663
 30
0.0
 10
9.6173059702
 20
2.7271000645
 30
0.0
 10
9.5726641691
 20
2.7406044589
 30
0.0
 10
9.537749643
 20
2.7536196457
 30
0.0
 10
9.5120055223
 20
2.7644701257
 30
0.0
 10
9.4867501499
 20
2.7763903855
 30
0.0
 10
9.4538010786
 20
2.7936744989
 30
0.0
 10
9.4140491378
 20
2.8178471218
 30
0.0
 10
9.3690035346
 20
2.8507485224
 30
0.0
 10
9.3269399169
 20
2.887305161
 30
0.0
 10
9.294611544
 20
2.9206108805
 30
0.0
 10
9.2705402032
 20
2.9488000917
 30
0.0
 10
9.2534109818
 20
2.9706782332
 30
0.0
 10
9.237236091
 20
2.9932549702
 30
0.0
 10
9.2169882673
 20
3.0242222055
 30
0.0
 10
9.1941959054
 20
3.0644832291
 30
0.0
 10
9.1749313248
 20
3.1065266975
 30
0.0
 10
9.16172856
 20
3.1410276582
 30
0.0
 10
9.1529455188
 20
3.1672954158
 30
0.0
 10
9.1452977862
 20
3.1939068426
 30
0.0
 10
9.1409643142
 20
3.2118489166
 30
0.0
 10
9.13899138
 20
3.2208599772
 30
0.0
  0
SPLINE
  5
26D
100
AcDbEntity
  8
0
100
AcDbSpline
 62
9
  6
CONTINUOUS
 70
0
 71
3
 72
27
 73
23
 74
0
 42
0.0000001
 43
0.0000001
 44
0.0000000001
 40
0.0
 40
0.0
 40
0.0
 40
0.0
 40
0.0627073304
 40
0.0940631496
 40
0.1254162649
 40
0.1881053482
 40
0.2507764285
 40
0.2821076479
 40
0.3134323696
 40
0.3760516836
 40
0.4386379342
 40
0.5011870537
 40
0.5636956022
 40
0.6261608223
 40
0.6885806878
 40
0.719777325
 40
0.7509622159
 40
0.8132883847
 40
0.8755678017
 40
0.9066944649
 40
0.9378099274
 40
1.0
 40
1.0
 40
1.0
 40
1.0
 10
9.7835683383
 20
2.215035095
 30
0.0
 10
9.7658667794
 20
2.215035095
 30
0.0
 10
9.739303402
 20
2.2158916012
 30
0.0
 10
9.7040104099
 20
2.218742154
 30
0.0
 10
9.6688314778
 20
2.2227281616
 30
0.0
 10
9.6251344974
 20
2.2298331887
 30
0.0
 10
9.581992528
 20
2.239740109
 30
0.0
 10
9.5479300716
 20
2.2493193059
 30
0.0
 10
9.5142087035
 20
2.2599888271
 30
0.0
 10
9.4727441486
 20
2.2753548166
 30
0.0
 10
9.4243074086
 20
2.2969608983
 30
0.0
 10
9.3773969273
 20
2.32164176
 30
0.0
 10
9.3322132134
 20
2.3492923973
 30
0.0
 10
9.2889490816
 20
2.3797944609
 30
0.0
 10
9.254638167
 20
2.4074898134
 30
0.0
 10
9.2283336282
 20
2.4309334006
 30
0.0
 10
9.2028255807
 20
2.4552030166
 30
0.0
 10
9.1724615781
 20
2.4870620808
 30
0.0
 10
9.1442525037
 20
2.5208225813
 30
0.0
 10
9.1230603415
 20
2.5488741297
 30
0.0
 10
9.1028125104
 20
2.5775822771
 30
0.0
 10
9.088693431
 20
2.5998467818
 30
0.0
 10
9.0797829921
 20
2.6149729568
 30
0.0
  0
SPLINE
  5
26E
100
AcDbEntity
  8
0
100
AcDbSpline
 62
9
  6
CONTINUOUS
 70
0
 71
3
 72
31
 73
27
 74
0
 42
0.0000001
 43
0.0000001
 44
0.0000000001
 40
0.0
 40
0.0
 40
0.0
 40
0.0
 40
0.0314056467
 40
0.0628118558
 40
0.09421404
 40
0.1256127261
 40
0.1883798776
 40
0.251117257
 40
0.282478999
 40
0.3138301745
 40
0.3451698765
 40
0.3764972856
 40
0.4390984522
 40
0.5016428581
 40
0.5641274025
 40
0.6265506998
 40
0.6577464723
 40
0.6889272208
 40
0.7200932661
 40
0.7512450312
 40
0.813493768
 40
0.8756929834
 40
0.9067832294
 40
0.9378637717
 40
0.9689356571
 40
1.0
 40
1.0
 40
1.0
 40
1.0
 10
9.7835683383
 20
2.7068529385
 30
0.0
 10
9.7928945372
 20
2.7068529385
 30
0.0
 10
9.8115494882
 20
2.7072442418
 30
0.0
 10
9.8394795748
 20
2.7090035269
 30
0.0
 10
9.8673102142
 20
2.7119325557
 30
0.0
 10
9.9042066964
 20
2.7173884242
 30
0.0
 10
9.9498365862
 20
2.7271015184
 30
0.0
 10
9.9944798546
 20
2.7406068735
 30
0.0
 10
10.029395469
 20
2.7536229788
 30
0.0
 10
10.0551403592
 20
2.7644742202
 30
0.0
 10
10.0803964491
 20
2.7763953111
 30
0.0
 10
10.1133464008
 20
2.7936806209
 30
0.0
 10
10.1530992915
 20
2.8178548985
 30
0.0
 10
10.1981457582
 20
2.8507585098
 30
0.0
 10
10.2402099338
 20
2.8873175509
 30
0.0
 10
10.272538496
 20
2.9206254034
 30
0.0
 10
10.2966098107
 20
2.9488163781
 30
0.0
 10
10.3137389219
 20
2.9706958661
 30
0.0
 10
10.3299136102
 20
2.9932739682
 30
0.0
 10
10.3501610376
 20
3.0242430403
 30
0.0
 10
10.3729526656
 20
3.064506381
 30
0.0
 10
10.3922161847
 20
3.1065521558
 30
0.0
 10
10.4054179036
 20
3.1410549298
 30
0.0
 10
10.4142000622
 20
3.1673240271
 30
0.0
 10
10.4218468141
 20
3.193936767
 30
0.0
 10
10.4261795677
 20
3.2118796946
 30
0.0
 10
10.4281521265
 20
3.2208911755
 30
0.0
  0
SPLINE
  5
26F
100
AcDbEntity
  8
0
100
AcDbSpline
 62
9
  6
CONTINUOUS
 70
0
 71
3
 72
27
 73
23
 74
0
 42
0.0000001
 43
0.0000001
 44
0.0000000001
 40
0.0
 40
0.0
 40
0.0
 40
0.0
 40
0.0627059731
 40
0.094061111
 40
0.1254135473
 40
0.1881014276
 40
0.2507714525
 40
0.2821021771
 40
0.3134264554
 40
0.3760451198
 40
0.4386309677
 40
0.5011799495
 40
0.5636886337
 40
0.626154261
 40
0.6885747926
 40
0.7197718177
 40
0.7509571523
 40
0.8132844243
 40
0.8755651018
 40
0.906692403
 40
0.9378085211
 40
1.0
 40
1.0
 40
1.0
 40
1.0
 10
9.7835683383
 20
2.215035095
 30
0.0
 10
9.8011961288
 20
2.215035095
 30
0.0
 10
9.8276487205
 20
2.2158844709
 30
0.0
 10
9.86279555
 20
2.2187113311
 30
0.0
 10
9.8978297391
 20
2.2226642458
 30
0.0
 10
9.9413492251
 20
2.2297103941
 30
0.0
 10
9.9843205896
 20
2.2395355456
 30
0.0
 10
10.0182521388
 20
2.2490360522
 30
0.0
 10
10.0518468031
 20
2.2596182235
 30
0.0
 10
10.0931614316
 20
2.2748590539
 30
0.0
 10
10.1414344357
 20
2.2962906897
 30
0.0
 10
10.1881997498
 20
2.3207743547
 30
0.0
 10
10.2332591511
 20
2.3482067477
 30
0.0
 10
10.2764219513
 20
2.3784714323
 30
0.0
 10
10.3106691299
 20
2.4059546214
 30
0.0
 10
10.336936082
 20
2.429221148
 30
0.0
 10
10.3624157899
 20
2.453309249
 30
0.0
 10
10.3927619614
 20
2.4849336061
 30
0.0
 10
10.4209779228
 20
2.5184510191
 30
0.0
 10
10.4421910379
 20
2.5463045759
 30
0.0
 10
10.4624702852
 20
2.5748128783
 30
0.0
 10
10.4766248076
 20
2.5969256433
 30
0.0
 10
10.4855643119
 20
2.6119504906
 30
0.0
  0
ENDSEC
  0
SECTION
  2
OBJECTS
  0
DICTIONARY
  5
C
100
AcDbDictionary
280
0
281
1
  3
ACAD_GROUP
350
D
  3
ACAD_MLINESTYLE
350
17
  3
ACAD_LAYOUT
350
1A
  3
ACAD_PLOTSETTINGS
350
19
  3
ACAD_PLOTSTYLENAME
350
E
  0
DICTIONARY
  5
D
102
{ACAD_REACTORS
330
C
102
}
100
AcDbDictionary
280
0
281
1
  0
ACDBDICTIONARYWDFLT
  5
E
102
{ACAD_REACTORS
330
C
102
}
100
AcDbDictionary
281
1
  3
Normal
350
F
100
AcDbDictionaryWithDefault
340
F
  0
DICTIONARY
  5
17
102
{ACAD_REACTORS
330
C
102
}
100
AcDbDictionary
280
0
281
1
  3
Standard
350
18
  0
DICTIONARY
  5
19
102
{ACAD_REACTORS
330
C
102
}
100
AcDbDictionary
281
1
  0
DICTIONARY
  5
1A
102
{ACAD_REACTORS
330
C
102
}
100
AcDbDictionary
281
1
  3
Model
350
270
  3
Layout1
350
271
  0
ACDBPLACEHOLDER
  5
F
102
{ACAD_REACTORS
330
E
102
}
  0
MLINESTYLE
  5
18
102
{ACAD_REACTORS
330
17
102
}
100
AcDbMlineStyle
  2
STANDARD
 70
0
  3

 62
256
 51
90.0
 52
90.0
 71
2
 49
0.5
 62
256
  6
BYLAYER
 49
-0.5
 62
256
  6
BYLAYER
  0
LAYOUT
  5
270
102
{ACAD_REACTORS
330
1A
102
}
100
AcDbPlotSettings
  1

  2
none_device
  4
ANSI_C_(22.00_x_17.00_Inches)
  6

 40
0.0
 41
0.0
 42
0.0
 43
0.0
 44
558.8
 45
431.8
 46
0.0
 47
0.0
 48
0.0
 49
0.0
140
0.0
141
0.0
142
1.0
143
1.0
 70
1024
 72
0
 73
0
 74
0
  7

 75
0
147
1.0
148
0.0
149
0.0
100
AcDbLayout
  1
Model
 70
0
 71
0
 10
0.0
 20
0.0
 11
22.0
 21
17.0
 12
0.0
 22
0.0
 32
0.0
 14
0.0
 24
0.0
 34
0.0
 15
0.0
 25
0.0
 35
0.0
146
0.0
 13
0.0
 23
0.0
 33
0.0
 16
1.0
 26
0.0
 36
0.0
 17
0.0
 27
1.0
 37
0.0
 76
0
330
205
345
0
346
0
  0
LAYOUT
  5
271
102
{ACAD_REACTORS
330
1A
102
}
100
AcDbPlotSettings
  1

  2
none_device
  4
ANSI_C_(22.00_x_17.00_Inches)
  6

 40
0.0
 41
0.0
 42
0.0
 43
0.0
 44
558.8
 45
431.8
 46
0.0
 47
0.0
 48
0.0
 49
0.0
140
0.0
141
0.0
142
1.0
143
1.0
 70
0
 72
0
 73
0
 74
0
  7

 75
0
147
1.0
148
0.0
149
0.0
100
AcDbLayout
  1
Layout1
 70
0
 71
1
 10
0.0
 20
0.0
 11
22.0
 21
17.0
 12
0.0
 22
0.0
 32
0.0
 14
0.0
 24
0.0
 34
0.0
 15
0.0
 25
0.0
 35
0.0
146
0.0
 13
0.0
 23
0.0
 33
0.0
 16
1.0
 26
0.0
 36
0.0
 17
0.0
 27
1.0
 37
0.0
 76
0
330
206
345
0
346
0
  0
ENDSEC
  0
EOF
