999
DXF file: 1030-5463_top.dxf
999
Pro/ENGINEER 2018400 by Parametric Technology Corporation
  0
SECTION
  2
HEADER
  9
$ACADVER
  1
AC1027
  9
$DWGCODEPAGE
  3
ANSI_1252
  9
$EXTMAX
 10
11.0
 20
8.5
 30
0.0
  9
$EXTMIN
 10
0.0
 20
0.0
 30
0.0
  9
$LIMMIN
 10
0.0
 20
0.0
  9
$LIMMAX
 10
11.0
 20
8.5
  9
$VIEWCTR
 10
5.5
 20
4.25
  9
$VIEWSIZE
 40
8.5
  9
$CLAYER
  8
0
  9
$LTSCALE
 40
0.605
  9
$CELTYPE
  6
BYLAYER
  9
$DIMSCALE
 40
1.0
  9
$DIMASZ
 40
0.1
  9
$DIMEXO
 40
0.0625
  9
$DIMDLI
 40
0.418
  9
$DIMEXE
 40
0.125
  9
$DIMCEN
 40
0.099
  9
$DIMLFAC
 40
1.0
  9
$DIMBLK
  1
_FILLED
  9
$DIMALT
 70
1
  9
$DIMALTD
 70
2
  9
$DIMALTTD
 70
2
  9
$DIMALTF
 40
25.4
  9
$DIMTXT
 40
0.08
  9
$DIMTOL
 70
1
  9
$DIMLIM
 70
0
  9
$DIMTFAC
 40
1.0
  9
$DIMTP
 40
0.001
  9
$DIMTM
 40
0.001
  9
$DIMGAP
 40
0.09
  9
$DIMDSEP
 70
46
  9
$AUNITS
 70
0
  9
$PDMODE
 70
3
  9
$PDSIZE
 40
0.06
  9
$HANDSEED
  5
3AB
  9
$TILEMODE
 70
1
  9
$MEASUREMENT
 70
0
  9
$INSUNITS
 70
1
  0
ENDSEC
  0
SECTION
  2
CLASSES
  0
CLASS
  1
ACDBDICTIONARYWDFLT
  2
AcDbDictionaryWithDefault
  3
AutoCAD 2000
 90
0
 91
1
280
0
281
0
  0
CLASS
  1
ACDBPLACEHOLDER
  2
AcDbPlaceHolder
  3
AutoCAD 2000
 90
0
 91
1
280
0
281
0
  0
CLASS
  1
LAYOUT
  2
AcDbLayout
  3
AutoCAD 2000
 90
0
 91
0
280
0
281
0
  0
ENDSEC
  0
SECTION
  2
TABLES
  0
TABLE
  2
VPORT
  5
8
100
AcDbSymbolTable
 70
2
  0
VPORT
  5
1F4
100
AcDbSymbolTableRecord
100
AcDbViewportTableRecord
  2
*ACTIVE
 70
0
 10
0.0
 20
0.0
 11
1.0
 21
1.0
 12
5.5
 22
4.25
 13
0.0
 23
0.0
 14
1.0
 24
1.0
 15
0.0
 25
0.0
 16
0.0
 26
0.0
 36
1.0
 17
0.0
 27
0.0
 37
0.0
 40
8.5
 41
1.2941176471
 42
50.0
 43
0.0
 44
0.0
 50
0.0
 51
0.0
 71
0
 72
100
 73
1
 74
1
 75
0
 76
0
 77
0
 78
0
  0
ENDTAB
  0
TABLE
  2
LTYPE
  5
5
100
AcDbSymbolTable
 70
6
  0
LTYPE
  5
14
100
AcDbSymbolTableRecord
100
AcDbLinetypeTableRecord
  2
BYBLOCK
 70
0
  3

 72
65
 73
0
 40
0.0
  0
LTYPE
  5
15
100
AcDbSymbolTableRecord
100
AcDbLinetypeTableRecord
  2
BYLAYER
 70
0
  3

 72
65
 73
0
 40
0.0
  0
LTYPE
  5
16
100
AcDbSymbolTableRecord
100
AcDbLinetypeTableRecord
  2
CONTINUOUS
 70
64
  3
Solid line
 72
65
 73
0
 40
0.0
  0
LTYPE
  5
1F5
100
AcDbSymbolTableRecord
100
AcDbLinetypeTableRecord
  2
CENTER
 70
64
  3
____ _ ____ _ ____ _ ____ _ ____ _ ____ _ ____
 72
65
 73
4
 40
0.6
 49
0.375
 74
0
 49
-0.075
 74
0
 49
0.075
 74
0
 49
-0.075
 74
0
  0
LTYPE
  5
1F6
100
AcDbSymbolTableRecord
100
AcDbLinetypeTableRecord
  2
HIDDEN
 70
64
  3
- - - - - - - - - - - - - - - - - - - -
 72
65
 73
2
 40
0.2
 49
0.1
 74
0
 49
-0.1
 74
0
  0
LTYPE
  5
1F7
100
AcDbSymbolTableRecord
100
AcDbLinetypeTableRecord
  2
PHANTOM
 70
64
  3
_____ _ _ _____ _ _ _____ _ _ _____
 72
65
 73
6
 40
0.8
 49
0.45
 74
0
 49
-0.05
 74
0
 49
0.1
 74
0
 49
-0.05
 74
0
 49
0.1
 74
0
 49
-0.05
 74
0
  0
LTYPE
  5
1F8
100
AcDbSymbolTableRecord
100
AcDbLinetypeTableRecord
  2
DOT
 70
64
  3
. . . . . . . . . . . . . . . . . . . .
 72
65
 73
2
 40
0.2
 49
0.1
 74
0
 49
-0.1
 74
0
  0
LTYPE
  5
1F9
100
AcDbSymbolTableRecord
100
AcDbLinetypeTableRecord
  2
DASHED
 70
64
  3
- - - - - - - - - - - - - - - - - - - -
 72
65
 73
2
 40
0.2
 49
0.1
 74
0
 49
-0.1
 74
0
  0
ENDTAB
  0
TABLE
  2
LAYER
  5
2
100
AcDbSymbolTable
 70
36
  0
LAYER
  5
10
100
AcDbSymbolTableRecord
100
AcDbLayerTableRecord
  2
0
 70
0
 62
7
  6
CONTINUOUS
370
-3
390
F
  0
LAYER
  5
1FA
100
AcDbSymbolTableRecord
100
AcDbLayerTableRecord
  2
DEFAULT_1
 70
0
 62
7
  6
CENTER
370
-3
390
F
  0
LAYER
  5
1FB
100
AcDbSymbolTableRecord
100
AcDbLayerTableRecord
  2
DEFAULT_2
 70
0
 62
8
  6
HIDDEN
370
-3
390
F
  0
LAYER
  5
1FC
100
AcDbSymbolTableRecord
100
AcDbLayerTableRecord
  2
DEFAULT_3
 70
0
 62
7
  6
PHANTOM
370
-3
390
F
  0
LAYER
  5
1FD
100
AcDbSymbolTableRecord
100
AcDbLayerTableRecord
  2
DEFAULT_COORDINATE_SYSTEM
 70
0
 62
7
  6
CONTINUOUS
370
-3
390
F
  0
LAYER
  5
1FE
100
AcDbSymbolTableRecord
100
AcDbLayerTableRecord
  2
DEFAULT_DATUM_AXES
 70
0
 62
7
  6
CONTINUOUS
370
-3
390
F
  0
LAYER
  5
1FF
100
AcDbSymbolTableRecord
100
AcDbLayerTableRecord
  2
DEFAULT_DATUM_PLANES
 70
0
 62
7
  6
CONTINUOUS
370
-3
390
F
  0
ENDTAB
  0
TABLE
  2
STYLE
  5
3
100
AcDbSymbolTable
 70
1
  0
STYLE
  5
11
100
AcDbSymbolTableRecord
100
AcDbTextStyleTableRecord
  2
STANDARD
 70
0
 40
0.0
 41
0.8
 50
0.0
 71
0
 42
0.2
  3
txt
  4

  0
STYLE
  5
200
100
AcDbSymbolTableRecord
100
AcDbTextStyleTableRecord
  2
TEXTSTYLE_1
 70
0
 40
0.0
 41
0.8
 50
0.0
 71
0
 42
0.2
  3
gdt
  4

  0
ENDTAB
  0
TABLE
  2
VIEW
  5
6
100
AcDbSymbolTable
 70
0
  0
ENDTAB
  0
TABLE
  2
UCS
  5
7
100
AcDbSymbolTable
 70
0
  0
ENDTAB
  0
TABLE
  2
APPID
  5
9
100
AcDbSymbolTable
 70
1
  0
APPID
  5
201
100
AcDbSymbolTableRecord
100
AcDbRegAppTableRecord
  2
ACAD
 70
0
  0
ENDTAB
  0
TABLE
  2
BLOCK_RECORD
  5
1
100
AcDbSymbolTable
 70
0
  0
BLOCK_RECORD
  5
202
100
AcDbSymbolTableRecord
100
AcDbBlockTableRecord
  2
*Model_Space
  0
BLOCK_RECORD
  5
203
100
AcDbSymbolTableRecord
100
AcDbBlockTableRecord
  2
*Paper_Space
  0
BLOCK_RECORD
  5
204
100
AcDbSymbolTableRecord
100
AcDbBlockTableRecord
  2
_FILLED
  0
ENDTAB
  0
TABLE
  2
DIMSTYLE
  5
A
100
AcDbSymbolTable
 70
1
100
AcDbDimStyleTable
 71
0
  0
DIMSTYLE
105
205
100
AcDbSymbolTableRecord
100
AcDbDimStyleTableRecord
  2
STANDARD
 70
0
  3

  4

 40
1.0
 41
0.1
 42
0.0625
 43
0.38
 44
0.125
 45
0.0
 46
0.0
 47
0.001
 48
0.001
140
0.08
141
0.09
142
0.0
143
25.4
144
1.0
145
0.0
146
1.0
147
0.09
 71
1.0
 72
0.0
 73
1
 74
1
 75
0
 76
0
 77
0
 78
4
 79
1
170
1
171
2
172
0
173
0
174
0
175
0
176
0
177
0
178
0
270
2
179
3
271
3
272
3
273
2
274
2
275
0
280
0
281
0
282
0
283
1
284
4
285
0
286
0
287
3
288
0
340
11
278
46
341
204
342
204
343
204
344
204
  0
ENDTAB
  0
ENDSEC
  0
SECTION
  2
BLOCKS
  0
BLOCK
  5
20
100
AcDbEntity
  8
0
100
AcDbBlockBegin
  2
*Model_Space
 70
0
 10
0.0
 20
0.0
 30
0.0
  3
*Model_Space
  1

  0
ENDBLK
  5
21
100
AcDbEntity
  8
0
100
AcDbBlockEnd
  0
BLOCK
  5
1C
100
AcDbEntity
  8
0
100
AcDbBlockBegin
  2
*Paper_Space
 70
0
 10
0.0
 20
0.0
 30
0.0
  3
*Paper_Space
  1

  0
ENDBLK
  5
1D
100
AcDbEntity
  8
0
100
AcDbBlockEnd
  0
BLOCK
  5
206
100
AcDbEntity
  8
0
100
AcDbBlockBegin
  2
_FILLED
 70
64
 10
0.0
 20
0.0
  3
_FILLED
  1

  0
SOLID
  5
207
100
AcDbEntity
  8
0
  6
BYBLOCK
 62
0
100
AcDbTrace
 10
0.0
 20
0.0
 11
-1.0
 21
0.2
 12
-1.0
 22
-0.2
 13
-1.0
 23
-0.2
  0
ENDBLK
  5
208
100
AcDbEntity
  8
0
  6
BYBLOCK
 62
0
100
AcDbBlockEnd
  0
ENDSEC
  0
SECTION
  2
ENTITIES
  0
MTEXT
  5
209
100
AcDbEntity
  8
0
100
AcDbMText
 62
2
  6
CONTINUOUS
  7
STANDARD
 71
3
 72
1
 10
5.4990773515
 20
1.05858903
 30
0.0
 11
1.0
 21
0.0
 31
0.0
 73
2
 44
0.9
  1
SCALE  .500
 40
0.08
 41
0.704
  0
LINE
  5
20A
100
AcDbEntity
  8
0
100
AcDbLine
 62
7
  6
CONTINUOUS
 10
0.0
 20
0.0
 11
0.0
 21
8.5
  0
LINE
  5
20B
100
AcDbEntity
  8
0
100
AcDbLine
 62
7
  6
CONTINUOUS
 10
0.0
 20
0.0
 11
11.0
 21
0.0
  0
LINE
  5
20C
100
AcDbEntity
  8
0
100
AcDbLine
 62
7
  6
CONTINUOUS
 10
0.0
 20
8.5
 11
11.0
 21
8.5
  0
LINE
  5
20D
100
AcDbEntity
  8
0
100
AcDbLine
 62
7
  6
CONTINUOUS
 10
11.0
 20
0.0
 11
11.0
 21
8.5
  0
LINE
  5
20E
100
AcDbEntity
  8
0
100
AcDbLine
 62
7
  6
CONTINUOUS
 10
1.8608273515
 20
5.9840922622
 11
1.8708273515
 21
5.9940922622
  0
LINE
  5
20F
100
AcDbEntity
  8
0
100
AcDbLine
 62
7
  6
CONTINUOUS
 10
1.8608273515
 20
5.7225922622
 11
1.8608273515
 21
5.9840922622
  0
LINE
  5
210
100
AcDbEntity
  8
0
100
AcDbLine
 62
7
  6
CONTINUOUS
 10
1.8708273515
 20
5.9940922622
 11
1.8708273515
 21
5.7125922622
  0
LINE
  5
211
100
AcDbEntity
  8
0
100
AcDbLine
 62
7
  6
CONTINUOUS
 10
1.9108273515
 20
5.7125922622
 11
1.9108273515
 21
5.9940922622
  0
LINE
  5
212
100
AcDbEntity
  8
0
100
AcDbLine
 62
7
  6
CONTINUOUS
 10
3.2130002931
 20
5.9518422622
 11
3.3014308317
 21
6.105008448
  0
LINE
  5
213
100
AcDbEntity
  8
0
100
AcDbLine
 62
7
  6
CONTINUOUS
 10
3.6285773515
 20
5.8845849029
 11
3.6243347108
 21
5.8803422622
  0
LINE
  5
214
100
AcDbEntity
  8
0
100
AcDbLine
 62
7
  6
CONTINUOUS
 10
3.0553273515
 20
5.7125922622
 11
3.0553273515
 21
5.9940922622
  0
LINE
  5
215
100
AcDbEntity
  8
0
100
AcDbLine
 62
7
  6
CONTINUOUS
 10
3.1078273515
 20
5.7125922622
 11
3.1078273515
 21
5.9940922622
  0
LINE
  5
216
100
AcDbEntity
  8
0
100
AcDbLine
 62
7
  6
CONTINUOUS
 10
3.5440773515
 20
5.8845849029
 11
3.5485773515
 21
5.8953422622
  0
LINE
  5
217
100
AcDbEntity
  8
0
100
AcDbLine
 62
7
  6
CONTINUOUS
 10
3.6967238713
 20
5.6016760764
 11
3.7946107253
 21
5.7712210809
  0
LINE
  5
218
100
AcDbEntity
  8
0
100
AcDbLine
 62
7
  6
CONTINUOUS
 10
4.0076559678
 20
6.081845222
 11
4.006648923
 21
6.0808537724
  0
LINE
  5
219
100
AcDbEntity
  8
0
100
AcDbLine
 62
7
  6
CONTINUOUS
 10
3.9292251877
 20
5.9387109409
 11
3.9538082227
 21
5.9558606226
  0
LINE
  5
21A
100
AcDbEntity
  8
0
100
AcDbLine
 62
7
  6
CONTINUOUS
 10
3.2078273515
 20
5.7548422622
 11
3.1078273515
 21
5.7125922622
  0
LINE
  5
21B
100
AcDbEntity
  8
0
100
AcDbLine
 62
7
  6
CONTINUOUS
 10
3.2078273515
 20
5.7548422622
 11
3.2078273515
 21
5.9518422622
  0
LINE
  5
21C
100
AcDbEntity
  8
0
100
AcDbLine
 62
7
  6
CONTINUOUS
 10
3.2378273515
 20
5.7548422622
 11
3.2378273515
 21
5.7561311517
  0
LINE
  5
21D
100
AcDbEntity
  8
0
100
AcDbLine
 62
7
  6
CONTINUOUS
 10
3.2378273515
 20
5.9505533727
 11
3.2378273515
 21
5.9518422622
  0
LINE
  5
21E
100
AcDbEntity
  8
0
100
AcDbLine
 62
7
  6
CONTINUOUS
 10
3.3665773515
 20
5.8108422622
 11
3.3665773515
 21
5.8228422622
  0
LINE
  5
21F
100
AcDbEntity
  8
0
100
AcDbLine
 62
7
  6
CONTINUOUS
 10
3.3665773515
 20
5.8863422622
 11
3.3665773515
 21
5.8953422622
  0
LINE
  5
220
100
AcDbEntity
  8
0
100
AcDbLine
 62
7
  6
CONTINUOUS
 10
3.3748273515
 20
5.8342412753
 11
3.3748273515
 21
5.8749432491
  0
LINE
  5
221
100
AcDbEntity
  8
0
100
AcDbLine
 62
7
  6
CONTINUOUS
 10
3.3948273515
 20
5.8483422622
 11
3.3948273515
 21
5.8342412753
  0
LINE
  5
222
100
AcDbEntity
  8
0
100
AcDbLine
 62
7
  6
CONTINUOUS
 10
3.3953273515
 20
5.8751200744
 11
3.3953273515
 21
5.8631200744
  0
LINE
  5
223
100
AcDbEntity
  8
0
100
AcDbLine
 62
7
  6
CONTINUOUS
 10
3.4030773515
 20
5.8953422622
 11
3.4030773515
 21
5.8863422622
  0
LINE
  5
224
100
AcDbEntity
  8
0
100
AcDbLine
 62
7
  6
CONTINUOUS
 10
3.4030773515
 20
5.8228422622
 11
3.4030773515
 21
5.8108422622
  0
LINE
  5
225
100
AcDbEntity
  8
0
100
AcDbLine
 62
7
  6
CONTINUOUS
 10
3.4115773515
 20
5.8108422622
 11
3.4115773515
 21
5.8228422622
  0
LINE
  5
226
100
AcDbEntity
  8
0
100
AcDbLine
 62
7
  6
CONTINUOUS
 10
3.4115773515
 20
5.8863422622
 11
3.4115773515
 21
5.8953422622
  0
LINE
  5
227
100
AcDbEntity
  8
0
100
AcDbLine
 62
7
  6
CONTINUOUS
 10
3.4193273515
 20
5.8631200744
 11
3.4193273515
 21
5.8751200744
  0
LINE
  5
228
100
AcDbEntity
  8
0
100
AcDbLine
 62
7
  6
CONTINUOUS
 10
3.4198273515
 20
5.8342412753
 11
3.4198273515
 21
5.8483422622
  0
LINE
  5
229
100
AcDbEntity
  8
0
100
AcDbLine
 62
7
  6
CONTINUOUS
 10
3.4398273515
 20
5.8749432491
 11
3.4398273515
 21
5.8342412753
  0
LINE
  5
22A
100
AcDbEntity
  8
0
100
AcDbLine
 62
7
  6
CONTINUOUS
 10
3.4480773515
 20
5.8953422622
 11
3.4480773515
 21
5.8863422622
  0
LINE
  5
22B
100
AcDbEntity
  8
0
100
AcDbLine
 62
7
  6
CONTINUOUS
 10
3.4480773515
 20
5.8228422622
 11
3.4480773515
 21
5.8108422622
  0
LINE
  5
22C
100
AcDbEntity
  8
0
100
AcDbLine
 62
7
  6
CONTINUOUS
 10
3.5680773515
 20
5.8108422622
 11
3.5680773515
 21
5.8228422622
  0
LINE
  5
22D
100
AcDbEntity
  8
0
100
AcDbLine
 62
7
  6
CONTINUOUS
 10
3.5773273515
 20
5.8385724084
 11
3.5773273515
 21
5.8848922622
  0
LINE
  5
22E
100
AcDbEntity
  8
0
100
AcDbLine
 62
7
  6
CONTINUOUS
 10
3.5953273515
 20
5.8848922622
 11
3.5953273515
 21
5.8385724084
  0
LINE
  5
22F
100
AcDbEntity
  8
0
100
AcDbLine
 62
7
  6
CONTINUOUS
 10
3.6045773515
 20
5.8228422622
 11
3.6045773515
 21
5.8108422622
  0
LINE
  5
230
100
AcDbEntity
  8
0
100
AcDbLine
 62
7
  6
CONTINUOUS
 10
3.7603273515
 20
5.7553422622
 11
3.7603273515
 21
5.7561311517
  0
LINE
  5
231
100
AcDbEntity
  8
0
100
AcDbLine
 62
7
  6
CONTINUOUS
 10
3.7603273515
 20
5.9505533727
 11
3.7603273515
 21
5.9513422622
  0
LINE
  5
232
100
AcDbEntity
  8
0
100
AcDbLine
 62
9
  6
CONTINUOUS
 10
3.7674222244
 20
5.9513422622
 11
3.7674222244
 21
5.92874151
  0
LINE
  5
233
100
AcDbEntity
  8
0
100
AcDbLine
 62
9
  6
CONTINUOUS
 10
3.7674222244
 20
5.7779430149
 11
3.7674222244
 21
5.7553422622
  0
LINE
  5
234
100
AcDbEntity
  8
0
100
AcDbLine
 62
9
  6
CONTINUOUS
 10
3.777734937
 20
5.9474136908
 11
3.777734937
 21
5.8601431152
  0
LINE
  5
235
100
AcDbEntity
  8
0
100
AcDbLine
 62
9
  6
CONTINUOUS
 10
3.777734937
 20
5.8465413959
 11
3.777734937
 21
5.7592708336
  0
LINE
  5
236
100
AcDbEntity
  8
0
100
AcDbLine
 62
9
  6
CONTINUOUS
 10
3.9033972519
 20
5.75752048
 11
3.9033972519
 21
5.9491640444
  0
LINE
  5
237
100
AcDbEntity
  8
0
100
AcDbLine
 62
9
  6
CONTINUOUS
 10
3.905384469
 20
5.9505341729
 11
3.9053844874
 21
6.0742964686
  0
LINE
  5
238
100
AcDbEntity
  8
0
100
AcDbLine
 62
9
  6
CONTINUOUS
 10
3.9053844874
 20
5.6323880558
 11
3.9053844697
 21
5.7561503512
  0
LINE
  5
239
100
AcDbEntity
  8
0
100
AcDbLine
 62
7
  6
CONTINUOUS
 10
3.9168842231
 20
5.7633422622
 11
3.9168842231
 21
5.9433422622
  0
LINE
  5
23A
100
AcDbEntity
  8
0
100
AcDbLine
 62
9
  6
CONTINUOUS
 10
3.9292251877
 20
5.7679735835
 11
3.9292251877
 21
5.9387109409
  0
LINE
  5
23B
100
AcDbEntity
  8
0
100
AcDbLine
 62
9
  6
CONTINUOUS
 10
3.9423664348
 20
5.6532361983
 11
3.9423664348
 21
5.7588059521
  0
LINE
  5
23C
100
AcDbEntity
  8
0
100
AcDbLine
 62
9
  6
CONTINUOUS
 10
3.9423664348
 20
5.9478785723
 11
3.9423664348
 21
6.0534483261
  0
LINE
  5
23D
100
AcDbEntity
  8
0
100
AcDbLine
 62
9
  6
CONTINUOUS
 10
3.9538082227
 20
5.7508239018
 11
3.9538082227
 21
5.9558606226
  0
LINE
  5
23E
100
AcDbEntity
  8
0
100
AcDbLine
 62
9
  6
CONTINUOUS
 10
4.006648923
 20
6.0808537724
 11
4.006648923
 21
5.9769301617
  0
LINE
  5
23F
100
AcDbEntity
  8
0
100
AcDbLine
 62
9
  6
CONTINUOUS
 10
4.006648923
 20
5.7297543627
 11
4.006648923
 21
5.625830752
  0
LINE
  5
240
100
AcDbEntity
  8
0
100
AcDbLine
 62
9
  6
CONTINUOUS
 10
4.0076559678
 20
6.081845222
 11
4.0076559678
 21
5.9770778133
  0
LINE
  5
241
100
AcDbEntity
  8
0
100
AcDbLine
 62
9
  6
CONTINUOUS
 10
4.0076559678
 20
5.7296067111
 11
4.0076559678
 21
5.6248393024
  0
LINE
  5
242
100
AcDbEntity
  8
0
100
AcDbLine
 62
9
  6
CONTINUOUS
 10
4.0525030936
 20
6.0795835163
 11
4.0525030936
 21
5.9753502721
  0
LINE
  5
243
100
AcDbEntity
  8
0
100
AcDbLine
 62
9
  6
CONTINUOUS
 10
4.0525030936
 20
5.7313342523
 11
4.0525030936
 21
5.6271010081
  0
LINE
  5
244
100
AcDbEntity
  8
0
100
AcDbLine
 62
9
  6
CONTINUOUS
 10
4.0569650363
 20
6.0764072251
 11
4.0569650363
 21
5.974262111
  0
LINE
  5
245
100
AcDbEntity
  8
0
100
AcDbLine
 62
9
  6
CONTINUOUS
 10
4.0569650363
 20
5.7324224134
 11
4.0569650363
 21
5.6302772993
  0
LINE
  5
246
100
AcDbEntity
  8
0
100
AcDbLine
 62
7
  6
CONTINUOUS
 10
7.4085773515
 20
5.8673123094
 11
7.3999229384
 21
5.8648422622
  0
LINE
  5
247
100
AcDbEntity
  8
0
100
AcDbLine
 62
7
  6
CONTINUOUS
 10
1.8608273515
 20
5.7225922622
 11
1.8708273515
 21
5.7125922622
  0
LINE
  5
248
100
AcDbEntity
  8
0
100
AcDbLine
 62
9
  6
CONTINUOUS
 10
4.345865337
 20
6.084609002
 11
4.345865337
 21
5.6220755224
  0
LINE
  5
249
100
AcDbEntity
  8
0
100
AcDbLine
 62
9
  6
CONTINUOUS
 10
4.3502312195
 20
6.0881639843
 11
4.3502312195
 21
5.6185205401
  0
LINE
  5
24A
100
AcDbEntity
  8
0
100
AcDbLine
 62
9
  6
CONTINUOUS
 10
4.4110221012
 20
6.0826437644
 11
4.4110221012
 21
5.62404076
  0
LINE
  5
24B
100
AcDbEntity
  8
0
100
AcDbLine
 62
9
  6
CONTINUOUS
 10
4.4183552973
 20
6.076892123
 11
4.4183552973
 21
5.6297924014
  0
LINE
  5
24C
100
AcDbEntity
  8
0
100
AcDbLine
 62
7
  6
CONTINUOUS
 10
5.2280262444
 20
5.9414121056
 11
5.2282290113
 21
5.9420336466
  0
LINE
  5
24D
100
AcDbEntity
  8
0
100
AcDbLine
 62
7
  6
CONTINUOUS
 10
5.2280262444
 20
5.9414121056
 11
5.2282343201
 21
5.9420319077
  0
LINE
  5
24E
100
AcDbEntity
  8
0
100
AcDbLine
 62
7
  6
CONTINUOUS
 10
7.7903273515
 20
5.9518422622
 11
7.8903273515
 21
5.9940922622
  0
LINE
  5
24F
100
AcDbEntity
  8
0
100
AcDbLine
 62
7
  6
CONTINUOUS
 10
3.3014308288
 20
5.6016760815
 11
3.2130002931
 21
5.7548422622
  0
LINE
  5
250
100
AcDbEntity
  8
0
100
AcDbLine
 62
7
  6
CONTINUOUS
 10
3.6240773515
 20
5.8953422622
 11
3.6285773515
 21
5.8845849029
  0
LINE
  5
251
100
AcDbEntity
  8
0
100
AcDbLine
 62
7
  6
CONTINUOUS
 10
7.0689295153
 20
5.7679735835
 11
7.0443464803
 21
5.7508239018
  0
LINE
  5
252
100
AcDbEntity
  8
0
100
AcDbLine
 62
9
  6
CONTINUOUS
 10
5.0497994058
 20
6.076892123
 11
5.0497994058
 21
5.6297924014
  0
LINE
  5
253
100
AcDbEntity
  8
0
100
AcDbLine
 62
9
  6
CONTINUOUS
 10
5.0571326018
 20
6.0826437644
 11
5.0571326018
 21
5.62404076
  0
LINE
  5
254
100
AcDbEntity
  8
0
100
AcDbLine
 62
9
  6
CONTINUOUS
 10
5.099969056
 20
6.1016044145
 11
5.099969056
 21
5.8797927947
  0
LINE
  5
255
100
AcDbEntity
  8
0
100
AcDbLine
 62
9
  6
CONTINUOUS
 10
5.099969056
 20
5.8268917297
 11
5.099969056
 21
5.6050801099
  0
LINE
  5
256
100
AcDbEntity
  8
0
100
AcDbLine
 62
9
  6
CONTINUOUS
 10
5.1114618474
 20
6.1056525294
 11
5.1114618474
 21
5.9520387321
  0
LINE
  5
257
100
AcDbEntity
  8
0
100
AcDbLine
 62
9
  6
CONTINUOUS
 10
5.1114618474
 20
5.7546457923
 11
5.1114618474
 21
5.601031995
  0
LINE
  5
258
100
AcDbEntity
  8
0
100
AcDbLine
 62
7
  6
CONTINUOUS
 10
5.2142048273
 20
5.8534081604
 11
5.2142048199
 21
1.7699808584
  0
LINE
  5
259
100
AcDbEntity
  8
0
100
AcDbLine
 62
7
  6
CONTINUOUS
 10
3.7946107253
 20
5.9354634435
 11
3.6967238742
 21
6.105008443
  0
LINE
  5
25A
100
AcDbEntity
  8
0
100
AcDbLine
 62
7
  6
CONTINUOUS
 10
6.99150578
 20
5.625830752
 11
6.9904987352
 21
5.6248393024
  0
LINE
  5
25B
100
AcDbEntity
  8
0
100
AcDbLine
 62
7
  6
CONTINUOUS
 10
5.7839498832
 20
1.7699808584
 11
5.783949866
 21
5.8534421456
  0
LINE
  5
25C
100
AcDbEntity
  8
0
100
AcDbLine
 62
7
  6
CONTINUOUS
 10
4.0076559678
 20
5.6248393024
 11
4.006648923
 21
5.625830752
  0
LINE
  5
25D
100
AcDbEntity
  8
0
100
AcDbLine
 62
7
  6
CONTINUOUS
 10
3.5483199922
 20
5.8803422622
 11
3.5440773515
 21
5.8845849029
  0
LINE
  5
25E
100
AcDbEntity
  8
0
100
AcDbLine
 62
9
  6
CONTINUOUS
 10
5.8867650294
 20
5.6011429077
 11
5.8867650294
 21
5.7549307999
  0
LINE
  5
25F
100
AcDbEntity
  8
0
100
AcDbLine
 62
9
  6
CONTINUOUS
 10
5.8867650294
 20
5.9517537245
 11
5.8867650294
 21
6.1055416167
  0
LINE
  5
260
100
AcDbEntity
  8
0
100
AcDbLine
 62
9
  6
CONTINUOUS
 10
5.8984250859
 20
5.6051375519
 11
5.8984250859
 21
5.8306102805
  0
LINE
  5
261
100
AcDbEntity
  8
0
100
AcDbLine
 62
9
  6
CONTINUOUS
 10
5.8984250859
 20
5.8760742439
 11
5.8984250859
 21
6.1015469725
  0
LINE
  5
262
100
AcDbEntity
  8
0
100
AcDbLine
 62
9
  6
CONTINUOUS
 10
5.9391070435
 20
5.6234137627
 11
5.9391070435
 21
6.0832707617
  0
LINE
  5
263
100
AcDbEntity
  8
0
100
AcDbLine
 62
9
  6
CONTINUOUS
 10
5.9465405872
 20
5.6294251089
 11
5.9465405872
 21
6.0772594155
  0
LINE
  5
264
100
AcDbEntity
  8
0
100
AcDbLine
 62
7
  6
CONTINUOUS
 10
7.2035439777
 20
5.9354634435
 11
7.3014308202
 21
6.105008428
  0
LINE
  5
265
100
AcDbEntity
  8
0
100
AcDbLine
 62
7
  6
CONTINUOUS
 10
7.5726599465
 20
5.8294606993
 11
7.5792998199
 21
5.840431224
  0
LINE
  5
266
100
AcDbEntity
  8
0
100
AcDbLine
 62
7
  6
CONTINUOUS
 10
3.9292251877
 20
5.7679735835
 11
3.9538082227
 21
5.7508239018
  0
LINE
  5
267
100
AcDbEntity
  8
0
100
AcDbLine
 62
7
  6
CONTINUOUS
 10
5.7699203858
 20
5.9420318987
 11
5.7701284587
 21
5.9414121056
  0
LINE
  5
268
100
AcDbEntity
  8
0
100
AcDbLine
 62
7
  6
CONTINUOUS
 10
5.7699256947
 20
5.9420336376
 11
5.7701284587
 21
5.9414121056
  0
LINE
  5
269
100
AcDbEntity
  8
0
100
AcDbLine
 62
9
  6
CONTINUOUS
 10
6.5816141158
 20
5.6294251089
 11
6.5816141158
 21
6.0772594155
  0
LINE
  5
26A
100
AcDbEntity
  8
0
100
AcDbLine
 62
9
  6
CONTINUOUS
 10
6.5890476595
 20
5.6234137627
 11
6.5890476595
 21
6.0832707617
  0
LINE
  5
26B
100
AcDbEntity
  8
0
100
AcDbLine
 62
9
  6
CONTINUOUS
 10
6.6464547332
 20
5.6183285826
 11
6.6464547332
 21
6.0883559418
  0
LINE
  5
26C
100
AcDbEntity
  8
0
100
AcDbLine
 62
9
  6
CONTINUOUS
 10
6.6510036511
 20
5.6221585007
 11
6.6510036511
 21
6.0845260238
  0
LINE
  5
26D
100
AcDbEntity
  8
0
100
AcDbLine
 62
7
  6
CONTINUOUS
 10
7.6967238828
 20
5.6016760964
 11
7.7851544099
 21
5.7548422622
  0
LINE
  5
26E
100
AcDbEntity
  8
0
100
AcDbLine
 62
7
  6
CONTINUOUS
 10
9.1373273515
 20
5.7225922622
 11
9.1273273515
 21
5.7125922622
  0
LINE
  5
26F
100
AcDbEntity
  8
0
100
AcDbLine
 62
7
  6
CONTINUOUS
 10
3.2078273515
 20
5.9518422622
 11
3.1078273515
 21
5.9940922622
  0
LINE
  5
270
100
AcDbEntity
  8
0
100
AcDbLine
 62
9
  6
CONTINUOUS
 10
6.9420184484
 20
5.6293316409
 11
6.9420184484
 21
5.7322077761
  0
LINE
  5
271
100
AcDbEntity
  8
0
100
AcDbLine
 62
9
  6
CONTINUOUS
 10
6.9420184484
 20
5.9744767483
 11
6.9420184484
 21
6.0773528835
  0
LINE
  5
272
100
AcDbEntity
  8
0
100
AcDbLine
 62
9
  6
CONTINUOUS
 10
6.9462211728
 20
5.626410456
 11
6.9462211728
 21
5.7312067777
  0
LINE
  5
273
100
AcDbEntity
  8
0
100
AcDbLine
 62
9
  6
CONTINUOUS
 10
6.9462211728
 20
5.9754777467
 11
6.9462211728
 21
6.0802740684
  0
LINE
  5
274
100
AcDbEntity
  8
0
100
AcDbLine
 62
9
  6
CONTINUOUS
 10
6.9904987352
 20
5.6248393024
 11
6.9904987352
 21
5.7296053317
  0
LINE
  5
275
100
AcDbEntity
  8
0
100
AcDbLine
 62
9
  6
CONTINUOUS
 10
6.9904987352
 20
5.9770791927
 11
6.9904987352
 21
6.081845222
  0
LINE
  5
276
100
AcDbEntity
  8
0
100
AcDbLine
 62
9
  6
CONTINUOUS
 10
6.99150578
 20
5.625830752
 11
6.99150578
 21
5.7297472394
  0
LINE
  5
277
100
AcDbEntity
  8
0
100
AcDbLine
 62
9
  6
CONTINUOUS
 10
6.99150578
 20
5.976937285
 11
6.99150578
 21
6.0808537724
  0
LINE
  5
278
100
AcDbEntity
  8
0
100
AcDbLine
 62
9
  6
CONTINUOUS
 10
7.0443464803
 20
5.9558606226
 11
7.0443464803
 21
5.7508239018
  0
LINE
  5
279
100
AcDbEntity
  8
0
100
AcDbLine
 62
9
  6
CONTINUOUS
 10
7.0557882683
 20
6.0534483261
 11
7.0557882683
 21
5.9478785723
  0
LINE
  5
27A
100
AcDbEntity
  8
0
100
AcDbLine
 62
9
  6
CONTINUOUS
 10
7.0557882683
 20
5.7588059521
 11
7.0557882683
 21
5.6532361983
  0
LINE
  5
27B
100
AcDbEntity
  8
0
100
AcDbLine
 62
9
  6
CONTINUOUS
 10
7.0689295153
 20
5.9387109409
 11
7.0689295153
 21
5.7679735835
  0
LINE
  5
27C
100
AcDbEntity
  8
0
100
AcDbLine
 62
7
  6
CONTINUOUS
 10
7.0812704799
 20
5.9433422622
 11
7.0812704799
 21
5.7633422622
  0
LINE
  5
27D
100
AcDbEntity
  8
0
100
AcDbLine
 62
9
  6
CONTINUOUS
 10
7.092770234
 20
5.7561503515
 11
7.0927702156
 21
5.6323880558
  0
LINE
  5
27E
100
AcDbEntity
  8
0
100
AcDbLine
 62
9
  6
CONTINUOUS
 10
7.0927702156
 20
6.0742964686
 11
7.0927702333
 21
5.9505341733
  0
LINE
  5
27F
100
AcDbEntity
  8
0
100
AcDbLine
 62
9
  6
CONTINUOUS
 10
7.0947574511
 20
5.9491640444
 11
7.0947574511
 21
5.75752048
  0
LINE
  5
280
100
AcDbEntity
  8
0
100
AcDbLine
 62
9
  6
CONTINUOUS
 10
7.2204197661
 20
5.7592708336
 11
7.2204197661
 21
5.8465414093
  0
LINE
  5
281
100
AcDbEntity
  8
0
100
AcDbLine
 62
9
  6
CONTINUOUS
 10
7.2204197661
 20
5.8601431285
 11
7.2204197661
 21
5.9474136908
  0
LINE
  5
282
100
AcDbEntity
  8
0
100
AcDbLine
 62
9
  6
CONTINUOUS
 10
7.2307324786
 20
5.7553422622
 11
7.2307324786
 21
5.7779430145
  0
LINE
  5
283
100
AcDbEntity
  8
0
100
AcDbLine
 62
9
  6
CONTINUOUS
 10
7.2307324786
 20
5.9287415095
 11
7.2307324786
 21
5.9513422622
  0
LINE
  5
284
100
AcDbEntity
  8
0
100
AcDbLine
 62
7
  6
CONTINUOUS
 10
7.2378273515
 20
5.9513422622
 11
7.2378273515
 21
5.9505533727
  0
LINE
  5
285
100
AcDbEntity
  8
0
100
AcDbLine
 62
7
  6
CONTINUOUS
 10
7.2378273515
 20
5.7561311517
 11
7.2378273515
 21
5.7553422622
  0
LINE
  5
286
100
AcDbEntity
  8
0
100
AcDbLine
 62
7
  6
CONTINUOUS
 10
7.5835773515
 20
5.8378422622
 11
7.578816523
 21
5.8108422622
  0
LINE
  5
287
100
AcDbEntity
  8
0
100
AcDbLine
 62
7
  6
CONTINUOUS
 10
3.3799513428
 20
5.5563422622
 11
3.6182033589
 21
5.5563422622
  0
LINE
  5
288
100
AcDbEntity
  8
0
100
AcDbLine
 62
7
  6
CONTINUOUS
 10
7.3799513218
 20
5.5563422622
 11
7.6182033798
 21
5.5563422622
  0
LINE
  5
289
100
AcDbEntity
  8
0
100
AcDbLine
 62
7
  6
CONTINUOUS
 10
7.5040773515
 20
5.8108422622
 11
7.5040773515
 21
5.8228422622
  0
LINE
  5
28A
100
AcDbEntity
  8
0
100
AcDbLine
 62
7
  6
CONTINUOUS
 10
7.5040773515
 20
5.8863422622
 11
7.5040773515
 21
5.8953422622
  0
LINE
  5
28B
100
AcDbEntity
  8
0
100
AcDbLine
 62
7
  6
CONTINUOUS
 10
7.5148273515
 20
5.8372275846
 11
7.5148273515
 21
5.8719569398
  0
LINE
  5
28C
100
AcDbEntity
  8
0
100
AcDbLine
 62
7
  6
CONTINUOUS
 10
7.5328273515
 20
5.8719569398
 11
7.5328273515
 21
5.8372275846
  0
LINE
  5
28D
100
AcDbEntity
  8
0
100
AcDbLine
 62
7
  6
CONTINUOUS
 10
7.5435773515
 20
5.8953422622
 11
7.5435773515
 21
5.8863422622
  0
LINE
  5
28E
100
AcDbEntity
  8
0
100
AcDbLine
 62
7
  6
CONTINUOUS
 10
7.5940773515
 20
5.8108422622
 11
7.5940773515
 21
5.8228422622
  0
LINE
  5
28F
100
AcDbEntity
  8
0
100
AcDbLine
 62
7
  6
CONTINUOUS
 10
7.5940773515
 20
5.8863422622
 11
7.5940773515
 21
5.8953422622
  0
LINE
  5
290
100
AcDbEntity
  8
0
100
AcDbLine
 62
7
  6
CONTINUOUS
 10
7.5990773515
 20
5.83090452
 11
7.5990773515
 21
5.8782800045
  0
LINE
  5
291
100
AcDbEntity
  8
0
100
AcDbLine
 62
7
  6
CONTINUOUS
 10
7.6172182917
 20
5.8258422622
 11
7.6172182917
 21
5.8833422622
  0
LINE
  5
292
100
AcDbEntity
  8
0
100
AcDbLine
 62
7
  6
CONTINUOUS
 10
3.1078273515
 20
5.7125922622
 11
3.0553273515
 21
5.7125922622
  0
LINE
  5
293
100
AcDbEntity
  8
0
100
AcDbLine
 62
7
  6
CONTINUOUS
 10
1.9108273515
 20
5.7125922622
 11
1.8708273515
 21
5.7125922622
  0
LINE
  5
294
100
AcDbEntity
  8
0
100
AcDbLine
 62
7
  6
CONTINUOUS
 10
7.8903273515
 20
5.7125922622
 11
7.9428273515
 21
5.7125922622
  0
LINE
  5
295
100
AcDbEntity
  8
0
100
AcDbLine
 62
7
  6
CONTINUOUS
 10
9.0873273515
 20
5.7125922622
 11
9.1273273515
 21
5.7125922622
  0
LINE
  5
296
100
AcDbEntity
  8
0
100
AcDbLine
 62
7
  6
CONTINUOUS
 10
3.2378273515
 20
5.7548422622
 11
3.2078273515
 21
5.7548422622
  0
LINE
  5
297
100
AcDbEntity
  8
0
100
AcDbLine
 62
7
  6
CONTINUOUS
 10
7.7603273515
 20
5.7548422622
 11
7.7903273515
 21
5.7548422622
  0
LINE
  5
298
100
AcDbEntity
  8
0
100
AcDbLine
 62
7
  6
CONTINUOUS
 10
7.2378273515
 20
5.7553422622
 11
7.2307324786
 21
5.7553422622
  0
LINE
  5
299
100
AcDbEntity
  8
0
100
AcDbLine
 62
7
  6
CONTINUOUS
 10
3.7603273515
 20
5.7553422622
 11
3.7674222244
 21
5.7553422622
  0
LINE
  5
29A
100
AcDbEntity
  8
0
100
AcDbLine
 62
7
  6
CONTINUOUS
 10
7.6363273515
 20
5.8108422622
 11
7.5940773515
 21
5.8108422622
  0
LINE
  5
29B
100
AcDbEntity
  8
0
100
AcDbLine
 62
7
  6
CONTINUOUS
 10
7.578816523
 20
5.8108422622
 11
7.5040773515
 21
5.8108422622
  0
LINE
  5
29C
100
AcDbEntity
  8
0
100
AcDbLine
 62
7
  6
CONTINUOUS
 10
3.6045773515
 20
5.8108422622
 11
3.5680773515
 21
5.8108422622
  0
LINE
  5
29D
100
AcDbEntity
  8
0
100
AcDbLine
 62
7
  6
CONTINUOUS
 10
3.4480773515
 20
5.8108422622
 11
3.4115773515
 21
5.8108422622
  0
LINE
  5
29E
100
AcDbEntity
  8
0
100
AcDbLine
 62
7
  6
CONTINUOUS
 10
3.4030773515
 20
5.8108422622
 11
3.3665773515
 21
5.8108422622
  0
LINE
  5
29F
100
AcDbEntity
  8
0
100
AcDbLine
 62
7
  6
CONTINUOUS
 10
7.5478273515
 20
5.8222275846
 11
7.5598273515
 21
5.8222275846
  0
LINE
  5
2A0
100
AcDbEntity
  8
0
100
AcDbLine
 62
7
  6
CONTINUOUS
 10
7.6202182917
 20
5.8228422622
 11
7.6341497456
 21
5.8228422622
  0
LINE
  5
2A1
100
AcDbEntity
  8
0
100
AcDbLine
 62
7
  6
CONTINUOUS
 10
3.4168273515
 20
5.8513422622
 11
3.3978273515
 21
5.8513422622
  0
LINE
  5
2A2
100
AcDbEntity
  8
0
100
AcDbLine
 62
7
  6
CONTINUOUS
 10
3.3983273515
 20
5.8601200744
 11
3.4163273515
 21
5.8601200744
  0
LINE
  5
2A3
100
AcDbEntity
  8
0
100
AcDbLine
 62
7
  6
CONTINUOUS
 10
7.6341497456
 20
5.8863422622
 11
7.6202182917
 21
5.8863422622
  0
LINE
  5
2A4
100
AcDbEntity
  8
0
100
AcDbLine
 62
7
  6
CONTINUOUS
 10
3.6097287188
 20
5.8863922622
 11
3.5968273515
 21
5.8863922622
  0
LINE
  5
2A5
100
AcDbEntity
  8
0
100
AcDbLine
 62
7
  6
CONTINUOUS
 10
3.5758273515
 20
5.8863922622
 11
3.5629259843
 21
5.8863922622
  0
LINE
  5
2A6
100
AcDbEntity
  8
0
100
AcDbLine
 62
7
  6
CONTINUOUS
 10
3.3665773515
 20
5.8953422622
 11
3.4030773515
 21
5.8953422622
  0
LINE
  5
2A7
100
AcDbEntity
  8
0
100
AcDbLine
 62
7
  6
CONTINUOUS
 10
3.4115773515
 20
5.8953422622
 11
3.4480773515
 21
5.8953422622
  0
LINE
  5
2A8
100
AcDbEntity
  8
0
100
AcDbLine
 62
7
  6
CONTINUOUS
 10
3.5485773515
 20
5.8953422622
 11
3.6240773515
 21
5.8953422622
  0
LINE
  5
2A9
100
AcDbEntity
  8
0
100
AcDbLine
 62
7
  6
CONTINUOUS
 10
7.3915773515
 20
5.8953422622
 11
7.4005773515
 21
5.8953422622
  0
LINE
  5
2AA
100
AcDbEntity
  8
0
100
AcDbLine
 62
7
  6
CONTINUOUS
 10
7.5040773515
 20
5.8953422622
 11
7.5435773515
 21
5.8953422622
  0
LINE
  5
2AB
100
AcDbEntity
  8
0
100
AcDbLine
 62
7
  6
CONTINUOUS
 10
7.5940773515
 20
5.8953422622
 11
7.6363273515
 21
5.8953422622
  0
LINE
  5
2AC
100
AcDbEntity
  8
0
100
AcDbLine
 62
7
  6
CONTINUOUS
 10
7.2378273515
 20
5.9513422622
 11
7.2307324786
 21
5.9513422622
  0
LINE
  5
2AD
100
AcDbEntity
  8
0
100
AcDbLine
 62
7
  6
CONTINUOUS
 10
3.7603273515
 20
5.9513422622
 11
3.7674222244
 21
5.9513422622
  0
LINE
  5
2AE
100
AcDbEntity
  8
0
100
AcDbLine
 62
7
  6
CONTINUOUS
 10
3.2378273515
 20
5.9518422622
 11
3.2078273515
 21
5.9518422622
  0
LINE
  5
2AF
100
AcDbEntity
  8
0
100
AcDbLine
 62
7
  6
CONTINUOUS
 10
7.7603273515
 20
5.9518422622
 11
7.7903273515
 21
5.9518422622
  0
LINE
  5
2B0
100
AcDbEntity
  8
0
100
AcDbLine
 62
7
  6
CONTINUOUS
 10
3.1078273515
 20
5.9940922622
 11
3.0553273515
 21
5.9940922622
  0
LINE
  5
2B1
100
AcDbEntity
  8
0
100
AcDbLine
 62
7
  6
CONTINUOUS
 10
1.9108273515
 20
5.9940922622
 11
1.8708273515
 21
5.9940922622
  0
LINE
  5
2B2
100
AcDbEntity
  8
0
100
AcDbLine
 62
7
  6
CONTINUOUS
 10
7.8903273515
 20
5.9940922622
 11
7.9428273515
 21
5.9940922622
  0
LINE
  5
2B3
100
AcDbEntity
  8
0
100
AcDbLine
 62
7
  6
CONTINUOUS
 10
9.0873273515
 20
5.9940922622
 11
9.1273273515
 21
5.9940922622
  0
LINE
  5
2B4
100
AcDbEntity
  8
0
100
AcDbLine
 62
7
  6
CONTINUOUS
 10
7.7603273515
 20
5.9518422622
 11
7.7603273515
 21
5.9505533727
  0
LINE
  5
2B5
100
AcDbEntity
  8
0
100
AcDbLine
 62
7
  6
CONTINUOUS
 10
7.7603273515
 20
5.7561311517
 11
7.7603273515
 21
5.7548422622
  0
LINE
  5
2B6
100
AcDbEntity
  8
0
100
AcDbLine
 62
7
  6
CONTINUOUS
 10
7.7903273515
 20
5.9518422622
 11
7.7903273515
 21
5.7548422622
  0
LINE
  5
2B7
100
AcDbEntity
  8
0
100
AcDbLine
 62
7
  6
CONTINUOUS
 10
7.8903273515
 20
5.9940922622
 11
7.8903273515
 21
5.7125922622
  0
LINE
  5
2B8
100
AcDbEntity
  8
0
100
AcDbLine
 62
7
  6
CONTINUOUS
 10
7.9428273515
 20
5.9940922622
 11
7.9428273515
 21
5.7125922622
  0
LINE
  5
2B9
100
AcDbEntity
  8
0
100
AcDbLine
 62
7
  6
CONTINUOUS
 10
3.3799513441
 20
6.1503422622
 11
3.6182033602
 21
6.1503422622
  0
LINE
  5
2BA
100
AcDbEntity
  8
0
100
AcDbLine
 62
7
  6
CONTINUOUS
 10
7.3799513233
 20
6.1503422622
 11
7.6182033812
 21
6.1503422622
  0
LINE
  5
2BB
100
AcDbEntity
  8
0
100
AcDbLine
 62
7
  6
CONTINUOUS
 10
7.3014308178
 20
5.6016761006
 11
7.2035439777
 21
5.7712210809
  0
LINE
  5
2BC
100
AcDbEntity
  8
0
100
AcDbLine
 62
7
  6
CONTINUOUS
 10
7.4005773515
 20
5.8953422622
 11
7.4085773515
 21
5.8673123094
  0
LINE
  5
2BD
100
AcDbEntity
  8
0
100
AcDbLine
 62
7
  6
CONTINUOUS
 10
7.7903273515
 20
5.7548422622
 11
7.8903273515
 21
5.7125922622
  0
LINE
  5
2BE
100
AcDbEntity
  8
0
100
AcDbLine
 62
7
  6
CONTINUOUS
 10
7.4003022957
 20
5.8413422622
 11
7.4085773515
 21
5.8378034133
  0
LINE
  5
2BF
100
AcDbEntity
  8
0
100
AcDbLine
 62
7
  6
CONTINUOUS
 10
7.0689295153
 20
5.9387109409
 11
7.0443464803
 21
5.9558606226
  0
LINE
  5
2C0
100
AcDbEntity
  8
0
100
AcDbLine
 62
7
  6
CONTINUOUS
 10
6.99150578
 20
6.0808537724
 11
6.9904987352
 21
6.081845222
  0
LINE
  5
2C1
100
AcDbEntity
  8
0
100
AcDbLine
 62
7
  6
CONTINUOUS
 10
7.5792998199
 20
5.840431224
 11
7.5835773515
 21
5.8378422622
  0
LINE
  5
2C2
100
AcDbEntity
  8
0
100
AcDbLine
 62
7
  6
CONTINUOUS
 10
7.7851544099
 20
5.9518422622
 11
7.6967238852
 21
6.1050084238
  0
LINE
  5
2C3
100
AcDbEntity
  8
0
100
AcDbLine
 62
7
  6
CONTINUOUS
 10
9.0873273515
 20
5.9940922622
 11
9.0873273515
 21
5.7125922622
  0
LINE
  5
2C4
100
AcDbEntity
  8
0
100
AcDbLine
 62
7
  6
CONTINUOUS
 10
9.1273273515
 20
5.7125922622
 11
9.1273273515
 21
5.9940922622
  0
LINE
  5
2C5
100
AcDbEntity
  8
0
100
AcDbLine
 62
7
  6
CONTINUOUS
 10
9.1373273515
 20
5.9840922622
 11
9.1373273515
 21
5.7225922622
  0
LINE
  5
2C6
100
AcDbEntity
  8
0
100
AcDbLine
 62
7
  6
CONTINUOUS
 10
9.1373273515
 20
5.9840922622
 11
9.1273273515
 21
5.9940922622
  0
ARC
  5
2C7
100
AcDbEntity
  8
0
100
AcDbCircle
 62
7
  6
CONTINUOUS
 10
4.7340773515
 20
3.8983422622
 40
1.76
100
AcDbArc
 50
79.6659127507
 51
100.3340872493
  0
ARC
  5
2C8
100
AcDbEntity
  8
0
100
AcDbCircle
 62
7
  6
CONTINUOUS
 10
4.1908305577
 20
5.2533422622
 40
0.4
100
AcDbArc
 50
67.1955646394
 51
109.5520953041
  0
ARC
  5
2C9
100
AcDbEntity
  8
0
100
AcDbCircle
 62
7
  6
CONTINUOUS
 10
3.9377619225
 20
5.5533422622
 40
0.1
100
AcDbArc
 50
46.4592735464
 51
87.3608756684
  0
ARC
  5
2CA
100
AcDbEntity
  8
0
100
AcDbCircle
 62
7
  6
CONTINUOUS
 10
3.8396112125
 20
5.6898422622
 40
0.093
100
AcDbArc
 50
46.6958241996
 51
131.7081302521
  0
ARC
  5
2CB
100
AcDbEntity
  8
0
100
AcDbCircle
 62
7
  6
CONTINUOUS
 10
3.9405246298
 20
5.6132786239
 40
0.04
100
AcDbArc
 50
87.3608756684
 51
151.4621907732
  0
ARC
  5
2CC
100
AcDbEntity
  8
0
100
AcDbCircle
 62
7
  6
CONTINUOUS
 10
5.0890773515
 20
5.6383422622
 40
0.035
100
AcDbArc
 50
204.1178200473
 51
288.1310539378
  0
ARC
  5
2CD
100
AcDbEntity
  8
0
100
AcDbCircle
 62
7
  6
CONTINUOUS
 10
4.3790773515
 20
5.6383422622
 40
0.035
100
AcDbArc
 50
214.4950417648
 51
335.8821799527
  0
ARC
  5
2CE
100
AcDbEntity
  8
0
100
AcDbCircle
 62
7
  6
CONTINUOUS
 10
4.0290773515
 20
5.6458422622
 40
0.03
100
AcDbArc
 50
224.4349199505
 51
321.3392068247
  0
ARC
  5
2CF
100
AcDbEntity
  8
0
100
AcDbCircle
 62
7
  6
CONTINUOUS
 10
3.6133273515
 20
5.8385724084
 40
0.018
100
AcDbArc
 50
180.0
 51
240.9147049393
  0
ARC
  5
2D0
100
AcDbEntity
  8
0
100
AcDbCircle
 62
7
  6
CONTINUOUS
 10
3.5593273515
 20
5.8385724084
 40
0.018
100
AcDbArc
 50
299.0852950607
 51
360.0
  0
ARC
  5
2D1
100
AcDbEntity
  8
0
100
AcDbCircle
 62
7
  6
CONTINUOUS
 10
3.7674222244
 20
5.7708422622
 40
0.0155
100
AcDbArc
 50
270.0
 51
311.7081302521
  0
ARC
  5
2D2
100
AcDbEntity
  8
0
100
AcDbCircle
 62
7
  6
CONTINUOUS
 10
3.4518273515
 20
5.8342412753
 40
0.012
100
AcDbArc
 50
180.0
 51
251.7900431357
  0
ARC
  5
2D3
100
AcDbEntity
  8
0
100
AcDbCircle
 62
7
  6
CONTINUOUS
 10
3.4078273515
 20
5.8342412753
 40
0.012
100
AcDbArc
 50
288.2099568643
 51
360.0
  0
ARC
  5
2D4
100
AcDbEntity
  8
0
100
AcDbCircle
 62
7
  6
CONTINUOUS
 10
3.4068273515
 20
5.8342412753
 40
0.012
100
AcDbArc
 50
180.0
 51
251.7900431357
  0
ARC
  5
2D5
100
AcDbEntity
  8
0
100
AcDbCircle
 62
7
  6
CONTINUOUS
 10
3.3628273515
 20
5.8342412753
 40
0.012
100
AcDbArc
 50
288.2099568643
 51
360.0
  0
ARC
  5
2D6
100
AcDbEntity
  8
0
100
AcDbCircle
 62
7
  6
CONTINUOUS
 10
5.1030809716
 20
5.5955766379
 40
0.01
100
AcDbArc
 50
33.0612799793
 51
108.1310539378
  0
ARC
  5
2D7
100
AcDbEntity
  8
0
100
AcDbCircle
 62
7
  6
CONTINUOUS
 10
5.0480055304
 20
5.6199546165
 40
0.01
100
AcDbArc
 50
24.1178200474
 51
79.6659127507
  0
ARC
  5
2D8
100
AcDbEntity
  8
0
100
AcDbCircle
 62
7
  6
CONTINUOUS
 10
4.0603116743
 20
5.6208539234
 40
0.01
100
AcDbArc
 50
109.5520953041
 51
141.3392068247
  0
ARC
  5
2D9
100
AcDbEntity
  8
0
100
AcDbCircle
 62
7
  6
CONTINUOUS
 10
4.3419894675
 20
5.6128571909
 40
0.01
100
AcDbArc
 50
34.4950417648
 51
67.1955646394
  0
ARC
  5
2DA
100
AcDbEntity
  8
0
100
AcDbCircle
 62
7
  6
CONTINUOUS
 10
4.4201491726
 20
5.6199546165
 40
0.01
100
AcDbArc
 50
100.3340872493
 51
155.8821799527
  0
ARC
  5
2DB
100
AcDbEntity
  8
0
100
AcDbCircle
 62
7
  6
CONTINUOUS
 10
3.9088842231
 20
5.7633422622
 40
0.008
100
AcDbArc
 50
226.6958241996
 51
360.0
  0
ARC
  5
2DC
100
AcDbEntity
  8
0
100
AcDbCircle
 62
7
  6
CONTINUOUS
 10
3.9246479634
 20
5.7614124085
 40
0.008
100
AcDbArc
 50
55.0995
 51
166.0407512246
  0
ARC
  5
2DD
100
AcDbEntity
  8
0
100
AcDbCircle
 62
7
  6
CONTINUOUS
 10
3.4168273515
 20
5.8483422622
 40
0.003
100
AcDbArc
 50
0.0
 51
90.0
  0
ARC
  5
2DE
100
AcDbEntity
  8
0
100
AcDbCircle
 62
7
  6
CONTINUOUS
 10
3.3978273515
 20
5.8483422622
 40
0.003
100
AcDbArc
 50
90.0
 51
180.0
  0
ARC
  5
2DF
100
AcDbEntity
  8
0
100
AcDbCircle
 62
7
  6
CONTINUOUS
 10
1.9995877682
 20
5.8533422622
 40
0.1867604167
100
AcDbArc
 50
137.9864211385
 51
222.0135788615
  0
ARC
  5
2E0
100
AcDbEntity
  8
0
100
AcDbCircle
 62
7
  6
CONTINUOUS
 10
3.4990773515
 20
5.8533422622
 40
0.65
100
AcDbArc
 50
192.2472811046
 51
341.4067336731
  0
ARC
  5
2E1
100
AcDbEntity
  8
0
100
AcDbCircle
 62
7
  6
CONTINUOUS
 10
3.4990773515
 20
5.8533422622
 40
0.65
100
AcDbArc
 50
18.5932663268
 51
167.7527188954
  0
ARC
  5
2E2
100
AcDbEntity
  8
0
100
AcDbCircle
 62
7
  6
CONTINUOUS
 10
3.4990773515
 20
5.8533422622
 40
0.6358896268
100
AcDbArc
 50
192.5039449957
 51
340.6510510149
  0
ARC
  5
2E3
100
AcDbEntity
  8
0
100
AcDbCircle
 62
7
  6
CONTINUOUS
 10
3.4990773515
 20
5.8533422622
 40
0.6358896268
100
AcDbArc
 50
19.3489489851
 51
167.4960550043
  0
ARC
  5
2E4
100
AcDbEntity
  8
0
100
AcDbCircle
 62
7
  6
CONTINUOUS
 10
3.4990773515
 20
5.8533422622
 40
0.635
100
AcDbArc
 50
19.4000706567
 51
167.4794987987
  0
ARC
  5
2E5
100
AcDbEntity
  8
0
100
AcDbCircle
 62
7
  6
CONTINUOUS
 10
3.4990773515
 20
5.8533422622
 40
0.635
100
AcDbArc
 50
192.5205012013
 51
340.5999293433
  0
ARC
  5
2E6
100
AcDbEntity
  8
0
100
AcDbCircle
 62
7
  6
CONTINUOUS
 10
3.4990773515
 20
5.8533422622
 40
0.5125
100
AcDbArc
 50
23.5722246984
 51
164.2725073555
  0
ARC
  5
2E7
100
AcDbEntity
  8
0
100
AcDbCircle
 62
7
  6
CONTINUOUS
 10
3.4990773515
 20
5.8533422622
 40
0.5125
100
AcDbArc
 50
195.7274926445
 51
336.4277753016
  0
ARC
  5
2E8
100
AcDbEntity
  8
0
100
AcDbCircle
 62
7
  6
CONTINUOUS
 10
3.4990773515
 20
5.8533422622
 40
0.4875
100
AcDbArc
 50
196.6656810305
 51
335.7553234114
  0
ARC
  5
2E9
100
AcDbEntity
  8
0
100
AcDbCircle
 62
7
  6
CONTINUOUS
 10
3.4990773515
 20
5.8533422622
 40
0.4875
100
AcDbArc
 50
24.2446765886
 51
163.3343189695
  0
ARC
  5
2EA
100
AcDbEntity
  8
0
100
AcDbCircle
 62
7
  6
CONTINUOUS
 10
3.4990773515
 20
5.8533422622
 40
0.4625
100
AcDbArc
 50
28.5378092268
 51
162.281776012
  0
ARC
  5
2EB
100
AcDbEntity
  8
0
100
AcDbCircle
 62
7
  6
CONTINUOUS
 10
3.4990773515
 20
5.8533422622
 40
0.4625
100
AcDbArc
 50
197.718223988
 51
331.4621907732
  0
ARC
  5
2EC
100
AcDbEntity
  8
0
100
AcDbCircle
 62
7
  6
CONTINUOUS
 10
3.4990773515
 20
5.8533422622
 40
0.32
100
AcDbArc
 50
291.8556020443
 51
308.1443979557
  0
ARC
  5
2ED
100
AcDbEntity
  8
0
100
AcDbCircle
 62
7
  6
CONTINUOUS
 10
3.4990773515
 20
5.8533422622
 40
0.32
100
AcDbArc
 50
51.8556020443
 51
68.1443979557
  0
ARC
  5
2EE
100
AcDbEntity
  8
0
100
AcDbCircle
 62
7
  6
CONTINUOUS
 10
3.4990773515
 20
5.8533422622
 40
0.32
100
AcDbArc
 50
111.8556020443
 51
128.1443979557
  0
ARC
  5
2EF
100
AcDbEntity
  8
0
100
AcDbCircle
 62
7
  6
CONTINUOUS
 10
3.4990773515
 20
5.8533422622
 40
0.32
100
AcDbArc
 50
231.8556020443
 51
248.1443979557
  0
ARC
  5
2F0
100
AcDbEntity
  8
0
100
AcDbCircle
 62
9
  6
CONTINUOUS
 10
3.4990773515
 20
5.8533422622
 40
0.3101692131
100
AcDbArc
 50
226.7558673396
 51
253.2441326604
  0
ARC
  5
2F1
100
AcDbEntity
  8
0
100
AcDbCircle
 62
9
  6
CONTINUOUS
 10
3.4990773515
 20
5.8533422622
 40
0.3101692131
100
AcDbArc
 50
106.7558673396
 51
133.2441326604
  0
ARC
  5
2F2
100
AcDbEntity
  8
0
100
AcDbCircle
 62
9
  6
CONTINUOUS
 10
3.4990773515
 20
5.8533422622
 40
0.3101692131
100
AcDbArc
 50
46.7558673396
 51
73.2441326604
  0
ARC
  5
2F3
100
AcDbEntity
  8
0
100
AcDbCircle
 62
9
  6
CONTINUOUS
 10
3.4990773515
 20
5.8533422622
 40
0.3101692131
100
AcDbArc
 50
286.7558673396
 51
313.2441326604
  0
CIRCLE
  5
2F4
100
AcDbEntity
  8
0
100
AcDbCircle
 62
7
  6
CONTINUOUS
 10
3.4990773515
 20
5.8533422622
 40
0.27875
  0
CIRCLE
  5
2F5
100
AcDbEntity
  8
0
100
AcDbCircle
 62
7
  6
CONTINUOUS
 10
3.4990773515
 20
5.8533422622
 40
0.2645961576
  0
CIRCLE
  5
2F6
100
AcDbEntity
  8
0
100
AcDbCircle
 62
7
  6
CONTINUOUS
 10
3.4990773515
 20
5.8533422622
 40
0.26375
  0
CIRCLE
  5
2F7
100
AcDbEntity
  8
0
100
AcDbCircle
 62
7
  6
CONTINUOUS
 10
3.4990773515
 20
5.8533422622
 40
0.2526402106
  0
CIRCLE
  5
2F8
100
AcDbEntity
  8
0
100
AcDbCircle
 62
7
  6
CONTINUOUS
 10
3.4990773515
 20
5.8533422622
 40
0.2272549781
  0
CIRCLE
  5
2F9
100
AcDbEntity
  8
0
100
AcDbCircle
 62
7
  6
CONTINUOUS
 10
3.4990773515
 20
5.8533422622
 40
0.2085229279
  0
CIRCLE
  5
2FA
100
AcDbEntity
  8
0
100
AcDbCircle
 62
9
  6
CONTINUOUS
 10
3.4990773515
 20
5.8533422622
 40
0.1975723198
  0
ARC
  5
2FB
100
AcDbEntity
  8
0
100
AcDbCircle
 62
7
  6
CONTINUOUS
 10
3.3983273515
 20
5.8631200744
 40
0.003
100
AcDbArc
 50
180.0
 51
270.0
  0
ARC
  5
2FC
100
AcDbEntity
  8
0
100
AcDbCircle
 62
7
  6
CONTINUOUS
 10
3.4163273515
 20
5.8631200744
 40
0.003
100
AcDbArc
 50
270.0
 51
360.0
  0
ARC
  5
2FD
100
AcDbEntity
  8
0
100
AcDbCircle
 62
7
  6
CONTINUOUS
 10
3.5629259843
 20
5.8657362702
 40
0.0206559921
100
AcDbArc
 50
90.0
 51
135.0
  0
ARC
  5
2FE
100
AcDbEntity
  8
0
100
AcDbCircle
 62
7
  6
CONTINUOUS
 10
3.6097287188
 20
5.8657362702
 40
0.0206559921
100
AcDbArc
 50
45.0
 51
90.0
  0
ARC
  5
2FF
100
AcDbEntity
  8
0
100
AcDbCircle
 62
7
  6
CONTINUOUS
 10
3.3628273515
 20
5.8749432491
 40
0.012
100
AcDbArc
 50
0.0
 51
71.7900431357
  0
ARC
  5
300
100
AcDbEntity
  8
0
100
AcDbCircle
 62
7
  6
CONTINUOUS
 10
3.4073273515
 20
5.8751200744
 40
0.012
100
AcDbArc
 50
110.7423799545
 51
180.0
  0
ARC
  5
301
100
AcDbEntity
  8
0
100
AcDbCircle
 62
7
  6
CONTINUOUS
 10
3.4073273515
 20
5.8751200744
 40
0.012
100
AcDbArc
 50
0.0
 51
69.2576200455
  0
ARC
  5
302
100
AcDbEntity
  8
0
100
AcDbCircle
 62
7
  6
CONTINUOUS
 10
3.4518273515
 20
5.8749432491
 40
0.012
100
AcDbArc
 50
108.2099568643
 51
180.0
  0
ARC
  5
303
100
AcDbEntity
  8
0
100
AcDbCircle
 62
7
  6
CONTINUOUS
 10
3.5758273515
 20
5.8848922622
 40
0.0015
100
AcDbArc
 50
0.0
 51
90.0
  0
ARC
  5
304
100
AcDbEntity
  8
0
100
AcDbCircle
 62
7
  6
CONTINUOUS
 10
3.5968273515
 20
5.8848922622
 40
0.0015
100
AcDbArc
 50
90.0
 51
180.0
  0
ARC
  5
305
100
AcDbEntity
  8
0
100
AcDbCircle
 62
7
  6
CONTINUOUS
 10
4.1908305577
 20
6.4533422622
 40
0.4
100
AcDbArc
 50
250.4479046959
 51
292.8044353606
  0
ARC
  5
306
100
AcDbEntity
  8
0
100
AcDbCircle
 62
7
  6
CONTINUOUS
 10
5.4990745726
 20
5.8622146584
 40
0.2761276038
100
AcDbArc
 50
88.8435607094
 51
89.9994233897
  0
ARC
  5
307
100
AcDbEntity
  8
0
100
AcDbCircle
 62
7
  6
CONTINUOUS
 10
5.4902501912
 20
5.8562111019
 40
0.2757183514
100
AcDbArc
 50
162.0001425888
 51
162.5762628323
  0
ARC
  5
308
100
AcDbEntity
  8
0
100
AcDbCircle
 62
7
  6
CONTINUOUS
 10
5.4935581737
 20
5.8609381284
 40
0.2756107238
100
AcDbArc
 50
125.5762208822
 51
125.9999229766
  0
ARC
  5
309
100
AcDbEntity
  8
0
100
AcDbCircle
 62
7
  6
CONTINUOUS
 10
5.4934841304
 20
5.8610408799
 40
0.2754840746
100
AcDbArc
 50
126.0000255778
 51
126.2443783698
  0
ARC
  5
30A
100
AcDbEntity
  8
0
100
AcDbCircle
 62
7
  6
CONTINUOUS
 10
4.0253273515
 20
5.8533422622
 40
0.125
100
AcDbArc
 50
235.0995
 51
124.9005
  0
ARC
  5
30B
100
AcDbEntity
  8
0
100
AcDbCircle
 62
7
  6
CONTINUOUS
 10
3.9377619225
 20
6.1533422622
 40
0.1
100
AcDbArc
 50
272.6391243316
 51
313.5407264536
  0
ARC
  5
30C
100
AcDbEntity
  8
0
100
AcDbCircle
 62
7
  6
CONTINUOUS
 10
3.8396112125
 20
6.0168422622
 40
0.093
100
AcDbArc
 50
228.2918697479
 51
313.3041758004
  0
ARC
  5
30D
100
AcDbEntity
  8
0
100
AcDbCircle
 62
7
  6
CONTINUOUS
 10
3.9405246298
 20
6.0934059006
 40
0.04
100
AcDbArc
 50
208.5378092268
 51
272.6391243316
  0
ARC
  5
30E
100
AcDbEntity
  8
0
100
AcDbCircle
 62
7
  6
CONTINUOUS
 10
5.0890773515
 20
6.0683422622
 40
0.035
100
AcDbArc
 50
71.8689460622
 51
155.8821799527
  0
ARC
  5
30F
100
AcDbEntity
  8
0
100
AcDbCircle
 62
7
  6
CONTINUOUS
 10
4.3790773515
 20
6.0683422622
 40
0.035
100
AcDbArc
 50
24.1178200474
 51
145.5049582352
  0
ARC
  5
310
100
AcDbEntity
  8
0
100
AcDbCircle
 62
7
  6
CONTINUOUS
 10
4.0290773515
 20
6.0608422622
 40
0.03
100
AcDbArc
 50
38.6607931753
 51
135.5650800495
  0
ARC
  5
311
100
AcDbEntity
  8
0
100
AcDbCircle
 62
7
  6
CONTINUOUS
 10
3.7674222244
 20
5.9358422622
 40
0.0155
100
AcDbArc
 50
48.2918697479
 51
90.0
  0
ARC
  5
312
100
AcDbEntity
  8
0
100
AcDbCircle
 62
7
  6
CONTINUOUS
 10
5.1030809716
 20
6.1111078865
 40
0.01
100
AcDbArc
 50
251.8689460622
 51
326.9387200207
  0
ARC
  5
313
100
AcDbEntity
  8
0
100
AcDbCircle
 62
7
  6
CONTINUOUS
 10
5.0480055304
 20
6.0867299079
 40
0.01
100
AcDbArc
 50
280.3340872493
 51
335.8821799526
  0
ARC
  5
314
100
AcDbEntity
  8
0
100
AcDbCircle
 62
7
  6
CONTINUOUS
 10
4.0603116743
 20
6.085830601
 40
0.01
100
AcDbArc
 50
218.6607931753
 51
250.4479046959
  0
ARC
  5
315
100
AcDbEntity
  8
0
100
AcDbCircle
 62
7
  6
CONTINUOUS
 10
4.3419894675
 20
6.0938273335
 40
0.01
100
AcDbArc
 50
292.8044353606
 51
325.5049582352
  0
ARC
  5
316
100
AcDbEntity
  8
0
100
AcDbCircle
 62
7
  6
CONTINUOUS
 10
4.4201491726
 20
6.0867299079
 40
0.01
100
AcDbArc
 50
204.1178200474
 51
259.6659127507
  0
ARC
  5
317
100
AcDbEntity
  8
0
100
AcDbCircle
 62
7
  6
CONTINUOUS
 10
3.9088842231
 20
5.9433422622
 40
0.008
100
AcDbArc
 50
0.0
 51
133.3041758004
  0
ARC
  5
318
100
AcDbEntity
  8
0
100
AcDbCircle
 62
7
  6
CONTINUOUS
 10
3.9246479634
 20
5.945272116
 40
0.008
100
AcDbArc
 50
193.9592487754
 51
304.9005
  0
ARC
  5
319
100
AcDbEntity
  8
0
100
AcDbCircle
 62
7
  6
CONTINUOUS
 10
4.7340773515
 20
7.8083422622
 40
1.76
100
AcDbArc
 50
259.6659127507
 51
280.3340872493
  0
ARC
  5
31A
100
AcDbEntity
  8
0
100
AcDbCircle
 62
7
  6
CONTINUOUS
 10
6.2640773515
 20
3.9004617853
 40
1.7578804769
100
AcDbArc
 50
79.5931839797
 51
100.4068160203
  0
ARC
  5
31B
100
AcDbEntity
  8
0
100
AcDbCircle
 62
7
  6
CONTINUOUS
 10
6.805669307
 20
5.2541939421
 40
0.3991483201
100
AcDbArc
 50
70.0256037715
 51
112.7983588817
  0
ARC
  5
31C
100
AcDbEntity
  8
0
100
AcDbCircle
 62
7
  6
CONTINUOUS
 10
7.0603927806
 20
5.5533422622
 40
0.1
100
AcDbArc
 50
92.6391243316
 51
133.5407264536
  0
ARC
  5
31D
100
AcDbEntity
  8
0
100
AcDbCircle
 62
7
  6
CONTINUOUS
 10
7.1585434906
 20
5.6898422622
 40
0.093
100
AcDbArc
 50
48.2918697479
 51
133.3041758004
  0
ARC
  5
31E
100
AcDbEntity
  8
0
100
AcDbCircle
 62
7
  6
CONTINUOUS
 10
7.36929005
 20
5.8348422622
 40
0.0605
100
AcDbArc
 50
72.3178031512
 51
100.863388708
  0
ARC
  5
31F
100
AcDbEntity
  8
0
100
AcDbCircle
 62
7
  6
CONTINUOUS
 10
7.4773808134
 20
5.8533338927
 40
0.0583034625
100
AcDbArc
 50
179.9917751129
 51
183.3392052091
  0
ARC
  5
320
100
AcDbEntity
  8
0
100
AcDbCircle
 62
7
  6
CONTINUOUS
 10
7.440745649
 20
5.8533410327
 40
0.0568317025
100
AcDbArc
 50
0.0012395061
 51
1.056726699
  0
ARC
  5
321
100
AcDbEntity
  8
0
100
AcDbCircle
 62
7
  6
CONTINUOUS
 10
7.6363273515
 20
5.8530922622
 40
0.04225
100
AcDbArc
 50
270.0
 51
90.0
  0
ARC
  5
322
100
AcDbEntity
  8
0
100
AcDbCircle
 62
7
  6
CONTINUOUS
 10
7.0576300732
 20
5.6132786239
 40
0.04
100
AcDbArc
 50
28.5378092268
 51
92.6391243316
  0
ARC
  5
323
100
AcDbEntity
  8
0
100
AcDbCircle
 62
7
  6
CONTINUOUS
 10
5.9090773515
 20
5.6358422622
 40
0.0325
100
AcDbArc
 50
250.8670046495
 51
337.5166233531
  0
ARC
  5
324
100
AcDbEntity
  8
0
100
AcDbCircle
 62
7
  6
CONTINUOUS
 10
6.6190773515
 20
5.6358422622
 40
0.0325
100
AcDbArc
 50
202.4833766469
 51
327.392405365
  0
ARC
  5
325
100
AcDbEntity
  8
0
100
AcDbCircle
 62
7
  6
CONTINUOUS
 10
6.9690773515
 20
5.6458422622
 40
0.03
100
AcDbArc
 50
220.3704363288
 51
315.5650800495
  0
ARC
  5
326
100
AcDbEntity
  8
0
100
AcDbCircle
 62
7
  6
CONTINUOUS
 10
7.3703764906
 20
5.8468422622
 40
0.024
100
AcDbArc
 50
201.6000344342
 51
256.3709027892
  0
ARC
  5
327
100
AcDbEntity
  8
0
100
AcDbCircle
 62
7
  6
CONTINUOUS
 10
7.6341497456
 20
5.8468422622
 40
0.024
100
AcDbArc
 50
270.0
 51
341.5590861804
  0
ARC
  5
328
100
AcDbEntity
  8
0
100
AcDbCircle
 62
7
  6
CONTINUOUS
 10
7.2307324786
 20
5.7708422622
 40
0.0155
100
AcDbArc
 50
228.2918697479
 51
270.0
  0
ARC
  5
329
100
AcDbEntity
  8
0
100
AcDbCircle
 62
7
  6
CONTINUOUS
 10
7.4998273515
 20
5.8372275846
 40
0.015
100
AcDbArc
 50
286.4592496283
 51
360.0
  0
ARC
  5
32A
100
AcDbEntity
  8
0
100
AcDbCircle
 62
7
  6
CONTINUOUS
 10
7.5598273515
 20
5.8372275846
 40
0.015
100
AcDbArc
 50
270.0
 51
328.815717175
  0
ARC
  5
32B
100
AcDbEntity
  8
0
100
AcDbCircle
 62
7
  6
CONTINUOUS
 10
7.5478273515
 20
5.8372275846
 40
0.015
100
AcDbArc
 50
180.0
 51
270.0
  0
ARC
  5
32C
100
AcDbEntity
  8
0
100
AcDbCircle
 62
7
  6
CONTINUOUS
 10
6.9386024465
 20
5.6199331873
 40
0.01
100
AcDbArc
 50
40.3704363288
 51
70.0256037715
  0
ARC
  5
32D
100
AcDbEntity
  8
0
100
AcDbCircle
 62
7
  6
CONTINUOUS
 10
6.5798077543
 20
5.619589609
 40
0.01
100
AcDbArc
 50
22.4833766469
 51
79.5931839797
  0
ARC
  5
32E
100
AcDbEntity
  8
0
100
AcDbCircle
 62
7
  6
CONTINUOUS
 10
6.6548785429
 20
5.6129397581
 40
0.01
100
AcDbArc
 50
112.7983588817
 51
147.392405365
  0
ARC
  5
32F
100
AcDbEntity
  8
0
100
AcDbCircle
 62
7
  6
CONTINUOUS
 10
5.9483469487
 20
5.619589609
 40
0.01
100
AcDbArc
 50
100.4068160203
 51
157.5166233531
  0
ARC
  5
330
100
AcDbEntity
  8
0
100
AcDbCircle
 62
7
  6
CONTINUOUS
 10
5.8951474657
 20
5.5956899487
 40
0.01
100
AcDbArc
 50
70.8670046495
 51
146.9551131685
  0
ARC
  5
331
100
AcDbEntity
  8
0
100
AcDbCircle
 62
7
  6
CONTINUOUS
 10
7.5900773515
 20
5.83090452
 40
0.009
100
AcDbArc
 50
296.3877999613
 51
360.0
  0
ARC
  5
332
100
AcDbEntity
  8
0
100
AcDbCircle
 62
7
  6
CONTINUOUS
 10
7.0892704799
 20
5.7633422622
 40
0.008
100
AcDbArc
 50
180.0
 51
313.3041758004
  0
ARC
  5
333
100
AcDbEntity
  8
0
100
AcDbCircle
 62
7
  6
CONTINUOUS
 10
7.0735067396
 20
5.7614124085
 40
0.008
100
AcDbArc
 50
13.9592487754
 51
124.9005
  0
ARC
  5
334
100
AcDbEntity
  8
0
100
AcDbCircle
 62
7
  6
CONTINUOUS
 10
7.6202182917
 20
5.8258422622
 40
0.003
100
AcDbArc
 50
180.0
 51
270.0
  0
ARC
  5
335
100
AcDbEntity
  8
0
100
AcDbCircle
 62
7
  6
CONTINUOUS
 10
5.4990773515
 20
5.8533422622
 40
0.65
100
AcDbArc
 50
295.9938892296
 51
341.9720572219
  0
ARC
  5
336
100
AcDbEntity
  8
0
100
AcDbCircle
 62
7
  6
CONTINUOUS
 10
5.4990773515
 20
5.8533422622
 40
0.65
100
AcDbArc
 50
198.0268059918
 51
244.0061107704
  0
ARC
  5
337
100
AcDbEntity
  8
0
100
AcDbCircle
 62
7
  6
CONTINUOUS
 10
5.4990773515
 20
5.8533422622
 40
0.65
100
AcDbArc
 50
18.0279427781
 51
161.9731940082
  0
ARC
  5
338
100
AcDbEntity
  8
0
100
AcDbCircle
 62
7
  6
CONTINUOUS
 10
5.4990773515
 20
5.8533422622
 40
0.6358896268
100
AcDbArc
 50
296.6157880208
 51
341.4271140047
  0
ARC
  5
339
100
AcDbEntity
  8
0
100
AcDbCircle
 62
7
  6
CONTINUOUS
 10
5.4990773515
 20
5.8533422622
 40
0.6358896268
100
AcDbArc
 50
198.5717836116
 51
243.3842119792
  0
ARC
  5
33A
100
AcDbEntity
  8
0
100
AcDbCircle
 62
7
  6
CONTINUOUS
 10
5.4990773515
 20
5.8533422622
 40
0.6358896268
100
AcDbArc
 50
18.5728859953
 51
161.4282163884
  0
ARC
  5
33B
100
AcDbEntity
  8
0
100
AcDbCircle
 62
7
  6
CONTINUOUS
 10
5.4990773515
 20
5.8533422622
 40
0.635
100
AcDbArc
 50
18.6083288325
 51
161.3928361932
  0
ARC
  5
33C
100
AcDbEntity
  8
0
100
AcDbCircle
 62
7
  6
CONTINUOUS
 10
5.4990773515
 20
5.8533422622
 40
0.635
100
AcDbArc
 50
296.6560129249
 51
341.3916711675
  0
ARC
  5
33D
100
AcDbEntity
  8
0
100
AcDbCircle
 62
7
  6
CONTINUOUS
 10
5.4990773515
 20
5.8533422622
 40
0.635
100
AcDbArc
 50
198.6071638068
 51
243.3439870751
  0
ARC
  5
33E
100
AcDbEntity
  8
0
100
AcDbCircle
 62
7
  6
CONTINUOUS
 10
5.4990773515
 20
5.8533422622
 40
0.5125
100
AcDbArc
 50
25.5819896271
 51
154.4219449225
  0
ARC
  5
33F
100
AcDbEntity
  8
0
100
AcDbCircle
 62
7
  6
CONTINUOUS
 10
5.4990773515
 20
5.8533422622
 40
0.5125
100
AcDbArc
 50
303.7704480501
 51
334.4180103729
  0
ARC
  5
340
100
AcDbEntity
  8
0
100
AcDbCircle
 62
7
  6
CONTINUOUS
 10
5.4990773515
 20
5.8533422622
 40
0.5125
100
AcDbArc
 50
205.5780550775
 51
236.2295519499
  0
ARC
  5
341
100
AcDbEntity
  8
0
100
AcDbCircle
 62
7
  6
CONTINUOUS
 10
5.4990773515
 20
5.8533422622
 40
0.4875
100
AcDbArc
 50
305.7590182519
 51
329.3336296808
  0
ARC
  5
342
100
AcDbEntity
  8
0
100
AcDbCircle
 62
7
  6
CONTINUOUS
 10
5.4990773515
 20
5.8533422622
 40
0.4875
100
AcDbArc
 50
210.6833122636
 51
234.2409817481
  0
ARC
  5
343
100
AcDbEntity
  8
0
100
AcDbCircle
 62
7
  6
CONTINUOUS
 10
5.4990773515
 20
5.8533422622
 40
0.4875
100
AcDbArc
 50
30.6663703192
 51
149.3166877364
  0
ARC
  5
344
100
AcDbEntity
  8
0
100
AcDbCircle
 62
7
  6
CONTINUOUS
 10
5.4990773515
 20
5.8533422622
 40
0.4625
100
AcDbArc
 50
33.0448868315
 51
146.9387200207
  0
ARC
  5
345
100
AcDbEntity
  8
0
100
AcDbCircle
 62
7
  6
CONTINUOUS
 10
5.4990773515
 20
5.8533422622
 40
0.4625
100
AcDbArc
 50
213.0612799793
 51
231.9792888202
  0
ARC
  5
346
100
AcDbEntity
  8
0
100
AcDbCircle
 62
7
  6
CONTINUOUS
 10
5.4990773515
 20
5.8533422622
 40
0.4625
100
AcDbArc
 50
308.0206107939
 51
326.9551131685
  0
ARC
  5
347
100
AcDbEntity
  8
0
100
AcDbCircle
 62
7
  6
CONTINUOUS
 10
5.4990773515
 20
5.8533422622
 40
0.4
100
AcDbArc
 50
315.4149172743
 51
224.5850827257
  0
ARC
  5
348
100
AcDbEntity
  8
0
100
AcDbCircle
 62
9
  6
CONTINUOUS
 10
5.4990773515
 20
5.8533422622
 40
0.3045552884
100
AcDbArc
 50
339.2985845965
 51
200.7014154034
  0
ARC
  5
349
100
AcDbEntity
  8
0
100
AcDbCircle
 62
9
  6
CONTINUOUS
 10
5.4990773515
 20
5.8533422622
 40
0.2923139373
100
AcDbArc
 50
347.0574135013
 51
192.9425864548
  0
ARC
  5
34A
100
AcDbEntity
  8
0
100
AcDbCircle
 62
7
  6
CONTINUOUS
 10
5.4990773515
 20
5.8533422622
 40
0.285
100
AcDbArc
 50
358.3043034913
 51
181.6956965087
  0
ARC
  5
34B
100
AcDbEntity
  8
0
100
AcDbCircle
 62
7
  6
CONTINUOUS
 10
5.4990801303
 20
5.8622146788
 40
0.2761275835
100
AcDbArc
 50
90.0005765806
 51
91.1564104073
  0
ARC
  5
34C
100
AcDbEntity
  8
0
100
AcDbCircle
 62
7
  6
CONTINUOUS
 10
5.5079045051
 20
5.8562110998
 40
0.2757183585
100
AcDbArc
 50
17.4237272582
 51
17.9998574062
  0
ARC
  5
34D
100
AcDbEntity
  8
0
100
AcDbCircle
 62
7
  6
CONTINUOUS
 10
5.5045965403
 20
5.8609381436
 40
0.275610705
100
AcDbArc
 50
54.0000770138
 51
54.4237524968
  0
ARC
  5
34E
100
AcDbEntity
  8
0
100
AcDbCircle
 62
7
  6
CONTINUOUS
 10
5.5046705768
 20
5.8610408856
 40
0.2754840675
100
AcDbArc
 50
53.7556316232
 51
53.9999744243
  0
ARC
  5
34F
100
AcDbEntity
  8
0
100
AcDbCircle
 62
7
  6
CONTINUOUS
 10
5.9090773515
 20
6.0708422622
 40
0.0325
100
AcDbArc
 50
22.4833766469
 51
109.1329953505
  0
ARC
  5
350
100
AcDbEntity
  8
0
100
AcDbCircle
 62
7
  6
CONTINUOUS
 10
5.9483469487
 20
6.0870949154
 40
0.01
100
AcDbArc
 50
202.4833766469
 51
259.5931839797
  0
ARC
  5
351
100
AcDbEntity
  8
0
100
AcDbCircle
 62
7
  6
CONTINUOUS
 10
5.8951474657
 20
6.1109945757
 40
0.01
100
AcDbArc
 50
213.0448868315
 51
289.1329953505
  0
ARC
  5
352
100
AcDbEntity
  8
0
100
AcDbCircle
 62
7
  6
CONTINUOUS
 10
6.9728273515
 20
5.8533422622
 40
0.125
100
AcDbArc
 50
55.0995
 51
304.9005
  0
ARC
  5
353
100
AcDbEntity
  8
0
100
AcDbCircle
 62
7
  6
CONTINUOUS
 10
7.1585434906
 20
6.0168422622
 40
0.093
100
AcDbArc
 50
226.6958241996
 51
311.7081302521
  0
ARC
  5
354
100
AcDbEntity
  8
0
100
AcDbCircle
 62
7
  6
CONTINUOUS
 10
7.0576300732
 20
6.0934059006
 40
0.04
100
AcDbArc
 50
267.3608756684
 51
331.4621907732
  0
ARC
  5
355
100
AcDbEntity
  8
0
100
AcDbCircle
 62
7
  6
CONTINUOUS
 10
6.6190773515
 20
6.0708422622
 40
0.0325
100
AcDbArc
 50
32.607594635
 51
157.5166233531
  0
ARC
  5
356
100
AcDbEntity
  8
0
100
AcDbCircle
 62
7
  6
CONTINUOUS
 10
6.9690773515
 20
6.0608422622
 40
0.03
100
AcDbArc
 50
44.4349199505
 51
139.6295636712
  0
ARC
  5
357
100
AcDbEntity
  8
0
100
AcDbCircle
 62
7
  6
CONTINUOUS
 10
7.2307324786
 20
5.9358422622
 40
0.0155
100
AcDbArc
 50
90.0
 51
131.7081302521
  0
ARC
  5
358
100
AcDbEntity
  8
0
100
AcDbCircle
 62
7
  6
CONTINUOUS
 10
6.9386024465
 20
6.0867513372
 40
0.01
100
AcDbArc
 50
289.9743962285
 51
319.6295636712
  0
ARC
  5
359
100
AcDbEntity
  8
0
100
AcDbCircle
 62
7
  6
CONTINUOUS
 10
6.5798077543
 20
6.0870949154
 40
0.01
100
AcDbArc
 50
280.4068160203
 51
337.5166233531
  0
ARC
  5
35A
100
AcDbEntity
  8
0
100
AcDbCircle
 62
7
  6
CONTINUOUS
 10
6.6548785429
 20
6.0937447663
 40
0.01
100
AcDbArc
 50
212.607594635
 51
247.2016411183
  0
ARC
  5
35B
100
AcDbEntity
  8
0
100
AcDbCircle
 62
7
  6
CONTINUOUS
 10
7.0892704799
 20
5.9433422622
 40
0.008
100
AcDbArc
 50
46.6958241996
 51
180.0
  0
ARC
  5
35C
100
AcDbEntity
  8
0
100
AcDbCircle
 62
7
  6
CONTINUOUS
 10
7.0735067396
 20
5.945272116
 40
0.008
100
AcDbArc
 50
235.0995
 51
346.0407512246
  0
ARC
  5
35D
100
AcDbEntity
  8
0
100
AcDbCircle
 62
7
  6
CONTINUOUS
 10
6.805669307
 20
6.4524905823
 40
0.3991483201
100
AcDbArc
 50
247.2016411183
 51
289.9743962285
  0
ARC
  5
35E
100
AcDbEntity
  8
0
100
AcDbCircle
 62
7
  6
CONTINUOUS
 10
7.0603927806
 20
6.1533422622
 40
0.1
100
AcDbArc
 50
226.4592735464
 51
267.3608756684
  0
ARC
  5
35F
100
AcDbEntity
  8
0
100
AcDbCircle
 62
7
  6
CONTINUOUS
 10
6.2640773515
 20
7.8062227391
 40
1.7578804769
100
AcDbArc
 50
259.5931839797
 51
280.4068160203
  0
ARC
  5
360
100
AcDbEntity
  8
0
100
AcDbCircle
 62
7
  6
CONTINUOUS
 10
7.3677242372
 20
5.8552743528
 40
0.0444320906
100
AcDbArc
 50
224.2338173193
 51
336.8459014309
  0
ARC
  5
361
100
AcDbEntity
  8
0
100
AcDbCircle
 62
7
  6
CONTINUOUS
 10
7.3875773515
 20
5.8536525768
 40
0.0425
100
AcDbArc
 50
158.3999655658
 51
201.6000344342
  0
ARC
  5
362
100
AcDbEntity
  8
0
100
AcDbCircle
 62
7
  6
CONTINUOUS
 10
7.3657397696
 20
5.8533422622
 40
0.0416624181
100
AcDbArc
 50
100.863388708
 51
224.2338173193
  0
ARC
  5
363
100
AcDbEntity
  8
0
100
AcDbCircle
 62
7
  6
CONTINUOUS
 10
7.3663994322
 20
5.8552743528
 40
0.0348621622
100
AcDbArc
 50
15.9292215989
 51
31.2636680057
  0
ARC
  5
364
100
AcDbEntity
  8
0
100
AcDbCircle
 62
7
  6
CONTINUOUS
 10
7.3719797114
 20
5.8534544883
 40
0.0308038115
100
AcDbArc
 50
256.3709027892
 51
336.8459014309
  0
ARC
  5
365
100
AcDbEntity
  8
0
100
AcDbCircle
 62
7
  6
CONTINUOUS
 10
7.3731419027
 20
5.8593679853
 40
0.0269742769
100
AcDbArc
 50
31.2636680057
 51
158.3999655658
  0
ARC
  5
366
100
AcDbEntity
  8
0
100
AcDbCircle
 62
7
  6
CONTINUOUS
 10
7.4990773515
 20
5.8533422622
 40
0.65
100
AcDbArc
 50
198.626995074
 51
347.7525865802
  0
ARC
  5
367
100
AcDbEntity
  8
0
100
AcDbCircle
 62
7
  6
CONTINUOUS
 10
7.4990773515
 20
5.8533422622
 40
0.65
100
AcDbArc
 50
12.2474134198
 51
161.373004926
  0
ARC
  5
368
100
AcDbEntity
  8
0
100
AcDbCircle
 62
7
  6
CONTINUOUS
 10
7.4990773515
 20
5.8533422622
 40
0.6358896268
100
AcDbArc
 50
199.3930402599
 51
347.4963718144
  0
ARC
  5
369
100
AcDbEntity
  8
0
100
AcDbCircle
 62
7
  6
CONTINUOUS
 10
7.4990773515
 20
5.8533422622
 40
0.6358896268
100
AcDbArc
 50
12.5036281856
 51
160.6069597401
  0
ARC
  5
36A
100
AcDbEntity
  8
0
100
AcDbCircle
 62
7
  6
CONTINUOUS
 10
7.4990773515
 20
5.8533422622
 40
0.635
100
AcDbArc
 50
12.5208344485
 51
160.555063945
  0
ARC
  5
36B
100
AcDbEntity
  8
0
100
AcDbCircle
 62
7
  6
CONTINUOUS
 10
7.4990773515
 20
5.8533422622
 40
0.635
100
AcDbArc
 50
199.444936055
 51
347.4791655515
  0
ARC
  5
36C
100
AcDbEntity
  8
0
100
AcDbCircle
 62
7
  6
CONTINUOUS
 10
7.4990773515
 20
5.8533422622
 40
0.5125
100
AcDbArc
 50
15.7276024125
 51
156.4277753016
  0
ARC
  5
36D
100
AcDbEntity
  8
0
100
AcDbCircle
 62
7
  6
CONTINUOUS
 10
7.4990773515
 20
5.8533422622
 40
0.5125
100
AcDbArc
 50
203.5722246984
 51
344.2723975875
  0
ARC
  5
36E
100
AcDbEntity
  8
0
100
AcDbCircle
 62
7
  6
CONTINUOUS
 10
7.4990773515
 20
5.8533422622
 40
0.4875
100
AcDbArc
 50
204.2446765886
 51
343.3341678438
  0
ARC
  5
36F
100
AcDbEntity
  8
0
100
AcDbCircle
 62
7
  6
CONTINUOUS
 10
7.4990773515
 20
5.8533422622
 40
0.4875
100
AcDbArc
 50
16.6658321562
 51
155.7553234114
  0
ARC
  5
370
100
AcDbEntity
  8
0
100
AcDbCircle
 62
7
  6
CONTINUOUS
 10
7.4990773515
 20
5.8533422622
 40
0.4625
100
AcDbArc
 50
17.718223988
 51
151.4621907732
  0
ARC
  5
371
100
AcDbEntity
  8
0
100
AcDbCircle
 62
7
  6
CONTINUOUS
 10
7.4990773515
 20
5.8533422622
 40
0.4625
100
AcDbArc
 50
208.5378092268
 51
342.281776012
  0
ARC
  5
372
100
AcDbEntity
  8
0
100
AcDbCircle
 62
7
  6
CONTINUOUS
 10
7.4990773515
 20
5.8533422622
 40
0.32
100
AcDbArc
 50
111.8556020443
 51
128.1443979557
  0
ARC
  5
373
100
AcDbEntity
  8
0
100
AcDbCircle
 62
7
  6
CONTINUOUS
 10
7.4990773515
 20
5.8533422622
 40
0.32
100
AcDbArc
 50
231.8556020443
 51
248.1443979557
  0
ARC
  5
374
100
AcDbEntity
  8
0
100
AcDbCircle
 62
7
  6
CONTINUOUS
 10
7.4990773515
 20
5.8533422622
 40
0.32
100
AcDbArc
 50
291.8556020443
 51
308.1443979557
  0
ARC
  5
375
100
AcDbEntity
  8
0
100
AcDbCircle
 62
7
  6
CONTINUOUS
 10
7.4990773515
 20
5.8533422622
 40
0.32
100
AcDbArc
 50
51.8556020443
 51
68.1443979557
  0
ARC
  5
376
100
AcDbEntity
  8
0
100
AcDbCircle
 62
9
  6
CONTINUOUS
 10
7.4990773515
 20
5.8533422622
 40
0.3101692131
100
AcDbArc
 50
46.7558673396
 51
73.2441326604
  0
ARC
  5
377
100
AcDbEntity
  8
0
100
AcDbCircle
 62
9
  6
CONTINUOUS
 10
7.4990773515
 20
5.8533422622
 40
0.3101692131
100
AcDbArc
 50
286.7558673396
 51
313.2441326604
  0
ARC
  5
378
100
AcDbEntity
  8
0
100
AcDbCircle
 62
9
  6
CONTINUOUS
 10
7.4990773515
 20
5.8533422622
 40
0.3101692131
100
AcDbArc
 50
226.7558673396
 51
253.2441326604
  0
ARC
  5
379
100
AcDbEntity
  8
0
100
AcDbCircle
 62
9
  6
CONTINUOUS
 10
7.4990773515
 20
5.8533422622
 40
0.3101692131
100
AcDbArc
 50
106.7558673396
 51
133.2441326604
  0
CIRCLE
  5
37A
100
AcDbEntity
  8
0
100
AcDbCircle
 62
7
  6
CONTINUOUS
 10
7.4990773515
 20
5.8533422622
 40
0.27875
  0
CIRCLE
  5
37B
100
AcDbEntity
  8
0
100
AcDbCircle
 62
7
  6
CONTINUOUS
 10
7.4990773515
 20
5.8533422622
 40
0.2645961576
  0
CIRCLE
  5
37C
100
AcDbEntity
  8
0
100
AcDbCircle
 62
7
  6
CONTINUOUS
 10
7.4990773515
 20
5.8533422622
 40
0.26375
  0
CIRCLE
  5
37D
100
AcDbEntity
  8
0
100
AcDbCircle
 62
7
  6
CONTINUOUS
 10
7.4990773515
 20
5.8533422622
 40
0.2526402106
  0
CIRCLE
  5
37E
100
AcDbEntity
  8
0
100
AcDbCircle
 62
7
  6
CONTINUOUS
 10
7.4990773515
 20
5.8533422622
 40
0.2272549781
  0
CIRCLE
  5
37F
100
AcDbEntity
  8
0
100
AcDbCircle
 62
7
  6
CONTINUOUS
 10
7.4990773515
 20
5.8533422622
 40
0.2085229177
  0
CIRCLE
  5
380
100
AcDbEntity
  8
0
100
AcDbCircle
 62
9
  6
CONTINUOUS
 10
7.4990773515
 20
5.8533422622
 40
0.1975723283
  0
ARC
  5
381
100
AcDbEntity
  8
0
100
AcDbCircle
 62
7
  6
CONTINUOUS
 10
7.4998273515
 20
5.8719569398
 40
0.015
100
AcDbArc
 50
0.0
 51
73.5407503717
  0
ARC
  5
382
100
AcDbEntity
  8
0
100
AcDbCircle
 62
7
  6
CONTINUOUS
 10
7.6109078115
 20
5.8545922622
 40
0.0485
100
AcDbArc
 50
341.5590861804
 51
18.4409138196
  0
ARC
  5
383
100
AcDbEntity
  8
0
100
AcDbCircle
 62
7
  6
CONTINUOUS
 10
7.6341497456
 20
5.8623422622
 40
0.024
100
AcDbArc
 50
18.4409138196
 51
90.0
  0
ARC
  5
384
100
AcDbEntity
  8
0
100
AcDbCircle
 62
7
  6
CONTINUOUS
 10
7.5478273515
 20
5.8719569398
 40
0.015
100
AcDbArc
 50
106.4592496283
 51
180.0
  0
ARC
  5
385
100
AcDbEntity
  8
0
100
AcDbCircle
 62
7
  6
CONTINUOUS
 10
7.5900773515
 20
5.8782800045
 40
0.009
100
AcDbArc
 50
0.0
 51
63.6122000387
  0
ARC
  5
386
100
AcDbEntity
  8
0
100
AcDbCircle
 62
7
  6
CONTINUOUS
 10
7.6202182917
 20
5.8833422622
 40
0.003
100
AcDbArc
 50
90.0
 51
180.0
  0
ARC
  5
387
100
AcDbEntity
  8
0
100
AcDbCircle
 62
7
  6
CONTINUOUS
 10
7.3885773515
 20
5.8953422622
 40
0.003
100
AcDbArc
 50
252.3178031513
 51
360.0
  0
ARC
  5
388
100
AcDbEntity
  8
0
100
AcDbCircle
 62
7
  6
CONTINUOUS
 10
8.9985669348
 20
5.8533422622
 40
0.1867604167
100
AcDbArc
 50
317.9864211385
 51
42.0135788615
  0
SPLINE
  5
389
100
AcDbEntity
  8
0
100
AcDbSpline
 62
7
  6
CONTINUOUS
 70
0
 71
3
 72
15
 73
11
 74
0
 42
0.0000001
 43
0.0000001
 44
0.0000000001
 40
0.0
 40
0.0
 40
0.0
 40
0.0
 40
0.1249299936
 40
0.2499119041
 40
0.3749470809
 40
0.50001311
 40
0.6250762236
 40
0.7501036737
 40
0.8750761108
 40
1.0
 40
1.0
 40
1.0
 40
1.0
 10
5.5046474636
 20
6.1382860196
 30
0.0
 10
5.5117828323
 20
6.1381420503
 30
0.0
 10
5.5260512501
 20
6.1373018044
 30
0.0
 10
5.5472958446
 20
6.1344243411
 30
0.0
 10
5.5682749679
 20
6.129968047
 30
0.0
 10
5.5888709447
 20
6.1239710941
 30
0.0
 10
5.608968062
 20
6.1164713956
 30
0.0
 10
5.6284504011
 20
6.1075062408
 30
0.0
 10
5.6472002973
 20
6.0971138946
 30
0.0
 10
5.6591385591
 20
6.0892558162
 30
0.0
 10
5.6649429463
 20
6.08510391
 30
0.0
  0
SPLINE
  5
38A
100
AcDbEntity
  8
0
100
AcDbSpline
 62
7
  6
CONTINUOUS
 70
0
 71
3
 72
12
 73
8
 74
0
 42
0.0000001
 43
0.0000001
 44
0.0000000001
 40
0.0
 40
0.0
 40
0.0
 40
0.0
 40
0.2498452694
 40
0.3748233824
 40
0.4998295539
 40
0.7498791765
 40
1.0
 40
1.0
 40
1.0
 40
1.0
 10
5.770971915
 20
5.9387710844
 30
0.0
 10
5.7730698582
 20
5.9320862988
 30
0.0
 10
5.7758368503
 20
5.9219325083
 30
0.0
 10
5.7787603445
 20
5.9082220949
 30
0.0
 10
5.7811758203
 20
5.8944065114
 30
0.0
 10
5.7832411602
 20
5.8769808804
 30
0.0
 10
5.7838754283
 20
5.862955006
 30
0.0
 10
5.7839382447
 20
5.8559412969
 30
0.0
  0
SPLINE
  5
38B
100
AcDbEntity
  8
0
100
AcDbSpline
 62
7
  6
CONTINUOUS
 70
0
 71
3
 72
12
 73
8
 74
0
 42
0.0000001
 43
0.0000001
 44
0.0000000001
 40
0.0
 40
0.0
 40
0.0
 40
0.0
 40
0.2501208228
 40
0.5001704479
 40
0.6251766215
 40
0.7501547354
 40
1.0
 40
1.0
 40
1.0
 40
1.0
 10
5.2142164311
 20
5.855938255
 30
0.0
 10
5.2142791763
 20
5.8629522222
 30
0.0
 10
5.2149133393
 20
5.8769786183
 30
0.0
 10
5.2169786411
 20
5.8944049038
 30
0.0
 10
5.2193941425
 20
5.9082210058
 30
0.0
 10
5.2223176995
 20
5.921931932
 30
0.0
 10
5.225084781
 20
5.9320860994
 30
0.0
 10
5.2271828023
 20
5.9387711299
 30
0.0
  0
SPLINE
  5
38C
100
AcDbEntity
  8
0
100
AcDbSpline
 62
7
  6
CONTINUOUS
 70
0
 71
3
 72
15
 73
11
 74
0
 42
0.0000001
 43
0.0000001
 44
0.0000000001
 40
0.0
 40
0.0
 40
0.0
 40
0.0
 40
0.1249238894
 40
0.2498963268
 40
0.3749237773
 40
0.4999868909
 40
0.62505292
 40
0.7500880965
 40
0.8750700067
 40
1.0
 40
1.0
 40
1.0
 40
1.0
 10
5.3332118609
 20
6.0851039846
 30
0.0
 10
5.3390162505
 20
6.0892558883
 30
0.0
 10
5.3509545167
 20
6.0971139617
 30
0.0
 10
5.3697044189
 20
6.1075063001
 30
0.0
 10
5.3891867635
 20
6.1164714466
 30
0.0
 10
5.4092838856
 20
6.1239711363
 30
0.0
 10
5.4298798665
 20
6.1299680801
 30
0.0
 10
5.4508589932
 20
6.1344243646
 30
0.0
 10
5.4721035905
 20
6.1373018179
 30
0.0
 10
5.4863720097
 20
6.1381420567
 30
0.0
 10
5.4935073789
 20
6.1382860224
 30
0.0
  0
SPLINE
  5
38D
100
AcDbEntity
  8
0
100
AcDbSpline
 62
7
  6
CONTINUOUS
 70
0
 71
3
 72
32
 73
28
 74
0
 42
0.0000001
 43
0.0000001
 44
0.0000000001
 40
0.0
 40
0.0
 40
0.0
 40
0.0
 40
0.0628143331
 40
0.1256482448
 40
0.1884858717
 40
0.2512908467
 40
0.2826776404
 40
0.3140426317
 40
0.3453835894
 40
0.3767003934
 40
0.4079956101
 40
0.4392747295
 40
0.470542797
 40
0.5018021757
 40
0.5330529971
 40
0.5642937197
 40
0.6267154115
 40
0.6890607756
 40
0.7202084784
 40
0.7513330477
 40
0.7824369343
 40
0.7979839088
 40
0.8135279657
 40
0.8446089056
 40
0.8756886602
 40
0.9378378193
 40
1.0
 40
1.0
 40
1.0
 40
1.0
 10
5.4990773515
 20
1.4882601007
 30
0.0
 10
5.4897621822
 20
1.4882601007
 30
0.0
 10
5.4711163533
 20
1.4891958028
 30
0.0
 10
5.4434284458
 20
1.4933207144
 30
0.0
 10
5.416264475
 20
1.5000812553
 30
0.0
 10
5.3942693971
 20
1.5078464866
 30
0.0
 10
5.3771973459
 20
1.5152934938
 30
0.0
 10
5.3646865827
 20
1.5214858384
 30
0.0
 10
5.3525015626
 20
1.5282750935
 30
0.0
 10
5.3406742881
 20
1.5356508626
 30
0.0
 10
5.3292379061
 20
1.5436035202
 30
0.0
 10
5.31822367
 20
1.5521193663
 30
0.0
 10
5.3076510035
 20
1.5611691812
 30
0.0
 10
5.2975402242
 20
1.5707259079
 30
0.0
 10
5.2879110314
 20
1.5807623765
 30
0.0
 10
5.2757466191
 20
1.5947409051
 30
0.0
 10
5.2618411182
 20
1.6132791086
 30
0.0
 10
5.2498010893
 20
1.6330643062
 30
0.0
 10
5.2413768099
 20
1.6495200332
 30
0.0
 10
5.2356817353
 20
1.6621484757
 30
0.0
 10
5.231470604
 20
1.6728917331
 30
0.0
 10
5.2284336769
 20
1.6816016622
 30
0.0
 10
5.2256217953
 20
1.6903832138
 30
0.0
 10
5.2225282592
 20
1.7014893517
 30
0.0
 10
5.2184794772
 20
1.7194805851
 30
0.0
 10
5.2151041595
 20
1.742315625
 30
0.0
 10
5.2142048199
 20
1.7607624013
 30
0.0
 10
5.2142048199
 20
1.7699808584
 30
0.0
  0
SPLINE
  5
38E
100
AcDbEntity
  8
0
100
AcDbSpline
 62
7
  6
CONTINUOUS
 70
0
 71
3
 72
32
 73
28
 74
0
 42
0.0000001
 43
0.0000001
 44
0.0000000001
 40
0.0
 40
0.0
 40
0.0
 40
0.0
 40
0.0624553151
 40
0.1249441
 40
0.1874633832
 40
0.2499886002
 40
0.2812534722
 40
0.3125100904
 40
0.3437573674
 40
0.37499624
 40
0.406230235
 40
0.4374655513
 40
0.4687074889
 40
0.4999584804
 40
0.5312185931
 40
0.5624860931
 40
0.6250125143
 40
0.687527279
 40
0.7187820769
 40
0.7500275403
 40
0.7812650743
 40
0.7968832745
 40
0.8125012888
 40
0.8437375919
 40
0.8749812132
 40
0.9374772191
 40
1.0
 40
1.0
 40
1.0
 40
1.0
 10
5.4990773515
 20
6.1383422622
 30
0.0
 10
5.489763283
 20
6.1383422622
 30
0.0
 10
5.4711172818
 20
6.137395697
 30
0.0
 10
5.4434306531
 20
6.1332231068
 30
0.0
 10
5.4162680928
 20
6.1263845288
 30
0.0
 10
5.3942783686
 20
6.1185312003
 30
0.0
 10
5.3772114083
 20
6.1110007813
 30
0.0
 10
5.3647018882
 20
6.1047378779
 30
0.0
 10
5.3525180094
 20
6.0978712691
 30
0.0
 10
5.3406917526
 20
6.0904114669
 30
0.0
 10
5.3292562765
 20
6.0823682354
 30
0.0
 10
5.3182428845
 20
6.073755447
 30
0.0
 10
5.3076709275
 20
6.0646026043
 30
0.0
 10
5.2975607057
 20
6.0549370674
 30
0.0
 10
5.287931907
 20
6.0447863151
 30
0.0
 10
5.2757644491
 20
6.0306447136
 30
0.0
 10
5.2618560943
 20
6.0118901144
 30
0.0
 10
5.2498192785
 20
5.9918845541
 30
0.0
 10
5.2413958513
 20
5.9752451977
 30
0.0
 10
5.2356996589
 20
5.9624727522
 30
0.0
 10
5.2314877766
 20
5.951608
 30
0.0
 10
5.2284499624
 20
5.9427994192
 30
0.0
 10
5.2256365983
 20
5.9339168354
 30
0.0
 10
5.2225412515
 20
5.9226830932
 30
0.0
 10
5.2184892267
 20
5.9044845108
 30
0.0
 10
5.2151100341
 20
5.8813880154
 30
0.0
 10
5.214206945
 20
5.8627323024
 30
0.0
 10
5.2142048273
 20
5.8534081728
 30
0.0
  0
SPLINE
  5
38F
100
AcDbEntity
  8
0
100
AcDbSpline
 62
7
  6
CONTINUOUS
 70
0
 71
3
 72
33
 73
29
 74
0
 42
0.0000001
 43
0.0000001
 44
0.0000000001
 40
0.0
 40
0.0
 40
0.0
 40
0.0
 40
0.0311211548
 40
0.0622466093
 40
0.0933772553
 40
0.1245139435
 40
0.1867931132
 40
0.2491054061
 40
0.2802832131
 40
0.3114709767
 40
0.342669104
 40
0.3738779168
 40
0.4050976558
 40
0.4363284782
 40
0.4988082768
 40
0.561332144
 40
0.5926176756
 40
0.6239134071
 40
0.6552188963
 40
0.6865336257
 40
0.7178570049
 40
0.7491883776
 40
0.8118570638
 40
0.8745483693
 40
0.9059079088
 40
0.9372701025
 40
0.9686349184
 40
1.0
 40
1.0
 40
1.0
 40
1.0
 10
5.9165646632
 20
1.5077154753
 30
0.0
 10
5.9156063545
 20
1.5016091066
 30
0.0
 10
5.9134161292
 20
1.4894366239
 30
0.0
 10
5.9093181539
 20
1.4713430287
 30
0.0
 10
5.9044149942
 20
1.4534468855
 30
0.0
 10
5.8968179566
 20
1.4298984505
 30
0.0
 10
5.8853571662
 20
1.4011231803
 30
0.0
 10
5.8713748497
 20
1.3734761867
 30
0.0
 10
5.8587465945
 20
1.3521674673
 30
0.0
 10
5.8485675663
 20
1.3366125229
 30
0.0
 10
5.8377040575
 20
1.3215204779
 30
0.0
 10
5.8261774414
 20
1.3069205211
 30
0.0
 10
5.8140101919
 20
1.2928410104
 30
0.0
 10
5.7969656894
 20
1.2747992637
 30
0.0
 10
5.7741743077
 20
1.2536776713
 30
0.0
 10
5.7495981165
 20
1.2346449927
 30
0.0
 10
5.728984417
 20
1.2207591742
 30
0.0
 10
5.7130694163
 20
1.2110294328
 30
0.0
 10
5.6967366165
 20
1.2020072909
 30
0.0
 10
5.6800177871
 20
1.1937100097
 30
0.0
 10
5.6629453374
 20
1.1861536322
 30
0.0
 10
5.6397573468
 20
1.1770864603
 30
0.0
 10
5.610049461
 20
1.167672497
 30
0.0
 10
5.579625291
 20
1.1608979241
 30
0.0
 10
5.5550022387
 20
1.1570919851
 30
0.0
 10
5.5364210103
 20
1.1550484466
 30
0.0
 10
5.5177677049
 20
1.1538208626
 30
0.0
 10
5.5053069068
 20
1.1535478557
 30
0.0
 10
5.4990773515
 20
1.1535478557
 30
0.0
  0
SPLINE
  5
390
100
AcDbEntity
  8
0
100
AcDbSpline
 62
7
  6
CONTINUOUS
 70
0
 71
3
 72
47
 73
43
 74
0
 42
0.0000001
 43
0.0000001
 44
0.0000000001
 40
0.0
 40
0.0
 40
0.0
 40
0.0
 40
0.0315476542
 40
0.0628492095
 40
0.0939293529
 40
0.1248133213
 40
0.155526732
 40
0.1860946276
 40
0.2165409524
 40
0.2468890161
 40
0.2771610308
 40
0.3073783454
 40
0.3375618488
 40
0.3677319296
 40
0.3979088232
 40
0.4281128395
 40
0.4583646775
 40
0.4886855245
 40
0.5190972756
 40
0.5496228773
 40
0.5802860865
 40
0.6111115349
 40
0.6421248422
 40
0.6733513271
 40
0.6890552348
 40
0.7048217978
 40
0.7206538072
 40
0.7365537417
 40
0.7685596173
 40
0.800858449
 40
0.8171225756
 40
0.8334601996
 40
0.8498697711
 40
0.8663487332
 40
0.8828932975
 40
0.8994986082
 40
0.9161586772
 40
0.9328664828
 40
0.9496139546
 40
0.9663918735
 40
0.9831907753
 40
1.0
 40
1.0
 40
1.0
 40
1.0
 10
5.783953141
 20
1.9967448449
 30
0.0
 10
5.7925652917
 20
1.9890957882
 30
0.0
 10
5.8091375527
 20
1.9731840805
 30
0.0
 10
5.8320051408
 20
1.9475837028
 30
0.0
 10
5.852732972
 20
1.9205255251
 30
0.0
 10
5.8712777993
 20
1.892185236
 30
0.0
 10
5.887608212
 20
1.8627282868
 30
0.0
 10
5.9016991535
 20
1.8323137404
 30
0.0
 10
5.9135312307
 20
1.8010946442
 30
0.0
 10
5.9230893755
 20
1.7692193585
 30
0.0
 10
5.9303621418
 20
1.7368324309
 30
0.0
 10
5.9353411991
 20
1.7040755977
 30
0.0
 10
5.9380210306
 20
1.6710885935
 30
0.0
 10
5.9383987134
 20
1.6380099028
 30
0.0
 10
5.9364738287
 20
1.6049775658
 30
0.0
 10
5.9322484648
 20
1.572129842
 30
0.0
 10
5.9257272703
 20
1.5396059706
 30
0.0
 10
5.9169176193
 20
1.5075469437
 30
0.0
 10
5.9058298744
 20
1.4760963045
 30
0.0
 10
5.8924778255
 20
1.4454010344
 30
0.0
 10
5.8768794404
 20
1.4156126317
 30
0.0
 10
5.8590574106
 20
1.3868877321
 30
0.0
 10
5.8390421009
 20
1.3593907907
 30
0.0
 10
5.8205975458
 20
1.3376796588
 30
0.0
 10
5.8048025252
 20
1.3211038523
 30
0.0
 10
5.7924134723
 20
1.3090643918
 30
0.0
 10
5.7795137617
 20
1.2974662849
 30
0.0
 10
5.7616093136
 20
1.2825923026
 30
0.0
 10
5.7379875967
 20
1.2652287085
 30
0.0
 10
5.7129325256
 20
1.2497484975
 30
0.0
 10
5.6920438624
 20
1.2385484236
 30
0.0
 10
5.6759324744
 20
1.2307484489
 30
0.0
 10
5.6594383458
 20
1.2235952322
 30
0.0
 10
5.6425876793
 20
1.2171138065
 30
0.0
 10
5.625409988
 20
1.211328529
 30
0.0
 10
5.6079377021
 20
1.2062622774
 30
0.0
 10
5.5902061707
 20
1.2019361227
 30
0.0
 10
5.5722535079
 20
1.198368887
 30
0.0
 10
5.5541205137
 20
1.1955767258
 30
0.0
 10
5.535849985
 20
1.1935726417
 30
0.0
 10
5.5174872369
 20
1.1923663065
 30
0.0
 10
5.5052146716
 20
1.1920978075
 30
0.0
 10
5.4990773515
 20
1.1920978075
 30
0.0
  0
SPLINE
  5
391
100
AcDbEntity
  8
0
100
AcDbSpline
 62
7
  6
CONTINUOUS
 70
0
 71
3
 72
43
 73
39
 74
0
 42
0.0000001
 43
0.0000001
 44
0.0000000001
 40
0.0
 40
0.0
 40
0.0
 40
0.0
 40
0.0312130722
 40
0.0468171677
 40
0.0624184021
 40
0.0936086531
 40
0.1247895562
 40
0.140379151
 40
0.1559670212
 40
0.1871341541
 40
0.2182971
 40
0.2494577635
 40
0.280618088
 40
0.3117800229
 40
0.3429454898
 40
0.3741163521
 40
0.4052943771
 40
0.4364812113
 40
0.4676783521
 40
0.4988871168
 40
0.5301086233
 40
0.5457265824
 40
0.561348046
 40
0.592597503
 40
0.6238616817
 40
0.6395014772
 40
0.6551449907
 40
0.6864388425
 40
0.7177471267
 40
0.7490692404
 40
0.7804043344
 40
0.8117513337
 40
0.8431089579
 40
0.874475739
 40
0.9058500275
 40
0.9372301477
 40
0.9686139558
 40
1.0
 40
1.0
 40
1.0
 40
1.0
 10
5.7839567685
 20
1.9262148982
 30
0.0
 10
5.7877036879
 20
1.9200111381
 30
0.0
 10
5.7930177391
 20
1.9105158627
 30
0.0
 10
5.7994589667
 20
1.8975305868
 30
0.0
 10
5.8054640866
 20
1.8843431874
 30
0.0
 10
5.8121430794
 20
1.8675003189
 30
0.0
 10
5.8176879696
 20
1.8502535597
 30
0.0
 10
5.8214275809
 20
1.8362631552
 30
0.0
 10
5.8246992683
 20
1.8221593237
 30
0.0
 10
5.8279059182
 20
1.8043389327
 30
0.0
 10
5.8303222007
 20
1.7827500749
 30
0.0
 10
5.831296579
 20
1.7610493895
 30
0.0
 10
5.8308245986
 20
1.7393323263
 30
0.0
 10
5.828908389
 20
1.7176936702
 30
0.0
 10
5.8255564169
 20
1.6962280424
 30
0.0
 10
5.820783509
 20
1.6750292207
 30
0.0
 10
5.8146107479
 20
1.6541897642
 30
0.0
 10
5.8070654197
 20
1.6338006275
 30
0.0
 10
5.7981807255
 20
1.6139505454
 30
0.0
 10
5.7879961637
 20
1.5947264191
 30
0.0
 10
5.7784628482
 20
1.5792973276
 30
0.0
 10
5.7702354631
 20
1.5673510155
 30
0.0
 10
5.7616137435
 20
1.5556779642
 30
0.0
 10
5.7501160841
 20
1.5416258055
 30
0.0
 10
5.737713371
 20
1.5283598718
 30
0.0
 10
5.7272810955
 20
1.5182526257
 30
0.0
 10
5.7165165739
 20
1.5084898049
 30
0.0
 10
5.7024616767
 20
1.496954621
 30
0.0
 10
5.6847184815
 20
1.4842477374
 30
0.0
 10
5.6661711585
 20
1.4727273374
 30
0.0
 10
5.646900773
 20
1.4624433208
 30
0.0
 10
5.6269908701
 20
1.4534397067
 30
0.0
 10
5.6065278263
 20
1.4457551053
 30
0.0
 10
5.5856002564
 20
1.439422407
 30
0.0
 10
5.564298811
 20
1.4344686784
 30
0.0
 10
5.5427153263
 20
1.430915135
 30
0.0
 10
5.5209442567
 20
1.4287768823
 30
0.0
 10
5.5063649999
 20
1.4283010573
 30
0.0
 10
5.4990773515
 20
1.4283010573
 30
0.0
  0
SPLINE
  5
392
100
AcDbEntity
  8
0
100
AcDbSpline
 62
7
  6
CONTINUOUS
 70
0
 71
3
 72
33
 73
29
 74
0
 42
0.0000001
 43
0.0000001
 44
0.0000000001
 40
0.0
 40
0.0
 40
0.0
 40
0.0
 40
0.0313650888
 40
0.0627299112
 40
0.0940921113
 40
0.1254516566
 40
0.1881429709
 40
0.2508116636
 40
0.282143039
 40
0.3134664201
 40
0.3447811508
 40
0.3760866407
 40
0.407382372
 40
0.4386679029
 40
0.5011917656
 40
0.5636715575
 40
0.5949023766
 40
0.6261221119
 40
0.6573309208
 40
0.6885290442
 40
0.7197168039
 40
0.750894607
 40
0.813206892
 40
0.8754860559
 40
0.9066227428
 40
0.9377533884
 40
0.9688788435
 40
1.0
 40
1.0
 40
1.0
 40
1.0
 10
5.4990773515
 20
1.1535478557
 30
0.0
 10
5.492847573
 20
1.1535478557
 30
0.0
 10
5.4803863284
 20
1.1538208821
 30
0.0
 10
5.4617323574
 20
1.1550485541
 30
0.0
 10
5.4431504713
 20
1.1570922387
 30
0.0
 10
5.4185265587
 20
1.1608984493
 30
0.0
 10
5.3881013516
 20
1.1676735037
 30
0.0
 10
5.3583925055
 20
1.177088131
 30
0.0
 10
5.335203808
 20
1.1861559368
 30
0.0
 10
5.318130862
 20
1.1937128394
 30
0.0
 10
5.3014115735
 20
1.2020106929
 30
0.0
 10
5.285078355
 20
1.2110334522
 30
0.0
 10
5.269162979
 20
1.220763854
 30
0.0
 10
5.248548842
 20
1.2346506058
 30
0.0
 10
5.2239722264
 20
1.2536845449
 30
0.0
 10
5.2011806011
 20
1.2748075024
 30
0.0
 10
5.1841360223
 20
1.2928503897
 30
0.0
 10
5.1719687764
 20
1.3069307768
 30
0.0
 10
5.1604422263
 20
1.3215316271
 30
0.0
 10
5.1495788472
 20
1.3366245789
 30
0.0
 10
5.1394000141
 20
1.3521804396
 30
0.0
 10
5.1267721077
 20
1.3734903878
 30
0.0
 10
5.1127903953
 20
1.4011389226
 30
0.0
 10
5.1013304359
 20
1.4299157109
 30
0.0
 10
5.0937341999
 20
1.4534653291
 30
0.0
 10
5.0888317093
 20
1.4713623409
 30
0.0
 10
5.0847344705
 20
1.489456781
 30
0.0
 10
5.0825447801
 20
1.5016298081
 30
0.0
 10
5.0815867499
 20
1.5077364436
 30
0.0
  0
SPLINE
  5
393
100
AcDbEntity
  8
0
100
AcDbSpline
 62
7
  6
CONTINUOUS
 70
0
 71
3
 72
47
 73
43
 74
0
 42
0.0000001
 43
0.0000001
 44
0.0000000001
 40
0.0
 40
0.0
 40
0.0
 40
0.0
 40
0.0168092555
 40
0.0336081577
 40
0.0503860644
 40
0.0671334998
 40
0.0838412484
 40
0.1005012474
 40
0.1171064687
 40
0.1336509383
 40
0.1501298116
 40
0.1665392536
 40
0.1828767645
 40
0.1991407508
 40
0.2314393679
 40
0.2634449694
 40
0.2793447768
 40
0.2951766584
 40
0.3109431287
 40
0.3266469283
 40
0.3578732237
 40
0.3888863253
 40
0.4197116534
 40
0.4503747366
 40
0.4809002473
 40
0.511311932
 40
0.5416327403
 40
0.5718845711
 40
0.602088607
 40
0.6322655484
 40
0.6624357042
 40
0.6926193104
 40
0.7228367507
 40
0.7531089233
 40
0.7834571659
 40
0.8139037107
 40
0.8444718202
 40
0.8751854839
 40
0.9060697356
 40
0.9371501574
 40
0.968452042
 40
1.0
 40
1.0
 40
1.0
 40
1.0
 10
5.4990773515
 20
1.1920978075
 30
0.0
 10
5.4929400895
 20
1.1920978075
 30
0.0
 10
5.4806676515
 20
1.1923663008
 30
0.0
 10
5.4623051033
 20
1.1935726111
 30
0.0
 10
5.444034796
 20
1.195576647
 30
0.0
 10
5.4259020402
 20
1.1983687404
 30
0.0
 10
5.4079496307
 20
1.2019358826
 30
0.0
 10
5.3902183643
 20
1.2062619198
 30
0.0
 10
5.3727463471
 20
1.2113280259
 30
0.0
 10
5.3555689194
 20
1.2171131312
 30
0.0
 10
5.3387185131
 20
1.2235943467
 30
0.0
 10
5.3222246414
 20
1.2307473411
 30
0.0
 10
5.3061135117
 20
1.238547064
 30
0.0
 10
5.2852251589
 20
1.2497467875
 30
0.0
 10
5.2601704272
 20
1.265226475
 30
0.0
 10
5.2365489954
 20
1.2825895171
 30
0.0
 10
5.2186447392
 20
1.2974630157
 30
0.0
 10
5.2057451258
 20
1.3090607476
 30
0.0
 10
5.193356155
 20
1.3210998404
 30
0.0
 10
5.1775612002
 20
1.337675155
 30
0.0
 10
5.1591166674
 20
1.3593856411
 30
0.0
 10
5.1391012876
 20
1.3868818221
 30
0.0
 10
5.1212790812
 20
1.4156059672
 30
0.0
 10
5.1056804197
 20
1.4453936565
 30
0.0
 10
5.0923280102
 20
1.4760882436
 30
0.0
 10
5.0812398183
 20
1.507538249
 30
0.0
 10
5.072429641
 20
1.5395966986
 30
0.0
 10
5.0659078551
 20
1.5721200589
 30
0.0
 10
5.0616818374
 20
1.6049673429
 30
0.0
 10
5.0597562439
 20
1.6379993159
 30
0.0
 10
5.0601331754
 20
1.6710777234
 30
0.0
 10
5.0628122212
 20
1.7040645271
 30
0.0
 10
5.0677904648
 20
1.7368212478
 30
0.0
 10
5.0750623969
 20
1.7692081513
 30
0.0
 10
5.0846197016
 20
1.8010835085
 30
0.0
 10
5.0964509384
 20
1.832302759
 30
0.0
 10
5.1105410414
 20
1.8627175526
 30
0.0
 10
5.1268706309
 20
1.8921748365
 30
0.0
 10
5.1454146658
 20
1.9205155421
 30
0.0
 10
5.1661417241
 20
1.9475742363
 30
0.0
 10
5.1890085813
 20
1.9731751944
 30
0.0
 10
5.2055803894
 20
1.9890873316
 30
0.0
 10
5.2141923051
 20
1.9967366239
 30
0.0
  0
SPLINE
  5
394
100
AcDbEntity
  8
0
100
AcDbSpline
 62
7
  6
CONTINUOUS
 70
0
 71
3
 72
43
 73
39
 74
0
 42
0.0000001
 43
0.0000001
 44
0.0000000001
 40
0.0
 40
0.0
 40
0.0
 40
0.0
 40
0.0313860456
 40
0.0627698545
 40
0.0941499748
 40
0.1255242629
 40
0.1568910431
 40
0.1882486658
 40
0.2195956631
 40
0.2509307547
 40
0.2822528657
 40
0.3135611469
 40
0.3448549955
 40
0.3604985073
 40
0.3761383012
 40
0.4074024765
 40
0.4386519302
 40
0.4542733922
 40
0.4698913498
 40
0.5011128534
 40
0.5323216154
 40
0.563518754
 40
0.5947055865
 40
0.6258836103
 40
0.6570544719
 40
0.6882199389
 40
0.7193818745
 40
0.7505422005
 40
0.7817028661
 40
0.8128658149
 40
0.8440329514
 40
0.8596208237
 40
0.8752104208
 40
0.9063913288
 40
0.9375815853
 40
0.9531828227
 40
0.9687869212
 40
1.0
 40
1.0
 40
1.0
 40
1.0
 10
5.4990773515
 20
1.4283010573
 30
0.0
 10
5.4917896873
 20
1.4283010573
 30
0.0
 10
5.4772103988
 20
1.4287768843
 30
0.0
 10
5.4554392826
 20
1.4309151463
 30
0.0
 10
5.4338557529
 20
1.434468705
 30
0.0
 10
5.4125542647
 20
1.4394224545
 30
0.0
 10
5.3916266548
 20
1.4457551794
 30
0.0
 10
5.371163574
 20
1.4534398126
 30
0.0
 10
5.351253638
 20
1.4624434635
 30
0.0
 10
5.3319832235
 20
1.4727275214
 30
0.0
 10
5.3134358761
 20
1.4842479668
 30
0.0
 10
5.2956926614
 20
1.4969548998
 30
0.0
 10
5.2816377521
 20
1.5084901273
 30
0.0
 10
5.2708732242
 20
1.5182529851
 30
0.0
 10
5.2604409435
 20
1.5283602681
 30
0.0
 10
5.2480382283
 20
1.5416262504
 30
0.0
 10
5.2365405721
 20
1.5556784594
 30
0.0
 10
5.2279188573
 20
1.5673515508
 30
0.0
 10
5.2196914805
 20
1.5792979045
 30
0.0
 10
5.2101581779
 20
1.5947270476
 30
0.0
 10
5.199973639
 20
1.6139512366
 30
0.0
 10
5.1910889743
 20
1.6338013812
 30
0.0
 10
5.1835436825
 20
1.6541905796
 30
0.0
 10
5.1773709651
 20
1.6750300967
 30
0.0
 10
5.1725981075
 20
1.6962289768
 30
0.0
 10
5.1692461921
 20
1.7176946605
 30
0.0
 10
5.1673300459
 20
1.7393333694
 30
0.0
 10
5.1668581353
 20
1.7610504815
 30
0.0
 10
5.16783259
 20
1.7827512115
 30
0.0
 10
5.170248955
 20
1.8043401088
 30
0.0
 10
5.1734556792
 20
1.8221605277
 30
0.0
 10
5.1767274266
 20
1.8362643789
 30
0.0
 10
5.1804671022
 20
1.8502548005
 30
0.0
 10
5.1860120737
 20
1.8675015773
 30
0.0
 10
5.1926911515
 20
1.8843444571
 30
0.0
 10
5.1986963425
 20
1.8975318611
 30
0.0
 10
5.2051376407
 20
1.9105171397
 30
0.0
 10
5.2104517465
 20
1.9200124139
 30
0.0
 10
5.2141987033
 20
1.9262161712
 30
0.0
  0
SPLINE
  5
395
100
AcDbEntity
  8
0
100
AcDbSpline
 62
7
  6
CONTINUOUS
 70
0
 71
3
 72
32
 73
28
 74
0
 42
0.0000001
 43
0.0000001
 44
0.0000000001
 40
0.0
 40
0.0
 40
0.0
 40
0.0
 40
0.0621621807
 40
0.1243113398
 40
0.1553910944
 40
0.1864720343
 40
0.2020160912
 40
0.2175630657
 40
0.2486669523
 40
0.2797915216
 40
0.3109392244
 40
0.3732845885
 40
0.4357062803
 40
0.4669470029
 40
0.4981978243
 40
0.529457203
 40
0.5607252705
 40
0.5920043899
 40
0.6232996066
 40
0.6546164106
 40
0.6859573683
 40
0.7173223596
 40
0.7487091533
 40
0.8115141283
 40
0.8743517552
 40
0.9371856669
 40
1.0
 40
1.0
 40
1.0
 40
1.0
 10
5.7839498832
 20
1.7699808584
 30
0.0
 10
5.7839498832
 20
1.7607624013
 30
0.0
 10
5.7830505435
 20
1.742315625
 30
0.0
 10
5.7796752258
 20
1.7194805851
 30
0.0
 10
5.7756264438
 20
1.7014893517
 30
0.0
 10
5.7725329077
 20
1.6903832138
 30
0.0
 10
5.7697210261
 20
1.6816016622
 30
0.0
 10
5.766684099
 20
1.6728917331
 30
0.0
 10
5.7624729677
 20
1.6621484757
 30
0.0
 10
5.7567778931
 20
1.6495200332
 30
0.0
 10
5.7483536137
 20
1.6330643062
 30
0.0
 10
5.7363135849
 20
1.6132791086
 30
0.0
 10
5.7224080839
 20
1.5947409051
 30
0.0
 10
5.7102436716
 20
1.5807623765
 30
0.0
 10
5.7006144788
 20
1.5707259079
 30
0.0
 10
5.6905036995
 20
1.5611691812
 30
0.0
 10
5.6799310331
 20
1.5521193663
 30
0.0
 10
5.668916797
 20
1.5436035202
 30
0.0
 10
5.6574804149
 20
1.5356508626
 30
0.0
 10
5.6456531404
 20
1.5282750935
 30
0.0
 10
5.6334681203
 20
1.5214858384
 30
0.0
 10
5.6209573571
 20
1.5152934938
 30
0.0
 10
5.6038853059
 20
1.5078464866
 30
0.0
 10
5.581890228
 20
1.5000812553
 30
0.0
 10
5.5547262573
 20
1.4933207144
 30
0.0
 10
5.5270383497
 20
1.4891958028
 30
0.0
 10
5.5083925208
 20
1.4882601007
 30
0.0
 10
5.4990773515
 20
1.4882601007
 30
0.0
  0
SPLINE
  5
396
100
AcDbEntity
  8
0
100
AcDbSpline
 62
7
  6
CONTINUOUS
 70
0
 71
3
 72
32
 73
28
 74
0
 42
0.0000001
 43
0.0000001
 44
0.0000000001
 40
0.0
 40
0.0
 40
0.0
 40
0.0
 40
0.0625227677
 40
0.1250187388
 40
0.1562623426
 40
0.1874986354
 40
0.2031166489
 40
0.2187348517
 40
0.2499723982
 40
0.2812178785
 40
0.312472693
 40
0.3749874822
 40
0.4375139055
 40
0.4687813982
 40
0.5000415009
 40
0.5312924821
 40
0.5625344113
 40
0.5937697237
 40
0.6250037215
 40
0.656242601
 40
0.6874898861
 40
0.7187465117
 40
0.750011389
 40
0.8125366128
 40
0.8750558965
 40
0.9375446816
 40
1.0
 40
1.0
 40
1.0
 40
1.0
 10
5.783949866
 20
5.8534421644
 30
0.0
 10
5.7839466565
 20
5.8627655838
 30
0.0
 10
5.7830415198
 20
5.881419766
 30
0.0
 10
5.7796601075
 20
5.9045141312
 30
0.0
 10
5.7756065118
 20
5.9227109033
 30
0.0
 10
5.7725102696
 20
5.9339434762
 30
0.0
 10
5.7696962383
 20
5.9428251051
 30
0.0
 10
5.7666578012
 20
5.9516327248
 30
0.0
 10
5.762445228
 20
5.9624962642
 30
0.0
 10
5.7567483408
 20
5.9752672435
 30
0.0
 10
5.7483241602
 20
5.9919046399
 30
0.0
 10
5.7362867166
 20
6.0119077534
 30
0.0
 10
5.7223781172
 20
6.0306599607
 30
0.0
 10
5.710210676
 20
6.0447997041
 30
0.0
 10
5.7005819929
 20
6.0549490951
 30
0.0
 10
5.6904719841
 20
6.0646133107
 30
0.0
 10
5.6799003331
 20
6.0737648786
 30
0.0
 10
5.6688873349
 20
6.0823764439
 30
0.0
 10
5.6574523397
 20
6.0904185141
 30
0.0
 10
5.6456266554
 20
6.097877237
 30
0.0
 10
5.6334434299
 20
6.1047428471
 30
0.0
 10
5.6209346372
 20
6.1110048357
 30
0.0
 10
5.6038687354
 20
6.1185341499
 30
0.0
 10
5.5818804836
 20
6.1263863181
 30
0.0
 10
5.5547198653
 20
6.1332238776
 30
0.0
 10
5.5270352976
 20
6.1373958408
 30
0.0
 10
5.5083907134
 20
6.1383422622
 30
0.0
 10
5.4990773515
 20
6.1383422622
 30
0.0
  0
SPLINE
  5
397
100
AcDbEntity
  8
0
100
AcDbSpline
 62
7
  6
CONTINUOUS
 70
0
 71
3
 72
88
 73
84
 74
0
 42
0.0000001
 43
0.0000001
 44
0.0000000001
 40
0.0
 40
0.0
 40
0.0
 40
0.0
 40
0.0625016031
 40
0.1250032091
 40
0.187504811
 40
0.2500064167
 40
0.3125080247
 40
0.3437593722
 40
0.3750107192
 40
0.4062620667
 40
0.4375134147
 40
0.4687647623
 40
0.5000161097
 40
0.5312674574
 40
0.5625188052
 40
0.5781445472
 40
0.5937702891
 40
0.6093960308
 40
0.6250217725
 40
0.6406475144
 40
0.6562732569
 40
0.6640861366
 40
0.6718990157
 40
0.6797118942
 40
0.687524773
 40
0.6953376536
 40
0.7031505353
 40
0.7109634094
 40
0.7148698473
 40
0.7187762923
 40
0.7226827433
 40
0.7265891628
 40
0.7285423685
 40
0.7304956031
 40
0.7324488846
 40
0.7344021561
 40
0.7353787586
 40
0.7363553253
 40
0.7373318499
 40
0.7383083806
 40
0.7392850266
 40
0.7397734385
 40
0.7402619244
 40
0.7412388542
 40
0.7417271641
 40
0.7422153384
 40
0.7427034334
 40
0.7431915825
 40
0.7441682513
 40
0.7446566542
 40
0.745145003
 40
0.746121604
 40
0.7470981921
 40
0.7480747967
 40
0.7490514067
 40
0.7500280144
 40
0.7519812164
 40
0.7539344244
 40
0.755887647
 40
0.7578408812
 40
0.7617472962
 40
0.765653671
 40
0.7695600466
 40
0.7734664412
 40
0.7773728386
 40
0.7812792302
 40
0.7890916898
 40
0.796904151
 40
0.8047166212
 40
0.8125290884
 40
0.8203415549
 40
0.8281540224
 40
0.8437764661
 40
0.8593989404
 40
0.8750212937
 40
0.8906436766
 40
0.906266211
 40
0.9218888218
 40
0.9375110521
 40
0.9531331247
 40
0.9687554909
 40
0.9843778139
 40
1.0
 40
1.0
 40
1.0
 40
1.0
 10
3.0553273515
 20
5.7125922622
 30
0.0
 10
3.0307572989
 20
5.7137168626
 30
0.0
 10
2.9815886467
 20
5.7153857087
 30
0.0
 10
2.9077987429
 20
5.7161472373
 30
0.0
 10
2.8340109337
 20
5.7151667521
 30
0.0
 10
2.760267183
 20
5.7124439843
 30
0.0
 10
2.6988838597
 20
5.7087246616
 30
0.0
 10
2.6498413807
 20
5.7048804036
 30
0.0
 10
2.6130956029
 20
5.7015631464
 30
0.0
 10
2.5763916074
 20
5.6978122589
 30
0.0
 10
2.5397344354
 20
5.6936283287
 30
0.0
 10
2.503129218
 20
5.6890119241
 30
0.0
 10
2.4665810503
 20
5.6839636415
 30
0.0
 10
2.4300950517
 20
5.6784842597
 30
0.0
 10
2.3997459687
 20
5.6735594633
 30
0.0
 10
2.3755030102
 20
5.6694048635
 30
0.0
 10
2.3573394381
 20
5.6661816244
 30
0.0
 10
2.3391952171
 20
5.6628512174
 30
0.0
 10
2.3210709697
 20
5.6594137591
 30
0.0
 10
2.3029673319
 20
5.655869379
 30
0.0
 10
2.2878986492
 20
5.6528267342
 30
0.0
 10
2.2758546567
 20
5.6503392799
 30
0.0
 10
2.2668272029
 20
5.6484470237
 30
0.0
 10
2.2578053794
 20
5.6465281086
 30
0.0
 10
2.248789256
 20
5.6445825838
 30
0.0
 10
2.2397789069
 20
5.6426104837
 30
0.0
 10
2.2307743927
 20
5.6406119197
 30
0.0
 10
2.2232756408
 20
5.6389240354
 30
0.0
 10
2.2172796531
 20
5.6375604405
 30
0.0
 10
2.2127841357
 20
5.6365312586
 30
0.0
 10
2.2082900064
 20
5.6354960621
 30
0.0
 10
2.2045464657
 20
5.6346266547
 30
0.0
 10
2.2015524919
 20
5.6339274513
 30
0.0
 10
2.1993071509
 20
5.6334023198
 30
0.0
 10
2.1970616645
 20
5.6328776972
 30
0.0
 10
2.1951907565
 20
5.6324390948
 30
0.0
 10
2.1936947043
 20
5.632085495
 30
0.0
 10
2.1925731071
 20
5.6318186618
 30
0.0
 10
2.1914521429
 20
5.631549304
 30
0.0
 10
2.1903313182
 20
5.6312792364
 30
0.0
 10
2.1893964171
 20
5.6310575506
 30
0.0
 10
2.188647427
 20
5.6308843012
 30
0.0
 10
2.1878975452
 20
5.6307144637
 30
0.0
 10
2.1871475669
 20
5.6305451863
 30
0.0
 10
2.1863996766
 20
5.6303674293
 30
0.0
 10
2.1858405168
 20
5.6302276696
 30
0.0
 10
2.185283678
 20
5.6300791137
 30
0.0
 10
2.1845450422
 20
5.6298667678
 30
0.0
 10
2.1838103372
 20
5.6296408296
 30
0.0
 10
2.1830753732
 20
5.6294155574
 30
0.0
 10
2.1823388017
 20
5.6291956569
 30
0.0
 10
2.1814156639
 20
5.6289292375
 30
0.0
 10
2.1803061691
 20
5.6286157235
 30
0.0
 10
2.1791959499
 20
5.6283047663
 30
0.0
 10
2.1780846322
 20
5.627997725
 30
0.0
 10
2.1766013222
 20
5.6275940166
 30
0.0
 10
2.1747437449
 20
5.6271020982
 30
0.0
 10
2.1725090974
 20
5.6265331861
 30
0.0
 10
2.170269285
 20
5.6259849054
 30
0.0
 10
2.167276376
 20
5.6252809917
 30
0.0
 10
2.1635238168
 20
5.6244504833
 30
0.0
 10
2.1590039275
 20
5.6235333939
 30
0.0
 10
2.1544683286
 20
5.6226974233
 30
0.0
 10
2.1499184756
 20
5.6219428728
 30
0.0
 10
2.1453558565
 20
5.6212696645
 30
0.0
 10
2.1392575247
 20
5.6204807423
 30
0.0
 10
2.1316096085
 20
5.6196987569
 30
0.0
 10
2.1224047464
 20
5.6190888094
 30
0.0
 10
2.1131839057
 20
5.6188078634
 30
0.0
 10
2.1039589597
 20
5.6188563679
 30
0.0
 10
2.0947415016
 20
5.61923414
 30
0.0
 10
2.082478945
 20
5.6201760325
 30
0.0
 10
2.067225011
 20
5.6221740526
 30
0.0
 10
2.0491405396
 20
5.6258715809
 30
0.0
 10
2.0313652274
 20
5.6308491949
 30
0.0
 10
2.0139911528
 20
5.6370841911
 30
0.0
 10
1.9971053315
 20
5.6445411947
 30
0.0
 10
1.9807949889
 20
5.6531846226
 30
0.0
 10
1.9651433389
 20
5.6629703197
 30
0.0
 10
1.9502335978
 20
5.6738526648
 30
0.0
 10
1.9361357079
 20
5.6857681371
 30
0.0
 10
1.9229205091
 20
5.6986543707
 30
0.0
 10
1.9147436793
 20
5.7078534508
 30
0.0
 10
1.9108273515
 20
5.7125922622
 30
0.0
  0
SPLINE
  5
398
100
AcDbEntity
  8
0
100
AcDbSpline
 62
7
  6
CONTINUOUS
 70
0
 71
3
 72
88
 73
84
 74
0
 42
0.0000001
 43
0.0000001
 44
0.0000000001
 40
0.0
 40
0.0
 40
0.0
 40
0.0
 40
0.0625016031
 40
0.1250032091
 40
0.187504811
 40
0.2500064167
 40
0.3125080247
 40
0.3437593722
 40
0.3750107192
 40
0.4062620667
 40
0.4375134147
 40
0.4687647623
 40
0.5000161097
 40
0.5312674574
 40
0.5625188052
 40
0.5781445472
 40
0.5937702891
 40
0.6093960308
 40
0.6250217725
 40
0.6406475144
 40
0.6562732569
 40
0.6640861366
 40
0.6718990157
 40
0.6797118942
 40
0.687524773
 40
0.6953376536
 40
0.7031505353
 40
0.7109634094
 40
0.7148698473
 40
0.7187762923
 40
0.7226827433
 40
0.7265891628
 40
0.7285423685
 40
0.7304956031
 40
0.7324488846
 40
0.7344021561
 40
0.7353787586
 40
0.7363553253
 40
0.7373318499
 40
0.7383083806
 40
0.7392850266
 40
0.7397734385
 40
0.7402619244
 40
0.7412388542
 40
0.7417271641
 40
0.7422153384
 40
0.7427034334
 40
0.7431915825
 40
0.7441682513
 40
0.7446566542
 40
0.745145003
 40
0.746121604
 40
0.7470981921
 40
0.7480747967
 40
0.7490514067
 40
0.7500280144
 40
0.7519812164
 40
0.7539344244
 40
0.755887647
 40
0.7578408812
 40
0.7617472962
 40
0.765653671
 40
0.7695600466
 40
0.7734664412
 40
0.7773728386
 40
0.7812792302
 40
0.7890916898
 40
0.796904151
 40
0.8047166212
 40
0.8125290884
 40
0.8203415549
 40
0.8281540224
 40
0.8437764661
 40
0.8593989404
 40
0.8750212937
 40
0.8906436766
 40
0.906266211
 40
0.9218888218
 40
0.9375110521
 40
0.9531331247
 40
0.9687554909
 40
0.9843778139
 40
1.0
 40
1.0
 40
1.0
 40
1.0
 10
3.0553273515
 20
5.9940922622
 30
0.0
 10
3.0307572989
 20
5.9929676618
 30
0.0
 10
2.9815886467
 20
5.9912988157
 30
0.0
 10
2.9077987429
 20
5.9905372872
 30
0.0
 10
2.8340109337
 20
5.9915177723
 30
0.0
 10
2.760267183
 20
5.9942405401
 30
0.0
 10
2.6988838597
 20
5.9979598629
 30
0.0
 10
2.6498413807
 20
6.0018041209
 30
0.0
 10
2.6130956029
 20
6.005121378
 30
0.0
 10
2.5763916074
 20
6.0088722655
 30
0.0
 10
2.5397344354
 20
6.0130561957
 30
0.0
 10
2.503129218
 20
6.0176726003
 30
0.0
 10
2.4665810503
 20
6.0227208829
 30
0.0
 10
2.4300950517
 20
6.0282002647
 30
0.0
 10
2.3997459687
 20
6.0331250611
 30
0.0
 10
2.3755030102
 20
6.037279661
 30
0.0
 10
2.3573394381
 20
6.0405029
 30
0.0
 10
2.3391952171
 20
6.043833307
 30
0.0
 10
2.3210709697
 20
6.0472707653
 30
0.0
 10
2.3029673319
 20
6.0508151455
 30
0.0
 10
2.2878986492
 20
6.0538577902
 30
0.0
 10
2.2758546567
 20
6.0563452445
 30
0.0
 10
2.2668272029
 20
6.0582375007
 30
0.0
 10
2.2578053794
 20
6.0601564158
 30
0.0
 10
2.248789256
 20
6.0621019407
 30
0.0
 10
2.2397789069
 20
6.0640740407
 30
0.0
 10
2.2307743927
 20
6.0660726047
 30
0.0
 10
2.2232756408
 20
6.067760489
 30
0.0
 10
2.2172796531
 20
6.0691240839
 30
0.0
 10
2.2127841357
 20
6.0701532658
 30
0.0
 10
2.2082900064
 20
6.0711884623
 30
0.0
 10
2.2045464657
 20
6.0720578697
 30
0.0
 10
2.2015524919
 20
6.0727570731
 30
0.0
 10
2.1993071509
 20
6.0732822046
 30
0.0
 10
2.1970616645
 20
6.0738068272
 30
0.0
 10
2.1951907565
 20
6.0742454296
 30
0.0
 10
2.1936947043
 20
6.0745990294
 30
0.0
 10
2.1925731071
 20
6.0748658627
 30
0.0
 10
2.1914521429
 20
6.0751352204
 30
0.0
 10
2.1903313182
 20
6.075405288
 30
0.0
 10
2.1893964171
 20
6.0756269738
 30
0.0
 10
2.188647427
 20
6.0758002233
 30
0.0
 10
2.1878975452
 20
6.0759700607
 30
0.0
 10
2.1871475669
 20
6.0761393382
 30
0.0
 10
2.1863996766
 20
6.0763170951
 30
0.0
 10
2.1858405168
 20
6.0764568548
 30
0.0
 10
2.185283678
 20
6.0766054107
 30
0.0
 10
2.1845450422
 20
6.0768177566
 30
0.0
 10
2.1838103372
 20
6.0770436948
 30
0.0
 10
2.1830753732
 20
6.077268967
 30
0.0
 10
2.1823388017
 20
6.0774888675
 30
0.0
 10
2.1814156639
 20
6.077755287
 30
0.0
 10
2.1803061691
 20
6.0780688009
 30
0.0
 10
2.1791959499
 20
6.0783797581
 30
0.0
 10
2.1780846322
 20
6.0786867994
 30
0.0
 10
2.1766013222
 20
6.0790905078
 30
0.0
 10
2.1747437449
 20
6.0795824263
 30
0.0
 10
2.1725090974
 20
6.0801513384
 30
0.0
 10
2.170269285
 20
6.080699619
 30
0.0
 10
2.167276376
 20
6.0814035327
 30
0.0
 10
2.1635238168
 20
6.0822340411
 30
0.0
 10
2.1590039275
 20
6.0831511306
 30
0.0
 10
2.1544683286
 20
6.0839871012
 30
0.0
 10
2.1499184756
 20
6.0847416516
 30
0.0
 10
2.1453558565
 20
6.0854148599
 30
0.0
 10
2.1392575247
 20
6.0862037822
 30
0.0
 10
2.1316096085
 20
6.0869857675
 30
0.0
 10
2.1224047464
 20
6.087595715
 30
0.0
 10
2.1131839057
 20
6.087876661
 30
0.0
 10
2.1039589597
 20
6.0878281565
 30
0.0
 10
2.0947415016
 20
6.0874503844
 30
0.0
 10
2.082478945
 20
6.0865084919
 30
0.0
 10
2.067225011
 20
6.0845104718
 30
0.0
 10
2.0491405396
 20
6.0808129436
 30
0.0
 10
2.0313652274
 20
6.0758353295
 30
0.0
 10
2.0139911528
 20
6.0696003333
 30
0.0
 10
1.9971053315
 20
6.0621433297
 30
0.0
 10
1.9807949889
 20
6.0534999018
 30
0.0
 10
1.9651433389
 20
6.0437142047
 30
0.0
 10
1.9502335978
 20
6.0328318596
 30
0.0
 10
1.9361357079
 20
6.0209163873
 30
0.0
 10
1.9229205091
 20
6.0080301537
 30
0.0
 10
1.9147436793
 20
5.9988310736
 30
0.0
 10
1.9108273515
 20
5.9940922622
 30
0.0
  0
SPLINE
  5
399
100
AcDbEntity
  8
0
100
AcDbSpline
 62
7
  6
CONTINUOUS
 70
0
 71
3
 72
88
 73
84
 74
0
 42
0.0000001
 43
0.0000001
 44
0.0000000001
 40
0.0
 40
0.0
 40
0.0
 40
0.0
 40
0.0625016031
 40
0.1250032091
 40
0.187504811
 40
0.2500064167
 40
0.3125080247
 40
0.3437593722
 40
0.3750107192
 40
0.4062620667
 40
0.4375134147
 40
0.4687647623
 40
0.5000161097
 40
0.5312674574
 40
0.5625188052
 40
0.5781445472
 40
0.5937702891
 40
0.6093960308
 40
0.6250217725
 40
0.6406475144
 40
0.6562732569
 40
0.6640861366
 40
0.6718990157
 40
0.6797118942
 40
0.687524773
 40
0.6953376536
 40
0.7031505353
 40
0.7109634094
 40
0.7148698473
 40
0.7187762923
 40
0.7226827433
 40
0.7265891628
 40
0.7285423685
 40
0.7304956031
 40
0.7324488846
 40
0.7344021561
 40
0.7353787586
 40
0.7363553253
 40
0.7373318499
 40
0.7383083806
 40
0.7392850266
 40
0.7397734385
 40
0.7402619244
 40
0.7412388542
 40
0.7417271641
 40
0.7422153384
 40
0.7427034334
 40
0.7431915825
 40
0.7441682513
 40
0.7446566542
 40
0.745145003
 40
0.746121604
 40
0.7470981921
 40
0.7480747967
 40
0.7490514067
 40
0.7500280144
 40
0.7519812164
 40
0.7539344244
 40
0.755887647
 40
0.7578408812
 40
0.7617472962
 40
0.765653671
 40
0.7695600466
 40
0.7734664412
 40
0.7773728386
 40
0.7812792302
 40
0.7890916898
 40
0.796904151
 40
0.8047166212
 40
0.8125290884
 40
0.8203415549
 40
0.8281540224
 40
0.8437764661
 40
0.8593989404
 40
0.8750212937
 40
0.8906436766
 40
0.906266211
 40
0.9218888218
 40
0.9375110521
 40
0.9531331247
 40
0.9687554909
 40
0.9843778139
 40
1.0
 40
1.0
 40
1.0
 40
1.0
 10
7.9428273515
 20
5.9940922622
 30
0.0
 10
7.9673974041
 20
5.9929676618
 30
0.0
 10
8.0165660563
 20
5.9912988157
 30
0.0
 10
8.0903559601
 20
5.9905372872
 30
0.0
 10
8.1641437694
 20
5.9915177723
 30
0.0
 10
8.23788752
 20
5.9942405401
 30
0.0
 10
8.2992708434
 20
5.9979598629
 30
0.0
 10
8.3483133223
 20
6.0018041209
 30
0.0
 10
8.3850591001
 20
6.005121378
 30
0.0
 10
8.4217630956
 20
6.0088722655
 30
0.0
 10
8.4584202677
 20
6.0130561957
 30
0.0
 10
8.495025485
 20
6.0176726003
 30
0.0
 10
8.5315736527
 20
6.0227208829
 30
0.0
 10
8.5680596513
 20
6.0282002647
 30
0.0
 10
8.5984087343
 20
6.0331250611
 30
0.0
 10
8.6226516928
 20
6.037279661
 30
0.0
 10
8.640815265
 20
6.0405029
 30
0.0
 10
8.6589594859
 20
6.043833307
 30
0.0
 10
8.6770837333
 20
6.0472707653
 30
0.0
 10
8.6951873711
 20
6.0508151455
 30
0.0
 10
8.7102560538
 20
6.0538577902
 30
0.0
 10
8.7223000463
 20
6.0563452445
 30
0.0
 10
8.7313275001
 20
6.0582375007
 30
0.0
 10
8.7403493236
 20
6.0601564158
 30
0.0
 10
8.749365447
 20
6.0621019407
 30
0.0
 10
8.7583757961
 20
6.0640740407
 30
0.0
 10
8.7673803103
 20
6.0660726047
 30
0.0
 10
8.7748790622
 20
6.067760489
 30
0.0
 10
8.7808750499
 20
6.0691240839
 30
0.0
 10
8.7853705674
 20
6.0701532658
 30
0.0
 10
8.7898646966
 20
6.0711884623
 30
0.0
 10
8.7936082373
 20
6.0720578697
 30
0.0
 10
8.7966022111
 20
6.0727570731
 30
0.0
 10
8.7988475522
 20
6.0732822046
 30
0.0
 10
8.8010930385
 20
6.0738068272
 30
0.0
 10
8.8029639465
 20
6.0742454296
 30
0.0
 10
8.8044599988
 20
6.0745990294
 30
0.0
 10
8.8055815959
 20
6.0748658627
 30
0.0
 10
8.8067025602
 20
6.0751352204
 30
0.0
 10
8.8078233848
 20
6.075405288
 30
0.0
 10
8.8087582859
 20
6.0756269738
 30
0.0
 10
8.809507276
 20
6.0758002233
 30
0.0
 10
8.8102571578
 20
6.0759700607
 30
0.0
 10
8.8110071361
 20
6.0761393382
 30
0.0
 10
8.8117550265
 20
6.0763170951
 30
0.0
 10
8.8123141862
 20
6.0764568548
 30
0.0
 10
8.8128710251
 20
6.0766054107
 30
0.0
 10
8.8136096608
 20
6.0768177566
 30
0.0
 10
8.8143443658
 20
6.0770436948
 30
0.0
 10
8.8150793298
 20
6.077268967
 30
0.0
 10
8.8158159013
 20
6.0774888675
 30
0.0
 10
8.8167390391
 20
6.077755287
 30
0.0
 10
8.8178485339
 20
6.0780688009
 30
0.0
 10
8.8189587531
 20
6.0783797581
 30
0.0
 10
8.8200700708
 20
6.0786867994
 30
0.0
 10
8.8215533809
 20
6.0790905078
 30
0.0
 10
8.8234109581
 20
6.0795824263
 30
0.0
 10
8.8256456056
 20
6.0801513384
 30
0.0
 10
8.827885418
 20
6.080699619
 30
0.0
 10
8.830878327
 20
6.0814035327
 30
0.0
 10
8.8346308862
 20
6.0822340411
 30
0.0
 10
8.8391507755
 20
6.0831511306
 30
0.0
 10
8.8436863744
 20
6.0839871012
 30
0.0
 10
8.8482362275
 20
6.0847416516
 30
0.0
 10
8.8527988466
 20
6.0854148599
 30
0.0
 10
8.8588971783
 20
6.0862037822
 30
0.0
 10
8.8665450945
 20
6.0869857675
 30
0.0
 10
8.8757499566
 20
6.087595715
 30
0.0
 10
8.8849707973
 20
6.087876661
 30
0.0
 10
8.8941957433
 20
6.0878281565
 30
0.0
 10
8.9034132015
 20
6.0874503844
 30
0.0
 10
8.915675758
 20
6.0865084919
 30
0.0
 10
8.930929692
 20
6.0845104718
 30
0.0
 10
8.9490141634
 20
6.0808129436
 30
0.0
 10
8.9667894757
 20
6.0758353295
 30
0.0
 10
8.9841635502
 20
6.0696003333
 30
0.0
 10
9.0010493715
 20
6.0621433297
 30
0.0
 10
9.0173597141
 20
6.0534999018
 30
0.0
 10
9.0330113642
 20
6.0437142047
 30
0.0
 10
9.0479211052
 20
6.0328318596
 30
0.0
 10
9.0620189951
 20
6.0209163873
 30
0.0
 10
9.0752341939
 20
6.0080301537
 30
0.0
 10
9.0834110237
 20
5.9988310736
 30
0.0
 10
9.0873273515
 20
5.9940922622
 30
0.0
  0
SPLINE
  5
39A
100
AcDbEntity
  8
0
100
AcDbSpline
 62
7
  6
CONTINUOUS
 70
0
 71
3
 72
88
 73
84
 74
0
 42
0.0000001
 43
0.0000001
 44
0.0000000001
 40
0.0
 40
0.0
 40
0.0
 40
0.0
 40
0.0625016031
 40
0.1250032091
 40
0.187504811
 40
0.2500064167
 40
0.3125080247
 40
0.3437593722
 40
0.3750107192
 40
0.4062620667
 40
0.4375134147
 40
0.4687647623
 40
0.5000161097
 40
0.5312674574
 40
0.5625188052
 40
0.5781445472
 40
0.5937702891
 40
0.6093960308
 40
0.6250217725
 40
0.6406475144
 40
0.6562732569
 40
0.6640861366
 40
0.6718990157
 40
0.6797118942
 40
0.687524773
 40
0.6953376536
 40
0.7031505353
 40
0.7109634094
 40
0.7148698473
 40
0.7187762923
 40
0.7226827433
 40
0.7265891628
 40
0.7285423685
 40
0.7304956031
 40
0.7324488846
 40
0.7344021561
 40
0.7353787586
 40
0.7363553253
 40
0.7373318499
 40
0.7383083806
 40
0.7392850266
 40
0.7397734385
 40
0.7402619244
 40
0.7412388542
 40
0.7417271641
 40
0.7422153384
 40
0.7427034334
 40
0.7431915825
 40
0.7441682513
 40
0.7446566542
 40
0.745145003
 40
0.746121604
 40
0.7470981921
 40
0.7480747967
 40
0.7490514067
 40
0.7500280144
 40
0.7519812164
 40
0.7539344244
 40
0.755887647
 40
0.7578408812
 40
0.7617472962
 40
0.765653671
 40
0.7695600466
 40
0.7734664412
 40
0.7773728386
 40
0.7812792302
 40
0.7890916898
 40
0.796904151
 40
0.8047166212
 40
0.8125290884
 40
0.8203415549
 40
0.8281540224
 40
0.8437764661
 40
0.8593989404
 40
0.8750212937
 40
0.8906436766
 40
0.906266211
 40
0.9218888218
 40
0.9375110521
 40
0.9531331247
 40
0.9687554909
 40
0.9843778139
 40
1.0
 40
1.0
 40
1.0
 40
1.0
 10
7.9428273515
 20
5.7125922622
 30
0.0
 10
7.9673974041
 20
5.7137168626
 30
0.0
 10
8.0165660563
 20
5.7153857087
 30
0.0
 10
8.0903559601
 20
5.7161472373
 30
0.0
 10
8.1641437694
 20
5.7151667521
 30
0.0
 10
8.23788752
 20
5.7124439843
 30
0.0
 10
8.2992708434
 20
5.7087246616
 30
0.0
 10
8.3483133223
 20
5.7048804036
 30
0.0
 10
8.3850591001
 20
5.7015631464
 30
0.0
 10
8.4217630956
 20
5.6978122589
 30
0.0
 10
8.4584202677
 20
5.6936283287
 30
0.0
 10
8.495025485
 20
5.6890119241
 30
0.0
 10
8.5315736527
 20
5.6839636415
 30
0.0
 10
8.5680596513
 20
5.6784842597
 30
0.0
 10
8.5984087343
 20
5.6735594633
 30
0.0
 10
8.6226516928
 20
5.6694048635
 30
0.0
 10
8.640815265
 20
5.6661816244
 30
0.0
 10
8.6589594859
 20
5.6628512174
 30
0.0
 10
8.6770837333
 20
5.6594137591
 30
0.0
 10
8.6951873711
 20
5.655869379
 30
0.0
 10
8.7102560538
 20
5.6528267342
 30
0.0
 10
8.7223000463
 20
5.6503392799
 30
0.0
 10
8.7313275001
 20
5.6484470237
 30
0.0
 10
8.7403493236
 20
5.6465281086
 30
0.0
 10
8.749365447
 20
5.6445825838
 30
0.0
 10
8.7583757961
 20
5.6426104837
 30
0.0
 10
8.7673803103
 20
5.6406119197
 30
0.0
 10
8.7748790622
 20
5.6389240354
 30
0.0
 10
8.7808750499
 20
5.6375604405
 30
0.0
 10
8.7853705674
 20
5.6365312586
 30
0.0
 10
8.7898646966
 20
5.6354960621
 30
0.0
 10
8.7936082373
 20
5.6346266547
 30
0.0
 10
8.7966022111
 20
5.6339274513
 30
0.0
 10
8.7988475522
 20
5.6334023198
 30
0.0
 10
8.8010930385
 20
5.6328776972
 30
0.0
 10
8.8029639465
 20
5.6324390948
 30
0.0
 10
8.8044599988
 20
5.632085495
 30
0.0
 10
8.8055815959
 20
5.6318186618
 30
0.0
 10
8.8067025602
 20
5.631549304
 30
0.0
 10
8.8078233848
 20
5.6312792364
 30
0.0
 10
8.8087582859
 20
5.6310575506
 30
0.0
 10
8.809507276
 20
5.6308843012
 30
0.0
 10
8.8102571578
 20
5.6307144637
 30
0.0
 10
8.8110071361
 20
5.6305451863
 30
0.0
 10
8.8117550265
 20
5.6303674293
 30
0.0
 10
8.8123141862
 20
5.6302276696
 30
0.0
 10
8.8128710251
 20
5.6300791137
 30
0.0
 10
8.8136096608
 20
5.6298667678
 30
0.0
 10
8.8143443658
 20
5.6296408296
 30
0.0
 10
8.8150793298
 20
5.6294155574
 30
0.0
 10
8.8158159013
 20
5.6291956569
 30
0.0
 10
8.8167390391
 20
5.6289292375
 30
0.0
 10
8.8178485339
 20
5.6286157235
 30
0.0
 10
8.8189587531
 20
5.6283047663
 30
0.0
 10
8.8200700708
 20
5.627997725
 30
0.0
 10
8.8215533809
 20
5.6275940166
 30
0.0
 10
8.8234109581
 20
5.6271020982
 30
0.0
 10
8.8256456056
 20
5.6265331861
 30
0.0
 10
8.827885418
 20
5.6259849054
 30
0.0
 10
8.830878327
 20
5.6252809917
 30
0.0
 10
8.8346308862
 20
5.6244504833
 30
0.0
 10
8.8391507755
 20
5.6235333939
 30
0.0
 10
8.8436863744
 20
5.6226974233
 30
0.0
 10
8.8482362275
 20
5.6219428728
 30
0.0
 10
8.8527988466
 20
5.6212696645
 30
0.0
 10
8.8588971783
 20
5.6204807423
 30
0.0
 10
8.8665450945
 20
5.6196987569
 30
0.0
 10
8.8757499566
 20
5.6190888094
 30
0.0
 10
8.8849707973
 20
5.6188078634
 30
0.0
 10
8.8941957433
 20
5.6188563679
 30
0.0
 10
8.9034132015
 20
5.61923414
 30
0.0
 10
8.915675758
 20
5.6201760325
 30
0.0
 10
8.930929692
 20
5.6221740526
 30
0.0
 10
8.9490141634
 20
5.6258715809
 30
0.0
 10
8.9667894757
 20
5.6308491949
 30
0.0
 10
8.9841635502
 20
5.6370841911
 30
0.0
 10
9.0010493715
 20
5.6445411947
 30
0.0
 10
9.0173597141
 20
5.6531846226
 30
0.0
 10
9.0330113642
 20
5.6629703197
 30
0.0
 10
9.0479211052
 20
5.6738526648
 30
0.0
 10
9.0620189951
 20
5.6857681371
 30
0.0
 10
9.0752341939
 20
5.6986543707
 30
0.0
 10
9.0834110237
 20
5.7078534508
 30
0.0
 10
9.0873273515
 20
5.7125922622
 30
0.0
  0
SPLINE
  5
39B
100
AcDbEntity
  8
0
100
AcDbSpline
 62
7
  6
CONTINUOUS
 70
0
 71
3
 72
11
 73
7
 74
0
 42
0.0000001
 43
0.0000001
 44
0.0000000001
 40
0.0
 40
0.0
 40
0.0
 40
0.0
 40
0.2809338224
 40
0.5136726707
 40
0.7464224483
 40
1.0
 40
1.0
 40
1.0
 40
1.0
 10
7.4975773515
 20
5.8533422622
 30
0.0
 10
7.4975777526
 20
5.8414489332
 30
0.0
 10
7.490778636
 20
5.8197026552
 30
0.0
 10
7.4582438728
 20
5.8071948151
 30
0.0
 10
7.42679647
 20
5.8192277982
 30
0.0
 10
7.4198042776
 20
5.8392109098
 30
0.0
 10
7.4191763389
 20
5.8499378828
 30
0.0
  0
SPLINE
  5
39C
100
AcDbEntity
  8
0
100
AcDbSpline
 62
7
  6
CONTINUOUS
 70
0
 71
3
 72
11
 73
7
 74
0
 42
0.0000001
 43
0.0000001
 44
0.0000000001
 40
0.0
 40
0.0
 40
0.0
 40
0.0
 40
0.2895273334
 40
0.4992134133
 40
0.7088994931
 40
1.0
 40
1.0
 40
1.0
 40
1.0
 10
7.4372273515
 20
5.8533422622
 30
0.0
 10
7.4372273515
 20
5.8449803809
 30
0.0
 10
7.4385345977
 20
5.8305625253
 30
0.0
 10
7.4582644408
 20
5.8199491828
 30
0.0
 10
7.4777867312
 20
5.8306114789
 30
0.0
 10
7.4797273515
 20
5.8449863456
 30
0.0
 10
7.4797273515
 20
5.8533422622
 30
0.0
  0
SPLINE
  5
39D
100
AcDbEntity
  8
0
100
AcDbSpline
 62
7
  6
CONTINUOUS
 70
0
 71
3
 72
11
 73
7
 74
0
 42
0.0000001
 43
0.0000001
 44
0.0000000001
 40
0.0
 40
0.0
 40
0.0
 40
0.0
 40
0.2911005069
 40
0.5007865867
 40
0.7104726666
 40
1.0
 40
1.0
 40
1.0
 40
1.0
 10
7.4797273515
 20
5.8533422622
 30
0.0
 10
7.4797273515
 20
5.8616981788
 30
0.0
 10
7.4777867312
 20
5.8760730455
 30
0.0
 10
7.4582644408
 20
5.8867353416
 30
0.0
 10
7.4385345977
 20
5.8761219991
 30
0.0
 10
7.4372273515
 20
5.8617041435
 30
0.0
 10
7.4372273515
 20
5.8533422622
 30
0.0
  0
SPLINE
  5
39E
100
AcDbEntity
  8
0
100
AcDbSpline
 62
7
  6
CONTINUOUS
 70
0
 71
3
 72
11
 73
7
 74
0
 42
0.0000001
 43
0.0000001
 44
0.0000000001
 40
0.0
 40
0.0
 40
0.0
 40
0.0
 40
0.2752484124
 40
0.5037339596
 40
0.7322712029
 40
1.0
 40
1.0
 40
1.0
 40
1.0
 10
7.4190773515
 20
5.8533422622
 30
0.0
 10
7.4190769828
 20
5.8652376362
 30
0.0
 10
7.4256231511
 20
5.8870074291
 30
0.0
 10
7.4582490884
 20
5.8994896755
 30
0.0
 10
7.4904166936
 20
5.8871215027
 30
0.0
 10
7.4973546609
 20
5.865930194
 30
0.0
 10
7.4975676859
 20
5.8543891409
 30
0.0
  0
SPLINE
  5
39F
100
AcDbEntity
  8
0
100
AcDbSpline
 62
7
  6
CONTINUOUS
 70
0
 71
3
 72
11
 73
7
 74
0
 42
0.0000001
 43
0.0000001
 44
0.0000000001
 40
0.0
 40
0.0
 40
0.0
 40
0.0
 40
0.2895273334
 40
0.4992134133
 40
0.7088994931
 40
1.0
 40
1.0
 40
1.0
 40
1.0
 10
3.4772273515
 20
5.8533422622
 30
0.0
 10
3.4772273515
 20
5.8449803809
 30
0.0
 10
3.4785345977
 20
5.8305625253
 30
0.0
 10
3.4982644408
 20
5.8199491828
 30
0.0
 10
3.5177867312
 20
5.8306114789
 30
0.0
 10
3.5197273515
 20
5.8449863456
 30
0.0
 10
3.5197273515
 20
5.8533422622
 30
0.0
  0
SPLINE
  5
3A0
100
AcDbEntity
  8
0
100
AcDbSpline
 62
7
  6
CONTINUOUS
 70
0
 71
3
 72
11
 73
7
 74
0
 42
0.0000001
 43
0.0000001
 44
0.0000000001
 40
0.0
 40
0.0
 40
0.0
 40
0.0
 40
0.2911005069
 40
0.5007865867
 40
0.7104726666
 40
1.0
 40
1.0
 40
1.0
 40
1.0
 10
3.5197273515
 20
5.8533422622
 30
0.0
 10
3.5197273515
 20
5.8616981788
 30
0.0
 10
3.5177867312
 20
5.8760730455
 30
0.0
 10
3.4982644408
 20
5.8867353416
 30
0.0
 10
3.4785345977
 20
5.8761219991
 30
0.0
 10
3.4772273515
 20
5.8617041435
 30
0.0
 10
3.4772273515
 20
5.8533422622
 30
0.0
  0
SPLINE
  5
3A1
100
AcDbEntity
  8
0
100
AcDbSpline
 62
7
  6
CONTINUOUS
 70
0
 71
3
 72
11
 73
7
 74
0
 42
0.0000001
 43
0.0000001
 44
0.0000000001
 40
0.0
 40
0.0
 40
0.0
 40
0.0
 40
0.2730385444
 40
0.4996896654
 40
0.7263920674
 40
1.0
 40
1.0
 40
1.0
 40
1.0
 10
3.4590773515
 20
5.8533422622
 30
0.0
 10
3.4590769828
 20
5.8652376362
 30
0.0
 10
3.4656231511
 20
5.8870074291
 30
0.0
 10
3.4982490884
 20
5.8994896755
 30
0.0
 10
3.530775923
 20
5.886983382
 30
0.0
 10
3.5375769504
 20
5.8652355912
 30
0.0
 10
3.5375773515
 20
5.8533422622
 30
0.0
  0
SPLINE
  5
3A2
100
AcDbEntity
  8
0
100
AcDbSpline
 62
7
  6
CONTINUOUS
 70
0
 71
3
 72
11
 73
7
 74
0
 42
0.0000001
 43
0.0000001
 44
0.0000000001
 40
0.0
 40
0.0
 40
0.0
 40
0.0
 40
0.2736088651
 40
0.5002793729
 40
0.726960525
 40
1.0
 40
1.0
 40
1.0
 40
1.0
 10
3.5375773515
 20
5.8533422622
 30
0.0
 10
3.5375777526
 20
5.8414489332
 30
0.0
 10
3.530778636
 20
5.8197026552
 30
0.0
 10
3.4982438728
 20
5.8071948151
 30
0.0
 10
3.465625648
 20
5.8196757996
 30
0.0
 10
3.4590777202
 20
5.8414468882
 30
0.0
 10
3.4590773515
 20
5.8533422622
 30
0.0
  0
SPLINE
  5
3A3
100
AcDbEntity
  8
0
100
AcDbSpline
 62
9
  6
CONTINUOUS
 70
0
 71
3
 72
32
 73
28
 74
0
 42
0.0000001
 43
0.0000001
 44
0.0000000001
 40
0.0
 40
0.0
 40
0.0
 40
0.0
 40
0.0621621807
 40
0.1243113398
 40
0.1553910944
 40
0.1864720343
 40
0.2020160912
 40
0.2175630657
 40
0.2486669523
 40
0.2797915216
 40
0.3109392244
 40
0.3732845885
 40
0.4357062803
 40
0.4669470029
 40
0.4981978243
 40
0.529457203
 40
0.5607252705
 40
0.5920043899
 40
0.6232996066
 40
0.6546164106
 40
0.6859573683
 40
0.7173223596
 40
0.7487091533
 40
0.8115141283
 40
0.8743517552
 40
0.9371856669
 40
1.0
 40
1.0
 40
1.0
 40
1.0
 10
5.7839498832
 20
1.7983422622
 30
0.0
 10
5.7839498832
 20
1.7891238051
 30
0.0
 10
5.7830505435
 20
1.7706770288
 30
0.0
 10
5.7796752258
 20
1.7478419889
 30
0.0
 10
5.7756264438
 20
1.7298507555
 30
0.0
 10
5.7725329077
 20
1.7187446176
 30
0.0
 10
5.7697210261
 20
1.709963066
 30
0.0
 10
5.766684099
 20
1.7012531369
 30
0.0
 10
5.7624729677
 20
1.6905098795
 30
0.0
 10
5.7567778931
 20
1.677881437
 30
0.0
 10
5.7483536137
 20
1.66142571
 30
0.0
 10
5.7363135849
 20
1.6416405124
 30
0.0
 10
5.7224080839
 20
1.6231023089
 30
0.0
 10
5.7102436716
 20
1.6091237803
 30
0.0
 10
5.7006144788
 20
1.5990873117
 30
0.0
 10
5.6905036995
 20
1.589530585
 30
0.0
 10
5.6799310331
 20
1.5804807701
 30
0.0
 10
5.668916797
 20
1.571964924
 30
0.0
 10
5.6574804149
 20
1.5640122664
 30
0.0
 10
5.6456531404
 20
1.5566364973
 30
0.0
 10
5.6334681203
 20
1.5498472422
 30
0.0
 10
5.6209573571
 20
1.5436548976
 30
0.0
 10
5.6038853059
 20
1.5362078904
 30
0.0
 10
5.581890228
 20
1.5284426591
 30
0.0
 10
5.5547262573
 20
1.5216821182
 30
0.0
 10
5.5270383497
 20
1.5175572066
 30
0.0
 10
5.5083925208
 20
1.5166215045
 30
0.0
 10
5.4990773515
 20
1.5166215045
 30
0.0
  0
SPLINE
  5
3A4
100
AcDbEntity
  8
0
100
AcDbSpline
 62
9
  6
CONTINUOUS
 70
0
 71
3
 72
32
 73
28
 74
0
 42
0.0000001
 43
0.0000001
 44
0.0000000001
 40
0.0
 40
0.0
 40
0.0
 40
0.0
 40
0.0628143331
 40
0.1256482448
 40
0.1884858717
 40
0.2512908467
 40
0.2826776404
 40
0.3140426317
 40
0.3453835894
 40
0.3767003934
 40
0.4079956101
 40
0.4392747295
 40
0.470542797
 40
0.5018021757
 40
0.5330529971
 40
0.5642937197
 40
0.6267154115
 40
0.6890607756
 40
0.7202084784
 40
0.7513330477
 40
0.7824369343
 40
0.7979839088
 40
0.8135279657
 40
0.8446089056
 40
0.8756886602
 40
0.9378378193
 40
1.0
 40
1.0
 40
1.0
 40
1.0
 10
5.4990773515
 20
1.5166215045
 30
0.0
 10
5.4897621822
 20
1.5166215045
 30
0.0
 10
5.4711163533
 20
1.5175572066
 30
0.0
 10
5.4434284458
 20
1.5216821182
 30
0.0
 10
5.416264475
 20
1.5284426591
 30
0.0
 10
5.3942693971
 20
1.5362078904
 30
0.0
 10
5.3771973459
 20
1.5436548976
 30
0.0
 10
5.3646865827
 20
1.5498472422
 30
0.0
 10
5.3525015626
 20
1.5566364973
 30
0.0
 10
5.3406742881
 20
1.5640122664
 30
0.0
 10
5.3292379061
 20
1.571964924
 30
0.0
 10
5.31822367
 20
1.5804807701
 30
0.0
 10
5.3076510035
 20
1.589530585
 30
0.0
 10
5.2975402242
 20
1.5990873117
 30
0.0
 10
5.2879110314
 20
1.6091237803
 30
0.0
 10
5.2757466191
 20
1.6231023089
 30
0.0
 10
5.2618411182
 20
1.6416405124
 30
0.0
 10
5.2498010893
 20
1.66142571
 30
0.0
 10
5.2413768099
 20
1.677881437
 30
0.0
 10
5.2356817353
 20
1.6905098795
 30
0.0
 10
5.231470604
 20
1.7012531369
 30
0.0
 10
5.2284336769
 20
1.709963066
 30
0.0
 10
5.2256217953
 20
1.7187446176
 30
0.0
 10
5.2225282592
 20
1.7298507555
 30
0.0
 10
5.2184794772
 20
1.7478419889
 30
0.0
 10
5.2151041595
 20
1.7706770288
 30
0.0
 10
5.2142048199
 20
1.7891238051
 30
0.0
 10
5.2142048199
 20
1.7983422622
 30
0.0
  0
SPLINE
  5
3A5
100
AcDbEntity
  8
0
100
AcDbSpline
 62
9
  6
CONTINUOUS
 70
0
 71
3
 72
31
 73
27
 74
0
 42
0.0000001
 43
0.0000001
 44
0.0000000001
 40
0.0
 40
0.0
 40
0.0
 40
0.0
 40
0.0314035103
 40
0.0628073352
 40
0.0942073644
 40
0.1256039929
 40
0.1883675763
 40
0.2511020266
 40
0.2824624429
 40
0.3138125003
 40
0.3451513066
 40
0.3764780488
 40
0.4390788754
 40
0.5016238797
 40
0.5641099052
 40
0.6265354443
 40
0.6577324275
 40
0.6889145048
 40
0.720081967
 40
0.7512352097
 40
0.8134872192
 40
0.8756894853
 40
0.9067809198
 40
0.9378624694
 40
0.9689351407
 40
1.0
 40
1.0
 40
1.0
 40
1.0
 10
5.4990773515
 20
1.4218169986
 30
0.0
 10
5.4944619524
 20
1.4218169986
 30
0.0
 10
5.4852299509
 20
1.4220086619
 30
0.0
 10
5.4714073207
 20
1.422870422
 30
0.0
 10
5.4576329147
 20
1.4243051837
 30
0.0
 10
5.4393693326
 20
1.426977795
 30
0.0
 10
5.4167777904
 20
1.4317361988
 30
0.0
 10
5.394664657
 20
1.4383532817
 30
0.0
 10
5.3773616689
 20
1.4447317304
 30
0.0
 10
5.364598724
 20
1.4500498742
 30
0.0
 10
5.3520728948
 20
1.4558930744
 30
0.0
 10
5.3357234972
 20
1.4643668583
 30
0.0
 10
5.3159828165
 20
1.4762202839
 30
0.0
 10
5.2935837282
 20
1.4923598384
 30
0.0
 10
5.2726327399
 20
1.5102998094
 30
0.0
 10
5.2564972939
 20
1.5266521093
 30
0.0
 10
5.2444596793
 20
1.540498096
 30
0.0
 10
5.2358809544
 20
1.5512473028
 30
0.0
 10
5.2277663628
 20
1.5623430805
 30
0.0
 10
5.2175885575
 20
1.577567458
 30
0.0
 10
5.2060915447
 20
1.5973707573
 30
0.0
 10
5.196312373
 20
1.6180664092
 30
0.0
 10
5.1895658318
 20
1.6350602797
 30
0.0
 10
5.1850515826
 20
1.6480044167
 30
0.0
 10
5.18109121
 20
1.6611240347
 30
0.0
 10
5.1788243738
 20
1.6699739858
 30
0.0
 10
5.177785577
 20
1.6744198663
 30
0.0
  0
SPLINE
  5
3A6
100
AcDbEntity
  8
0
100
AcDbSpline
 62
9
  6
CONTINUOUS
 70
0
 71
3
 72
27
 73
23
 74
0
 42
0.0000001
 43
0.0000001
 44
0.0000000001
 40
0.0
 40
0.0
 40
0.0
 40
0.0
 40
0.0627070091
 40
0.0940625082
 40
0.1254155465
 40
0.1881043005
 40
0.2507750932
 40
0.2821061759
 40
0.3134307734
 40
0.3760498887
 40
0.4386359975
 40
0.5011850408
 40
0.5636935832
 40
0.6261588713
 40
0.6885788814
 40
0.719775616
 40
0.7509606266
 40
0.813287092
 40
0.8755668771
 40
0.9066937474
 40
0.9378094325
 40
1.0
 40
1.0
 40
1.0
 40
1.0
 10
5.4990773515
 20
1.1760173195
 30
0.0
 10
5.4902289366
 20
1.1760173195
 30
0.0
 10
5.4769508214
 20
1.176445351
 30
0.0
 10
5.4593090221
 20
1.1778698824
 30
0.0
 10
5.4417242121
 20
1.1798618567
 30
0.0
 10
5.4198814077
 20
1.1834125319
 30
0.0
 10
5.3983158991
 20
1.1883634178
 30
0.0
 10
5.3812888834
 20
1.1931505795
 30
0.0
 10
5.3644322562
 20
1.1984825804
 30
0.0
 10
5.3437047904
 20
1.2061616751
 30
0.0
 10
5.3194916745
 20
1.2169592688
 30
0.0
 10
5.2960410936
 20
1.2292935522
 30
0.0
 10
5.2734532231
 20
1.2431120653
 30
0.0
 10
5.2518243996
 20
1.258355693
 30
0.0
 10
5.2346709777
 20
1.2721967476
 30
0.0
 10
5.2215199016
 20
1.2839130159
 30
0.0
 10
5.2087667688
 20
1.2960421707
 30
0.0
 10
5.1935853177
 20
1.3119644013
 30
0.0
 10
5.1794805376
 20
1.3288370857
 30
0.0
 10
5.1688837818
 20
1.3428567157
 30
0.0
 10
5.1587588233
 20
1.3572045789
 30
0.0
 10
5.1516981348
 20
1.3683321244
 30
0.0
 10
5.1472419736
 20
1.3758920683
 30
0.0
  0
SPLINE
  5
3A7
100
AcDbEntity
  8
0
100
AcDbSpline
 62
9
  6
CONTINUOUS
 70
0
 71
3
 72
31
 73
27
 74
0
 42
0.0000001
 43
0.0000001
 44
0.0000000001
 40
0.0
 40
0.0
 40
0.0
 40
0.0
 40
0.0314034907
 40
0.0628072967
 40
0.0942073071
 40
0.1256039176
 40
0.1883674709
 40
0.2511018964
 40
0.2824623014
 40
0.3138123495
 40
0.3451511483
 40
0.3764778849
 40
0.4390787094
 40
0.5016237197
 40
0.5641097588
 40
0.626535318
 40
0.6577323118
 40
0.6889144007
 40
0.7200818752
 40
0.7512351305
 40
0.813487168
 40
0.8756894596
 40
0.9067809036
 40
0.9378624608
 40
0.9689351377
 40
1.0
 40
1.0
 40
1.0
 40
1.0
 10
5.4990773515
 20
1.4218169986
 30
0.0
 10
5.5036923017
 20
1.4218169986
 30
0.0
 10
5.5129234053
 20
1.4220086247
 30
0.0
 10
5.5267446959
 20
1.4228702172
 30
0.0
 10
5.5405177765
 20
1.4243047002
 30
0.0
 10
5.558779621
 20
1.4269767937
 30
0.0
 10
5.5813690604
 20
1.4317342779
 30
0.0
 10
5.6034802297
 20
1.4383500911
 30
0.0
 10
5.6207817583
 20
1.4447273253
 30
0.0
 10
5.63354367
 20
1.4500444622
 30
0.0
 10
5.6460685338
 20
1.455886563
 30
0.0
 10
5.6624167443
 20
1.4643587638
 30
0.0
 10
5.6821561381
 20
1.4762099988
 30
0.0
 10
5.704554044
 20
1.4923466244
 30
0.0
 10
5.7255042505
 20
1.5102834099
 30
0.0
 10
5.7416394071
 20
1.5266328776
 30
0.0
 10
5.753677023
 20
1.5404765211
 30
0.0
 10
5.7622558679
 20
1.5512239372
 30
0.0
 10
5.7703707014
 20
1.562317898
 30
0.0
 10
5.7805489946
 20
1.5775398289
 30
0.0
 10
5.792046932
 20
1.5973400374
 30
0.0
 10
5.8018274591
 20
1.6180326061
 30
0.0
 10
5.8085753453
 20
1.6350240475
 30
0.0
 10
5.8130907329
 20
1.6479663871
 30
0.0
 10
5.8170523732
 20
1.6610842408
 30
0.0
 10
5.8193201407
 20
1.6699330426
 30
0.0
 10
5.8203594243
 20
1.6743783567
 30
0.0
  0
SPLINE
  5
3A8
100
AcDbEntity
  8
0
100
AcDbSpline
 62
9
  6
CONTINUOUS
 70
0
 71
3
 72
27
 73
23
 74
0
 42
0.0000001
 43
0.0000001
 44
0.0000000001
 40
0.0
 40
0.0
 40
0.0
 40
0.0
 40
0.0627070021
 40
0.0940624976
 40
0.1254155324
 40
0.1881042802
 40
0.2507750674
 40
0.2821061476
 40
0.3134307428
 40
0.3760498548
 40
0.4386359615
 40
0.5011850041
 40
0.5636935472
 40
0.6261588374
 40
0.6885788509
 40
0.7197755875
 40
0.7509606004
 40
0.8132870715
 40
0.8755668632
 40
0.9066937368
 40
0.9378094253
 40
1.0
 40
1.0
 40
1.0
 40
1.0
 10
5.4990773515
 20
1.1760173195
 30
0.0
 10
5.5079255753
 20
1.1760173195
 30
0.0
 10
5.5212034034
 20
1.1764453325
 30
0.0
 10
5.5388448239
 20
1.1778698024
 30
0.0
 10
5.5564292589
 20
1.1798616908
 30
0.0
 10
5.5782716034
 20
1.1834122131
 30
0.0
 10
5.59983667
 20
1.1883628868
 30
0.0
 10
5.6168633466
 20
1.1931498442
 30
0.0
 10
5.6337196457
 20
1.1984816184
 30
0.0
 10
5.6544467233
 20
1.2061603882
 30
0.0
 10
5.6786594154
 20
1.2169575291
 30
0.0
 10
5.7021096209
 20
1.2292913007
 30
0.0
 10
5.7246971701
 20
1.2431092475
 30
0.0
 10
5.7463257321
 20
1.2583522592
 30
0.0
 10
5.7634789899
 20
1.2721927634
 30
0.0
 10
5.7766299696
 20
1.2839085723
 30
0.0
 10
5.78938303
 20
1.2960372563
 30
0.0
 10
5.8045644363
 20
1.3119588781
 30
0.0
 10
5.8186692358
 20
1.3288309322
 30
0.0
 10
5.8292660473
 20
1.3428500488
 30
0.0
 10
5.8393910886
 20
1.3571973939
 30
0.0
 10
5.8464518702
 20
1.368324546
 30
0.0
 10
5.8509081075
 20
1.3758842273
 30
0.0
  0
ENDSEC
  0
SECTION
  2
OBJECTS
  0
DICTIONARY
  5
C
100
AcDbDictionary
280
0
281
1
  3
ACAD_GROUP
350
D
  3
ACAD_MLINESTYLE
350
17
  3
ACAD_LAYOUT
350
1A
  3
ACAD_PLOTSETTINGS
350
19
  3
ACAD_PLOTSTYLENAME
350
E
  0
DICTIONARY
  5
D
102
{ACAD_REACTORS
330
C
102
}
100
AcDbDictionary
280
0
281
1
  0
ACDBDICTIONARYWDFLT
  5
E
102
{ACAD_REACTORS
330
C
102
}
100
AcDbDictionary
281
1
  3
Normal
350
F
100
AcDbDictionaryWithDefault
340
F
  0
DICTIONARY
  5
17
102
{ACAD_REACTORS
330
C
102
}
100
AcDbDictionary
280
0
281
1
  3
Standard
350
18
  0
DICTIONARY
  5
19
102
{ACAD_REACTORS
330
C
102
}
100
AcDbDictionary
281
1
  0
DICTIONARY
  5
1A
102
{ACAD_REACTORS
330
C
102
}
100
AcDbDictionary
281
1
  3
Model
350
3A9
  3
Layout1
350
3AA
  0
ACDBPLACEHOLDER
  5
F
102
{ACAD_REACTORS
330
E
102
}
  0
MLINESTYLE
  5
18
102
{ACAD_REACTORS
330
17
102
}
100
AcDbMlineStyle
  2
STANDARD
 70
0
  3

 62
256
 51
90.0
 52
90.0
 71
2
 49
0.5
 62
256
  6
BYLAYER
 49
-0.5
 62
256
  6
BYLAYER
  0
LAYOUT
  5
3A9
102
{ACAD_REACTORS
330
1A
102
}
100
AcDbPlotSettings
  1

  2
none_device
  4
ANSI_A_(11.00_x_8.50_Inches)
  6

 40
0.0
 41
0.0
 42
0.0
 43
0.0
 44
279.4
 45
215.9
 46
0.0
 47
0.0
 48
0.0
 49
0.0
140
0.0
141
0.0
142
1.0
143
1.0
 70
1024
 72
0
 73
0
 74
0
  7

 75
0
147
1.0
148
0.0
149
0.0
100
AcDbLayout
  1
Model
 70
0
 71
0
 10
0.0
 20
0.0
 11
11.0
 21
8.5
 12
0.0
 22
0.0
 32
0.0
 14
0.0
 24
0.0
 34
0.0
 15
0.0
 25
0.0
 35
0.0
146
0.0
 13
0.0
 23
0.0
 33
0.0
 16
1.0
 26
0.0
 36
0.0
 17
0.0
 27
1.0
 37
0.0
 76
0
330
202
345
0
346
0
  0
LAYOUT
  5
3AA
102
{ACAD_REACTORS
330
1A
102
}
100
AcDbPlotSettings
  1

  2
none_device
  4
ANSI_A_(11.00_x_8.50_Inches)
  6

 40
0.0
 41
0.0
 42
0.0
 43
0.0
 44
279.4
 45
215.9
 46
0.0
 47
0.0
 48
0.0
 49
0.0
140
0.0
141
0.0
142
1.0
143
1.0
 70
0
 72
0
 73
0
 74
0
  7

 75
0
147
1.0
148
0.0
149
0.0
100
AcDbLayout
  1
Layout1
 70
0
 71
1
 10
0.0
 20
0.0
 11
11.0
 21
8.5
 12
0.0
 22
0.0
 32
0.0
 14
0.0
 24
0.0
 34
0.0
 15
0.0
 25
0.0
 35
0.0
146
0.0
 13
0.0
 23
0.0
 33
0.0
 16
1.0
 26
0.0
 36
0.0
 17
0.0
 27
1.0
 37
0.0
 76
0
330
203
345
0
346
0
  0
ENDSEC
  0
EOF
