999
DXF file: E:\BT Custom\CADOUTPUT\_FRONT.dxf
999
Pro/ENGINEER 2018400 by Parametric Technology Corporation
  0
SECTION
  2
HEADER
  9
$ACADVER
  1
AC1018
  9
$DWGCODEPAGE
  3
ANSI_1252
  9
$EXTMAX
 10
22.0
 20
17.0
 30
0.0
  9
$EXTMIN
 10
0.0
 20
0.0
 30
0.0
  9
$LIMMIN
 10
0.0
 20
0.0
  9
$LIMMAX
 10
22.0
 20
17.0
  9
$VIEWCTR
 10
11.0
 20
8.5
  9
$VIEWSIZE
 40
17.0
  9
$CLAYER
  8
0
  9
$LTSCALE
 40
1.21
  9
$CELTYPE
  6
BYLAYER
  9
$DIMSCALE
 40
1.0
  9
$DIMASZ
 40
0.1
  9
$DIMEXO
 40
0.0625
  9
$DIMDLI
 40
0.836
  9
$DIMEXE
 40
0.125
  9
$DIMCEN
 40
0.198
  9
$DIMLFAC
 40
1.0
  9
$DIMBLK
  1
_FILLED
  9
$DIMALT
 70
1
  9
$DIMALTD
 70
2
  9
$DIMALTTD
 70
2
  9
$DIMALTF
 40
25.4
  9
$DIMTXT
 40
0.08
  9
$DIMTOL
 70
1
  9
$DIMLIM
 70
0
  9
$DIMTFAC
 40
1.0
  9
$DIMTP
 40
0.001
  9
$DIMTM
 40
0.001
  9
$DIMGAP
 40
0.09
  9
$DIMDSEP
 70
46
  9
$AUNITS
 70
0
  9
$PDMODE
 70
3
  9
$PDSIZE
 40
0.06
  9
$HANDSEED
  5
310
  9
$TILEMODE
 70
1
  9
$MEASUREMENT
 70
0
  9
$INSUNITS
 70
1
  0
ENDSEC
  0
SECTION
  2
CLASSES
  0
CLASS
  1
ACDBDICTIONARYWDFLT
  2
AcDbDictionaryWithDefault
  3
AutoCAD 2000
 90
0
 91
1
280
0
281
0
  0
CLASS
  1
ACDBPLACEHOLDER
  2
AcDbPlaceHolder
  3
AutoCAD 2000
 90
0
 91
1
280
0
281
0
  0
CLASS
  1
LAYOUT
  2
AcDbLayout
  3
AutoCAD 2000
 90
0
 91
0
280
0
281
0
  0
ENDSEC
  0
SECTION
  2
TABLES
  0
TABLE
  2
VPORT
  5
8
100
AcDbSymbolTable
 70
2
  0
VPORT
  5
1F4
100
AcDbSymbolTableRecord
100
AcDbViewportTableRecord
  2
*ACTIVE
 70
0
 10
0.0
 20
0.0
 11
1.0
 21
1.0
 12
11.0
 22
8.5
 13
0.0
 23
0.0
 14
1.0
 24
1.0
 15
0.0
 25
0.0
 16
0.0
 26
0.0
 36
1.0
 17
0.0
 27
0.0
 37
0.0
 40
17.0
 41
1.2941176471
 42
50.0
 43
0.0
 44
0.0
 50
0.0
 51
0.0
 71
0
 72
100
 73
1
 74
1
 75
0
 76
0
 77
0
 78
0
  0
ENDTAB
  0
TABLE
  2
LTYPE
  5
5
100
AcDbSymbolTable
 70
6
  0
LTYPE
  5
14
100
AcDbSymbolTableRecord
100
AcDbLinetypeTableRecord
  2
BYBLOCK
 70
0
  3

 72
65
 73
0
 40
0.0
  0
LTYPE
  5
15
100
AcDbSymbolTableRecord
100
AcDbLinetypeTableRecord
  2
BYLAYER
 70
0
  3

 72
65
 73
0
 40
0.0
  0
LTYPE
  5
16
100
AcDbSymbolTableRecord
100
AcDbLinetypeTableRecord
  2
CONTINUOUS
 70
64
  3
Solid line
 72
65
 73
0
 40
0.0
  0
LTYPE
  5
1F5
100
AcDbSymbolTableRecord
100
AcDbLinetypeTableRecord
  2
CENTER
 70
64
  3
____ _ ____ _ ____ _ ____ _ ____ _ ____ _ ____
 72
65
 73
4
 40
0.6
 49
0.375
 74
0
 49
-0.075
 74
0
 49
0.075
 74
0
 49
-0.075
 74
0
  0
LTYPE
  5
1F6
100
AcDbSymbolTableRecord
100
AcDbLinetypeTableRecord
  2
HIDDEN
 70
64
  3
- - - - - - - - - - - - - - - - - - - -
 72
65
 73
2
 40
0.2
 49
0.1
 74
0
 49
-0.1
 74
0
  0
LTYPE
  5
1F7
100
AcDbSymbolTableRecord
100
AcDbLinetypeTableRecord
  2
PHANTOM
 70
64
  3
_____ _ _ _____ _ _ _____ _ _ _____
 72
65
 73
6
 40
0.8
 49
0.45
 74
0
 49
-0.05
 74
0
 49
0.1
 74
0
 49
-0.05
 74
0
 49
0.1
 74
0
 49
-0.05
 74
0
  0
LTYPE
  5
1F8
100
AcDbSymbolTableRecord
100
AcDbLinetypeTableRecord
  2
DOT
 70
64
  3
. . . . . . . . . . . . . . . . . . . .
 72
65
 73
2
 40
0.2
 49
0.1
 74
0
 49
-0.1
 74
0
  0
LTYPE
  5
1F9
100
AcDbSymbolTableRecord
100
AcDbLinetypeTableRecord
  2
DASHED
 70
64
  3
- - - - - - - - - - - - - - - - - - - -
 72
65
 73
2
 40
0.2
 49
0.1
 74
0
 49
-0.1
 74
0
  0
ENDTAB
  0
TABLE
  2
LAYER
  5
2
100
AcDbSymbolTable
 70
36
  0
LAYER
  5
10
100
AcDbSymbolTableRecord
100
AcDbLayerTableRecord
  2
0
 70
0
 62
7
  6
CONTINUOUS
370
-3
390
F
  0
LAYER
  5
1FA
100
AcDbSymbolTableRecord
100
AcDbLayerTableRecord
  2
DEFAULT_1
 70
0
 62
7
  6
CENTER
370
-3
390
F
  0
LAYER
  5
1FB
100
AcDbSymbolTableRecord
100
AcDbLayerTableRecord
  2
DEFAULT_2
 70
0
 62
8
  6
HIDDEN
370
-3
390
F
  0
LAYER
  5
1FC
100
AcDbSymbolTableRecord
100
AcDbLayerTableRecord
  2
DEFAULT_3
 70
0
 62
7
  6
PHANTOM
370
-3
390
F
  0
LAYER
  5
1FD
100
AcDbSymbolTableRecord
100
AcDbLayerTableRecord
  2
ALL_FEATURES
 70
0
 62
7
  6
CONTINUOUS
370
-3
390
F
  0
LAYER
  5
1FE
100
AcDbSymbolTableRecord
100
AcDbLayerTableRecord
  2
AXES_FEATURES
 70
0
 62
7
  6
CONTINUOUS
370
-3
390
F
  0
LAYER
  5
1FF
100
AcDbSymbolTableRecord
100
AcDbLayerTableRecord
  2
DIMENSIONS
 70
0
 62
7
  6
CONTINUOUS
370
-3
390
F
  0
ENDTAB
  0
TABLE
  2
STYLE
  5
3
100
AcDbSymbolTable
 70
1
  0
STYLE
  5
11
100
AcDbSymbolTableRecord
100
AcDbTextStyleTableRecord
  2
STANDARD
 70
0
 40
0.0
 41
0.8
 50
0.0
 71
0
 42
0.2
  3
txt
  4

  0
STYLE
  5
200
100
AcDbSymbolTableRecord
100
AcDbTextStyleTableRecord
  2
TEXTSTYLE_1
 70
0
 40
0.0
 41
0.8
 50
0.0
 71
0
 42
0.2
  3
gdt
  4

  0
ENDTAB
  0
TABLE
  2
VIEW
  5
6
100
AcDbSymbolTable
 70
0
  0
ENDTAB
  0
TABLE
  2
UCS
  5
7
100
AcDbSymbolTable
 70
0
  0
ENDTAB
  0
TABLE
  2
APPID
  5
9
100
AcDbSymbolTable
 70
1
  0
APPID
  5
201
100
AcDbSymbolTableRecord
100
AcDbRegAppTableRecord
  2
ACAD
 70
0
  0
ENDTAB
  0
TABLE
  2
BLOCK_RECORD
  5
1
100
AcDbSymbolTable
 70
0
  0
BLOCK_RECORD
  5
202
100
AcDbSymbolTableRecord
100
AcDbBlockTableRecord
  2
*Model_Space
  0
BLOCK_RECORD
  5
203
100
AcDbSymbolTableRecord
100
AcDbBlockTableRecord
  2
*Paper_Space
  0
BLOCK_RECORD
  5
204
100
AcDbSymbolTableRecord
100
AcDbBlockTableRecord
  2
_FILLED
  0
ENDTAB
  0
TABLE
  2
DIMSTYLE
  5
A
100
AcDbSymbolTable
 70
1
100
AcDbDimStyleTable
 71
0
  0
DIMSTYLE
105
205
100
AcDbSymbolTableRecord
100
AcDbDimStyleTableRecord
  2
STANDARD
 70
0
  3

  4

 40
1.0
 41
0.1
 42
0.0625
 43
0.38
 44
0.125
 45
0.0
 46
0.0
 47
0.001
 48
0.001
140
0.08
141
0.09
142
0.0
143
25.4
144
1.0
145
0.0
146
1.0
147
0.09
 71
1.0
 72
0.0
 73
1
 74
1
 75
0
 76
0
 77
0
 78
4
 79
1
170
1
171
2
172
0
173
0
174
0
175
0
176
0
177
0
178
0
270
2
179
3
271
3
272
3
273
2
274
2
275
0
280
0
281
0
282
0
283
1
284
4
285
0
286
0
287
3
288
0
340
11
278
46
341
204
342
204
343
204
344
204
  0
ENDTAB
  0
ENDSEC
  0
SECTION
  2
BLOCKS
  0
BLOCK
  5
20
100
AcDbEntity
  8
0
100
AcDbBlockBegin
  2
*Model_Space
 70
0
 10
0.0
 20
0.0
 30
0.0
  3
*Model_Space
  1

  0
ENDBLK
  5
21
100
AcDbEntity
  8
0
100
AcDbBlockEnd
  0
BLOCK
  5
1C
100
AcDbEntity
  8
0
100
AcDbBlockBegin
  2
*Paper_Space
 70
0
 10
0.0
 20
0.0
 30
0.0
  3
*Paper_Space
  1

  0
ENDBLK
  5
1D
100
AcDbEntity
  8
0
100
AcDbBlockEnd
  0
BLOCK
  5
206
100
AcDbEntity
  8
0
100
AcDbBlockBegin
  2
_FILLED
 70
64
 10
0.0
 20
0.0
  3
_FILLED
  1

  0
SOLID
  5
207
100
AcDbEntity
  8
0
  6
BYBLOCK
 62
0
100
AcDbTrace
 10
0.0
 20
0.0
 11
-1.0
 21
0.2
 12
-1.0
 22
-0.2
 13
-1.0
 23
-0.2
  0
ENDBLK
  5
208
100
AcDbEntity
  8
0
  6
BYBLOCK
 62
0
100
AcDbBlockEnd
  0
ENDSEC
  0
SECTION
  2
ENTITIES
  0
LINE
  5
209
100
AcDbEntity
  8
0
100
AcDbLine
 62
7
  6
CONTINUOUS
 10
10.9359146853
 20
4.6422860143
 11
10.9442102881
 21
4.6422931648
  0
LINE
  5
20A
100
AcDbEntity
  8
0
100
AcDbLine
 62
7
  6
CONTINUOUS
 10
10.7999935144
 20
4.7222471144
 11
11.0799934104
 21
4.7224884633
  0
LINE
  5
20B
100
AcDbEntity
  8
0
100
AcDbLine
 62
7
  6
CONTINUOUS
 10
10.7899848986
 20
4.7322384911
 11
11.0899847871
 21
4.7324970792
  0
LINE
  5
20C
100
AcDbEntity
  8
0
100
AcDbLine
 62
7
  6
CONTINUOUS
 10
11.0899416891
 20
4.7824970606
 11
10.7899418005
 21
4.7822384725
  0
LINE
  5
20D
100
AcDbEntity
  8
0
100
AcDbLine
 62
9
  6
CONTINUOUS
 10
10.6395539741
 20
5.2321090113
 11
11.2395537512
 21
5.2326261875
  0
LINE
  5
20E
100
AcDbEntity
  8
0
100
AcDbLine
 62
7
  6
CONTINUOUS
 10
10.7899848986
 20
4.7322384911
 11
10.7999935144
 21
4.7222471144
  0
LINE
  5
20F
100
AcDbEntity
  8
0
100
AcDbLine
 62
7
  6
CONTINUOUS
 10
10.6983472074
 20
6.6321602088
 11
11.178347029
 21
6.6325739498
  0
LINE
  5
210
100
AcDbEntity
  8
0
100
AcDbLine
 62
7
  6
CONTINUOUS
 10
11.1782780722
 20
6.7125739201
 11
10.6982782505
 21
6.7121601791
  0
LINE
  5
211
100
AcDbEntity
  8
0
100
AcDbLine
 62
7
  6
CONTINUOUS
 10
10.7581058362
 20
6.9122118224
 11
11.1181057024
 21
6.9125221282
  0
LINE
  5
212
100
AcDbEntity
  8
0
100
AcDbLine
 62
7
  6
CONTINUOUS
 10
11.1180539848
 20
6.9725221059
 11
10.7580541186
 21
6.9722118001
  0
LINE
  5
213
100
AcDbEntity
  8
0
100
AcDbLine
 62
7
  6
CONTINUOUS
 10
11.4376923427
 20
12.2164758194
 11
11.4670067068
 21
12.2410212254
  0
LINE
  5
214
100
AcDbEntity
  8
0
100
AcDbLine
 62
7
  6
CONTINUOUS
 10
10.4343553406
 20
6.9967116893
 11
10.7319865877
 21
6.8248742086
  0
LINE
  5
215
100
AcDbEntity
  8
0
100
AcDbLine
 62
7
  6
CONTINUOUS
 10
10.4376923427
 20
11.0514758194
 11
10.4083779943
 21
11.0269304265
  0
LINE
  5
216
100
AcDbEntity
  8
0
100
AcDbLine
 62
7
  6
CONTINUOUS
 10
10.6982782505
 20
12.4238708252
 11
10.7581058362
 21
12.6239224685
  0
LINE
  5
217
100
AcDbEntity
  8
0
100
AcDbLine
 62
7
  6
CONTINUOUS
 10
10.3976923427
 20
8.1320020554
 11
11.4776923427
 21
8.1320020554
  0
LINE
  5
218
100
AcDbEntity
  8
0
100
AcDbLine
 62
7
  6
CONTINUOUS
 10
11.028356512
 20
8.0255491927
 11
11.4410293449
 21
7.7872924215
  0
LINE
  5
219
100
AcDbEntity
  8
0
100
AcDbLine
 62
7
  6
CONTINUOUS
 10
11.0899847871
 20
10.4442077252
 11
11.0799934104
 21
10.4341991093
  0
LINE
  5
21A
100
AcDbEntity
  8
0
100
AcDbLine
 62
7
  6
CONTINUOUS
 10
10.3526923427
 20
8.3938278302
 11
10.3998227236
 21
8.3938278302
  0
LINE
  5
21B
100
AcDbEntity
  8
0
100
AcDbLine
 62
7
  6
CONTINUOUS
 10
10.8905619619
 20
8.3938278302
 11
10.9848227236
 21
8.3938278302
  0
LINE
  5
21C
100
AcDbEntity
  8
0
100
AcDbLine
 62
7
  6
CONTINUOUS
 10
11.4755619619
 20
8.3938278302
 11
11.5226923427
 21
8.3938278302
  0
LINE
  5
21D
100
AcDbEntity
  8
0
100
AcDbLine
 62
7
  6
CONTINUOUS
 10
10.3436923427
 20
7.1537460964
 11
10.3436923427
 21
7.6302584015
  0
LINE
  5
21E
100
AcDbEntity
  8
0
100
AcDbLine
 62
7
  6
CONTINUOUS
 10
10.3526923427
 20
8.3108143521
 11
10.3526923427
 21
8.9471633877
  0
LINE
  5
21F
100
AcDbEntity
  8
0
100
AcDbLine
 62
7
  6
CONTINUOUS
 10
10.3526923427
 20
11.2502881162
 11
10.3526923427
 21
11.8866371517
  0
LINE
  5
220
100
AcDbEntity
  8
0
100
AcDbLine
 62
7
  6
CONTINUOUS
 10
10.3998227236
 20
11.7907973753
 11
10.3998227236
 21
11.3333015942
  0
LINE
  5
221
100
AcDbEntity
  8
0
100
AcDbLine
 62
7
  6
CONTINUOUS
 10
10.3998227236
 20
8.8513236113
 11
10.3998227236
 21
8.3938278302
  0
LINE
  5
222
100
AcDbEntity
  8
0
100
AcDbLine
 62
7
  6
CONTINUOUS
 10
10.4326923427
 20
8.1320020554
 11
10.4326923427
 21
8.0583168441
  0
LINE
  5
223
100
AcDbEntity
  8
0
100
AcDbLine
 62
7
  6
CONTINUOUS
 10
10.4376923427
 20
11.0714758194
 11
10.4376923427
 21
11.0514758194
  0
LINE
  5
224
100
AcDbEntity
  8
0
100
AcDbLine
 62
7
  6
CONTINUOUS
 10
10.4676923427
 20
12.2164758194
 11
10.4676923427
 21
12.1964758194
  0
LINE
  5
225
100
AcDbEntity
  8
0
100
AcDbLine
 62
7
  6
CONTINUOUS
 10
10.4676923427
 20
9.2770020554
 11
10.4676923427
 21
9.2570020554
  0
LINE
  5
226
100
AcDbEntity
  8
0
100
AcDbLine
 62
7
  6
CONTINUOUS
 10
10.4969572085
 20
11.0678639742
 11
10.4969572085
 21
11.0714758194
  0
LINE
  5
227
100
AcDbEntity
  8
0
100
AcDbLine
 62
7
  6
CONTINUOUS
 10
10.5351923427
 20
12.2637127014
 11
10.5351923427
 21
12.0128538887
  0
LINE
  5
228
100
AcDbEntity
  8
0
100
AcDbLine
 62
7
  6
CONTINUOUS
 10
10.5606923427
 20
12.3137127014
 11
10.5606923427
 21
12.2637127014
  0
LWPOLYLINE
  5
229
100
AcDbEntity
  8
0
100
AcDbPolyline
 62
7
  6
CONTINUOUS
 90
5
 70
0
 10
10.4326939625
 20
8.0583168441
 10
10.4308743939
 20
8.0393274207
 10
10.4228111443
 20
8.0149710395
 10
10.4088216131
 20
7.9934748988
 10
10.3999129645
 20
7.9842800031
  0
LINE
  5
22A
100
AcDbEntity
  8
0
100
AcDbLine
 62
7
  6
CONTINUOUS
 10
11.5226923427
 20
8.8513236113
 11
11.4755619619
 21
8.8513236113
  0
LINE
  5
22B
100
AcDbEntity
  8
0
100
AcDbLine
 62
7
  6
CONTINUOUS
 10
10.9848227236
 20
8.8513236113
 11
10.8905619619
 21
8.8513236113
  0
LINE
  5
22C
100
AcDbEntity
  8
0
100
AcDbLine
 62
7
  6
CONTINUOUS
 10
10.3998227236
 20
8.8513236113
 11
10.3526923427
 21
8.8513236113
  0
LINE
  5
22D
100
AcDbEntity
  8
0
100
AcDbLine
 62
7
  6
CONTINUOUS
 10
10.4376923427
 20
9.2770020554
 11
10.4083779787
 21
9.3015474614
  0
LWPOLYLINE
  5
22E
100
AcDbEntity
  8
0
100
AcDbPolyline
 62
7
  6
CONTINUOUS
 90
5
 70
0
 10
11.4754725489
 20
7.9842792507
 10
11.4665535628
 20
7.9934860607
 10
11.4525670619
 20
8.014984499
 10
11.4445083752
 20
8.0393372919
 10
11.442690715
 20
8.0583168452
  0
LINE
  5
22F
100
AcDbEntity
  8
0
100
AcDbLine
 62
7
  6
CONTINUOUS
 10
11.1782780722
 20
6.7125739201
 11
11.1181057024
 21
6.9125221282
  0
LINE
  5
230
100
AcDbEntity
  8
0
100
AcDbLine
 62
7
  6
CONTINUOUS
 10
10.6983472074
 20
6.6321602088
 11
10.6982782505
 21
6.7121601791
  0
LINE
  5
231
100
AcDbEntity
  8
0
100
AcDbLine
 62
7
  6
CONTINUOUS
 10
10.6983472074
 20
12.3438708549
 11
10.6982782505
 21
12.4238708252
  0
LINE
  5
232
100
AcDbEntity
  8
0
100
AcDbLine
 62
7
  6
CONTINUOUS
 10
10.7581058362
 20
6.9122118224
 11
10.7580541186
 21
6.9722118001
  0
LINE
  5
233
100
AcDbEntity
  8
0
100
AcDbLine
 62
7
  6
CONTINUOUS
 10
10.7581058362
 20
12.6239224685
 11
10.7580541186
 21
12.6839224462
  0
LINE
  5
234
100
AcDbEntity
  8
0
100
AcDbLine
 62
7
  6
CONTINUOUS
 10
10.7899848986
 20
4.7322384911
 11
10.7899418005
 21
4.7822384725
  0
LINE
  5
235
100
AcDbEntity
  8
0
100
AcDbLine
 62
7
  6
CONTINUOUS
 10
10.7899848986
 20
10.4439491371
 11
10.7899418005
 21
10.4939491186
  0
LINE
  5
236
100
AcDbEntity
  8
0
100
AcDbLine
 62
7
  6
CONTINUOUS
 10
10.8905619619
 20
8.3938278302
 11
10.8905619619
 21
8.8513236113
  0
LINE
  5
237
100
AcDbEntity
  8
0
100
AcDbLine
 62
9
  6
CONTINUOUS
 10
10.9375251391
 20
8.1320020554
 11
10.9375140162
 21
8.0707999208
  0
LINE
  5
238
100
AcDbEntity
  8
0
100
AcDbLine
 62
7
  6
CONTINUOUS
 10
11.4426923427
 20
9.2570020554
 11
10.4326923427
 21
9.2570020554
  0
LINE
  5
239
100
AcDbEntity
  8
0
100
AcDbLine
 62
7
  6
CONTINUOUS
 10
10.4376928793
 20
9.2770020554
 11
11.4376918061
 21
9.2770020554
  0
LINE
  5
23A
100
AcDbEntity
  8
0
100
AcDbLine
 62
9
  6
CONTINUOUS
 10
11.4670067069
 20
9.3015474615
 11
10.4083779786
 21
9.3015474615
  0
LINE
  5
23B
100
AcDbEntity
  8
0
100
AcDbLine
 62
7
  6
CONTINUOUS
 10
11.0899847871
 20
4.7324970792
 11
11.0899416891
 21
4.7824970606
  0
LINE
  5
23C
100
AcDbEntity
  8
0
100
AcDbLine
 62
7
  6
CONTINUOUS
 10
11.0899847871
 20
10.4442077252
 11
11.0899416891
 21
10.4942077067
  0
LINE
  5
23D
100
AcDbEntity
  8
0
100
AcDbLine
 62
7
  6
CONTINUOUS
 10
11.1181057024
 20
6.9125221282
 11
11.1180539848
 21
6.9725221059
  0
LINE
  5
23E
100
AcDbEntity
  8
0
100
AcDbLine
 62
7
  6
CONTINUOUS
 10
11.1181057024
 20
12.6242327742
 11
11.1180539848
 21
12.6842327519
  0
LINE
  5
23F
100
AcDbEntity
  8
0
100
AcDbLine
 62
7
  6
CONTINUOUS
 10
11.178347029
 20
6.6325739498
 11
11.1782780722
 21
6.7125739201
  0
LINE
  5
240
100
AcDbEntity
  8
0
100
AcDbLine
 62
7
  6
CONTINUOUS
 10
11.178347029
 20
12.3442845958
 11
11.1782780722
 21
12.4242845661
  0
LINE
  5
241
100
AcDbEntity
  8
0
100
AcDbLine
 62
7
  6
CONTINUOUS
 10
10.9848227236
 20
8.8513236113
 11
10.9848227236
 21
8.3938278302
  0
LINE
  5
242
100
AcDbEntity
  8
0
100
AcDbLine
 62
7
  6
CONTINUOUS
 10
11.4376923427
 20
9.2770020554
 11
11.4670067068
 21
9.3015474614
  0
LINE
  5
243
100
AcDbEntity
  8
0
100
AcDbLine
 62
7
  6
CONTINUOUS
 10
10.9221062051
 20
9.3749814179
 11
10.9530416919
 21
9.3749814179
  0
LINE
  5
244
100
AcDbEntity
  8
0
100
AcDbLine
 62
9
  6
CONTINUOUS
 10
11.4699083687
 20
9.3755895643
 11
10.969840903
 21
9.3755895643
  0
LINE
  5
245
100
AcDbEntity
  8
0
100
AcDbLine
 62
9
  6
CONTINUOUS
 10
10.9055437825
 20
9.3755895643
 11
10.4054763168
 21
9.3755895643
  0
LINE
  5
246
100
AcDbEntity
  8
0
100
AcDbLine
 62
9
  6
CONTINUOUS
 10
10.5685155204
 20
9.4021817562
 11
11.306869165
 21
9.4021817562
  0
LINE
  5
247
100
AcDbEntity
  8
0
100
AcDbLine
 62
7
  6
CONTINUOUS
 10
10.5054496663
 20
9.4614758194
 11
11.3699350192
 21
9.4614758194
  0
LINE
  5
248
100
AcDbEntity
  8
0
100
AcDbLine
 62
9
  6
CONTINUOUS
 10
11.4472286349
 20
9.4845537246
 11
11.43322558
 21
9.4845537246
  0
LINE
  5
249
100
AcDbEntity
  8
0
100
AcDbLine
 62
9
  6
CONTINUOUS
 10
10.4421591472
 20
9.4845537246
 11
10.4281560506
 21
9.4845537246
  0
LINE
  5
24A
100
AcDbEntity
  8
0
100
AcDbLine
 62
9
  6
CONTINUOUS
 10
11.463516385
 20
9.5262263091
 11
10.4118682232
 21
9.5262265143
  0
LINE
  5
24B
100
AcDbEntity
  8
0
100
AcDbLine
 62
7
  6
CONTINUOUS
 10
11.3146923427
 20
12.3137127014
 11
11.3146923427
 21
12.2637127014
  0
LINE
  5
24C
100
AcDbEntity
  8
0
100
AcDbLine
 62
7
  6
CONTINUOUS
 10
11.3401923427
 20
12.2637127014
 11
11.3401923427
 21
12.0128538887
  0
LINE
  5
24D
100
AcDbEntity
  8
0
100
AcDbLine
 62
7
  6
CONTINUOUS
 10
11.4076923427
 20
12.2164758194
 11
11.4076923427
 21
12.1964758194
  0
LINE
  5
24E
100
AcDbEntity
  8
0
100
AcDbLine
 62
7
  6
CONTINUOUS
 10
11.4076923427
 20
9.2770020554
 11
11.4076923427
 21
9.2570020554
  0
LINE
  5
24F
100
AcDbEntity
  8
0
100
AcDbLine
 62
7
  6
CONTINUOUS
 10
11.4376923427
 20
11.0714758194
 11
11.4376923427
 21
11.0514758194
  0
LINE
  5
250
100
AcDbEntity
  8
0
100
AcDbLine
 62
7
  6
CONTINUOUS
 10
11.4426923427
 20
8.1320020554
 11
11.4426923427
 21
8.0583168452
  0
LINE
  5
251
100
AcDbEntity
  8
0
100
AcDbLine
 62
7
  6
CONTINUOUS
 10
11.4755619619
 20
8.3938278302
 11
11.4755619619
 21
8.8513236113
  0
LINE
  5
252
100
AcDbEntity
  8
0
100
AcDbLine
 62
7
  6
CONTINUOUS
 10
11.4755619619
 20
11.3333015942
 11
11.4755619619
 21
11.7907973753
  0
LINE
  5
253
100
AcDbEntity
  8
0
100
AcDbLine
 62
7
  6
CONTINUOUS
 10
11.5226923427
 20
8.3108143521
 11
11.5226923427
 21
8.9471633877
  0
LINE
  5
254
100
AcDbEntity
  8
0
100
AcDbLine
 62
7
  6
CONTINUOUS
 10
11.5226923427
 20
11.2502881162
 11
11.5226923427
 21
11.8866371517
  0
LINE
  5
255
100
AcDbEntity
  8
0
100
AcDbLine
 62
7
  6
CONTINUOUS
 10
11.5316923427
 20
7.1537457093
 11
11.5316923427
 21
7.6302580145
  0
LINE
  5
256
100
AcDbEntity
  8
0
100
AcDbLine
 62
7
  6
CONTINUOUS
 10
10.6982782505
 20
6.7121601791
 11
10.7581058362
 21
6.9122118224
  0
LINE
  5
257
100
AcDbEntity
  8
0
100
AcDbLine
 62
7
  6
CONTINUOUS
 10
10.7899848986
 20
10.4439491371
 11
10.7999935144
 21
10.4339577605
  0
LINE
  5
258
100
AcDbEntity
  8
0
100
AcDbLine
 62
7
  6
CONTINUOUS
 10
10.434356512
 20
7.7872930979
 11
10.847029345
 21
8.025549869
  0
LINE
  5
259
100
AcDbEntity
  8
0
100
AcDbLine
 62
7
  6
CONTINUOUS
 10
10.9359146853
 20
10.3539966604
 11
10.9442102881
 21
10.3540038108
  0
LINE
  5
25A
100
AcDbEntity
  8
0
100
AcDbLine
 62
7
  6
CONTINUOUS
 10
10.7999935144
 20
10.4339577604
 11
11.0799934104
 21
10.4341991093
  0
LINE
  5
25B
100
AcDbEntity
  8
0
100
AcDbLine
 62
7
  6
CONTINUOUS
 10
10.7899848986
 20
10.4439491371
 11
11.0899847871
 21
10.4442077252
  0
LINE
  5
25C
100
AcDbEntity
  8
0
100
AcDbLine
 62
7
  6
CONTINUOUS
 10
11.0899416891
 20
10.4942077067
 11
10.7899418005
 21
10.4939491186
  0
LINE
  5
25D
100
AcDbEntity
  8
0
100
AcDbLine
 62
7
  6
CONTINUOUS
 10
11.1782780722
 20
12.4242845661
 11
11.1181057024
 21
12.6242327742
  0
LINE
  5
25E
100
AcDbEntity
  8
0
100
AcDbLine
 62
9
  6
CONTINUOUS
 10
10.4281560506
 20
10.8439241502
 11
10.6368580313
 21
10.8439241502
  0
LINE
  5
25F
100
AcDbEntity
  8
0
100
AcDbLine
 62
9
  6
CONTINUOUS
 10
11.2423711799
 20
10.8439241502
 11
11.4472286349
 21
10.8439241502
  0
LINE
  5
260
100
AcDbEntity
  8
0
100
AcDbLine
 62
9
  6
CONTINUOUS
 10
10.6395539741
 20
10.9438196573
 11
11.2395537512
 21
10.9443368335
  0
LINE
  5
261
100
AcDbEntity
  8
0
100
AcDbLine
 62
9
  6
CONTINUOUS
 10
10.4054763261
 20
10.9528883014
 11
10.6405363667
 21
10.9528883014
  0
LINE
  5
262
100
AcDbEntity
  8
0
100
AcDbLine
 62
9
  6
CONTINUOUS
 10
11.2386124657
 20
10.9528883014
 11
11.4699083593
 21
10.9528883014
  0
LINE
  5
263
100
AcDbEntity
  8
0
100
AcDbLine
 62
9
  6
CONTINUOUS
 10
10.4083779943
 20
11.0269304265
 11
10.6485572388
 21
11.0269304265
  0
LINE
  5
264
100
AcDbEntity
  8
0
100
AcDbLine
 62
9
  6
CONTINUOUS
 10
11.2304624287
 20
11.0269304265
 11
11.4670066912
 21
11.0269304265
  0
LINE
  5
265
100
AcDbEntity
  8
0
100
AcDbLine
 62
7
  6
CONTINUOUS
 10
10.4376923427
 20
11.0514758194
 11
10.6512162043
 21
11.0514758194
  0
LINE
  5
266
100
AcDbEntity
  8
0
100
AcDbLine
 62
7
  6
CONTINUOUS
 10
11.2277606442
 20
11.0514758194
 11
11.4376923427
 21
11.0514758194
  0
LINE
  5
267
100
AcDbEntity
  8
0
100
AcDbLine
 62
7
  6
CONTINUOUS
 10
11.3244440673
 20
11.0678639742
 11
11.2259567513
 21
11.0678639742
  0
LINE
  5
268
100
AcDbEntity
  8
0
100
AcDbLine
 62
7
  6
CONTINUOUS
 10
10.6529915085
 20
11.0678639742
 11
10.4969572085
 21
11.0678639742
  0
LINE
  5
269
100
AcDbEntity
  8
0
100
AcDbLine
 62
7
  6
CONTINUOUS
 10
10.3976923427
 20
11.0714758194
 11
10.6533827743
 21
11.0714758194
  0
LINE
  5
26A
100
AcDbEntity
  8
0
100
AcDbLine
 62
7
  6
CONTINUOUS
 10
11.2255591847
 20
11.0714758194
 11
11.4776923427
 21
11.0714758194
  0
LINE
  5
26B
100
AcDbEntity
  8
0
100
AcDbLine
 62
9
  6
CONTINUOUS
 10
11.3244440673
 20
11.0678639742
 11
11.3196051075
 21
11.0714758194
  0
LINE
  5
26C
100
AcDbEntity
  8
0
100
AcDbLine
 62
7
  6
CONTINUOUS
 10
11.4376923427
 20
11.0514758194
 11
11.4670066912
 21
11.0269304265
  0
LINE
  5
26D
100
AcDbEntity
  8
0
100
AcDbLine
 62
7
  6
CONTINUOUS
 10
10.4376923427
 20
12.2164758194
 11
10.4083779787
 21
12.2410212254
  0
LINE
  5
26E
100
AcDbEntity
  8
0
100
AcDbLine
 62
7
  6
CONTINUOUS
 10
11.1443219337
 20
6.8254075856
 11
11.4410281734
 21
6.996711013
  0
LINE
  5
26F
100
AcDbEntity
  8
0
100
AcDbLine
 62
7
  6
CONTINUOUS
 10
10.3526923427
 20
11.3333015942
 11
10.3998227236
 21
11.3333015942
  0
LINE
  5
270
100
AcDbEntity
  8
0
100
AcDbLine
 62
7
  6
CONTINUOUS
 10
11.4755619619
 20
11.3333015942
 11
11.5226923427
 21
11.3333015942
  0
LINE
  5
271
100
AcDbEntity
  8
0
100
AcDbLine
 62
7
  6
CONTINUOUS
 10
11.5226923427
 20
11.7907973753
 11
11.4755619619
 21
11.7907973753
  0
LINE
  5
272
100
AcDbEntity
  8
0
100
AcDbLine
 62
7
  6
CONTINUOUS
 10
10.3998227236
 20
11.7907973753
 11
10.3526923427
 21
11.7907973753
  0
LINE
  5
273
100
AcDbEntity
  8
0
100
AcDbLine
 62
7
  6
CONTINUOUS
 10
10.541471416
 20
11.9637127014
 11
10.7062584249
 21
11.9637127014
  0
LINE
  5
274
100
AcDbEntity
  8
0
100
AcDbLine
 62
7
  6
CONTINUOUS
 10
11.1711002485
 20
11.9637127014
 11
11.3339132695
 21
11.9637127014
  0
LINE
  5
275
100
AcDbEntity
  8
0
100
AcDbLine
 62
9
  6
CONTINUOUS
 10
10.5351923427
 20
12.0128538887
 11
10.7064739987
 21
12.0128538887
  0
LINE
  5
276
100
AcDbEntity
  8
0
100
AcDbLine
 62
9
  6
CONTINUOUS
 10
11.1707882491
 20
12.0128538887
 11
11.3401923427
 21
12.0128538887
  0
LINE
  5
277
100
AcDbEntity
  8
0
100
AcDbLine
 62
7
  6
CONTINUOUS
 10
11.4426923427
 20
12.1964758194
 11
11.3401923427
 21
12.1964758194
  0
LINE
  5
278
100
AcDbEntity
  8
0
100
AcDbLine
 62
7
  6
CONTINUOUS
 10
10.5351923427
 20
12.1964758194
 11
10.4326923427
 21
12.1964758194
  0
LINE
  5
279
100
AcDbEntity
  8
0
100
AcDbLine
 62
7
  6
CONTINUOUS
 10
10.4376928793
 20
12.2164758194
 11
10.5351923427
 21
12.2164758194
  0
LINE
  5
27A
100
AcDbEntity
  8
0
100
AcDbLine
 62
7
  6
CONTINUOUS
 10
11.3401923427
 20
12.2164758194
 11
11.4376918061
 21
12.2164758194
  0
LINE
  5
27B
100
AcDbEntity
  8
0
100
AcDbLine
 62
7
  6
CONTINUOUS
 10
10.6983472074
 20
12.3438708549
 11
11.178347029
 21
12.3442845958
  0
LINE
  5
27C
100
AcDbEntity
  8
0
100
AcDbLine
 62
7
  6
CONTINUOUS
 10
11.1782780722
 20
12.4242845661
 11
10.6982782505
 21
12.4238708252
  0
LINE
  5
27D
100
AcDbEntity
  8
0
100
AcDbLine
 62
9
  6
CONTINUOUS
 10
11.4670067069
 20
12.2410212255
 11
11.3401923427
 21
12.2410212255
  0
LINE
  5
27E
100
AcDbEntity
  8
0
100
AcDbLine
 62
9
  6
CONTINUOUS
 10
10.5351923427
 20
12.2410212255
 11
10.4083779786
 21
12.2410212255
  0
LINE
  5
27F
100
AcDbEntity
  8
0
100
AcDbLine
 62
7
  6
CONTINUOUS
 10
11.3401923427
 20
12.2637127014
 11
11.1754030071
 21
12.2637127014
  0
LINE
  5
280
100
AcDbEntity
  8
0
100
AcDbLine
 62
7
  6
CONTINUOUS
 10
10.7014144913
 20
12.2637127014
 11
10.5351923427
 21
12.2637127014
  0
LINE
  5
281
100
AcDbEntity
  8
0
100
AcDbLine
 62
7
  6
CONTINUOUS
 10
10.4879790451
 20
12.3137127014
 11
10.6995012212
 21
12.3137127014
  0
LINE
  5
282
100
AcDbEntity
  8
0
100
AcDbLine
 62
7
  6
CONTINUOUS
 10
11.1772299605
 20
12.3137127014
 11
11.3874056403
 21
12.3137127014
  0
LINE
  5
283
100
AcDbEntity
  8
0
100
AcDbLine
 62
9
  6
CONTINUOUS
 10
11.4699083687
 20
12.3150633283
 11
11.3943155948
 21
12.3150633283
  0
LINE
  5
284
100
AcDbEntity
  8
0
100
AcDbLine
 62
9
  6
CONTINUOUS
 10
10.4810690907
 20
12.3150633283
 11
10.4054763168
 21
12.3150633283
  0
LINE
  5
285
100
AcDbEntity
  8
0
100
AcDbLine
 62
9
  6
CONTINUOUS
 10
10.4693112541
 20
12.3408899974
 11
10.6983472074
 21
12.3408899974
  0
LINE
  5
286
100
AcDbEntity
  8
0
100
AcDbLine
 62
9
  6
CONTINUOUS
 10
11.178347029
 20
12.3408899974
 11
11.4060734314
 21
12.3408899974
  0
LINE
  5
287
100
AcDbEntity
  8
0
100
AcDbLine
 62
9
  6
CONTINUOUS
 10
11.4472286349
 20
12.4240274886
 11
11.3845707897
 21
12.4240274886
  0
LINE
  5
288
100
AcDbEntity
  8
0
100
AcDbLine
 62
9
  6
CONTINUOUS
 10
10.4908138958
 20
12.4240274886
 11
10.4281560506
 21
12.4240274886
  0
LINE
  5
289
100
AcDbEntity
  8
0
100
AcDbLine
 62
7
  6
CONTINUOUS
 10
11.0899847871
 20
4.7324970792
 11
11.0799934104
 21
4.7224884633
  0
LINE
  5
28A
100
AcDbEntity
  8
0
100
AcDbLine
 62
7
  6
CONTINUOUS
 10
10.7581058362
 20
12.6239224685
 11
11.1181057024
 21
12.6242327742
  0
LINE
  5
28B
100
AcDbEntity
  8
0
100
AcDbLine
 62
7
  6
CONTINUOUS
 10
11.1180539848
 20
12.6842327519
 11
10.7580541186
 21
12.6839224462
  0
LINE
  5
28C
100
AcDbEntity
  8
0
100
AcDbLine
 62
9
  6
CONTINUOUS
 10
10.5491852792
 20
12.7214822353
 11
10.4181519933
 21
12.7214787092
  0
LINE
  5
28D
100
AcDbEntity
  8
0
100
AcDbLine
 62
9
  6
CONTINUOUS
 10
11.4572326917
 20
12.7214787086
 11
11.3261887969
 21
12.7214824374
  0
LINE
  5
28E
100
AcDbEntity
  8
0
100
AcDbLine
 62
9
  6
CONTINUOUS
 10
10.4118682232
 20
13.7417251246
 11
10.8504437142
 21
13.7417251246
  0
LINE
  5
28F
100
AcDbEntity
  8
0
100
AcDbLine
 62
9
  6
CONTINUOUS
 10
11.0249416785
 20
13.7417251246
 11
11.4635164623
 21
13.7417251246
  0
LINE
  5
290
100
AcDbEntity
  8
0
100
AcDbLine
 62
7
  6
CONTINUOUS
 10
11.3699350192
 20
13.8064758194
 11
10.5054496663
 21
13.8064758194
  0
LINE
  5
291
100
AcDbEntity
  8
0
100
AcDbLine
 62
9
  6
CONTINUOUS
 10
11.3068730818
 20
13.8657692763
 11
10.5685116037
 21
13.8657692763
  0
LINE
  5
292
100
AcDbEntity
  8
0
100
AcDbLine
 62
7
  6
CONTINUOUS
 10
10.9534146295
 20
13.8929711857
 11
10.921970056
 21
13.8929711857
  0
ARC
  5
293
100
AcDbEntity
  8
0
100
AcDbCircle
 62
7
  6
CONTINUOUS
 10
2.7067083766
 20
6.2664980708
 40
8.0
100
AcDbArc
 50
352.5709351409
 51
2.6197749006
  0
ARC
  5
294
100
AcDbEntity
  8
0
100
AcDbCircle
 62
7
  6
CONTINUOUS
 10
10.7015213006
 20
5.1615269103
 40
0.5427098904
100
AcDbArc
 50
315.7010374951
 51
7.5278382497
  0
ARC
  5
295
100
AcDbEntity
  8
0
100
AcDbCircle
 62
7
  6
CONTINUOUS
 10
10.9358198697
 20
4.7522859735
 40
0.11
100
AcDbArc
 50
195.8336585088
 51
270.0493866953
  0
ARC
  5
296
100
AcDbEntity
  8
0
100
AcDbCircle
 62
7
  6
CONTINUOUS
 10
10.0477624491
 20
8.1390070184
 40
0.35
100
AcDbArc
 50
358.85319539
 51
29.3983126613
  0
ARC
  5
297
100
AcDbEntity
  8
0
100
AcDbCircle
 62
7
  6
CONTINUOUS
 10
9.7926923427
 20
9.2570020554
 40
0.64
100
AcDbArc
 50
331.0449756281
 51
360.0
  0
ARC
  5
298
100
AcDbEntity
  8
0
100
AcDbCircle
 62
7
  6
CONTINUOUS
 10
10.9376923427
 20
7.3920020554
 40
1.46
100
AcDbArc
 50
113.6791000499
 51
260.6154113441
  0
ARC
  5
299
100
AcDbEntity
  8
0
100
AcDbCircle
 62
7
  6
CONTINUOUS
 10
10.9376923427
 20
7.3920020554
 40
1.46
100
AcDbArc
 50
279.4828887811
 51
66.3208999501
  0
ARC
  5
29A
100
AcDbEntity
  8
0
100
AcDbCircle
 62
9
  6
CONTINUOUS
 10
10.9376923427
 20
7.3920020554
 40
1.43
100
AcDbArc
 50
114.2070509253
 51
260.4407881098
  0
ARC
  5
29B
100
AcDbEntity
  8
0
100
AcDbCircle
 62
9
  6
CONTINUOUS
 10
10.9376923427
 20
7.3920020554
 40
1.43
100
AcDbArc
 50
279.6568574258
 51
65.7934758236
  0
ARC
  5
29C
100
AcDbEntity
  8
0
100
AcDbCircle
 62
7
  6
CONTINUOUS
 10
10.9376923427
 20
7.3920020554
 40
1.415
100
AcDbArc
 50
114.4779743158
 51
260.3525341537
  0
ARC
  5
29D
100
AcDbEntity
  8
0
100
AcDbCircle
 62
7
  6
CONTINUOUS
 10
10.9376923427
 20
7.3920020554
 40
1.415
100
AcDbArc
 50
279.7463924596
 51
65.5214826514
  0
ARC
  5
29E
100
AcDbEntity
  8
0
100
AcDbCircle
 62
7
  6
CONTINUOUS
 10
10.9376923427
 20
7.3920020554
 40
1.145
100
AcDbArc
 50
281.7666749126
 51
59.2126629613
  0
ARC
  5
29F
100
AcDbEntity
  8
0
100
AcDbCircle
 62
7
  6
CONTINUOUS
 10
10.9376923427
 20
7.3920020554
 40
1.145
100
AcDbArc
 50
120.7878099084
 51
258.3320821893
  0
ARC
  5
2A0
100
AcDbEntity
  8
0
100
AcDbCircle
 62
7
  6
CONTINUOUS
 10
10.9376923427
 20
7.3920020554
 40
1.095
100
AcDbArc
 50
282.3315113776
 51
57.6893680353
  0
ARC
  5
2A1
100
AcDbEntity
  8
0
100
AcDbCircle
 62
7
  6
CONTINUOUS
 10
10.9376923427
 20
7.3920020554
 40
1.095
100
AcDbArc
 50
122.3091592933
 51
257.7671336677
  0
ARC
  5
2A2
100
AcDbEntity
  8
0
100
AcDbCircle
 62
7
  6
CONTINUOUS
 10
10.9376923427
 20
7.3920020554
 40
0.8
100
AcDbArc
 50
132.2400215027
 51
252.5276995347
  0
ARC
  5
2A3
100
AcDbEntity
  8
0
100
AcDbCircle
 62
7
  6
CONTINUOUS
 10
10.9376923427
 20
7.3920020554
 40
0.8
100
AcDbArc
 50
287.5706060861
 51
47.7600369078
  0
ARC
  5
2A4
100
AcDbEntity
  8
0
100
AcDbCircle
 62
7
  6
CONTINUOUS
 10
10.9376923427
 20
7.3920020554
 40
0.64
100
AcDbArc
 50
201.8556020443
 51
218.1443979556
  0
ARC
  5
2A5
100
AcDbEntity
  8
0
100
AcDbCircle
 62
7
  6
CONTINUOUS
 10
10.9376923427
 20
7.3920020554
 40
0.64
100
AcDbArc
 50
321.8556020443
 51
338.1443979557
  0
ARC
  5
2A6
100
AcDbEntity
  8
0
100
AcDbCircle
 62
7
  6
CONTINUOUS
 10
10.9376923427
 20
7.3920020554
 40
0.64
100
AcDbArc
 50
21.8556020443
 51
38.1443979556
  0
ARC
  5
2A7
100
AcDbEntity
  8
0
100
AcDbCircle
 62
7
  6
CONTINUOUS
 10
10.9376923427
 20
7.3920020554
 40
0.64
100
AcDbArc
 50
81.8556020443
 51
98.1443979557
  0
ARC
  5
2A8
100
AcDbEntity
  8
0
100
AcDbCircle
 62
7
  6
CONTINUOUS
 10
10.9376923427
 20
7.3920020554
 40
0.64
100
AcDbArc
 50
141.8556020443
 51
158.1443979557
  0
ARC
  5
2A9
100
AcDbEntity
  8
0
100
AcDbCircle
 62
9
  6
CONTINUOUS
 10
10.9376923427
 20
7.3920020554
 40
0.6236816927
100
AcDbArc
 50
17.747536227
 51
42.252463773
  0
ARC
  5
2AA
100
AcDbEntity
  8
0
100
AcDbCircle
 62
9
  6
CONTINUOUS
 10
10.9376923427
 20
7.3920020554
 40
0.6236816927
100
AcDbArc
 50
317.747536227
 51
342.252463773
  0
ARC
  5
2AB
100
AcDbEntity
  8
0
100
AcDbCircle
 62
9
  6
CONTINUOUS
 10
10.9376923427
 20
7.3920020554
 40
0.6236816927
100
AcDbArc
 50
77.747536227
 51
102.252463773
  0
ARC
  5
2AC
100
AcDbEntity
  8
0
100
AcDbCircle
 62
9
  6
CONTINUOUS
 10
10.9376923427
 20
7.3920020554
 40
0.6236816927
100
AcDbArc
 50
197.747536227
 51
222.252463773
  0
ARC
  5
2AD
100
AcDbEntity
  8
0
100
AcDbCircle
 62
9
  6
CONTINUOUS
 10
10.9376923427
 20
7.3920020554
 40
0.6236816927
100
AcDbArc
 50
137.747536227
 51
162.252463773
  0
ARC
  5
2AE
100
AcDbEntity
  8
0
100
AcDbCircle
 62
9
  6
CONTINUOUS
 10
10.9376923427
 20
7.3920020554
 40
0.6055083642
100
AcDbArc
 50
109.047039416
 51
131.1495506193
  0
ARC
  5
2AF
100
AcDbEntity
  8
0
100
AcDbCircle
 62
9
  6
CONTINUOUS
 10
10.9376923427
 20
7.3920020554
 40
0.6055083642
100
AcDbArc
 50
169.1014226486
 51
190.9478504078
  0
ARC
  5
2B0
100
AcDbEntity
  8
0
100
AcDbCircle
 62
9
  6
CONTINUOUS
 10
10.9376923427
 20
7.3920020554
 40
0.6055083642
100
AcDbArc
 50
228.9445013248
 51
250.0737505879
  0
ARC
  5
2B1
100
AcDbEntity
  8
0
100
AcDbCircle
 62
9
  6
CONTINUOUS
 10
10.9376923427
 20
7.3920020554
 40
0.6055083642
100
AcDbArc
 50
290.0237399756
 51
311.1495506193
  0
ARC
  5
2B2
100
AcDbEntity
  8
0
100
AcDbCircle
 62
9
  6
CONTINUOUS
 10
10.9376923427
 20
7.3920020554
 40
0.6055083642
100
AcDbArc
 50
349.1014226486
 51
10.9478504078
  0
ARC
  5
2B3
100
AcDbEntity
  8
0
100
AcDbCircle
 62
9
  6
CONTINUOUS
 10
10.9376923427
 20
7.3920020554
 40
0.6055083642
100
AcDbArc
 50
48.9445013248
 51
70.9033094645
  0
ARC
  5
2B4
100
AcDbEntity
  8
0
100
AcDbCircle
 62
7
  6
CONTINUOUS
 10
10.9376923427
 20
7.3920020554
 40
0.546381824
100
AcDbArc
 50
290.3874154574
 51
249.7113579332
  0
ARC
  5
2B5
100
AcDbEntity
  8
0
100
AcDbCircle
 62
9
  6
CONTINUOUS
 10
10.9376923427
 20
7.3920020554
 40
0.5356612218
100
AcDbArc
 50
290.4602211285
 51
249.6385522621
  0
ARC
  5
2B6
100
AcDbEntity
  8
0
100
AcDbCircle
 62
9
  6
CONTINUOUS
 10
10.9376923427
 20
7.3920020554
 40
0.5122556357
100
AcDbArc
 50
290.6200368481
 51
249.4787164951
  0
ARC
  5
2B7
100
AcDbEntity
  8
0
100
AcDbCircle
 62
9
  6
CONTINUOUS
 10
10.9376923427
 20
7.3920020554
 40
0.4577834057
100
AcDbArc
 50
293.2179070003
 51
246.8808663903
  0
ARC
  5
2B8
100
AcDbEntity
  8
0
100
AcDbCircle
 62
7
  6
CONTINUOUS
 10
10.9376842664
 20
7.3920295174
 40
0.4500284208
100
AcDbArc
 50
291.217526799
 51
293.2353024999
  0
ARC
  5
2B9
100
AcDbEntity
  8
0
100
AcDbCircle
 62
7
  6
CONTINUOUS
 10
10.9376923427
 20
7.3920020554
 40
0.45
100
AcDbArc
 50
293.2357725732
 51
248.8809378495
  0
CIRCLE
  5
2BA
100
AcDbEntity
  8
0
100
AcDbCircle
 62
9
  6
CONTINUOUS
 10
10.9376923427
 20
7.3920020554
 40
0.413393097
  0
CIRCLE
  5
2BB
100
AcDbEntity
  8
0
100
AcDbCircle
 62
7
  6
CONTINUOUS
 10
10.9376923427
 20
7.3920020554
 40
0.24
  0
CIRCLE
  5
2BC
100
AcDbEntity
  8
0
100
AcDbCircle
 62
9
  6
CONTINUOUS
 10
10.9376923427
 20
7.3920020554
 40
0.18
  0
CIRCLE
  5
2BD
100
AcDbEntity
  8
0
100
AcDbCircle
 62
7
  6
CONTINUOUS
 10
10.9376923427
 20
7.3920020554
 40
0.17
  0
CIRCLE
  5
2BE
100
AcDbEntity
  8
0
100
AcDbCircle
 62
7
  6
CONTINUOUS
 10
10.9376923427
 20
7.3920020554
 40
0.005
  0
ARC
  5
2BF
100
AcDbEntity
  8
0
100
AcDbCircle
 62
7
  6
CONTINUOUS
 10
2.7067083766
 20
11.9782087169
 40
8.0
100
AcDbArc
 50
352.5709351409
 51
2.6197749006
  0
ARC
  5
2C0
100
AcDbEntity
  8
0
100
AcDbCircle
 62
7
  6
CONTINUOUS
 10
9.7696923427
 20
10.1642389374
 40
1.81
100
AcDbArc
 50
337.9437488383
 51
339.3595724997
  0
ARC
  5
2C1
100
AcDbEntity
  8
0
100
AcDbCircle
 62
7
  6
CONTINUOUS
 10
9.7696923427
 20
10.1642389374
 40
1.81
100
AcDbArc
 50
339.3601226957
 51
22.0562511617
  0
ARC
  5
2C2
100
AcDbEntity
  8
0
100
AcDbCircle
 62
7
  6
CONTINUOUS
 10
10.7015213006
 20
10.8732375563
 40
0.5427098904
100
AcDbArc
 50
315.7010374951
 51
7.5278382497
  0
ARC
  5
2C3
100
AcDbEntity
  8
0
100
AcDbCircle
 62
7
  6
CONTINUOUS
 10
10.0477624491
 20
11.0784807824
 40
0.35
100
AcDbArc
 50
358.85319539
 51
29.3983126613
  0
ARC
  5
2C4
100
AcDbEntity
  8
0
100
AcDbCircle
 62
7
  6
CONTINUOUS
 10
10.9358198697
 20
10.4639966195
 40
0.11
100
AcDbArc
 50
195.8336585088
 51
270.0493866953
  0
ARC
  5
2C5
100
AcDbEntity
  8
0
100
AcDbCircle
 62
7
  6
CONTINUOUS
 10
10.3354744875
 20
9.4470020554
 40
0.1
100
AcDbArc
 50
314.428471752
 51
22.0562511617
  0
ARC
  5
2C6
100
AcDbEntity
  8
0
100
AcDbCircle
 62
7
  6
CONTINUOUS
 10
10.5054496663
 20
9.5614758194
 40
0.1
100
AcDbArc
 50
200.6398773043
 51
270.0
  0
ARC
  5
2C7
100
AcDbEntity
  8
0
100
AcDbCircle
 62
7
  6
CONTINUOUS
 10
10.3354744875
 20
10.8814758194
 40
0.1
100
AcDbArc
 50
337.9437488383
 51
45.5715208257
  0
ARC
  5
2C8
100
AcDbEntity
  8
0
100
AcDbCircle
 62
7
  6
CONTINUOUS
 10
10.5776923427
 20
9.4614758194
 40
0.06
100
AcDbArc
 50
180.0
 51
261.2022494378
  0
ARC
  5
2C9
100
AcDbEntity
  8
0
100
AcDbCircle
 62
7
  6
CONTINUOUS
 10
10.4404772316
 20
9.3398833188
 40
0.05
100
AcDbArc
 50
134.4284718477
 51
230.0599998062
  0
ARC
  5
2CA
100
AcDbEntity
  8
0
100
AcDbCircle
 62
7
  6
CONTINUOUS
 10
10.4404772316
 20
10.988594556
 40
0.05
100
AcDbArc
 50
129.94
 51
225.571528248
  0
ARC
  5
2CB
100
AcDbEntity
  8
0
100
AcDbCircle
 62
7
  6
CONTINUOUS
 10
9.7926923427
 20
12.1964758194
 40
0.64
100
AcDbArc
 50
331.0449756281
 51
360.0
  0
ARC
  5
2CC
100
AcDbEntity
  8
0
100
AcDbCircle
 62
7
  6
CONTINUOUS
 10
10.0959553844
 20
12.4844357901
 40
0.4
100
AcDbArc
 50
338.9695236741
 51
36.3424046392
  0
ARC
  5
2CD
100
AcDbEntity
  8
0
100
AcDbCircle
 62
7
  6
CONTINUOUS
 10
10.3354744875
 20
12.3864758194
 40
0.1
100
AcDbArc
 50
314.428471752
 51
22.0562511617
  0
ARC
  5
2CE
100
AcDbEntity
  8
0
100
AcDbCircle
 62
7
  6
CONTINUOUS
 10
9.7696923427
 20
13.1037127014
 40
1.81
100
AcDbArc
 50
2.0770383032
 51
20.6398773044
  0
ARC
  5
2CF
100
AcDbEntity
  8
0
100
AcDbCircle
 62
7
  6
CONTINUOUS
 10
9.7696923427
 20
13.1037127014
 40
1.81
100
AcDbArc
 50
337.9437488383
 51
357.6460560441
  0
ARC
  5
2D0
100
AcDbEntity
  8
0
100
AcDbCircle
 62
7
  6
CONTINUOUS
 10
10.9221062051
 20
11.6868319042
 40
2.3118504862
100
AcDbArc
 50
261.2022494378
 51
270.0
  0
ARC
  5
2D1
100
AcDbEntity
  8
0
100
AcDbCircle
 62
7
  6
CONTINUOUS
 10
10.921970056
 20
11.5829711857
 40
2.31
100
AcDbArc
 50
90.0000000001
 51
98.8015353094
  0
ARC
  5
2D2
100
AcDbEntity
  8
0
100
AcDbCircle
 62
7
  6
CONTINUOUS
 10
10.7306258857
 20
12.0128538887
 40
0.1954335429
100
AcDbArc
 50
180.0
 51
194.5631575117
  0
ARC
  5
2D3
100
AcDbEntity
  8
0
100
AcDbCircle
 62
7
  6
CONTINUOUS
 10
10.4404772316
 20
12.2793570828
 40
0.05
100
AcDbArc
 50
134.4284718478
 51
230.0599998062
  0
ARC
  5
2D4
100
AcDbEntity
  8
0
100
AcDbCircle
 62
7
  6
CONTINUOUS
 10
10.4879790451
 20
12.3337127014
 40
0.02
100
AcDbArc
 50
158.969504339
 51
270.0
  0
ARC
  5
2D5
100
AcDbEntity
  8
0
100
AcDbCircle
 62
7
  6
CONTINUOUS
 10
10.9376923427
 20
13.1037127014
 40
0.645
100
AcDbArc
 50
323.6575953608
 51
216.3424046392
  0
ARC
  5
2D6
100
AcDbEntity
  8
0
100
AcDbCircle
 62
7
  6
CONTINUOUS
 10
10.9376923427
 20
13.1037127014
 40
0.546381824
100
AcDbArc
 50
290.3874154575
 51
249.7113579331
  0
ARC
  5
2D7
100
AcDbEntity
  8
0
100
AcDbCircle
 62
9
  6
CONTINUOUS
 10
10.9376923427
 20
13.1037127014
 40
0.5356612218
100
AcDbArc
 50
290.4602211285
 51
249.6385522621
  0
ARC
  5
2D8
100
AcDbEntity
  8
0
100
AcDbCircle
 62
9
  6
CONTINUOUS
 10
10.9376923427
 20
13.1037127014
 40
0.5122556357
100
AcDbArc
 50
290.6200368481
 51
249.4787164951
  0
ARC
  5
2D9
100
AcDbEntity
  8
0
100
AcDbCircle
 62
9
  6
CONTINUOUS
 10
10.9376923427
 20
13.1037127014
 40
0.4577834057
100
AcDbArc
 50
293.2179070003
 51
246.8808663904
  0
ARC
  5
2DA
100
AcDbEntity
  8
0
100
AcDbCircle
 62
7
  6
CONTINUOUS
 10
10.9376842664
 20
13.1037401635
 40
0.4500284208
100
AcDbArc
 50
291.217526799
 51
293.2353024999
  0
ARC
  5
2DB
100
AcDbEntity
  8
0
100
AcDbCircle
 62
7
  6
CONTINUOUS
 10
10.9376923427
 20
13.1037127014
 40
0.45
100
AcDbArc
 50
293.235772573
 51
248.8809378495
  0
CIRCLE
  5
2DC
100
AcDbEntity
  8
0
100
AcDbCircle
 62
9
  6
CONTINUOUS
 10
10.9376923427
 20
13.1037127014
 40
0.413393097
  0
CIRCLE
  5
2DD
100
AcDbEntity
  8
0
100
AcDbCircle
 62
7
  6
CONTINUOUS
 10
10.9376923427
 20
13.1037127014
 40
0.24
  0
CIRCLE
  5
2DE
100
AcDbEntity
  8
0
100
AcDbCircle
 62
9
  6
CONTINUOUS
 10
10.9376923427
 20
13.1037127014
 40
0.18
  0
CIRCLE
  5
2DF
100
AcDbEntity
  8
0
100
AcDbCircle
 62
7
  6
CONTINUOUS
 10
10.9376923427
 20
13.1037127014
 40
0.17
  0
ARC
  5
2E0
100
AcDbEntity
  8
0
100
AcDbCircle
 62
7
  6
CONTINUOUS
 10
10.5054496663
 20
13.7064758194
 40
0.1
100
AcDbArc
 50
90.0
 51
159.3601226956
  0
ARC
  5
2E1
100
AcDbEntity
  8
0
100
AcDbCircle
 62
7
  6
CONTINUOUS
 10
10.5776923427
 20
13.8064758194
 40
0.06
100
AcDbArc
 50
98.8015353094
 51
180.0
  0
CIRCLE
  5
2E2
100
AcDbEntity
  8
0
100
AcDbCircle
 62
7
  6
CONTINUOUS
 10
10.9376923427
 20
13.1037127014
 40
0.005
  0
ARC
  5
2E3
100
AcDbEntity
  8
0
100
AcDbCircle
 62
7
  6
CONTINUOUS
 10
19.1706043569
 20
6.2806893013
 40
8.0
100
AcDbArc
 50
177.4789984899
 51
187.5278382497
  0
ARC
  5
2E4
100
AcDbEntity
  8
0
100
AcDbCircle
 62
7
  6
CONTINUOUS
 10
12.0826923427
 20
9.2570020554
 40
0.64
100
AcDbArc
 50
180.0
 51
208.9550243719
  0
ARC
  5
2E5
100
AcDbEntity
  8
0
100
AcDbCircle
 62
7
  6
CONTINUOUS
 10
11.1777081947
 20
5.1619373647
 40
0.5427098904
100
AcDbArc
 50
172.5709351409
 51
224.3977358955
  0
ARC
  5
2E6
100
AcDbEntity
  8
0
100
AcDbCircle
 62
7
  6
CONTINUOUS
 10
11.8276222364
 20
8.1390070184
 40
0.35
100
AcDbArc
 50
150.6016873387
 51
181.14680461
  0
ARC
  5
2E7
100
AcDbEntity
  8
0
100
AcDbCircle
 62
7
  6
CONTINUOUS
 10
10.9441154725
 20
4.7522931239
 40
0.11
100
AcDbArc
 50
270.0493866953
 51
344.2651148817
  0
ARC
  5
2E8
100
AcDbEntity
  8
0
100
AcDbCircle
 62
7
  6
CONTINUOUS
 10
19.1706043569
 20
11.9923999474
 40
8.0
100
AcDbArc
 50
177.47899849
 51
187.5278382497
  0
ARC
  5
2E9
100
AcDbEntity
  8
0
100
AcDbCircle
 62
7
  6
CONTINUOUS
 10
10.9532784803
 20
11.6868319042
 40
2.3118504862
100
AcDbArc
 50
270.0
 51
278.7977505622
  0
ARC
  5
2EA
100
AcDbEntity
  8
0
100
AcDbCircle
 62
7
  6
CONTINUOUS
 10
10.9534146295
 20
11.5829711857
 40
2.31
100
AcDbArc
 50
81.1984646906
 51
89.9999999999
  0
ARC
  5
2EB
100
AcDbEntity
  8
0
100
AcDbCircle
 62
7
  6
CONTINUOUS
 10
12.1056923427
 20
10.1642389374
 40
1.81
100
AcDbArc
 50
200.6404275003
 51
202.0562511617
  0
ARC
  5
2EC
100
AcDbEntity
  8
0
100
AcDbCircle
 62
7
  6
CONTINUOUS
 10
12.1056923427
 20
13.1037127014
 40
1.81
100
AcDbArc
 50
159.3601226956
 51
177.9229371601
  0
ARC
  5
2ED
100
AcDbEntity
  8
0
100
AcDbCircle
 62
7
  6
CONTINUOUS
 10
12.1056923427
 20
13.1037127014
 40
1.81
100
AcDbArc
 50
182.3539411493
 51
202.0562511617
  0
ARC
  5
2EE
100
AcDbEntity
  8
0
100
AcDbCircle
 62
7
  6
CONTINUOUS
 10
12.1056923427
 20
10.1642389374
 40
1.81
100
AcDbArc
 50
157.9437488383
 51
200.6398773043
  0
ARC
  5
2EF
100
AcDbEntity
  8
0
100
AcDbCircle
 62
7
  6
CONTINUOUS
 10
12.0826923427
 20
12.1964758194
 40
0.64
100
AcDbArc
 50
180.0
 51
208.9550243719
  0
ARC
  5
2F0
100
AcDbEntity
  8
0
100
AcDbCircle
 62
7
  6
CONTINUOUS
 10
11.1777081947
 20
10.8736480107
 40
0.5427098904
100
AcDbArc
 50
172.5709351409
 51
224.3977358955
  0
ARC
  5
2F1
100
AcDbEntity
  8
0
100
AcDbCircle
 62
7
  6
CONTINUOUS
 10
11.7794293011
 20
12.4844357901
 40
0.4
100
AcDbArc
 50
143.6579063375
 51
201.0304763259
  0
ARC
  5
2F2
100
AcDbEntity
  8
0
100
AcDbCircle
 62
7
  6
CONTINUOUS
 10
11.8276222364
 20
11.0784807824
 40
0.35
100
AcDbArc
 50
150.6016873387
 51
181.14680461
  0
ARC
  5
2F3
100
AcDbEntity
  8
0
100
AcDbCircle
 62
7
  6
CONTINUOUS
 10
11.1447587998
 20
12.0128538887
 40
0.1954335429
100
AcDbArc
 50
345.4368424883
 51
360.0
  0
ARC
  5
2F4
100
AcDbEntity
  8
0
100
AcDbCircle
 62
7
  6
CONTINUOUS
 10
10.9441154725
 20
10.46400377
 40
0.11
100
AcDbArc
 50
270.0493866953
 51
344.2651148817
  0
ARC
  5
2F5
100
AcDbEntity
  8
0
100
AcDbCircle
 62
7
  6
CONTINUOUS
 10
11.539910198
 20
9.4470020554
 40
0.1
100
AcDbArc
 50
157.9437488383
 51
225.571528248
  0
ARC
  5
2F6
100
AcDbEntity
  8
0
100
AcDbCircle
 62
7
  6
CONTINUOUS
 10
11.3699350192
 20
13.7064758194
 40
0.1
100
AcDbArc
 50
20.6398773044
 51
90.0
  0
ARC
  5
2F7
100
AcDbEntity
  8
0
100
AcDbCircle
 62
7
  6
CONTINUOUS
 10
11.539910198
 20
12.3864758194
 40
0.1
100
AcDbArc
 50
157.9437488383
 51
225.571528248
  0
ARC
  5
2F8
100
AcDbEntity
  8
0
100
AcDbCircle
 62
7
  6
CONTINUOUS
 10
11.3699350192
 20
9.5614758194
 40
0.1
100
AcDbArc
 50
270.0
 51
339.3599970517
  0
ARC
  5
2F9
100
AcDbEntity
  8
0
100
AcDbCircle
 62
7
  6
CONTINUOUS
 10
11.539910198
 20
10.8814758194
 40
0.1
100
AcDbArc
 50
134.4284791743
 51
202.0562511617
  0
ARC
  5
2FA
100
AcDbEntity
  8
0
100
AcDbCircle
 62
7
  6
CONTINUOUS
 10
11.2976923427
 20
13.8064758194
 40
0.06
100
AcDbArc
 50
0.0
 51
81.1984646906
  0
ARC
  5
2FB
100
AcDbEntity
  8
0
100
AcDbCircle
 62
7
  6
CONTINUOUS
 10
11.2976923427
 20
9.4614758194
 40
0.06
100
AcDbArc
 50
278.7977505622
 51
360.0
  0
ARC
  5
2FC
100
AcDbEntity
  8
0
100
AcDbCircle
 62
7
  6
CONTINUOUS
 10
11.4349074539
 20
9.3398833188
 40
0.05
100
AcDbArc
 50
309.9400001938
 51
45.5715281523
  0
ARC
  5
2FD
100
AcDbEntity
  8
0
100
AcDbCircle
 62
7
  6
CONTINUOUS
 10
11.4349074539
 20
12.2793570828
 40
0.05
100
AcDbArc
 50
309.9400001938
 51
45.5715281522
  0
ARC
  5
2FE
100
AcDbEntity
  8
0
100
AcDbCircle
 62
7
  6
CONTINUOUS
 10
11.4349074539
 20
10.988594556
 40
0.05
100
AcDbArc
 50
314.428471752
 51
50.06
  0
ARC
  5
2FF
100
AcDbEntity
  8
0
100
AcDbCircle
 62
7
  6
CONTINUOUS
 10
11.3874056403
 20
12.3337127014
 40
0.02
100
AcDbArc
 50
270.0
 51
21.0304956613
  0
SPLINE
  5
300
100
AcDbEntity
  8
0
100
AcDbSpline
 62
7
  6
CONTINUOUS
 70
0
 71
3
 72
35
 73
31
 74
0
 42
0.0000001
 43
0.0000001
 44
0.0000000001
 40
0.0
 40
0.0
 40
0.0
 40
0.0
 40
0.0630542679
 40
0.0945808789
 40
0.1260959143
 40
0.157589043
 40
0.1890510625
 40
0.2204698016
 40
0.2518345079
 40
0.2831332245
 40
0.3143559118
 40
0.3765294186
 40
0.407491671
 40
0.4383770083
 40
0.4692043346
 40
0.4999999965
 40
0.530795659
 40
0.5616229874
 40
0.5925083227
 40
0.6234705702
 40
0.685644082
 40
0.7168667651
 40
0.7481654885
 40
0.7795301918
 40
0.8109489355
 40
0.8424109558
 40
0.8739040848
 40
0.9054191215
 40
0.9369457322
 40
1.0
 40
1.0
 40
1.0
 40
1.0
 10
11.4755619619
 20
8.3938278302
 30
0.0
 10
11.4656379111
 20
8.3891247258
 30
0.0
 10
11.4507796834
 20
8.3820116863
 30
0.0
 10
11.4309569821
 20
8.3725571749
 30
0.0
 10
11.4160708844
 20
8.365521378
 30
0.0
 10
11.4011465821
 20
8.3585933841
 30
0.0
 10
11.3861682625
 20
8.3518231201
 30
0.0
 10
11.371115373
 20
8.345275253
 30
0.0
 10
11.355969307
 20
8.3390192356
 30
0.0
 10
11.3407102595
 20
8.3331347349
 30
0.0
 10
11.3202253417
 20
8.3259170174
 30
0.0
 10
11.2994139484
 20
8.3198049979
 30
0.0
 10
11.2782898689
 20
8.315250619
 30
0.0
 10
11.2623387821
 20
8.3127218453
 30
0.0
 10
11.2462915616
 20
8.3111652567
 30
0.0
 10
11.2301923445
 20
8.3106395097
 30
0.0
 10
11.2140931272
 20
8.3111652599
 30
0.0
 10
11.1980459063
 20
8.3127218443
 30
0.0
 10
11.1820948198
 20
8.3152506156
 30
0.0
 10
11.1609707418
 20
8.3198050001
 30
0.0
 10
11.1401593496
 20
8.3259170194
 30
0.0
 10
11.1196744277
 20
8.3331347295
 30
0.0
 10
11.1044153841
 20
8.3390192401
 30
0.0
 10
11.0892693115
 20
8.3452752452
 30
0.0
 10
11.074216426
 20
8.351823123
 30
0.0
 10
11.0592381026
 20
8.3585933806
 30
0.0
 10
11.0443138007
 20
8.3655213764
 30
0.0
 10
11.0294277041
 20
8.3725571764
 30
0.0
 10
11.0096050006
 20
8.3820116835
 30
0.0
 10
10.9947467744
 20
8.3891247258
 30
0.0
 10
10.9848227236
 20
8.3938278302
 30
0.0
  0
SPLINE
  5
301
100
AcDbEntity
  8
0
100
AcDbSpline
 62
7
  6
CONTINUOUS
 70
0
 71
3
 72
35
 73
31
 74
0
 42
0.0000001
 43
0.0000001
 44
0.0000000001
 40
0.0
 40
0.0
 40
0.0
 40
0.0
 40
0.0634332973
 40
0.0951015967
 40
0.1267274122
 40
0.1582987315
 40
0.1898045853
 40
0.2212392448
 40
0.252589891
 40
0.314990409
 40
0.346048144
 40
0.3769945369
 40
0.4078421376
 40
0.438616954
 40
0.469329344
 40
0.5000012535
 40
0.5306725843
 40
0.5613842887
 40
0.5921592638
 40
0.6230072276
 40
0.6539529136
 40
0.6850099244
 40
0.7474103058
 40
0.7787608057
 40
0.8101954866
 40
0.8417013313
 40
0.8732726048
 40
0.9048984237
 40
0.9365667293
 40
1.0
 40
1.0
 40
1.0
 40
1.0
 10
10.9848227236
 20
8.8513236113
 30
0.0
 10
10.9944385724
 20
8.8572291166
 30
0.0
 10
11.0088974575
 20
8.8660149614
 30
0.0
 10
11.0283302844
 20
8.8774440762
 30
0.0
 10
11.0429784197
 20
8.885825725
 30
0.0
 10
11.0577271645
 20
8.8939701219
 30
0.0
 10
11.0725965783
 20
8.901819981
 30
0.0
 10
11.0876024341
 20
8.9093204408
 30
0.0
 10
11.1077818042
 20
8.9187439435
 30
0.0
 10
11.1283449276
 20
8.9271824544
 30
0.0
 10
11.1493158931
 20
8.9342745205
 30
0.0
 10
11.1652069512
 20
8.9388086012
 30
0.0
 10
11.1812736056
 20
8.9424612037
 30
0.0
 10
11.1974909417
 20
8.9451355642
 30
0.0
 10
11.2138137645
 20
8.9467841898
 30
0.0
 10
11.23019291
 20
8.94735258
 30
0.0
 10
11.2465720165
 20
8.9467852831
 30
0.0
 10
11.2628945317
 20
8.9451352797
 30
0.0
 10
11.2791116778
 20
8.9424602044
 30
0.0
 10
11.2951785115
 20
8.9388085697
 30
0.0
 10
11.3110694336
 20
8.9342746456
 30
0.0
 10
11.3320400802
 20
8.9271825087
 30
0.0
 10
11.3526029424
 20
8.9187438431
 30
0.0
 10
11.3727822867
 20
8.9093203956
 30
0.0
 10
11.3877880631
 20
8.9018198295
 30
0.0
 10
11.4026574983
 20
8.8939700269
 30
0.0
 10
11.4174062891
 20
8.8858257311
 30
0.0
 10
11.4320544071
 20
8.8774440642
 30
0.0
 10
11.4514872182
 20
8.866014929
 30
0.0
 10
11.4659461171
 20
8.8572291141
 30
0.0
 10
11.4755619619
 20
8.8513236113
 30
0.0
  0
SPLINE
  5
302
100
AcDbEntity
  8
0
100
AcDbSpline
 62
7
  6
CONTINUOUS
 70
0
 71
3
 72
35
 73
31
 74
0
 42
0.0000001
 43
0.0000001
 44
0.0000000001
 40
0.0
 40
0.0
 40
0.0
 40
0.0
 40
0.0630542679
 40
0.0945808789
 40
0.1260959143
 40
0.1575890429
 40
0.1890510624
 40
0.2204698013
 40
0.2518345076
 40
0.2831332239
 40
0.3143559114
 40
0.376529418
 40
0.4074916704
 40
0.4383770075
 40
0.4692043337
 40
0.4999999956
 40
0.5307956579
 40
0.5616229865
 40
0.5925083221
 40
0.6234705695
 40
0.6856440816
 40
0.7168667645
 40
0.7481654882
 40
0.7795301915
 40
0.8109489354
 40
0.8424109557
 40
0.8739040848
 40
0.9054191215
 40
0.9369457322
 40
1.0
 40
1.0
 40
1.0
 40
1.0
 10
10.8905619619
 20
8.3938278302
 30
0.0
 10
10.8806379111
 20
8.3891247258
 30
0.0
 10
10.8657796834
 20
8.3820116864
 30
0.0
 10
10.8459569822
 20
8.3725571749
 30
0.0
 10
10.8310708844
 20
8.3655213781
 30
0.0
 10
10.816146582
 20
8.3585933842
 30
0.0
 10
10.8011682626
 20
8.35182312
 30
0.0
 10
10.786115373
 20
8.3452752533
 30
0.0
 10
10.7709693073
 20
8.3390192354
 30
0.0
 10
10.7557102596
 20
8.3331347352
 30
0.0
 10
10.7352253421
 20
8.3259170172
 30
0.0
 10
10.7144139487
 20
8.3198049979
 30
0.0
 10
10.6932898692
 20
8.3152506191
 30
0.0
 10
10.6773387825
 20
8.3127218455
 30
0.0
 10
10.6612915621
 20
8.3111652565
 30
0.0
 10
10.645192345
 20
8.3106395097
 30
0.0
 10
10.6290931277
 20
8.3111652601
 30
0.0
 10
10.6130459068
 20
8.3127218442
 30
0.0
 10
10.5970948201
 20
8.3152506154
 30
0.0
 10
10.5759707421
 20
8.3198050001
 30
0.0
 10
10.55515935
 20
8.3259170195
 30
0.0
 10
10.5346744278
 20
8.3331347292
 30
0.0
 10
10.5194153843
 20
8.3390192402
 30
0.0
 10
10.5042693114
 20
8.3452752449
 30
0.0
 10
10.4892164261
 20
8.351823123
 30
0.0
 10
10.4742381026
 20
8.3585933805
 30
0.0
 10
10.4593138007
 20
8.3655213764
 30
0.0
 10
10.4444277041
 20
8.3725571764
 30
0.0
 10
10.4246050006
 20
8.3820116834
 30
0.0
 10
10.4097467744
 20
8.3891247258
 30
0.0
 10
10.3998227236
 20
8.3938278302
 30
0.0
  0
SPLINE
  5
303
100
AcDbEntity
  8
0
100
AcDbSpline
 62
7
  6
CONTINUOUS
 70
0
 71
3
 72
35
 73
31
 74
0
 42
0.0000001
 43
0.0000001
 44
0.0000000001
 40
0.0
 40
0.0
 40
0.0
 40
0.0
 40
0.0634333046
 40
0.0951016182
 40
0.1267274273
 40
0.1582986908
 40
0.189804566
 40
0.2212393062
 40
0.2525897966
 40
0.3149905809
 40
0.3460480753
 40
0.3769941474
 40
0.4078421832
 40
0.4386174618
 40
0.4693297833
 40
0.500001466
 40
0.5306728622
 40
0.5613844167
 40
0.592158633
 40
0.6230059827
 40
0.6539521584
 40
0.6850096442
 40
0.7474099128
 40
0.7787606229
 40
0.810195257
 40
0.8417011161
 40
0.8732724817
 40
0.9048983388
 40
0.9365666647
 40
1.0
 40
1.0
 40
1.0
 40
1.0
 10
10.3998227236
 20
8.8513236113
 30
0.0
 10
10.4094385761
 20
8.8572291189
 30
0.0
 10
10.4238975023
 20
8.8660149121
 30
0.0
 10
10.4433303276
 20
8.877444046
 30
0.0
 10
10.4579784306
 20
8.8858257436
 30
0.0
 10
10.4727271961
 20
8.8939700984
 30
0.0
 10
10.4875965987
 20
8.9018200017
 30
0.0
 10
10.5026023265
 20
8.9093207082
 30
0.0
 10
10.5227817655
 20
8.9187441634
 30
0.0
 10
10.5433448058
 20
8.927182807
 30
0.0
 10
10.5643156199
 20
8.9342751727
 30
0.0
 10
10.5802066766
 20
8.9388092428
 30
0.0
 10
10.5962736147
 20
8.9424610829
 30
0.0
 10
10.6124910624
 20
8.9451355502
 30
0.0
 10
10.6288138656
 20
8.9467848046
 30
0.0
 10
10.6451930079
 20
8.9473527907
 30
0.0
 10
10.661572029
 20
8.9467851464
 30
0.0
 10
10.6778944695
 20
8.9451359483
 30
0.0
 10
10.6941113949
 20
8.9424609765
 30
0.0
 10
10.7101778228
 20
8.9388082435
 30
0.0
 10
10.726068749
 20
8.9342741554
 30
0.0
 10
10.7470396322
 20
8.9271822275
 30
0.0
 10
10.7676026982
 20
8.9187437578
 30
0.0
 10
10.7877820554
 20
8.9093203065
 30
0.0
 10
10.8027880051
 20
8.9018200076
 30
0.0
 10
10.8176574684
 20
8.8939702207
 30
0.0
 10
10.8324062452
 20
8.8858258379
 30
0.0
 10
10.8470544052
 20
8.8774441819
 30
0.0
 10
10.8664872328
 20
8.8660150187
 30
0.0
 10
10.8809461047
 20
8.8572291217
 30
0.0
 10
10.8905619619
 20
8.8513236113
 30
0.0
  0
SPLINE
  5
304
100
AcDbEntity
  8
0
100
AcDbSpline
 62
7
  6
CONTINUOUS
 70
0
 71
3
 72
22
 73
18
 74
0
 42
0.0000001
 43
0.0000001
 44
0.0000000001
 40
0.0
 40
0.0
 40
0.0
 40
0.0
 40
0.126264713
 40
0.1893917914
 40
0.2524869986
 40
0.3155263489
 40
0.3784856156
 40
0.4413353568
 40
0.5040501239
 40
0.5666019396
 40
0.6289702754
 40
0.6911448781
 40
0.7531288778
 40
0.8149485732
 40
0.8766534815
 40
0.9383117833
 40
1.0
 40
1.0
 40
1.0
 40
1.0
 10
11.4755619619
 20
11.3333015942
 30
0.0
 10
11.4646928662
 20
11.3281506239
 30
0.0
 10
11.4484228558
 20
11.3203546046
 30
0.0
 10
11.4267088074
 20
11.310011235
 30
0.0
 10
11.4103945077
 20
11.3023372426
 30
0.0
 10
11.3940269009
 20
11.2948153376
 30
0.0
 10
11.3775838476
 20
11.2875163398
 30
0.0
 10
11.3610375577
 20
11.280532143
 30
0.0
 10
11.34436469
 20
11.2739584963
 30
0.0
 10
11.3275403229
 20
11.2679135216
 30
0.0
 10
11.3105469585
 20
11.2625237254
 30
0.0
 10
11.293374909
 20
11.2579305623
 30
0.0
 10
11.2760293127
 20
11.2542781315
 30
0.0
 10
11.2585343011
 20
11.2517019589
 30
0.0
 10
11.2409342522
 20
11.2503124251
 30
0.0
 10
11.223292471
 20
11.2501746221
 30
0.0
 10
11.2115550061
 20
11.2509216278
 30
0.0
 10
11.2057066511
 20
11.2514947389
 30
0.0
  0
SPLINE
  5
305
100
AcDbEntity
  8
0
100
AcDbSpline
 62
7
  6
CONTINUOUS
 70
0
 71
3
 72
27
 73
23
 74
0
 42
0.0000001
 43
0.0000001
 44
0.0000000001
 40
0.0
 40
0.0
 40
0.0
 40
0.0
 40
0.0617840459
 40
0.1234078483
 40
0.1541811314
 40
0.1849409231
 40
0.215704392
 40
0.2464876436
 40
0.3081445038
 40
0.3390401981
 40
0.3699806216
 40
0.4009775922
 40
0.4320404214
 40
0.4943631786
 40
0.5569269163
 40
0.6197297481
 40
0.682751078
 40
0.7459498323
 40
0.8093058602
 40
0.8727846666
 40
0.9363572394
 40
1.0
 40
1.0
 40
1.0
 40
1.0
 10
11.172930682
 20
11.8799983548
 30
0.0
 10
11.1794487978
 20
11.8814834216
 30
0.0
 10
11.192577883
 20
11.8839914371
 30
0.0
 10
11.2091718945
 20
11.8858753288
 30
0.0
 10
11.2224822295
 20
11.8865807854
 30
0.0
 10
11.2324712256
 20
11.8866965901
 30
0.0
 10
11.2424573001
 20
11.8863906764
 30
0.0
 10
11.2557570314
 20
11.8854396117
 30
0.0
 10
11.2690038017
 20
11.8836969012
 30
0.0
 10
11.2821361207
 20
11.8812177577
 30
0.0
 10
11.2919348983
 20
11.8789984448
 30
0.0
 10
11.3016698471
 20
11.8764436853
 30
0.0
 10
11.3145748411
 20
11.8726173511
 30
0.0
 10
11.3305345531
 20
11.8671098867
 30
0.0
 10
11.3493845857
 20
11.859535019
 30
0.0
 10
11.367966642
 20
11.8511435269
 30
0.0
 10
11.3863085351
 20
11.8420873184
 30
0.0
 10
11.4044463878
 20
11.8325025901
 30
0.0
 10
11.4224071185
 20
11.8224894944
 30
0.0
 10
11.4402294413
 20
11.8121523895
 30
0.0
 10
11.4579435434
 20
11.8015709081
 30
0.0
 10
11.4696939641
 20
11.7944011645
 30
0.0
 10
11.4755619619
 20
11.7907973753
 30
0.0
  0
SPLINE
  5
306
100
AcDbEntity
  8
0
100
AcDbSpline
 62
7
  6
CONTINUOUS
 70
0
 71
3
 72
22
 73
18
 74
0
 42
0.0000001
 43
0.0000001
 44
0.0000000001
 40
0.0
 40
0.0
 40
0.0
 40
0.0
 40
0.0617103445
 40
0.1233768643
 40
0.1850779225
 40
0.2468858326
 40
0.3088546299
 40
0.3710140183
 40
0.4333696862
 40
0.4959132044
 40
0.5586234183
 40
0.6214728438
 40
0.6844347963
 40
0.7474795599
 40
0.8105818645
 40
0.873717301
 40
1.0
 40
1.0
 40
1.0
 40
1.0
 10
10.6729480491
 20
11.2518360546
 30
0.0
 10
10.6670380955
 20
11.2511815615
 30
0.0
 10
10.6551731933
 20
11.2502752622
 30
0.0
 10
10.6373252062
 20
11.2501988531
 30
0.0
 10
10.6195085322
 20
11.2514086865
 30
0.0
 10
10.6017907318
 20
11.2538464026
 30
0.0
 10
10.5842208297
 20
11.2574035002
 30
0.0
 10
10.5668267508
 20
11.2619422231
 30
0.0
 10
10.5496157848
 20
11.2673130956
 30
0.0
 10
10.5325794691
 20
11.273369343
 30
0.0
 10
10.5157000899
 20
11.2799779537
 30
0.0
 10
10.4989525018
 20
11.2870160328
 30
0.0
 10
10.4823122255
 20
11.2943826342
 30
0.0
 10
10.4657508211
 20
11.3019825095
 30
0.0
 10
10.4492449208
 20
11.309741054
 30
0.0
 10
10.4272774275
 20
11.3202030766
 30
0.0
 10
10.410818388
 20
11.3280906417
 30
0.0
 10
10.3998227236
 20
11.3333015942
 30
0.0
  0
SPLINE
  5
307
100
AcDbEntity
  8
0
100
AcDbSpline
 62
7
  6
CONTINUOUS
 70
0
 71
3
 72
25
 73
21
 74
0
 42
0.0000001
 43
0.0000001
 44
0.0000000001
 40
0.0
 40
0.0
 40
0.0
 40
0.0
 40
0.0636483095
 40
0.1272257624
 40
0.1907084648
 40
0.2540667306
 40
0.3172660434
 40
0.3802857735
 40
0.4430836971
 40
0.5056416479
 40
0.5679556086
 40
0.6299968882
 40
0.6609333229
 40
0.6918257011
 40
0.7534769964
 40
0.8150108077
 40
0.8765404847
 40
0.9381823358
 40
0.9690692798
 40
1.0
 40
1.0
 40
1.0
 40
1.0
 10
10.3998227236
 20
11.7907973753
 30
0.0
 10
10.4057306159
 20
11.7944256655
 30
0.0
 10
10.4175610119
 20
11.8016438761
 30
0.0
 10
10.4353965155
 20
11.8122952016
 30
0.0
 10
10.4533419901
 20
11.8226979834
 30
0.0
 10
10.471428551
 20
11.832770344
 30
0.0
 10
10.4896955103
 20
11.8424057811
 30
0.0
 10
10.5081703157
 20
11.8515016814
 30
0.0
 10
10.5268901629
 20
11.8599172653
 30
0.0
 10
10.5458830945
 20
11.867498132
 30
0.0
 10
10.5651593184
 20
11.8740828591
 30
0.0
 10
10.5814765515
 20
11.8785911017
 30
0.0
 10
10.5946533041
 20
11.8815074104
 30
0.0
 10
10.6078860983
 20
11.8839315004
 30
0.0
 10
10.6245568487
 20
11.8860220458
 30
0.0
 10
10.6446804856
 20
11.8869223717
 30
0.0
 10
10.6648068451
 20
11.8861082352
 30
0.0
 10
10.6814838938
 20
11.8840834668
 30
0.0
 10
10.6947232547
 20
11.8817093504
 30
0.0
 10
10.7013047976
 20
11.8802775661
 30
0.0
 10
10.704584085
 20
11.8795043022
 30
0.0
  0
SPLINE
  5
308
100
AcDbEntity
  8
0
100
AcDbSpline
 62
9
  6
CONTINUOUS
 70
0
 71
3
 72
31
 73
27
 74
0
 42
0.0000001
 43
0.0000001
 44
0.0000000001
 40
0.0
 40
0.0
 40
0.0
 40
0.0
 40
0.2146621876
 40
0.4091680649
 40
0.4980000787
 40
0.5807363202
 40
0.6570133617
 40
0.7264923534
 40
0.788836001
 40
0.8437007362
 40
0.8907373697
 40
0.9112135198
 40
0.9296231701
 40
0.9459455502
 40
0.9601598217
 40
0.9722450797
 40
0.9821803542
 40
0.986335178
 40
0.9899446129
 40
0.9930060199
 40
0.9955167561
 40
0.9974741745
 40
0.9988756248
 40
0.9993670326
 40
0.9997184527
 40
1.0
 40
1.0
 40
1.0
 40
1.0
 10
10.665264916
 20
8.1323214311
 30
0.0
 10
10.648180216
 20
8.1285879696
 30
0.0
 10
10.6157548218
 20
8.1208133838
 30
0.0
 10
10.5766864716
 20
8.1098426066
 30
0.0
 10
10.5481924227
 20
8.101035624
 30
0.0
 10
10.5289969434
 20
8.0947705925
 30
0.0
 10
10.511385992
 20
8.0887391165
 30
0.0
 10
10.4954221355
 20
8.0830308879
 30
0.0
 10
10.4811649632
 20
8.0777344152
 30
0.0
 10
10.4686733665
 20
8.0729380606
 30
0.0
 10
10.4593993433
 20
8.0692788203
 30
0.0
 10
10.4529014013
 20
8.0666760145
 30
0.0
 10
10.4487315653
 20
8.0649903917
 30
0.0
 10
10.4450394269
 20
8.0634842814
 30
0.0
 10
10.4418284603
 20
8.0621627522
 30
0.0
 10
10.4391021564
 20
8.0610308349
 30
0.0
 10
10.4371352206
 20
8.0602071717
 30
0.0
 10
10.4358065434
 20
8.059647018
 30
0.0
 10
10.4349943883
 20
8.0593031994
 30
0.0
 10
10.4343060348
 20
8.0590105063
 30
0.0
 10
10.4337418306
 20
8.0587697992
 30
0.0
 10
10.4333024473
 20
8.0585810908
 30
0.0
 10
10.433014069
 20
8.0584577668
 30
0.0
 10
10.4328465556
 20
8.0583843925
 30
0.0
 10
10.4327618833
 20
8.0583496021
 30
0.0
 10
10.4327157398
 20
8.0583260317
 30
0.0
 10
10.4326939625
 20
8.0583188314
 30
0.0
  0
SPLINE
  5
309
100
AcDbEntity
  8
0
100
AcDbSpline
 62
9
  6
CONTINUOUS
 70
0
 71
3
 72
45
 73
41
 74
0
 42
0.0000001
 43
0.0000001
 44
0.0000000001
 40
0.0
 40
0.0
 40
0.0
 40
0.0
 40
0.0991797603
 40
0.1484523199
 40
0.1972833623
 40
0.2931023661
 40
0.3857017716
 40
0.4742081121
 40
0.5578455954
 40
0.6359601185
 40
0.7079217491
 40
0.7731514814
 40
0.8030829098
 40
0.8311395855
 40
0.8572564801
 40
0.8813676518
 40
0.9034076702
 40
0.923317354
 40
0.9410391457
 40
0.95651502
 40
0.9633941158
 40
0.9696944723
 40
0.9754118848
 40
0.9805421376
 40
0.9850810039
 40
0.9890242467
 40
0.9923676192
 40
0.9938130772
 40
0.9951073298
 40
0.9962502274
 40
0.9972416202
 40
0.9980813582
 40
0.9987692918
 40
0.9993052711
 40
0.9995162311
 40
0.9996891465
 40
0.9998239987
 40
0.9999207692
 40
0.9999794403
 40
1.0
 40
1.0
 40
1.0
 40
1.0
 10
10.9376923427
 20
8.0708011506
 30
0.0
 10
10.9557768914
 20
8.0708755104
 30
0.0
 10
10.9828505658
 20
8.0704388373
 30
0.0
 10
11.0187944168
 20
8.0689696462
 30
0.0
 10
11.0541013335
 20
8.0670058926
 30
0.0
 10
11.0972401833
 20
8.0636693062
 30
0.0
 10
11.1474499465
 20
8.058237755
 30
0.0
 10
11.1952803508
 20
8.0516623192
 30
0.0
 10
11.2403074982
 20
8.0442189042
 30
0.0
 10
11.2821606806
 20
8.0361677758
 30
0.0
 10
11.3205273598
 20
8.0278271586
 30
0.0
 10
11.3501588839
 20
8.0207023387
 30
0.0
 10
11.3719198562
 20
8.0151096057
 30
0.0
 10
11.386735962
 20
8.0111496945
 30
0.0
 10
11.4004929751
 20
8.0073398074
 30
0.0
 10
11.4131628274
 20
8.0037167588
 30
0.0
 10
11.4247190076
 20
8.0003172718
 30
0.0
 10
11.4351357195
 20
7.997173605
 30
0.0
 10
11.4443885796
 20
7.9943169638
 30
0.0
 10
11.4513593086
 20
7.9921233553
 30
0.0
 10
11.4563380624
 20
7.9905379237
 30
0.0
 10
11.4596190438
 20
7.9894852792
 30
0.0
 10
11.4625943961
 20
7.9885238896
 30
0.0
 10
11.465262412
 20
7.9876560126
 30
0.0
 10
11.4676213868
 20
7.9868839144
 30
0.0
 10
11.4696696163
 20
7.9862098631
 30
0.0
 10
11.4711813914
 20
7.9857101317
 30
0.0
 10
11.4722343278
 20
7.9853613306
 30
0.0
 10
11.4729062901
 20
7.9851384381
 30
0.0
 10
11.4734995836
 20
7.9849413581
 30
0.0
 10
11.4740141407
 20
7.9847701553
 30
0.0
 10
11.4744499141
 20
7.9846249244
 30
0.0
 10
11.4748067978
 20
7.9845056723
 30
0.0
 10
11.4750549433
 20
7.9844226554
 30
0.0
 10
11.475213852
 20
7.9843691007
 30
0.0
 10
11.4753036551
 20
7.9843391465
 30
0.0
 10
11.4753730832
 20
7.9843148367
 30
0.0
 10
11.4754241992
 20
7.984299279
 30
0.0
 10
11.4754527397
 20
7.984286127
 30
0.0
 10
11.4754682711
 20
7.984284157
 30
0.0
 10
11.4754709277
 20
7.9842815118
 30
0.0
  0
SPLINE
  5
30A
100
AcDbEntity
  8
0
100
AcDbSpline
 62
9
  6
CONTINUOUS
 70
0
 71
3
 72
45
 73
41
 74
0
 42
0.0000001
 43
0.0000001
 44
0.0000000001
 40
0.0
 40
0.0
 40
0.0
 40
0.0
 40
0.0000180359
 40
0.0000741926
 40
0.0001684965
 40
0.0003009669
 40
0.0004716226
 40
0.000680482
 40
0.001212886
 40
0.0018983259
 40
0.0027369199
 40
0.0037284228
 40
0.004872341
 40
0.0061681762
 40
0.0076154303
 40
0.0109622048
 40
0.014908688
 40
0.0194509109
 40
0.0245849124
 40
0.0303067398
 40
0.0366122973
 40
0.0434960556
 40
0.0589729255
 40
0.0766870826
 40
0.0965886477
 40
0.1186247073
 40
0.142732307
 40
0.1688472229
 40
0.1969059905
 40
0.2268436739
 40
0.2585932906
 40
0.2920887208
 40
0.3640462852
 40
0.4421512958
 40
0.5257970552
 40
0.6143104386
 40
0.7069091091
 40
0.8027308251
 40
0.9008247923
 40
1.0
 40
1.0
 40
1.0
 40
1.0
 10
10.3999147936
 20
7.984282479
 30
0.0
 10
10.3999128254
 20
7.9842798449
 30
0.0
 10
10.3999386139
 20
7.9842923659
 30
0.0
 10
10.3999551609
 20
7.9842933564
 30
0.0
 10
10.400011533
 20
7.9843141579
 30
0.0
 10
10.4000771363
 20
7.9843345639
 30
0.0
 10
10.4001670666
 20
7.9843645691
 30
0.0
 10
10.4003243447
 20
7.9844162616
 30
0.0
 10
10.4005716667
 20
7.9844982729
 30
0.0
 10
10.4009273152
 20
7.984616274
 30
0.0
 10
10.401362541
 20
7.9847610906
 30
0.0
 10
10.4018769515
 20
7.9849323666
 30
0.0
 10
10.4024705047
 20
7.9851299299
 30
0.0
 10
10.4031429575
 20
7.98535351
 30
0.0
 10
10.404196676
 20
7.9857032992
 30
0.0
 10
10.405709497
 20
7.9862039264
 30
0.0
 10
10.4077589992
 20
7.9868787999
 30
0.0
 10
10.4101192675
 20
7.9876516871
 30
0.0
 10
10.4127886761
 20
7.9885205689
 30
0.0
 10
10.4157655799
 20
7.9894833949
 30
0.0
 10
10.4190480266
 20
7.9905381224
 30
0.0
 10
10.4240271525
 20
7.9921260573
 30
0.0
 10
10.43099641
 20
7.99431913
 30
0.0
 10
10.4402460457
 20
7.9971716606
 30
0.0
 10
10.4506583221
 20
8.0003113253
 30
0.0
 10
10.4622098655
 20
8.0037093842
 30
0.0
 10
10.4748762088
 20
8.007330462
 30
0.0
 10
10.4886304813
 20
8.011139018
 30
0.0
 10
10.5034450732
 20
8.0150991886
 30
0.0
 10
10.5192915305
 20
8.0191744216
 30
0.0
 10
10.5361406358
 20
8.0233271881
 30
0.0
 10
10.5604900524
 20
8.029055467
 30
0.0
 10
10.5931947338
 20
8.0361633286
 30
0.0
 10
10.6350411233
 20
8.0442062222
 30
0.0
 10
10.6800603892
 20
8.0516574102
 30
0.0
 10
10.7278858123
 20
8.0582304956
 30
0.0
 10
10.7780888696
 20
8.0636609116
 30
0.0
 10
10.8301749911
 20
8.0677082874
 30
0.0
 10
10.8835557788
 20
8.0702595646
 30
0.0
 10
10.9195240246
 20
8.0708349192
 30
0.0
 10
10.9376048655
 20
8.0707998548
 30
0.0
  0
SPLINE
  5
30B
100
AcDbEntity
  8
0
100
AcDbSpline
 62
9
  6
CONTINUOUS
 70
0
 71
3
 72
27
 73
23
 74
0
 42
0.0000001
 43
0.0000001
 44
0.0000000001
 40
0.0
 40
0.0
 40
0.0
 40
0.0
 40
0.0002815512
 40
0.0011243911
 40
0.0025258615
 40
0.0044833079
 40
0.0069940797
 40
0.0100555297
 40
0.0178198938
 40
0.0277553031
 40
0.0398407218
 40
0.0540551781
 40
0.0703777657
 40
0.109263993
 40
0.156301154
 40
0.2111664349
 40
0.2735106345
 40
0.3429901728
 40
0.4192677451
 40
0.5908316213
 40
0.7853379835
 40
1.0
 40
1.0
 40
1.0
 40
1.0
 10
11.4426907151
 20
8.0583188418
 30
0.0
 10
11.4426692025
 20
8.0583268039
 30
0.0
 10
11.4425863065
 20
8.0583661094
 30
0.0
 10
11.4423962802
 20
8.0584449544
 30
0.0
 10
11.4420824659
 20
8.0585818502
 30
0.0
 10
11.4416426432
 20
8.0587695585
 30
0.0
 10
11.4410785465
 20
8.0590106791
 30
0.0
 10
11.4400785386
 20
8.0594356601
 30
0.0
 10
11.4385203367
 20
8.0600937664
 30
0.0
 10
11.4362819738
 20
8.0610310633
 30
0.0
 10
11.4335554414
 20
8.0621630788
 30
0.0
 10
11.4303442057
 20
8.063484719
 30
0.0
 10
11.4251070479
 20
8.0656210183
 30
0.0
 10
11.4173782724
 20
8.0687291026
 30
0.0
 10
11.4067083161
 20
8.0729392664
 30
0.0
 10
11.3942156728
 20
8.0777359285
 30
0.0
 10
11.3799573594
 20
8.0830327852
 30
0.0
 10
11.3639921875
 20
8.0887413841
 30
0.0
 10
11.3395332034
 20
8.0971181295
 30
0.0
 10
11.3051767908
 20
8.1080237653
 30
0.0
 10
11.259615549
 20
8.1208171127
 30
0.0
 10
11.2271875116
 20
8.1285919218
 30
0.0
 10
11.2101015583
 20
8.1323253878
 30
0.0
  0
SPLINE
  5
30C
100
AcDbEntity
  8
0
100
AcDbSpline
 62
7
  6
CONTINUOUS
 70
0
 71
3
 72
13
 73
9
 74
0
 42
0.0000001
 43
0.0000001
 44
0.0000000001
 40
0.0
 40
0.0
 40
0.0
 40
0.0
 40
0.3218624559
 40
0.5977654467
 40
0.7174455917
 40
0.8245534267
 40
0.9188140742
 40
1.0
 40
1.0
 40
1.0
 40
1.0
 10
11.3244440673
 20
11.0678639742
 30
0.0
 10
11.3345387597
 20
11.068145656
 30
0.0
 10
11.3532858866
 20
11.0686986574
 30
0.0
 10
11.3757831529
 20
11.06946837
 30
0.0
 10
11.3915428962
 20
11.070096672
 30
0.0
 10
11.401606076
 20
11.0705444379
 30
0.0
 10
11.4104601742
 20
11.070991226
 30
0.0
 10
11.4159556556
 20
11.0713121075
 30
0.0
 10
11.418497638
 20
11.0714759276
 30
0.0
  0
SPLINE
  5
30D
100
AcDbEntity
  8
0
100
AcDbSpline
 62
7
  6
CONTINUOUS
 70
0
 71
3
 72
11
 73
7
 74
0
 42
0.0000001
 43
0.0000001
 44
0.0000000001
 40
0.0
 40
0.0
 40
0.0
 40
0.0
 40
0.2054953695
 40
0.4423549266
 40
0.7080616059
 40
1.0
 40
1.0
 40
1.0
 40
1.0
 10
10.4969572085
 20
11.0678639742
 30
0.0
 10
10.5061259103
 20
11.06818877
 30
0.0
 10
10.5258649534
 20
11.0688245348
 30
0.0
 10
10.5574642605
 20
11.0697147277
 30
0.0
 10
10.5929241
 20
11.0706097195
 30
0.0
 10
10.617813853
 20
11.0711842691
 30
0.0
 10
10.6308443586
 20
11.0714750086
 30
0.0
  0
ENDSEC
  0
SECTION
  2
OBJECTS
  0
DICTIONARY
  5
C
100
AcDbDictionary
280
0
281
1
  3
ACAD_GROUP
350
D
  3
ACAD_MLINESTYLE
350
17
  3
ACAD_LAYOUT
350
1A
  3
ACAD_PLOTSETTINGS
350
19
  3
ACAD_PLOTSTYLENAME
350
E
  0
DICTIONARY
  5
D
102
{ACAD_REACTORS
330
C
102
}
100
AcDbDictionary
280
0
281
1
  0
ACDBDICTIONARYWDFLT
  5
E
102
{ACAD_REACTORS
330
C
102
}
100
AcDbDictionary
281
1
  3
Normal
350
F
100
AcDbDictionaryWithDefault
340
F
  0
DICTIONARY
  5
17
102
{ACAD_REACTORS
330
C
102
}
100
AcDbDictionary
280
0
281
1
  3
Standard
350
18
  0
DICTIONARY
  5
19
102
{ACAD_REACTORS
330
C
102
}
100
AcDbDictionary
281
1
  0
DICTIONARY
  5
1A
102
{ACAD_REACTORS
330
C
102
}
100
AcDbDictionary
281
1
  3
Model
350
30E
  3
Layout1
350
30F
  0
ACDBPLACEHOLDER
  5
F
102
{ACAD_REACTORS
330
E
102
}
  0
MLINESTYLE
  5
18
102
{ACAD_REACTORS
330
17
102
}
100
AcDbMlineStyle
  2
STANDARD
 70
0
  3

 62
256
 51
90.0
 52
90.0
 71
2
 49
0.5
 62
256
  6
BYLAYER
 49
-0.5
 62
256
  6
BYLAYER
  0
LAYOUT
  5
30E
102
{ACAD_REACTORS
330
1A
102
}
100
AcDbPlotSettings
  1

  2
none_device
  4
ANSI_C_(22.00_x_17.00_Inches)
  6

 40
0.0
 41
0.0
 42
0.0
 43
0.0
 44
558.8
 45
431.8
 46
0.0
 47
0.0
 48
0.0
 49
0.0
140
0.0
141
0.0
142
1.0
143
1.0
 70
1024
 72
0
 73
0
 74
0
  7

 75
0
147
1.0
148
0.0
149
0.0
100
AcDbLayout
  1
Model
 70
0
 71
0
 10
0.0
 20
0.0
 11
22.0
 21
17.0
 12
0.0
 22
0.0
 32
0.0
 14
0.0
 24
0.0
 34
0.0
 15
0.0
 25
0.0
 35
0.0
146
0.0
 13
0.0
 23
0.0
 33
0.0
 16
1.0
 26
0.0
 36
0.0
 17
0.0
 27
1.0
 37
0.0
 76
0
330
202
345
0
346
0
  0
LAYOUT
  5
30F
102
{ACAD_REACTORS
330
1A
102
}
100
AcDbPlotSettings
  1

  2
none_device
  4
ANSI_C_(22.00_x_17.00_Inches)
  6

 40
0.0
 41
0.0
 42
0.0
 43
0.0
 44
558.8
 45
431.8
 46
0.0
 47
0.0
 48
0.0
 49
0.0
140
0.0
141
0.0
142
1.0
143
1.0
 70
0
 72
0
 73
0
 74
0
  7

 75
0
147
1.0
148
0.0
149
0.0
100
AcDbLayout
  1
Layout1
 70
0
 71
1
 10
0.0
 20
0.0
 11
22.0
 21
17.0
 12
0.0
 22
0.0
 32
0.0
 14
0.0
 24
0.0
 34
0.0
 15
0.0
 25
0.0
 35
0.0
146
0.0
 13
0.0
 23
0.0
 33
0.0
 16
1.0
 26
0.0
 36
0.0
 17
0.0
 27
1.0
 37
0.0
 76
0
330
203
345
0
346
0
  0
ENDSEC
  0
EOF
