999
DXF file: E:\BT Custom\CADOUTPUT\_RIGHT.dxf
999
Pro/ENGINEER 2018400 by Parametric Technology Corporation
  0
SECTION
  2
HEADER
  9
$ACADVER
  1
AC1018
  9
$DWGCODEPAGE
  3
ANSI_1252
  9
$EXTMAX
 10
22.0
 20
17.0
 30
0.0
  9
$EXTMIN
 10
0.0
 20
0.0
 30
0.0
  9
$LIMMIN
 10
0.0
 20
0.0
  9
$LIMMAX
 10
22.0
 20
17.0
  9
$VIEWCTR
 10
11.0
 20
8.5
  9
$VIEWSIZE
 40
17.0
  9
$CLAYER
  8
0
  9
$LTSCALE
 40
1.21
  9
$CELTYPE
  6
BYLAYER
  9
$DIMSCALE
 40
1.0
  9
$DIMASZ
 40
0.1
  9
$DIMEXO
 40
0.0625
  9
$DIMDLI
 40
0.836
  9
$DIMEXE
 40
0.125
  9
$DIMCEN
 40
0.198
  9
$DIMLFAC
 40
1.0
  9
$DIMBLK
  1
_FILLED
  9
$DIMALT
 70
1
  9
$DIMALTD
 70
2
  9
$DIMALTTD
 70
2
  9
$DIMALTF
 40
25.4
  9
$DIMTXT
 40
0.08
  9
$DIMTOL
 70
1
  9
$DIMLIM
 70
0
  9
$DIMTFAC
 40
1.0
  9
$DIMTP
 40
0.001
  9
$DIMTM
 40
0.001
  9
$DIMGAP
 40
0.09
  9
$DIMDSEP
 70
46
  9
$AUNITS
 70
0
  9
$PDMODE
 70
3
  9
$PDSIZE
 40
0.06
  9
$HANDSEED
  5
409
  9
$TILEMODE
 70
1
  9
$MEASUREMENT
 70
0
  9
$INSUNITS
 70
1
  0
ENDSEC
  0
SECTION
  2
CLASSES
  0
CLASS
  1
ACDBDICTIONARYWDFLT
  2
AcDbDictionaryWithDefault
  3
AutoCAD 2000
 90
0
 91
1
280
0
281
0
  0
CLASS
  1
ACDBPLACEHOLDER
  2
AcDbPlaceHolder
  3
AutoCAD 2000
 90
0
 91
1
280
0
281
0
  0
CLASS
  1
LAYOUT
  2
AcDbLayout
  3
AutoCAD 2000
 90
0
 91
0
280
0
281
0
  0
ENDSEC
  0
SECTION
  2
TABLES
  0
TABLE
  2
VPORT
  5
8
100
AcDbSymbolTable
 70
2
  0
VPORT
  5
1F4
100
AcDbSymbolTableRecord
100
AcDbViewportTableRecord
  2
*ACTIVE
 70
0
 10
0.0
 20
0.0
 11
1.0
 21
1.0
 12
11.0
 22
8.5
 13
0.0
 23
0.0
 14
1.0
 24
1.0
 15
0.0
 25
0.0
 16
0.0
 26
0.0
 36
1.0
 17
0.0
 27
0.0
 37
0.0
 40
17.0
 41
1.2941176471
 42
50.0
 43
0.0
 44
0.0
 50
0.0
 51
0.0
 71
0
 72
100
 73
1
 74
1
 75
0
 76
0
 77
0
 78
0
  0
ENDTAB
  0
TABLE
  2
LTYPE
  5
5
100
AcDbSymbolTable
 70
6
  0
LTYPE
  5
14
100
AcDbSymbolTableRecord
100
AcDbLinetypeTableRecord
  2
BYBLOCK
 70
0
  3

 72
65
 73
0
 40
0.0
  0
LTYPE
  5
15
100
AcDbSymbolTableRecord
100
AcDbLinetypeTableRecord
  2
BYLAYER
 70
0
  3

 72
65
 73
0
 40
0.0
  0
LTYPE
  5
16
100
AcDbSymbolTableRecord
100
AcDbLinetypeTableRecord
  2
CONTINUOUS
 70
64
  3
Solid line
 72
65
 73
0
 40
0.0
  0
LTYPE
  5
1F5
100
AcDbSymbolTableRecord
100
AcDbLinetypeTableRecord
  2
CENTER
 70
64
  3
____ _ ____ _ ____ _ ____ _ ____ _ ____ _ ____
 72
65
 73
4
 40
0.6
 49
0.375
 74
0
 49
-0.075
 74
0
 49
0.075
 74
0
 49
-0.075
 74
0
  0
LTYPE
  5
1F6
100
AcDbSymbolTableRecord
100
AcDbLinetypeTableRecord
  2
HIDDEN
 70
64
  3
- - - - - - - - - - - - - - - - - - - -
 72
65
 73
2
 40
0.2
 49
0.1
 74
0
 49
-0.1
 74
0
  0
LTYPE
  5
1F7
100
AcDbSymbolTableRecord
100
AcDbLinetypeTableRecord
  2
PHANTOM
 70
64
  3
_____ _ _ _____ _ _ _____ _ _ _____
 72
65
 73
6
 40
0.8
 49
0.45
 74
0
 49
-0.05
 74
0
 49
0.1
 74
0
 49
-0.05
 74
0
 49
0.1
 74
0
 49
-0.05
 74
0
  0
LTYPE
  5
1F8
100
AcDbSymbolTableRecord
100
AcDbLinetypeTableRecord
  2
DOT
 70
64
  3
. . . . . . . . . . . . . . . . . . . .
 72
65
 73
2
 40
0.2
 49
0.1
 74
0
 49
-0.1
 74
0
  0
LTYPE
  5
1F9
100
AcDbSymbolTableRecord
100
AcDbLinetypeTableRecord
  2
DASHED
 70
64
  3
- - - - - - - - - - - - - - - - - - - -
 72
65
 73
2
 40
0.2
 49
0.1
 74
0
 49
-0.1
 74
0
  0
ENDTAB
  0
TABLE
  2
LAYER
  5
2
100
AcDbSymbolTable
 70
36
  0
LAYER
  5
10
100
AcDbSymbolTableRecord
100
AcDbLayerTableRecord
  2
0
 70
0
 62
7
  6
CONTINUOUS
370
-3
390
F
  0
LAYER
  5
1FA
100
AcDbSymbolTableRecord
100
AcDbLayerTableRecord
  2
DEFAULT_1
 70
0
 62
7
  6
CENTER
370
-3
390
F
  0
LAYER
  5
1FB
100
AcDbSymbolTableRecord
100
AcDbLayerTableRecord
  2
DEFAULT_2
 70
0
 62
8
  6
HIDDEN
370
-3
390
F
  0
LAYER
  5
1FC
100
AcDbSymbolTableRecord
100
AcDbLayerTableRecord
  2
DEFAULT_3
 70
0
 62
7
  6
PHANTOM
370
-3
390
F
  0
LAYER
  5
1FD
100
AcDbSymbolTableRecord
100
AcDbLayerTableRecord
  2
ALL_FEATURES
 70
0
 62
7
  6
CONTINUOUS
370
-3
390
F
  0
LAYER
  5
1FE
100
AcDbSymbolTableRecord
100
AcDbLayerTableRecord
  2
AXES_FEATURES
 70
0
 62
7
  6
CONTINUOUS
370
-3
390
F
  0
LAYER
  5
1FF
100
AcDbSymbolTableRecord
100
AcDbLayerTableRecord
  2
DIMENSIONS
 70
0
 62
7
  6
CONTINUOUS
370
-3
390
F
  0
ENDTAB
  0
TABLE
  2
STYLE
  5
3
100
AcDbSymbolTable
 70
1
  0
STYLE
  5
11
100
AcDbSymbolTableRecord
100
AcDbTextStyleTableRecord
  2
STANDARD
 70
0
 40
0.0
 41
0.8
 50
0.0
 71
0
 42
0.2
  3
txt
  4

  0
STYLE
  5
200
100
AcDbSymbolTableRecord
100
AcDbTextStyleTableRecord
  2
TEXTSTYLE_1
 70
0
 40
0.0
 41
0.8
 50
0.0
 71
0
 42
0.2
  3
gdt
  4

  0
ENDTAB
  0
TABLE
  2
VIEW
  5
6
100
AcDbSymbolTable
 70
0
  0
ENDTAB
  0
TABLE
  2
UCS
  5
7
100
AcDbSymbolTable
 70
0
  0
ENDTAB
  0
TABLE
  2
APPID
  5
9
100
AcDbSymbolTable
 70
1
  0
APPID
  5
201
100
AcDbSymbolTableRecord
100
AcDbRegAppTableRecord
  2
ACAD
 70
0
  0
ENDTAB
  0
TABLE
  2
BLOCK_RECORD
  5
1
100
AcDbSymbolTable
 70
0
  0
BLOCK_RECORD
  5
202
100
AcDbSymbolTableRecord
100
AcDbBlockTableRecord
  2
*Model_Space
  0
BLOCK_RECORD
  5
203
100
AcDbSymbolTableRecord
100
AcDbBlockTableRecord
  2
*Paper_Space
  0
BLOCK_RECORD
  5
204
100
AcDbSymbolTableRecord
100
AcDbBlockTableRecord
  2
_FILLED
  0
ENDTAB
  0
TABLE
  2
DIMSTYLE
  5
A
100
AcDbSymbolTable
 70
1
100
AcDbDimStyleTable
 71
0
  0
DIMSTYLE
105
205
100
AcDbSymbolTableRecord
100
AcDbDimStyleTableRecord
  2
STANDARD
 70
0
  3

  4

 40
1.0
 41
0.1
 42
0.0625
 43
0.38
 44
0.125
 45
0.0
 46
0.0
 47
0.001
 48
0.001
140
0.08
141
0.09
142
0.0
143
25.4
144
1.0
145
0.0
146
1.0
147
0.09
 71
1.0
 72
0.0
 73
1
 74
1
 75
0
 76
0
 77
0
 78
4
 79
1
170
1
171
2
172
0
173
0
174
0
175
0
176
0
177
0
178
0
270
2
179
3
271
3
272
3
273
2
274
2
275
0
280
0
281
0
282
0
283
1
284
4
285
0
286
0
287
3
288
0
340
11
278
46
341
204
342
204
343
204
344
204
  0
ENDTAB
  0
ENDSEC
  0
SECTION
  2
BLOCKS
  0
BLOCK
  5
20
100
AcDbEntity
  8
0
100
AcDbBlockBegin
  2
*Model_Space
 70
0
 10
0.0
 20
0.0
 30
0.0
  3
*Model_Space
  1

  0
ENDBLK
  5
21
100
AcDbEntity
  8
0
100
AcDbBlockEnd
  0
BLOCK
  5
1C
100
AcDbEntity
  8
0
100
AcDbBlockBegin
  2
*Paper_Space
 70
0
 10
0.0
 20
0.0
 30
0.0
  3
*Paper_Space
  1

  0
ENDBLK
  5
1D
100
AcDbEntity
  8
0
100
AcDbBlockEnd
  0
BLOCK
  5
206
100
AcDbEntity
  8
0
100
AcDbBlockBegin
  2
_FILLED
 70
64
 10
0.0
 20
0.0
  3
_FILLED
  1

  0
SOLID
  5
207
100
AcDbEntity
  8
0
  6
BYBLOCK
 62
0
100
AcDbTrace
 10
0.0
 20
0.0
 11
-1.0
 21
0.2
 12
-1.0
 22
-0.2
 13
-1.0
 23
-0.2
  0
ENDBLK
  5
208
100
AcDbEntity
  8
0
  6
BYBLOCK
 62
0
100
AcDbBlockEnd
  0
ENDSEC
  0
SECTION
  2
ENTITIES
  0
LINE
  5
209
100
AcDbEntity
  8
0
100
AcDbLine
 62
7
  6
CONTINUOUS
 10
-2.7345165109
 20
12.8509350015
 11
-2.7345165109
 21
12.8409350052
  0
LINE
  5
20A
100
AcDbEntity
  8
0
100
AcDbLine
 62
7
  6
CONTINUOUS
 10
-2.7055165109
 20
13.0259349365
 11
-2.7055165109
 21
12.6659350702
  0
LINE
  5
20B
100
AcDbEntity
  8
0
100
AcDbLine
 62
9
  6
CONTINUOUS
 10
-2.6455165109
 20
13.0859349142
 11
-2.6455165109
 21
12.6059350925
  0
LINE
  5
20C
100
AcDbEntity
  8
0
100
AcDbLine
 62
7
  6
CONTINUOUS
 10
-2.6255165109
 20
12.6059350925
 11
-2.6255165109
 21
13.0859350034
  0
LINE
  5
20D
100
AcDbEntity
  8
0
100
AcDbLine
 62
7
  6
CONTINUOUS
 10
-2.5670165109
 20
12.0863000273
 11
-2.5670165109
 21
12.1662999975
  0
LINE
  5
20E
100
AcDbEntity
  8
0
100
AcDbLine
 62
7
  6
CONTINUOUS
 10
-2.5070165109
 20
12.3662999232
 11
-2.5070165109
 21
12.426299901
  0
LINE
  5
20F
100
AcDbEntity
  8
0
100
AcDbLine
 62
9
  6
CONTINUOUS
 10
-2.5047976893
 20
12.43254206
 11
-2.5047977111
 21
13.2593280909
  0
LINE
  5
210
100
AcDbEntity
  8
0
100
AcDbLine
 62
7
  6
CONTINUOUS
 10
-2.4770165109
 20
10.1863007331
 11
-2.4770165109
 21
10.2363007145
  0
LINE
  5
211
100
AcDbEntity
  8
0
100
AcDbLine
 62
7
  6
CONTINUOUS
 10
-2.5070165048
 20
12.3662999634
 11
-2.5670165028
 21
12.166300051
  0
LINE
  5
212
100
AcDbEntity
  8
0
100
AcDbLine
 62
7
  6
CONTINUOUS
 10
-2.4050909365
 20
12.4303653868
 11
-2.4050909365
 21
12.42643901
  0
LINE
  5
213
100
AcDbEntity
  8
0
100
AcDbLine
 62
7
  6
CONTINUOUS
 10
-2.1770165109
 20
10.1863007331
 11
-2.1770165109
 21
10.2363007145
  0
LINE
  5
214
100
AcDbEntity
  8
0
100
AcDbLine
 62
7
  6
CONTINUOUS
 10
-2.1470165109
 20
12.3662999232
 11
-2.1470165109
 21
12.426299901
  0
LINE
  5
215
100
AcDbEntity
  8
0
100
AcDbLine
 62
9
  6
CONTINUOUS
 10
-2.0936246413
 20
13.2306793798
 11
-2.0936240942
 21
12.4611911017
  0
LINE
  5
216
100
AcDbEntity
  8
0
100
AcDbLine
 62
7
  6
CONTINUOUS
 10
-2.0870165109
 20
12.0863000273
 11
-2.0870165109
 21
12.1662999975
  0
LINE
  5
217
100
AcDbEntity
  8
0
100
AcDbLine
 62
9
  6
CONTINUOUS
 10
-2.0452762568
 20
12.9097349919
 11
-2.0452762629
 21
12.9092672382
  0
LINE
  5
218
100
AcDbEntity
  8
0
100
AcDbLine
 62
9
  6
CONTINUOUS
 10
-2.0452762629
 20
12.9092672382
 11
-2.0452763181
 21
12.5013696625
  0
LINE
  5
219
100
AcDbEntity
  8
0
100
AcDbLine
 62
9
  6
CONTINUOUS
 10
-2.0452763177
 20
13.1905004717
 11
-2.0452762568
 21
12.9097349919
  0
LINE
  5
21A
100
AcDbEntity
  8
0
100
AcDbLine
 62
9
  6
CONTINUOUS
 10
-2.018571279
 20
13.1802495206
 11
-2.018571279
 21
12.5116101227
  0
LINE
  5
21B
100
AcDbEntity
  8
0
100
AcDbLine
 62
9
  6
CONTINUOUS
 10
-1.8816593487
 20
12.4716523214
 11
-1.8816593487
 21
13.2202178243
  0
LINE
  5
21C
100
AcDbEntity
  8
0
100
AcDbLine
 62
7
  6
CONTINUOUS
 10
-1.8705165109
 20
13.2419727852
 11
-1.8705165109
 21
12.4498971741
  0
LINE
  5
21D
100
AcDbEntity
  8
0
100
AcDbLine
 62
9
  6
CONTINUOUS
 10
-1.8328022252
 20
12.4099625484
 11
-1.8328022252
 21
13.2819076202
  0
LINE
  5
21E
100
AcDbEntity
  8
0
100
AcDbLine
 62
9
  6
CONTINUOUS
 10
-1.7972224182
 20
12.4012017316
 11
-1.7972224182
 21
13.2906684403
  0
LINE
  5
21F
100
AcDbEntity
  8
0
100
AcDbLine
 62
9
  6
CONTINUOUS
 10
-1.7651388817
 20
12.3881517677
 11
-1.7651388817
 21
13.3037184091
  0
LINE
  5
220
100
AcDbEntity
  8
0
100
AcDbLine
 62
9
  6
CONTINUOUS
 10
-1.4992307966
 20
13.358190639
 11
-1.4992307966
 21
12.333679558
  0
LINE
  5
221
100
AcDbEntity
  8
0
100
AcDbLine
 62
9
  6
CONTINUOUS
 10
-1.4374540109
 20
12.3102739806
 11
-1.4374540109
 21
13.3815962251
  0
LINE
  5
222
100
AcDbEntity
  8
0
100
AcDbLine
 62
7
  6
CONTINUOUS
 10
-1.3655165109
 20
12.3209351984
 11
-1.3655165109
 21
13.370934692
  0
LINE
  5
223
100
AcDbEntity
  8
0
100
AcDbLine
 62
7
  6
CONTINUOUS
 10
-1.3455165109
 20
13.2956468499
 11
-1.3455165109
 21
12.3962217057
  0
LINE
  5
224
100
AcDbEntity
  8
0
100
AcDbLine
 62
9
  6
CONTINUOUS
 10
-1.3183392149
 20
13.314316092
 11
-1.3183392149
 21
12.3775539147
  0
LINE
  5
225
100
AcDbEntity
  8
0
100
AcDbLine
 62
7
  6
CONTINUOUS
 10
-0.9580165109
 20
11.7550761906
 11
-0.9580165109
 21
12.0059350034
  0
LINE
  5
226
100
AcDbEntity
  8
0
100
AcDbLine
 62
9
  6
CONTINUOUS
 10
-0.9377496284
 20
13.3654759968
 11
-0.9377496284
 21
12.4637018858
  0
LINE
  5
227
100
AcDbEntity
  8
0
100
AcDbLine
 62
7
  6
CONTINUOUS
 10
-0.9325165109
 20
12.0059350034
 11
-0.9325165109
 21
12.0559350034
  0
LINE
  5
228
100
AcDbEntity
  8
0
100
AcDbLine
 62
7
  6
CONTINUOUS
 10
-2.1470165169
 20
12.3662999634
 11
-2.0870165189
 21
12.166300051
  0
LINE
  5
229
100
AcDbEntity
  8
0
100
AcDbLine
 62
7
  6
CONTINUOUS
 10
-0.1785165109
 20
12.0059350034
 11
-0.1785165109
 21
12.0559350034
  0
LINE
  5
22A
100
AcDbEntity
  8
0
100
AcDbLine
 62
9
  6
CONTINUOUS
 10
-0.1739080728
 20
13.3659350034
 11
-0.1739080728
 21
12.4637004261
  0
LINE
  5
22B
100
AcDbEntity
  8
0
100
AcDbLine
 62
7
  6
CONTINUOUS
 10
-0.1530165109
 20
11.7550761906
 11
-0.1530165109
 21
12.0059350034
  0
LINE
  5
22C
100
AcDbEntity
  8
0
100
AcDbLine
 62
9
  6
CONTINUOUS
 10
-0.0916197728
 20
13.3459714564
 11
-0.0916197728
 21
12.4272660877
  0
LINE
  5
22D
100
AcDbEntity
  8
0
100
AcDbLine
 62
9
  6
CONTINUOUS
 10
0.2138190576
 20
12.2975217921
 11
0.2138190576
 21
13.3943482146
  0
LINE
  5
22E
100
AcDbEntity
  8
0
100
AcDbLine
 62
9
  6
CONTINUOUS
 10
0.2366204829
 20
12.3136722851
 11
0.2366204829
 21
13.3781977216
  0
LINE
  5
22F
100
AcDbEntity
  8
0
100
AcDbLine
 62
9
  6
CONTINUOUS
 10
0.3017035571
 20
12.3554370587
 11
0.3017035571
 21
13.3364329481
  0
LWPOLYLINE
  5
230
100
AcDbEntity
  8
0
100
AcDbPolyline
 62
7
  6
CONTINUOUS
 90
8
 70
0
 10
-0.1121508584
 20
12.2627520853
 10
-0.1092927886
 20
12.2778798458
 10
-0.1013957662
 20
12.2961564333
 10
-0.0892225541
 20
12.3119247524
 10
-0.0735303107
 20
12.3241971399
 10
-0.055293316
 20
12.3322117234
 10
-0.0356520771
 20
12.3354718113
 10
-0.0199600868
 20
12.3345499877
  0
LINE
  5
231
100
AcDbEntity
  8
0
100
AcDbLine
 62
9
  6
CONTINUOUS
 10
1.1872634211
 20
12.3554370587
 11
1.1872634211
 21
13.3364329481
  0
LINE
  5
232
100
AcDbEntity
  8
0
100
AcDbLine
 62
9
  6
CONTINUOUS
 10
1.269707163
 20
13.3813925935
 11
1.269707163
 21
12.3104774132
  0
LINE
  5
233
100
AcDbEntity
  8
0
100
AcDbLine
 62
9
  6
CONTINUOUS
 10
1.3017810347
 20
13.3918394457
 11
1.3017810347
 21
12.300030561
  0
LINE
  5
234
100
AcDbEntity
  8
0
100
AcDbLine
 62
7
  6
CONTINUOUS
 10
-2.1870165629
 20
10.1763006328
 11
-2.1770165666
 21
10.1863006216
  0
LINE
  5
235
100
AcDbEntity
  8
0
100
AcDbLine
 62
7
  6
CONTINUOUS
 10
1.3815678047
 20
13.3261851649
 11
1.3815678047
 21
12.3656848418
  0
LINE
  5
236
100
AcDbEntity
  8
0
100
AcDbLine
 62
9
  6
CONTINUOUS
 10
1.4544834891
 20
12.3656848418
 11
1.4544834891
 21
13.3261851649
  0
LINE
  5
237
100
AcDbEntity
  8
0
100
AcDbLine
 62
7
  6
CONTINUOUS
 10
1.4744834891
 20
12.3856848418
 11
1.4744834891
 21
13.3061851649
  0
LINE
  5
238
100
AcDbEntity
  8
0
100
AcDbLine
 62
7
  6
CONTINUOUS
 10
1.3815678047
 20
12.3656848418
 11
1.3017810347
 21
12.300030561
  0
LINE
  5
239
100
AcDbEntity
  8
0
100
AcDbLine
 62
7
  6
CONTINUOUS
 10
-1.7651388817
 20
13.3037184091
 11
-1.7972224182
 21
13.2906684403
  0
LINE
  5
23A
100
AcDbEntity
  8
0
100
AcDbLine
 62
7
  6
CONTINUOUS
 10
-2.4670164589
 20
10.1763006328
 11
-2.4770164551
 21
10.1863006216
  0
LINE
  5
23B
100
AcDbEntity
  8
0
100
AcDbLine
 62
7
  6
CONTINUOUS
 10
17.9538356862
 20
4.3845118915
 11
17.962027298
 21
4.384512687
  0
LINE
  5
23C
100
AcDbEntity
  8
0
100
AcDbLine
 62
7
  6
CONTINUOUS
 10
17.8179834891
 20
4.4645900908
 11
17.8479834117
 21
4.4646638646
  0
LINE
  5
23D
100
AcDbEntity
  8
0
100
AcDbLine
 62
7
  6
CONTINUOUS
 10
17.8079834891
 20
4.474590087
 11
17.9579834891
 21
4.4747193811
  0
LINE
  5
23E
100
AcDbEntity
  8
0
100
AcDbLine
 62
7
  6
CONTINUOUS
 10
17.9579834891
 20
4.5247193625
 11
17.8079834891
 21
4.5245900685
  0
LINE
  5
23F
100
AcDbEntity
  8
0
100
AcDbLine
 62
9
  6
CONTINUOUS
 10
17.6579834891
 20
4.9745899013
 11
17.9579834891
 21
4.9748484894
  0
LINE
  5
240
100
AcDbEntity
  8
0
100
AcDbLine
 62
7
  6
CONTINUOUS
 10
17.8479834117
 20
4.4646638646
 11
17.9579834891
 21
4.4647107652
  0
LINE
  5
241
100
AcDbEntity
  8
0
100
AcDbLine
 62
7
  6
CONTINUOUS
 10
17.9579834891
 20
4.4647107652
 11
18.0679835666
 21
4.4646638645
  0
LINE
  5
242
100
AcDbEntity
  8
0
100
AcDbLine
 62
7
  6
CONTINUOUS
 10
17.9579834891
 20
4.4747193811
 11
18.1079834891
 21
4.474590087
  0
LINE
  5
243
100
AcDbEntity
  8
0
100
AcDbLine
 62
7
  6
CONTINUOUS
 10
18.1079834891
 20
4.5245900685
 11
17.9579834891
 21
4.5247193625
  0
LINE
  5
244
100
AcDbEntity
  8
0
100
AcDbLine
 62
9
  6
CONTINUOUS
 10
17.9579834891
 20
4.9748484894
 11
18.2579834891
 21
4.9745899013
  0
LINE
  5
245
100
AcDbEntity
  8
0
100
AcDbLine
 62
7
  6
CONTINUOUS
 10
18.0679835666
 20
4.4646638645
 11
18.0979834891
 21
4.4645900908
  0
LINE
  5
246
100
AcDbEntity
  8
0
100
AcDbLine
 62
7
  6
CONTINUOUS
 10
17.9539396803
 20
4.3845110959
 11
17.9538356862
 21
4.3845118915
  0
LINE
  5
247
100
AcDbEntity
  8
0
100
AcDbLine
 62
7
  6
CONTINUOUS
 10
24.0644834891
 20
5.6742243573
 11
24.1444834891
 21
5.6742243573
  0
LINE
  5
248
100
AcDbEntity
  8
0
100
AcDbLine
 62
7
  6
CONTINUOUS
 10
23.7844834891
 20
5.9892243573
 11
23.7944834891
 21
5.9892243573
  0
LINE
  5
249
100
AcDbEntity
  8
0
100
AcDbLine
 62
9
  6
CONTINUOUS
 10
9.7525874437
 20
10.8100862761
 11
9.7565523833
 21
10.8136981213
  0
LINE
  5
24A
100
AcDbEntity
  8
0
100
AcDbLine
 62
7
  6
CONTINUOUS
 10
10.5987978533
 20
11.9832435274
 11
10.5694834891
 21
11.9586981213
  0
LINE
  5
24B
100
AcDbEntity
  8
0
100
AcDbLine
 62
7
  6
CONTINUOUS
 10
9.5401691407
 20
10.7691527284
 11
9.5694834891
 21
10.7936981213
  0
LINE
  5
24C
100
AcDbEntity
  8
0
100
AcDbLine
 62
7
  6
CONTINUOUS
 10
9.5757393885
 20
10.8136981213
 11
9.5694834891
 21
10.8100862761
  0
LINE
  5
24D
100
AcDbEntity
  8
0
100
AcDbLine
 62
7
  6
CONTINUOUS
 10
18.9665553156
 20
7.6168794016
 11
19.5044834891
 21
7.6696362092
  0
LINE
  5
24E
100
AcDbEntity
  8
0
100
AcDbLine
 62
7
  6
CONTINUOUS
 10
17.7179834891
 20
6.3745893812
 11
17.9579834891
 21
6.3747962517
  0
LINE
  5
24F
100
AcDbEntity
  8
0
100
AcDbLine
 62
7
  6
CONTINUOUS
 10
17.9579834891
 20
6.454796222
 11
17.7179834972
 21
6.454589405
  0
LINE
  5
250
100
AcDbEntity
  8
0
100
AcDbLine
 62
7
  6
CONTINUOUS
 10
17.7779834952
 20
6.6545893173
 11
17.9579834891
 21
6.6547444301
  0
LINE
  5
251
100
AcDbEntity
  8
0
100
AcDbLine
 62
7
  6
CONTINUOUS
 10
17.8329838479
 20
6.714700589
 11
17.7779838279
 21
6.7145892549
  0
LINE
  5
252
100
AcDbEntity
  8
0
100
AcDbLine
 62
7
  6
CONTINUOUS
 10
17.9579834891
 20
6.7147444078
 11
17.8329838479
 21
6.714700589
  0
LINE
  5
253
100
AcDbEntity
  8
0
100
AcDbLine
 62
7
  6
CONTINUOUS
 10
22.5844834891
 20
6.5932243573
 11
23.4544834891
 21
6.5932243573
  0
LINE
  5
254
100
AcDbEntity
  8
0
100
AcDbLine
 62
7
  6
CONTINUOUS
 10
17.6394834891
 20
6.8942244465
 11
17.6594834891
 21
6.8942244465
  0
LINE
  5
255
100
AcDbEntity
  8
0
100
AcDbLine
 62
7
  6
CONTINUOUS
 10
18.9194834891
 20
6.9152243573
 11
18.9394834891
 21
6.9152243573
  0
LINE
  5
256
100
AcDbEntity
  8
0
100
AcDbLine
 62
7
  6
CONTINUOUS
 10
18.0829831465
 20
6.7147005415
 11
17.9579834891
 21
6.7147444078
  0
LINE
  5
257
100
AcDbEntity
  8
0
100
AcDbLine
 62
7
  6
CONTINUOUS
 10
17.9579834891
 20
6.3747962517
 11
18.1979834891
 21
6.3745893812
  0
LINE
  5
258
100
AcDbEntity
  8
0
100
AcDbLine
 62
7
  6
CONTINUOUS
 10
18.1979834811
 20
6.454589405
 11
17.9579834891
 21
6.454796222
  0
LINE
  5
259
100
AcDbEntity
  8
0
100
AcDbLine
 62
7
  6
CONTINUOUS
 10
17.9579834891
 20
6.6547444301
 11
18.1379834831
 21
6.6545893173
  0
LINE
  5
25A
100
AcDbEntity
  8
0
100
AcDbLine
 62
7
  6
CONTINUOUS
 10
18.1244002345
 20
6.7146483816
 11
18.0829831465
 21
6.7147005415
  0
LINE
  5
25B
100
AcDbEntity
  8
0
100
AcDbLine
 62
7
  6
CONTINUOUS
 10
18.1379831504
 20
6.7145892549
 11
18.1244002345
 21
6.7146483816
  0
LINE
  5
25C
100
AcDbEntity
  8
0
100
AcDbLine
 62
7
  6
CONTINUOUS
 10
-2.4895161083
 20
12.4262995892
 11
-2.5047976893
 21
12.4325419064
  0
LINE
  5
25D
100
AcDbEntity
  8
0
100
AcDbLine
 62
7
  6
CONTINUOUS
 10
1.3815678047
 20
13.3261851649
 11
1.3017810347
 21
13.3918394457
  0
LINE
  5
25E
100
AcDbEntity
  8
0
100
AcDbLine
 62
7
  6
CONTINUOUS
 10
9.0094834891
 20
12.3959350034
 11
9.0094834891
 21
13.2959350034
  0
LINE
  5
25F
100
AcDbEntity
  8
0
100
AcDbLine
 62
9
  6
CONTINUOUS
 10
9.0294834891
 20
13.3159350034
 11
9.0294834891
 21
12.3759350034
  0
LINE
  5
260
100
AcDbEntity
  8
0
100
AcDbLine
 62
7
  6
CONTINUOUS
 10
9.4194834891
 20
11.0755238961
 11
9.4194834891
 21
11.5330196772
  0
LINE
  5
261
100
AcDbEntity
  8
0
100
AcDbLine
 62
7
  6
CONTINUOUS
 10
9.4211944123
 20
11.5330196772
 11
9.4211944123
 21
11.0755238961
  0
LINE
  5
262
100
AcDbEntity
  8
0
100
AcDbLine
 62
7
  6
CONTINUOUS
 10
9.5694834891
 20
10.7936981213
 11
9.5694834891
 21
10.8100862761
  0
LINE
  5
263
100
AcDbEntity
  8
0
100
AcDbLine
 62
7
  6
CONTINUOUS
 10
9.5994834891
 20
11.9386981213
 11
9.5994834891
 21
11.9586981213
  0
LINE
  5
264
100
AcDbEntity
  8
0
100
AcDbLine
 62
7
  6
CONTINUOUS
 10
9.7045228436
 20
11.0755238961
 11
9.7045228436
 21
11.5330196772
  0
LINE
  5
265
100
AcDbEntity
  8
0
100
AcDbLine
 62
7
  6
CONTINUOUS
 10
9.7861550578
 20
11.5330196772
 11
9.7861550578
 21
11.0755238961
  0
LINE
  5
266
100
AcDbEntity
  8
0
100
AcDbLine
 62
7
  6
CONTINUOUS
 10
18.9194834891
 20
7.3532243573
 11
18.9394834891
 21
7.3532243573
  0
LINE
  5
267
100
AcDbEntity
  8
0
100
AcDbLine
 62
7
  6
CONTINUOUS
 10
17.6394834891
 20
7.3742242682
 11
17.6594834891
 21
7.3742242682
  0
LINE
  5
268
100
AcDbEntity
  8
0
100
AcDbLine
 62
7
  6
CONTINUOUS
 10
22.5844834891
 20
7.6752243573
 11
23.4544834891
 21
7.6752243573
  0
LINE
  5
269
100
AcDbEntity
  8
0
100
AcDbLine
 62
7
  6
CONTINUOUS
 10
20.097483788
 20
7.8742243573
 11
21.1774831902
 21
7.8742243573
  0
LINE
  5
26A
100
AcDbEntity
  8
0
100
AcDbLine
 62
7
  6
CONTINUOUS
 10
19.9874834891
 20
8.1360501321
 11
19.9891944123
 21
8.1360501321
  0
LINE
  5
26B
100
AcDbEntity
  8
0
100
AcDbLine
 62
7
  6
CONTINUOUS
 10
20.2725228436
 20
8.1360501321
 11
20.3541550578
 21
8.1360501321
  0
LINE
  5
26C
100
AcDbEntity
  8
0
100
AcDbLine
 62
7
  6
CONTINUOUS
 10
20.9208119205
 20
8.1360501321
 11
21.0024441347
 21
8.1360501321
  0
LINE
  5
26D
100
AcDbEntity
  8
0
100
AcDbLine
 62
7
  6
CONTINUOUS
 10
21.285772566
 20
8.1360501321
 11
21.2874834891
 21
8.1360501321
  0
LINE
  5
26E
100
AcDbEntity
  8
0
100
AcDbLine
 62
7
  6
CONTINUOUS
 10
18.9665553156
 20
6.651569313
 11
19.5044834891
 21
6.5988125054
  0
LWPOLYLINE
  5
26F
100
AcDbEntity
  8
0
100
AcDbPolyline
 62
7
  6
CONTINUOUS
 90
6
 70
0
 10
-1.0675210542
 20
12.3895454724
 10
-1.0550640949
 20
12.3849329724
 10
-1.0394381175
 20
12.3752935403
 10
-1.0264218508
 20
12.3623461937
 10
-1.0166995649
 20
12.3467715438
 10
-1.0119060421
 20
12.3339304603
  0
LINE
  5
270
100
AcDbEntity
  8
0
100
AcDbLine
 62
7
  6
CONTINUOUS
 10
-1.7651388817
 20
12.3881515976
 11
-1.7972224182
 21
12.4012015664
  0
LINE
  5
271
100
AcDbEntity
  8
0
100
AcDbLine
 62
7
  6
CONTINUOUS
 10
10.3528119205
 20
11.0755238961
 11
10.3528119205
 21
11.5330196772
  0
LINE
  5
272
100
AcDbEntity
  8
0
100
AcDbLine
 62
7
  6
CONTINUOUS
 10
10.4344441347
 20
11.5330196772
 11
10.4344441347
 21
11.0755238961
  0
LINE
  5
273
100
AcDbEntity
  8
0
100
AcDbLine
 62
7
  6
CONTINUOUS
 10
10.5394834891
 20
11.9386981213
 11
10.5394834891
 21
11.9586981213
  0
LINE
  5
274
100
AcDbEntity
  8
0
100
AcDbLine
 62
7
  6
CONTINUOUS
 10
10.5694834891
 20
10.7936981213
 11
10.5694834891
 21
10.8136981213
  0
LINE
  5
275
100
AcDbEntity
  8
0
100
AcDbLine
 62
7
  6
CONTINUOUS
 10
10.717772566
 20
11.0755238961
 11
10.717772566
 21
11.5330196772
  0
LINE
  5
276
100
AcDbEntity
  8
0
100
AcDbLine
 62
7
  6
CONTINUOUS
 10
10.7194834891
 20
11.0755238961
 11
10.7194834891
 21
11.5330196772
  0
LINE
  5
277
100
AcDbEntity
  8
0
100
AcDbLine
 62
7
  6
CONTINUOUS
 10
23.7844834891
 20
8.2792243573
 11
23.7944834891
 21
8.2792243573
  0
LINE
  5
278
100
AcDbEntity
  8
0
100
AcDbLine
 62
7
  6
CONTINUOUS
 10
21.2874834891
 20
8.5935459132
 11
21.285772566
 21
8.5935459132
  0
LINE
  5
279
100
AcDbEntity
  8
0
100
AcDbLine
 62
7
  6
CONTINUOUS
 10
21.0024441347
 20
8.5935459132
 11
20.9208119205
 21
8.5935459132
  0
LINE
  5
27A
100
AcDbEntity
  8
0
100
AcDbLine
 62
7
  6
CONTINUOUS
 10
20.3541550578
 20
8.5935459132
 11
20.2725228436
 21
8.5935459132
  0
LINE
  5
27B
100
AcDbEntity
  8
0
100
AcDbLine
 62
7
  6
CONTINUOUS
 10
19.9891944123
 20
8.5935459132
 11
19.9874834891
 21
8.5935459132
  0
LINE
  5
27C
100
AcDbEntity
  8
0
100
AcDbLine
 62
7
  6
CONTINUOUS
 10
24.0644834891
 20
8.5942243573
 11
24.1444834891
 21
8.5942243573
  0
LINE
  5
27D
100
AcDbEntity
  8
0
100
AcDbLine
 62
7
  6
CONTINUOUS
 10
21.1424770098
 20
8.9992243573
 11
20.1324899685
 21
8.9992243573
  0
LINE
  5
27E
100
AcDbEntity
  8
0
100
AcDbLine
 62
7
  6
CONTINUOUS
 10
20.1374834891
 20
9.0192243573
 11
21.1374834891
 21
9.0192243573
  0
LINE
  5
27F
100
AcDbEntity
  8
0
100
AcDbLine
 62
9
  6
CONTINUOUS
 10
21.1667978533
 20
9.0437697634
 11
20.108169125
 21
9.0437697634
  0
LINE
  5
280
100
AcDbEntity
  8
0
100
AcDbLine
 62
7
  6
CONTINUOUS
 10
10.0538973515
 20
9.1172037198
 11
10.0850696267
 21
9.1172037198
  0
LINE
  5
281
100
AcDbEntity
  8
0
100
AcDbLine
 62
9
  6
CONTINUOUS
 10
21.169699515
 20
9.1178118662
 11
20.1052674632
 21
9.1178118662
  0
LINE
  5
282
100
AcDbEntity
  8
0
100
AcDbLine
 62
7
  6
CONTINUOUS
 10
11.1274834891
 20
9.4364612393
 11
11.1274834891
 21
10.3764612393
  0
LINE
  5
283
100
AcDbEntity
  8
0
100
AcDbLine
 62
9
  6
CONTINUOUS
 10
9.7003066668
 20
9.1444040581
 11
10.4386603114
 21
9.1444040581
  0
LINE
  5
284
100
AcDbEntity
  8
0
100
AcDbLine
 62
7
  6
CONTINUOUS
 10
9.6372410304
 20
9.2036981213
 11
10.5017261581
 21
9.2036981213
  0
LINE
  5
285
100
AcDbEntity
  8
0
100
AcDbLine
 62
9
  6
CONTINUOUS
 10
21.1470197813
 20
9.2267760265
 11
20.127947197
 21
9.2267760265
  0
LINE
  5
286
100
AcDbEntity
  8
0
100
AcDbLine
 62
9
  6
CONTINUOUS
 10
10.5953076085
 20
9.2684488157
 11
9.5436594469
 21
9.268448611
  0
LINE
  5
287
100
AcDbEntity
  8
0
100
AcDbLine
 62
7
  6
CONTINUOUS
 10
19.9825188707
 20
9.4364612393
 11
19.5974834891
 21
9.4364612393
  0
LINE
  5
288
100
AcDbEntity
  8
0
100
AcDbLine
 62
7
  6
CONTINUOUS
 10
10.7244481076
 20
9.4364612393
 11
11.1274834891
 21
9.4364612393
  0
LINE
  5
289
100
AcDbEntity
  8
0
100
AcDbLine
 62
7
  6
CONTINUOUS
 10
19.5774834891
 20
9.5314612393
 11
11.1274834891
 21
9.5314612393
  0
LINE
  5
28A
100
AcDbEntity
  8
0
100
AcDbLine
 62
7
  6
CONTINUOUS
 10
-2.3310603197
 20
10.0962217419
 11
-2.3311643138
 21
10.0962225375
  0
LINE
  5
28B
100
AcDbEntity
  8
0
100
AcDbLine
 62
7
  6
CONTINUOUS
 10
18.5198611183
 20
6.6764409516
 11
18.4877775818
 21
6.6894909204
  0
LINE
  5
28C
100
AcDbEntity
  8
0
100
AcDbLine
 62
7
  6
CONTINUOUS
 10
17.7954838917
 20
6.7145889431
 11
17.7802023107
 21
6.7208312604
  0
LINE
  5
28D
100
AcDbEntity
  8
0
100
AcDbLine
 62
7
  6
CONTINUOUS
 10
-2.4670165109
 20
10.1763007368
 11
-2.4370165883
 21
10.1763745107
  0
LINE
  5
28E
100
AcDbEntity
  8
0
100
AcDbLine
 62
7
  6
CONTINUOUS
 10
-2.3311643138
 20
10.0962225375
 11
-2.322972702
 21
10.0962233331
  0
LINE
  5
28F
100
AcDbEntity
  8
0
100
AcDbLine
 62
7
  6
CONTINUOUS
 10
-2.4770165109
 20
10.1863007331
 11
-2.3270165109
 21
10.1864300271
  0
LINE
  5
290
100
AcDbEntity
  8
0
100
AcDbLine
 62
7
  6
CONTINUOUS
 10
-2.3270165109
 20
10.2364300086
 11
-2.4770165109
 21
10.2363007145
  0
LINE
  5
291
100
AcDbEntity
  8
0
100
AcDbLine
 62
9
  6
CONTINUOUS
 10
-2.6270165109
 20
10.6863005473
 11
-2.3270165109
 21
10.6865591354
  0
LINE
  5
292
100
AcDbEntity
  8
0
100
AcDbLine
 62
7
  6
CONTINUOUS
 10
-2.4370165883
 20
10.1763745107
 11
-2.3270165109
 21
10.1764214112
  0
LINE
  5
293
100
AcDbEntity
  8
0
100
AcDbLine
 62
7
  6
CONTINUOUS
 10
19.5774834891
 20
10.2814612393
 11
11.1274834891
 21
10.2814612393
  0
LINE
  5
294
100
AcDbEntity
  8
0
100
AcDbLine
 62
7
  6
CONTINUOUS
 10
19.9825188707
 20
10.3764612393
 11
19.5974834891
 21
10.3764612393
  0
LINE
  5
295
100
AcDbEntity
  8
0
100
AcDbLine
 62
7
  6
CONTINUOUS
 10
10.7244481076
 20
10.3764612393
 11
11.1274834891
 21
10.3764612393
  0
LINE
  5
296
100
AcDbEntity
  8
0
100
AcDbLine
 62
9
  6
CONTINUOUS
 10
20.1116593698
 20
10.5444736629
 11
21.1633076085
 21
10.5444736629
  0
LINE
  5
297
100
AcDbEntity
  8
0
100
AcDbLine
 62
9
  6
CONTINUOUS
 10
9.559947197
 20
10.5861464521
 11
10.5790197813
 21
10.5861464521
  0
LINE
  5
298
100
AcDbEntity
  8
0
100
AcDbLine
 62
7
  6
CONTINUOUS
 10
21.0697261653
 20
10.6092243573
 11
20.2052408129
 21
10.6092243573
  0
LINE
  5
299
100
AcDbEntity
  8
0
100
AcDbLine
 62
9
  6
CONTINUOUS
 10
21.0066642282
 20
10.6685178142
 11
20.2683027501
 21
10.6685178142
  0
LINE
  5
29A
100
AcDbEntity
  8
0
100
AcDbLine
 62
9
  6
CONTINUOUS
 10
9.5372674725
 20
10.6951106033
 11
10.6016995057
 21
10.6951106033
  0
LINE
  5
29B
100
AcDbEntity
  8
0
100
AcDbLine
 62
7
  6
CONTINUOUS
 10
20.6532057759
 20
10.6957197236
 11
20.6217612024
 21
10.6957197236
  0
LINE
  5
29C
100
AcDbEntity
  8
0
100
AcDbLine
 62
9
  6
CONTINUOUS
 10
9.5401691407
 20
10.7691527284
 11
10.5987978376
 21
10.7691527284
  0
LINE
  5
29D
100
AcDbEntity
  8
0
100
AcDbLine
 62
7
  6
CONTINUOUS
 10
9.5694834891
 20
10.7936981213
 11
10.5694834891
 21
10.7936981213
  0
LINE
  5
29E
100
AcDbEntity
  8
0
100
AcDbLine
 62
7
  6
CONTINUOUS
 10
9.7525874437
 20
10.8100862761
 11
9.5694834891
 21
10.8100862761
  0
LINE
  5
29F
100
AcDbEntity
  8
0
100
AcDbLine
 62
7
  6
CONTINUOUS
 10
9.529483788
 20
10.8136981213
 11
10.6094831902
 21
10.8136981213
  0
LINE
  5
2A0
100
AcDbEntity
  8
0
100
AcDbLine
 62
7
  6
CONTINUOUS
 10
-2.3270165109
 20
10.1764214112
 11
-2.2170164334
 21
10.1763745106
  0
LINE
  5
2A1
100
AcDbEntity
  8
0
100
AcDbLine
 62
7
  6
CONTINUOUS
 10
-2.3270165109
 20
10.1864300271
 11
-2.1770165109
 21
10.1863007331
  0
LINE
  5
2A2
100
AcDbEntity
  8
0
100
AcDbLine
 62
7
  6
CONTINUOUS
 10
-2.1770165109
 20
10.2363007145
 11
-2.3270165109
 21
10.2364300086
  0
LINE
  5
2A3
100
AcDbEntity
  8
0
100
AcDbLine
 62
9
  6
CONTINUOUS
 10
-2.3270165109
 20
10.6865591354
 11
-2.0270165109
 21
10.6863005473
  0
LINE
  5
2A4
100
AcDbEntity
  8
0
100
AcDbLine
 62
7
  6
CONTINUOUS
 10
-2.2170164334
 20
10.1763745106
 11
-2.1870165109
 21
10.1763007368
  0
LINE
  5
2A5
100
AcDbEntity
  8
0
100
AcDbLine
 62
7
  6
CONTINUOUS
 10
-0.0199602748
 20
12.3345488008
 11
0.2138190576
 21
12.2975217921
  0
LINE
  5
2A6
100
AcDbEntity
  8
0
100
AcDbLine
 62
7
  6
CONTINUOUS
 10
10.5987978376
 20
10.7691527284
 11
10.5694834891
 21
10.7936981213
  0
LINE
  5
2A7
100
AcDbEntity
  8
0
100
AcDbLine
 62
7
  6
CONTINUOUS
 10
9.540169125
 20
11.9832435274
 11
9.5694834891
 21
11.9586981213
  0
LINE
  5
2A8
100
AcDbEntity
  8
0
100
AcDbLine
 62
7
  6
CONTINUOUS
 10
17.8179835411
 20
4.4645899867
 11
17.8079835449
 21
4.4745899756
  0
LINE
  5
2A9
100
AcDbEntity
  8
0
100
AcDbLine
 62
7
  6
CONTINUOUS
 10
9.4194834891
 20
11.0755238961
 11
9.4211944123
 21
11.0755238961
  0
LINE
  5
2AA
100
AcDbEntity
  8
0
100
AcDbLine
 62
7
  6
CONTINUOUS
 10
9.7045228436
 20
11.0755238961
 11
9.7861550578
 21
11.0755238961
  0
LINE
  5
2AB
100
AcDbEntity
  8
0
100
AcDbLine
 62
7
  6
CONTINUOUS
 10
10.3528119205
 20
11.0755238961
 11
10.4344441347
 21
11.0755238961
  0
LINE
  5
2AC
100
AcDbEntity
  8
0
100
AcDbLine
 62
7
  6
CONTINUOUS
 10
10.717772566
 20
11.0755238961
 11
10.7194834891
 21
11.0755238961
  0
LINE
  5
2AD
100
AcDbEntity
  8
0
100
AcDbLine
 62
7
  6
CONTINUOUS
 10
10.7194834891
 20
11.5330196772
 11
10.717772566
 21
11.5330196772
  0
LINE
  5
2AE
100
AcDbEntity
  8
0
100
AcDbLine
 62
7
  6
CONTINUOUS
 10
10.4344441347
 20
11.5330196772
 11
10.3528119205
 21
11.5330196772
  0
LINE
  5
2AF
100
AcDbEntity
  8
0
100
AcDbLine
 62
7
  6
CONTINUOUS
 10
9.7861550578
 20
11.5330196772
 11
9.7045228436
 21
11.5330196772
  0
LINE
  5
2B0
100
AcDbEntity
  8
0
100
AcDbLine
 62
7
  6
CONTINUOUS
 10
9.4211944123
 20
11.5330196772
 11
9.4194834891
 21
11.5330196772
  0
LINE
  5
2B1
100
AcDbEntity
  8
0
100
AcDbLine
 62
7
  6
CONTINUOUS
 10
-0.9517340194
 20
11.7059350034
 11
-0.1592990023
 21
11.7059350034
  0
LINE
  5
2B2
100
AcDbEntity
  8
0
100
AcDbLine
 62
9
  6
CONTINUOUS
 10
-0.9580165109
 20
11.7550761906
 11
-0.1530165109
 21
11.7550761906
  0
LINE
  5
2B3
100
AcDbEntity
  8
0
100
AcDbLine
 62
7
  6
CONTINUOUS
 10
10.5744770098
 20
11.9386981213
 11
9.5644899685
 21
11.9386981213
  0
LINE
  5
2B4
100
AcDbEntity
  8
0
100
AcDbLine
 62
7
  6
CONTINUOUS
 10
9.5694834891
 20
11.9586981213
 11
10.5694834891
 21
11.9586981213
  0
LINE
  5
2B5
100
AcDbEntity
  8
0
100
AcDbLine
 62
7
  6
CONTINUOUS
 10
-2.5670165109
 20
12.0863000273
 11
-2.3270165109
 21
12.0865068977
  0
LINE
  5
2B6
100
AcDbEntity
  8
0
100
AcDbLine
 62
7
  6
CONTINUOUS
 10
-2.3270165109
 20
12.166506868
 11
-2.5670165028
 21
12.166300051
  0
LINE
  5
2B7
100
AcDbEntity
  8
0
100
AcDbLine
 62
7
  6
CONTINUOUS
 10
-2.5070165048
 20
12.3662999634
 11
-2.3270165109
 21
12.3664550761
  0
LINE
  5
2B8
100
AcDbEntity
  8
0
100
AcDbLine
 62
7
  6
CONTINUOUS
 10
-2.4520161521
 20
12.426411235
 11
-2.5070161721
 21
12.426299901
  0
LINE
  5
2B9
100
AcDbEntity
  8
0
100
AcDbLine
 62
7
  6
CONTINUOUS
 10
-2.3270165109
 20
12.4264550538
 11
-2.4520161521
 21
12.426411235
  0
LINE
  5
2BA
100
AcDbEntity
  8
0
100
AcDbLine
 62
9
  6
CONTINUOUS
 10
10.5987978533
 20
11.9832435274
 11
9.540169125
 21
11.9832435274
  0
LINE
  5
2BB
100
AcDbEntity
  8
0
100
AcDbLine
 62
7
  6
CONTINUOUS
 10
-0.1530200014
 20
12.0059350034
 11
-0.9580130203
 21
12.0059350034
  0
LINE
  5
2BC
100
AcDbEntity
  8
0
100
AcDbLine
 62
7
  6
CONTINUOUS
 10
-1.0052283575
 20
12.0559350034
 11
-0.1058046643
 21
12.0559350034
  0
LINE
  5
2BD
100
AcDbEntity
  8
0
100
AcDbLine
 62
9
  6
CONTINUOUS
 10
10.601699515
 20
12.0572856302
 11
9.5372674632
 21
12.0572856302
  0
LINE
  5
2BE
100
AcDbEntity
  8
0
100
AcDbLine
 62
9
  6
CONTINUOUS
 10
-1.0238975995
 20
12.0831122993
 11
-0.0871354222
 21
12.0831122993
  0
LINE
  5
2BF
100
AcDbEntity
  8
0
100
AcDbLine
 62
9
  6
CONTINUOUS
 10
10.5790197813
 20
12.1662497906
 11
9.559947197
 21
12.1662497906
  0
LINE
  5
2C0
100
AcDbEntity
  8
0
100
AcDbLine
 62
7
  6
CONTINUOUS
 10
1.4544834891
 20
12.3656848418
 11
1.3815678047
 21
12.3656848418
  0
LINE
  5
2C1
100
AcDbEntity
  8
0
100
AcDbLine
 62
7
  6
CONTINUOUS
 10
9.4145188707
 20
12.3759350034
 11
9.0294834891
 21
12.3759350034
  0
LINE
  5
2C2
100
AcDbEntity
  8
0
100
AcDbLine
 62
9
  6
CONTINUOUS
 10
-0.1739080728
 20
12.4637004261
 11
-0.9377496284
 21
12.4637018858
  0
LINE
  5
2C3
100
AcDbEntity
  8
0
100
AcDbLine
 62
7
  6
CONTINUOUS
 10
1.4744834891
 20
12.4709350034
 11
9.0094834891
 21
12.4709350034
  0
LINE
  5
2C4
100
AcDbEntity
  8
0
100
AcDbLine
 62
7
  6
CONTINUOUS
 10
-1.3455165109
 20
12.5524350034
 11
-1.3655165109
 21
12.5524350034
  0
LINE
  5
2C5
100
AcDbEntity
  8
0
100
AcDbLine
 62
7
  6
CONTINUOUS
 10
-1.3655165109
 20
12.5834352733
 11
-1.3455165109
 21
12.5834352733
  0
LINE
  5
2C6
100
AcDbEntity
  8
0
100
AcDbLine
 62
7
  6
CONTINUOUS
 10
-2.6455165109
 20
12.6059350925
 11
-2.6255165109
 21
12.6059350925
  0
LINE
  5
2C7
100
AcDbEntity
  8
0
100
AcDbLine
 62
7
  6
CONTINUOUS
 10
-1.3455165109
 20
12.8149347334
 11
-1.3655165109
 21
12.8149347334
  0
LINE
  5
2C8
100
AcDbEntity
  8
0
100
AcDbLine
 62
7
  6
CONTINUOUS
 10
-1.3655165109
 20
12.8769352733
 11
-1.3455165109
 21
12.8769352733
  0
LINE
  5
2C9
100
AcDbEntity
  8
0
100
AcDbLine
 62
7
  6
CONTINUOUS
 10
-2.2020168535
 20
12.4264111876
 11
-2.3270165109
 21
12.4264550538
  0
LINE
  5
2CA
100
AcDbEntity
  8
0
100
AcDbLine
 62
7
  6
CONTINUOUS
 10
-2.3270165109
 20
12.0865068977
 11
-2.0870165109
 21
12.0863000273
  0
LINE
  5
2CB
100
AcDbEntity
  8
0
100
AcDbLine
 62
7
  6
CONTINUOUS
 10
-2.0870165189
 20
12.166300051
 11
-2.3270165109
 21
12.166506868
  0
LINE
  5
2CC
100
AcDbEntity
  8
0
100
AcDbLine
 62
7
  6
CONTINUOUS
 10
-2.3270165109
 20
12.3664550761
 11
-2.1470165169
 21
12.3662999634
  0
LINE
  5
2CD
100
AcDbEntity
  8
0
100
AcDbLine
 62
7
  6
CONTINUOUS
 10
-2.1605997655
 20
12.4263590276
 11
-2.2020168535
 21
12.4264111876
  0
LINE
  5
2CE
100
AcDbEntity
  8
0
100
AcDbLine
 62
7
  6
CONTINUOUS
 10
-2.1470168496
 20
12.426299901
 11
-2.1605997655
 21
12.4263590276
  0
LINE
  5
2CF
100
AcDbEntity
  8
0
100
AcDbLine
 62
7
  6
CONTINUOUS
 10
18.5198611183
 20
7.592007763
 11
18.4877775818
 21
7.5789577943
  0
LINE
  5
2D0
100
AcDbEntity
  8
0
100
AcDbLine
 62
7
  6
CONTINUOUS
 10
-2.6455165109
 20
13.0859349142
 11
-2.6255165109
 21
13.0859349142
  0
LINE
  5
2D1
100
AcDbEntity
  8
0
100
AcDbLine
 62
7
  6
CONTINUOUS
 10
-1.3455165109
 20
13.1084347334
 11
-1.3655165109
 21
13.1084347334
  0
LINE
  5
2D2
100
AcDbEntity
  8
0
100
AcDbLine
 62
7
  6
CONTINUOUS
 10
-1.3655165109
 20
13.1394350034
 11
-1.3455165109
 21
13.1394350034
  0
LINE
  5
2D3
100
AcDbEntity
  8
0
100
AcDbLine
 62
7
  6
CONTINUOUS
 10
1.4744834891
 20
13.2209350034
 11
9.0094834891
 21
13.2209350034
  0
LINE
  5
2D4
100
AcDbEntity
  8
0
100
AcDbLine
 62
7
  6
CONTINUOUS
 10
9.4145188707
 20
13.3159350034
 11
9.0294834891
 21
13.3159350034
  0
LINE
  5
2D5
100
AcDbEntity
  8
0
100
AcDbLine
 62
7
  6
CONTINUOUS
 10
1.4544834891
 20
13.3261851649
 11
1.3815678047
 21
13.3261851649
  0
LINE
  5
2D6
100
AcDbEntity
  8
0
100
AcDbLine
 62
9
  6
CONTINUOUS
 10
9.5436593698
 20
13.4839474269
 11
10.5953076085
 21
13.4839474269
  0
LINE
  5
2D7
100
AcDbEntity
  8
0
100
AcDbLine
 62
7
  6
CONTINUOUS
 10
10.5017261653
 20
13.5486981213
 11
9.6372408129
 21
13.5486981213
  0
LINE
  5
2D8
100
AcDbEntity
  8
0
100
AcDbLine
 62
9
  6
CONTINUOUS
 10
10.4386642282
 20
13.6079915782
 11
9.7003027501
 21
13.6079915782
  0
LINE
  5
2D9
100
AcDbEntity
  8
0
100
AcDbLine
 62
7
  6
CONTINUOUS
 10
10.0852057759
 20
13.6351934876
 11
10.0537612024
 21
13.6351934876
  0
LINE
  5
2DA
100
AcDbEntity
  8
0
100
AcDbLine
 62
7
  6
CONTINUOUS
 10
21.1667978533
 20
9.0437697634
 11
21.1374834891
 21
9.0192243573
  0
LINE
  5
2DB
100
AcDbEntity
  8
0
100
AcDbLine
 62
7
  6
CONTINUOUS
 10
-0.0916197728
 20
13.3459714564
 11
0.2138190576
 21
13.3943482146
  0
LINE
  5
2DC
100
AcDbEntity
  8
0
100
AcDbLine
 62
7
  6
CONTINUOUS
 10
20.108169125
 20
9.0437697634
 11
20.1374834891
 21
9.0192243573
  0
LINE
  5
2DD
100
AcDbEntity
  8
0
100
AcDbLine
 62
7
  6
CONTINUOUS
 10
18.1379834831
 20
6.6545893173
 11
18.1979834811
 21
6.454589405
  0
LINE
  5
2DE
100
AcDbEntity
  8
0
100
AcDbLine
 62
7
  6
CONTINUOUS
 10
17.5504834891
 20
7.1392243554
 11
17.5504834891
 21
7.1292243592
  0
LINE
  5
2DF
100
AcDbEntity
  8
0
100
AcDbLine
 62
7
  6
CONTINUOUS
 10
17.5794834891
 20
7.3142242904
 11
17.5794834891
 21
6.9542244242
  0
LINE
  5
2E0
100
AcDbEntity
  8
0
100
AcDbLine
 62
9
  6
CONTINUOUS
 10
17.6394834891
 20
7.3742242682
 11
17.6394834891
 21
6.8942244465
  0
LINE
  5
2E1
100
AcDbEntity
  8
0
100
AcDbLine
 62
7
  6
CONTINUOUS
 10
17.6594834891
 20
6.8942244465
 11
17.6594834891
 21
7.3742243573
  0
LINE
  5
2E2
100
AcDbEntity
  8
0
100
AcDbLine
 62
7
  6
CONTINUOUS
 10
17.7179834891
 20
6.3745893812
 11
17.7179834891
 21
6.4545893515
  0
LINE
  5
2E3
100
AcDbEntity
  8
0
100
AcDbLine
 62
7
  6
CONTINUOUS
 10
17.7779834891
 20
6.6545892772
 11
17.7779834891
 21
6.7145892549
  0
LINE
  5
2E4
100
AcDbEntity
  8
0
100
AcDbLine
 62
9
  6
CONTINUOUS
 10
17.7802023107
 20
6.7208314139
 11
17.7802022889
 21
7.5476174449
  0
LINE
  5
2E5
100
AcDbEntity
  8
0
100
AcDbLine
 62
7
  6
CONTINUOUS
 10
17.8079834891
 20
4.474590087
 11
17.8079834891
 21
4.5245900685
  0
LINE
  5
2E6
100
AcDbEntity
  8
0
100
AcDbLine
 62
7
  6
CONTINUOUS
 10
17.8799090635
 20
6.7186547408
 11
17.8799090635
 21
6.714728364
  0
LINE
  5
2E7
100
AcDbEntity
  8
0
100
AcDbLine
 62
7
  6
CONTINUOUS
 10
18.1079834891
 20
4.474590087
 11
18.1079834891
 21
4.5245900685
  0
LINE
  5
2E8
100
AcDbEntity
  8
0
100
AcDbLine
 62
7
  6
CONTINUOUS
 10
18.1379834891
 20
6.6545892772
 11
18.1379834891
 21
6.7145892549
  0
LINE
  5
2E9
100
AcDbEntity
  8
0
100
AcDbLine
 62
9
  6
CONTINUOUS
 10
18.1913753587
 20
7.5189687338
 11
18.1913759058
 21
6.7494804557
  0
LINE
  5
2EA
100
AcDbEntity
  8
0
100
AcDbLine
 62
7
  6
CONTINUOUS
 10
18.1979834891
 20
6.3745893812
 11
18.1979834891
 21
6.4545893515
  0
LINE
  5
2EB
100
AcDbEntity
  8
0
100
AcDbLine
 62
9
  6
CONTINUOUS
 10
18.2397236823
 20
7.4787898257
 11
18.2397236819
 21
6.7896590165
  0
LINE
  5
2EC
100
AcDbEntity
  8
0
100
AcDbLine
 62
9
  6
CONTINUOUS
 10
18.266428721
 20
7.4685388746
 11
18.266428721
 21
6.7998994766
  0
LINE
  5
2ED
100
AcDbEntity
  8
0
100
AcDbLine
 62
9
  6
CONTINUOUS
 10
18.4033406513
 20
6.7599416754
 11
18.4033406513
 21
7.5085071783
  0
LINE
  5
2EE
100
AcDbEntity
  8
0
100
AcDbLine
 62
7
  6
CONTINUOUS
 10
18.4144834891
 20
7.5302621392
 11
18.4144834891
 21
6.738186528
  0
LINE
  5
2EF
100
AcDbEntity
  8
0
100
AcDbLine
 62
7
  6
CONTINUOUS
 10
17.7779834952
 20
6.6545893173
 11
17.7179834972
 21
6.454589405
  0
LINE
  5
2F0
100
AcDbEntity
  8
0
100
AcDbLine
 62
9
  6
CONTINUOUS
 10
18.4521977748
 20
6.6982519024
 11
18.4521977748
 21
7.5701969742
  0
LINE
  5
2F1
100
AcDbEntity
  8
0
100
AcDbLine
 62
9
  6
CONTINUOUS
 10
18.4877775818
 20
6.6894910856
 11
18.4877775818
 21
7.5789577943
  0
LINE
  5
2F2
100
AcDbEntity
  8
0
100
AcDbLine
 62
9
  6
CONTINUOUS
 10
18.5198611183
 20
6.6764411217
 11
18.5198611183
 21
7.592007763
  0
LINE
  5
2F3
100
AcDbEntity
  8
0
100
AcDbLine
 62
9
  6
CONTINUOUS
 10
18.7857692034
 20
7.646479993
 11
18.7857692034
 21
6.6219689119
  0
LINE
  5
2F4
100
AcDbEntity
  8
0
100
AcDbLine
 62
9
  6
CONTINUOUS
 10
18.8475459891
 20
6.5985633345
 11
18.8475459891
 21
7.6698855791
  0
LINE
  5
2F5
100
AcDbEntity
  8
0
100
AcDbLine
 62
7
  6
CONTINUOUS
 10
18.9194834891
 20
6.6092245523
 11
18.9194834891
 21
7.659224046
  0
LINE
  5
2F6
100
AcDbEntity
  8
0
100
AcDbLine
 62
7
  6
CONTINUOUS
 10
18.9394834891
 20
7.5870168313
 11
18.9394834891
 21
6.6814318833
  0
LINE
  5
2F7
100
AcDbEntity
  8
0
100
AcDbLine
 62
9
  6
CONTINUOUS
 10
18.9665553156
 20
7.6168794016
 11
18.9665553156
 21
6.651569313
  0
LINE
  5
2F8
100
AcDbEntity
  8
0
100
AcDbLine
 62
7
  6
CONTINUOUS
 10
18.0979834371
 20
4.4645899867
 11
18.1079834334
 21
4.4745899756
  0
LINE
  5
2F9
100
AcDbEntity
  8
0
100
AcDbLine
 62
9
  6
CONTINUOUS
 10
19.5044834891
 20
6.5988125054
 11
19.5044834891
 21
7.6696362092
  0
LINE
  5
2FA
100
AcDbEntity
  8
0
100
AcDbLine
 62
7
  6
CONTINUOUS
 10
19.5774834891
 20
9.4564612393
 11
19.5774834891
 21
10.3564612393
  0
LINE
  5
2FB
100
AcDbEntity
  8
0
100
AcDbLine
 62
9
  6
CONTINUOUS
 10
19.5974834891
 20
10.3764612393
 11
19.5974834891
 21
9.4364612393
  0
LINE
  5
2FC
100
AcDbEntity
  8
0
100
AcDbLine
 62
9
  6
CONTINUOUS
 10
19.7428016919
 20
6.9441116176
 11
19.7428016919
 21
6.7148616373
  0
LINE
  5
2FD
100
AcDbEntity
  8
0
100
AcDbLine
 62
9
  6
CONTINUOUS
 10
19.7428016919
 20
6.5247488976
 11
19.7428016919
 21
6.5105426646
  0
LINE
  5
2FE
100
AcDbEntity
  8
0
100
AcDbLine
 62
9
  6
CONTINUOUS
 10
19.7428016919
 20
7.324337097
 11
19.7428016919
 21
7.5535870773
  0
LINE
  5
2FF
100
AcDbEntity
  8
0
100
AcDbLine
 62
9
  6
CONTINUOUS
 10
19.7428016919
 20
7.743699817
 11
19.7428016919
 21
7.75790605
  0
LINE
  5
300
100
AcDbEntity
  8
0
100
AcDbLine
 62
7
  6
CONTINUOUS
 10
19.8844834891
 20
7.6842243573
 11
19.8844834891
 21
6.5842246609
  0
LINE
  5
301
100
AcDbEntity
  8
0
100
AcDbLine
 62
9
  6
CONTINUOUS
 10
19.9331679803
 20
6.5287159984
 11
19.9331679803
 21
7.7397327162
  0
LINE
  5
302
100
AcDbEntity
  8
0
100
AcDbLine
 62
7
  6
CONTINUOUS
 10
19.9874834891
 20
8.1360501321
 11
19.9874834891
 21
8.5935459132
  0
LINE
  5
303
100
AcDbEntity
  8
0
100
AcDbLine
 62
7
  6
CONTINUOUS
 10
19.9891944123
 20
8.5935459132
 11
19.9891944123
 21
8.1360501321
  0
LINE
  5
304
100
AcDbEntity
  8
0
100
AcDbLine
 62
7
  6
CONTINUOUS
 10
20.1674834891
 20
8.9992243573
 11
20.1674834891
 21
9.0192243573
  0
LINE
  5
305
100
AcDbEntity
  8
0
100
AcDbLine
 62
7
  6
CONTINUOUS
 10
20.2725228436
 20
8.1360501321
 11
20.2725228436
 21
8.5935459132
  0
LINE
  5
306
100
AcDbEntity
  8
0
100
AcDbLine
 62
7
  6
CONTINUOUS
 10
20.3541550578
 20
8.5935459132
 11
20.3541550578
 21
8.1360501321
  0
LINE
  5
307
100
AcDbEntity
  8
0
100
AcDbLine
 62
7
  6
CONTINUOUS
 10
20.9208119205
 20
8.1360501321
 11
20.9208119205
 21
8.5935459132
  0
LINE
  5
308
100
AcDbEntity
  8
0
100
AcDbLine
 62
7
  6
CONTINUOUS
 10
21.0024441347
 20
8.5935459132
 11
21.0024441347
 21
8.1360501321
  0
LINE
  5
309
100
AcDbEntity
  8
0
100
AcDbLine
 62
7
  6
CONTINUOUS
 10
21.1074834891
 20
8.9992243573
 11
21.1074834891
 21
9.0192243573
  0
LINE
  5
30A
100
AcDbEntity
  8
0
100
AcDbLine
 62
7
  6
CONTINUOUS
 10
21.285772566
 20
8.1360501321
 11
21.285772566
 21
8.5935459132
  0
LINE
  5
30B
100
AcDbEntity
  8
0
100
AcDbLine
 62
7
  6
CONTINUOUS
 10
21.2874834891
 20
8.1360501321
 11
21.2874834891
 21
8.5935459132
  0
LINE
  5
30C
100
AcDbEntity
  8
0
100
AcDbLine
 62
9
  6
CONTINUOUS
 10
21.3047601099
 20
7.7611013148
 11
21.3047601099
 21
6.5073473998
  0
LINE
  5
30D
100
AcDbEntity
  8
0
100
AcDbLine
 62
7
  6
CONTINUOUS
 10
21.3344834891
 20
7.7942243573
 11
21.3344834891
 21
6.4742243573
  0
LINE
  5
30E
100
AcDbEntity
  8
0
100
AcDbLine
 62
9
  6
CONTINUOUS
 10
21.3908912828
 20
6.4465348941
 11
21.3908912828
 21
7.8219138205
  0
LINE
  5
30F
100
AcDbEntity
  8
0
100
AcDbLine
 62
9
  6
CONTINUOUS
 10
22.5464053398
 20
7.7596686975
 11
22.5464053398
 21
6.5087800171
  0
LINE
  5
310
100
AcDbEntity
  8
0
100
AcDbLine
 62
7
  6
CONTINUOUS
 10
22.5844834891
 20
6.5300864173
 11
22.5844834891
 21
7.7383622973
  0
LINE
  5
311
100
AcDbEntity
  8
0
100
AcDbLine
 62
7
  6
CONTINUOUS
 10
23.4544834891
 20
7.8692235896
 11
23.4544834891
 21
6.399225125
  0
LINE
  5
312
100
AcDbEntity
  8
0
100
AcDbLine
 62
7
  6
CONTINUOUS
 10
23.7844834891
 20
8.2792237253
 11
23.7844834891
 21
5.9892249893
  0
LINE
  5
313
100
AcDbEntity
  8
0
100
AcDbLine
 62
7
  6
CONTINUOUS
 10
23.7944834891
 20
5.9892243573
 11
23.7944834891
 21
8.2792243573
  0
LINE
  5
314
100
AcDbEntity
  8
0
100
AcDbLine
 62
7
  6
CONTINUOUS
 10
24.0344834891
 20
8.5642123101
 11
24.0344834891
 21
5.7042243573
  0
LINE
  5
315
100
AcDbEntity
  8
0
100
AcDbLine
 62
9
  6
CONTINUOUS
 10
24.0644834891
 20
8.5942243573
 11
24.0644834891
 21
5.6742243573
  0
LINE
  5
316
100
AcDbEntity
  8
0
100
AcDbLine
 62
7
  6
CONTINUOUS
 10
24.1444834891
 20
5.6742364996
 11
24.1444834891
 21
8.594212215
  0
LINE
  5
317
100
AcDbEntity
  8
0
100
AcDbLine
 62
7
  6
CONTINUOUS
 10
24.1544834891
 20
8.4762243573
 11
24.1544834891
 21
5.7922243573
  0
ARC
  5
318
100
AcDbEntity
  8
0
100
AcDbCircle
 62
7
  6
CONTINUOUS
 10
-10.5589675591
 20
11.727526634
 40
8.0
100
AcDbArc
 50
352.5215511923
 51
2.5703872517
  0
ARC
  5
319
100
AcDbEntity
  8
0
100
AcDbCircle
 62
7
  6
CONTINUOUS
 10
-2.5651100464
 20
10.6156650854
 40
0.5427098904
100
AcDbArc
 50
315.6516614394
 51
7.4784488077
  0
ARC
  5
31A
100
AcDbEntity
  8
0
100
AcDbCircle
 62
7
  6
CONTINUOUS
 10
-2.3311643138
 20
10.2062224966
 40
0.11
100
AcDbArc
 50
195.7842662421
 51
270.0
  0
ARC
  5
31B
100
AcDbEntity
  8
0
100
AcDbCircle
 62
7
  6
CONTINUOUS
 10
-2.4257838322
 20
13.075597835
 40
0.2
100
AcDbArc
 50
113.2702952785
 51
177.0372992989
  0
ARC
  5
31C
100
AcDbEntity
  8
0
100
AcDbCircle
 62
7
  6
CONTINUOUS
 10
-2.4257838322
 20
12.6162721717
 40
0.2
100
AcDbArc
 50
182.9627007011
 51
246.7297047215
  0
ARC
  5
31D
100
AcDbEntity
  8
0
100
AcDbCircle
 62
7
  6
CONTINUOUS
 10
-2.6455165109
 20
12.6659350702
 40
0.06
100
AcDbArc
 50
180.0
 51
270.0
  0
ARC
  5
31E
100
AcDbEntity
  8
0
100
AcDbCircle
 62
7
  6
CONTINUOUS
 10
-2.6455165109
 20
13.0259349365
 40
0.06
100
AcDbArc
 50
90.0
 51
180.0
  0
ARC
  5
31F
100
AcDbEntity
  8
0
100
AcDbCircle
 62
7
  6
CONTINUOUS
 10
5.9049345373
 20
11.727526634
 40
8.0
100
AcDbArc
 50
177.4296127483
 51
187.4784488077
  0
ARC
  5
320
100
AcDbEntity
  8
0
100
AcDbCircle
 62
7
  6
CONTINUOUS
 10
-2.0889229754
 20
10.6156650854
 40
0.5427098904
100
AcDbArc
 50
172.5215511923
 51
224.3483385606
  0
ARC
  5
321
100
AcDbEntity
  8
0
100
AcDbCircle
 62
7
  6
CONTINUOUS
 10
-0.3484500538
 20
11.7550761906
 40
0.1954335429
100
AcDbArc
 50
345.4368424883
 51
360.0
  0
ARC
  5
322
100
AcDbEntity
  8
0
100
AcDbCircle
 62
7
  6
CONTINUOUS
 10
-0.7625829679
 20
11.7550761906
 40
0.1954335429
100
AcDbArc
 50
180.0
 51
194.5631575117
  0
ARC
  5
323
100
AcDbEntity
  8
0
100
AcDbCircle
 62
7
  6
CONTINUOUS
 10
-2.3228687079
 20
10.2062224966
 40
0.11
100
AcDbArc
 50
270.0
 51
344.2157337579
  0
ARC
  5
324
100
AcDbEntity
  8
0
100
AcDbCircle
 62
7
  6
CONTINUOUS
 10
-1.4455165109
 20
12.4197265878
 40
0.94
100
AcDbArc
 50
93.2758289597
 51
109.8783240236
  0
ARC
  5
325
100
AcDbEntity
  8
0
100
AcDbCircle
 62
7
  6
CONTINUOUS
 10
-2.0632311733
 20
12.1040495811
 40
0.41
100
AcDbArc
 50
63.7136175837
 51
83.7465591694
  0
ARC
  5
326
100
AcDbEntity
  8
0
100
AcDbCircle
 62
7
  6
CONTINUOUS
 10
-1.1747934223
 20
12.004198045
 40
0.4
100
AcDbArc
 50
74.4439504133
 51
111.0304763259
  0
ARC
  5
327
100
AcDbEntity
  8
0
100
AcDbCircle
 62
7
  6
CONTINUOUS
 10
-1.3972534692
 20
12.226658092
 40
0.4
100
AcDbArc
 50
338.9695236741
 51
15.5560496423
  0
ARC
  5
328
100
AcDbEntity
  8
0
100
AcDbCircle
 62
7
  6
CONTINUOUS
 10
-2.2040965047
 20
12.6433031399
 40
0.213
100
AcDbArc
 50
301.2417272573
 51
318.213642052
  0
ARC
  5
329
100
AcDbEntity
  8
0
100
AcDbCircle
 62
7
  6
CONTINUOUS
 10
-1.5055165109
 20
12.2238591063
 40
0.11
100
AcDbArc
 50
51.7750897985
 51
86.7241710403
  0
ARC
  5
32A
100
AcDbEntity
  8
0
100
AcDbCircle
 62
7
  6
CONTINUOUS
 10
-1.8385165109
 20
12.3101257853
 40
0.1
100
AcDbArc
 50
65.6102863759
 51
86.7241710402
  0
ARC
  5
32B
100
AcDbEntity
  8
0
100
AcDbCircle
 62
7
  6
CONTINUOUS
 10
-1.4065165109
 20
12.3495531794
 40
0.05
100
AcDbArc
 50
231.7750897984
 51
325.0847937526
  0
ARC
  5
32C
100
AcDbEntity
  8
0
100
AcDbCircle
 62
7
  6
CONTINUOUS
 10
-1.8305165109
 20
12.449897027
 40
0.04
100
AcDbArc
 50
180.0
 51
266.7241710402
  0
ARC
  5
32D
100
AcDbEntity
  8
0
100
AcDbCircle
 62
7
  6
CONTINUOUS
 10
-2.0219752344
 20
12.4805459423
 40
0.03125
100
AcDbArc
 50
83.7465591694
 51
138.213642052
  0
ARC
  5
32E
100
AcDbEntity
  8
0
100
AcDbCircle
 62
7
  6
CONTINUOUS
 10
-1.8905165109
 20
12.4537203482
 40
0.02
100
AcDbArc
 50
0.0
 51
63.7136175836
  0
ARC
  5
32F
100
AcDbEntity
  8
0
100
AcDbCircle
 62
7
  6
CONTINUOUS
 10
-1.3255165109
 20
12.3962217057
 40
0.02
100
AcDbArc
 50
180.0
 51
291.0304772467
  0
ARC
  5
330
100
AcDbEntity
  8
0
100
AcDbCircle
 62
7
  6
CONTINUOUS
 10
-1.0052298085
 20
12.0759350034
 40
0.02
100
AcDbArc
 50
158.9695227533
 51
270.0
  0
ARC
  5
331
100
AcDbEntity
  8
0
100
AcDbCircle
 62
7
  6
CONTINUOUS
 10
-1.4455165109
 20
13.2721434189
 40
0.94
100
AcDbArc
 50
250.1216759764
 51
266.7241710403
  0
ARC
  5
332
100
AcDbEntity
  8
0
100
AcDbCircle
 62
7
  6
CONTINUOUS
 10
-0.5555165109
 20
12.8459350034
 40
0.645
100
AcDbArc
 50
53.7264555496
 51
126.3424046392
  0
ARC
  5
333
100
AcDbEntity
  8
0
100
AcDbCircle
 62
7
  6
CONTINUOUS
 10
-2.3270165109
 20
12.8459350034
 40
0.45
100
AcDbArc
 50
291.1684560133
 51
301.2417366958
  0
ARC
  5
334
100
AcDbEntity
  8
0
100
AcDbCircle
 62
7
  6
CONTINUOUS
 10
-2.3270165109
 20
12.8459350034
 40
0.45
100
AcDbArc
 50
246.7296969967
 51
248.8315439867
  0
ARC
  5
335
100
AcDbEntity
  8
0
100
AcDbCircle
 62
7
  6
CONTINUOUS
 10
-2.3270165109
 20
12.8459350034
 40
0.45
100
AcDbArc
 50
58.7582633115
 51
113.2703029899
  0
ARC
  5
336
100
AcDbEntity
  8
0
100
AcDbCircle
 62
7
  6
CONTINUOUS
 10
-2.0632311733
 20
13.5878204256
 40
0.41
100
AcDbArc
 50
276.253440829
 51
296.2863824163
  0
ARC
  5
337
100
AcDbEntity
  8
0
100
AcDbCircle
 62
7
  6
CONTINUOUS
 10
-1.1747934223
 20
13.6876719617
 40
0.4
100
AcDbArc
 50
248.9695236741
 51
306.3424046392
  0
ARC
  5
338
100
AcDbEntity
  8
0
100
AcDbCircle
 62
7
  6
CONTINUOUS
 10
-2.2040965048
 20
13.0485668668
 40
0.213
100
AcDbArc
 50
41.7863579426
 51
58.75827275
  0
ARC
  5
339
100
AcDbEntity
  8
0
100
AcDbCircle
 62
7
  6
CONTINUOUS
 10
-1.5055165109
 20
13.4680109004
 40
0.11
100
AcDbArc
 50
273.2758289597
 51
308.2249102015
  0
ARC
  5
33A
100
AcDbEntity
  8
0
100
AcDbCircle
 62
7
  6
CONTINUOUS
 10
-1.8385165109
 20
13.3817442214
 40
0.1
100
AcDbArc
 50
273.2758289598
 51
294.3897136241
  0
ARC
  5
33B
100
AcDbEntity
  8
0
100
AcDbCircle
 62
7
  6
CONTINUOUS
 10
-1.4065165109
 20
13.3423168273
 40
0.05
100
AcDbArc
 50
34.9152062474
 51
128.2249102016
  0
ARC
  5
33C
100
AcDbEntity
  8
0
100
AcDbCircle
 62
7
  6
CONTINUOUS
 10
-1.8305165109
 20
13.2419729797
 40
0.04
100
AcDbArc
 50
93.2758289598
 51
180.0
  0
ARC
  5
33D
100
AcDbEntity
  8
0
100
AcDbCircle
 62
7
  6
CONTINUOUS
 10
-2.0219752344
 20
13.2113240644
 40
0.03125
100
AcDbArc
 50
221.7863579427
 51
276.253440829
  0
ARC
  5
33E
100
AcDbEntity
  8
0
100
AcDbCircle
 62
7
  6
CONTINUOUS
 10
-1.8905165109
 20
13.2381496585
 40
0.02
100
AcDbArc
 50
296.2863824164
 51
360.0
  0
ARC
  5
33F
100
AcDbEntity
  8
0
100
AcDbCircle
 62
7
  6
CONTINUOUS
 10
-1.3255165109
 20
13.295648301
 40
0.02
100
AcDbArc
 50
68.9695227533
 51
180.0
  0
ARC
  5
340
100
AcDbEntity
  8
0
100
AcDbCircle
 62
7
  6
CONTINUOUS
 10
1.4354574192
 20
12.2030792181
 40
4.2200000006
100
AcDbArc
 50
168.8942851853
 51
171.1690097257
  0
ARC
  5
341
100
AcDbEntity
  8
0
100
AcDbCircle
 62
7
  6
CONTINUOUS
 10
0.7444834891
 20
12.2859350034
 40
1.14
100
AcDbArc
 50
67.1448062399
 51
112.8551937601
  0
ARC
  5
342
100
AcDbEntity
  8
0
100
AcDbCircle
 62
7
  6
CONTINUOUS
 10
0.2862204475
 20
12.226658092
 40
0.4
100
AcDbArc
 50
174.8229144869
 51
201.0304763259
  0
ARC
  5
343
100
AcDbEntity
  8
0
100
AcDbCircle
 62
9
  6
CONTINUOUS
 10
-0.2349216235
 20
12.2096735429
 40
0.2605416209
100
AcDbArc
 50
56.6319445166
 51
61.0550559035
  0
ARC
  5
344
100
AcDbEntity
  8
0
100
AcDbCircle
 62
7
  6
CONTINUOUS
 10
-0.1058032133
 20
12.0759350034
 40
0.02
100
AcDbArc
 50
270.0
 51
21.0304772467
  0
ARC
  5
345
100
AcDbEntity
  8
0
100
AcDbCircle
 62
7
  6
CONTINUOUS
 10
1.4544834891
 20
12.3856848418
 40
0.02
100
AcDbArc
 50
270.0
 51
360.0
  0
ARC
  5
346
100
AcDbEntity
  8
0
100
AcDbCircle
 62
7
  6
CONTINUOUS
 10
1.2890729259
 20
12.3154741347
 40
0.02
100
AcDbArc
 50
194.467889245
 51
309.45
  0
ARC
  5
347
100
AcDbEntity
  8
0
100
AcDbCircle
 62
7
  6
CONTINUOUS
 10
0.2169477499
 20
12.3172755584
 40
0.02
100
AcDbArc
 50
261.0
 51
349.6206593896
  0
ARC
  5
348
100
AcDbEntity
  8
0
100
AcDbCircle
 62
7
  6
CONTINUOUS
 10
1.4354574192
 20
13.4887907886
 40
4.2200000006
100
AcDbArc
 50
188.8309902743
 51
191.1057148147
  0
ARC
  5
349
100
AcDbEntity
  8
0
100
AcDbCircle
 62
7
  6
CONTINUOUS
 10
0.7444834891
 20
13.4059350034
 40
1.14
100
AcDbArc
 50
247.1448062399
 51
292.8551937601
  0
ARC
  5
34A
100
AcDbEntity
  8
0
100
AcDbCircle
 62
7
  6
CONTINUOUS
 10
-0.108827564
 20
13.4546171739
 40
0.11
100
AcDbArc
 50
233.7264555496
 51
279.0
  0
ARC
  5
34B
100
AcDbEntity
  8
0
100
AcDbCircle
 62
7
  6
CONTINUOUS
 10
1.4544834891
 20
13.3061851649
 40
0.02
100
AcDbArc
 50
0.0
 51
90.0
  0
ARC
  5
34C
100
AcDbEntity
  8
0
100
AcDbCircle
 62
7
  6
CONTINUOUS
 10
1.2890729259
 20
13.376395872
 40
0.02
100
AcDbArc
 50
50.55
 51
165.532110755
  0
ARC
  5
34D
100
AcDbEntity
  8
0
100
AcDbCircle
 62
7
  6
CONTINUOUS
 10
0.2169477499
 20
13.3745944483
 40
0.02
100
AcDbArc
 50
10.3793406104
 51
99.0
  0
ARC
  5
34E
100
AcDbEntity
  8
0
100
AcDbCircle
 62
7
  6
CONTINUOUS
 10
10.6778361617
 20
-30.7486362833
 40
41.5690209887
100
AcDbArc
 50
91.027678323
 51
91.2754022963
  0
ARC
  5
34F
100
AcDbEntity
  8
0
100
AcDbCircle
 62
7
  6
CONTINUOUS
 10
9.7260324409
 20
6.015815988
 40
8.0
100
AcDbArc
 50
352.5215511923
 51
2.5703872517
  0
ARC
  5
350
100
AcDbEntity
  8
0
100
AcDbCircle
 62
7
  6
CONTINUOUS
 10
10.0537612024
 20
11.3251934877
 40
2.31
100
AcDbArc
 50
90.0
 51
98.8015353093
  0
ARC
  5
351
100
AcDbEntity
  8
0
100
AcDbCircle
 62
7
  6
CONTINUOUS
 10
10.0852057759
 20
11.3251934877
 40
2.31
100
AcDbArc
 50
81.1984646907
 51
90.0
  0
ARC
  5
352
100
AcDbEntity
  8
0
100
AcDbCircle
 62
7
  6
CONTINUOUS
 10
8.9014834891
 20
9.9064612393
 40
1.81
100
AcDbArc
 50
17.3632888069
 51
22.0562511617
  0
ARC
  5
353
100
AcDbEntity
  8
0
100
AcDbCircle
 62
7
  6
CONTINUOUS
 10
8.9014834891
 20
9.9064612393
 40
1.81
100
AcDbArc
 50
339.3601226786
 51
342.6367111931
  0
ARC
  5
354
100
AcDbEntity
  8
0
100
AcDbCircle
 62
7
  6
CONTINUOUS
 10
9.1795535954
 20
10.8207030843
 40
0.35
100
AcDbArc
 50
358.85319539
 51
46.7239576672
  0
ARC
  5
355
100
AcDbEntity
  8
0
100
AcDbCircle
 62
7
  6
CONTINUOUS
 10
9.6372408127
 20
9.3036981213
 40
0.1
100
AcDbArc
 50
200.6398776134
 51
270.0000001415
  0
ARC
  5
356
100
AcDbEntity
  8
0
100
AcDbCircle
 62
7
  6
CONTINUOUS
 10
9.4672656339
 20
10.6236981213
 40
0.1
100
AcDbArc
 50
337.9437488383
 51
45.5715208257
  0
ARC
  5
357
100
AcDbEntity
  8
0
100
AcDbCircle
 62
7
  6
CONTINUOUS
 10
9.7094834891
 20
9.2036981213
 40
0.06
100
AcDbArc
 50
180.0
 51
261.2022494378
  0
ARC
  5
358
100
AcDbEntity
  8
0
100
AcDbCircle
 62
7
  6
CONTINUOUS
 10
9.572268378
 20
10.7308168579
 40
0.05
100
AcDbArc
 50
129.9399767544
 51
225.5715430928
  0
ARC
  5
359
100
AcDbEntity
  8
0
100
AcDbCircle
 62
7
  6
CONTINUOUS
 10
10.0850696267
 20
11.4290542061
 40
2.3118504862
100
AcDbArc
 50
270.0
 51
278.7977505622
  0
ARC
  5
35A
100
AcDbEntity
  8
0
100
AcDbCircle
 62
7
  6
CONTINUOUS
 10
10.0538973515
 20
11.4290542061
 40
2.3118504862
100
AcDbArc
 50
261.2022494378
 51
270.0
  0
ARC
  5
35B
100
AcDbEntity
  8
0
100
AcDbCircle
 62
7
  6
CONTINUOUS
 10
8.9014834891
 20
12.8459350034
 40
1.81
100
AcDbArc
 50
337.9437488383
 51
20.6398773184
  0
ARC
  5
35C
100
AcDbEntity
  8
0
100
AcDbCircle
 62
9
  6
CONTINUOUS
 10
8.3144104431
 20
12.5434882415
 40
1.3434193864
100
AcDbArc
 50
27.9279191529
 51
30.4338938356
  0
ARC
  5
35D
100
AcDbEntity
  8
0
100
AcDbCircle
 62
9
  6
CONTINUOUS
 10
8.4052012531
 20
13.0989494756
 40
1.2400507198
100
AcDbArc
 50
331.5513690264
 51
332.1332734117
  0
ARC
  5
35E
100
AcDbEntity
  8
0
100
AcDbCircle
 62
7
  6
CONTINUOUS
 10
8.9244834891
 20
11.9386981213
 40
0.64
100
AcDbArc
 50
320.6635849213
 51
360.0
  0
ARC
  5
35F
100
AcDbEntity
  8
0
100
AcDbCircle
 62
7
  6
CONTINUOUS
 10
9.6372408127
 20
13.4486981213
 40
0.1
100
AcDbArc
 50
89.9999998498
 51
159.3601224411
  0
ARC
  5
360
100
AcDbEntity
  8
0
100
AcDbCircle
 62
7
  6
CONTINUOUS
 10
9.4672656339
 20
12.1286981213
 40
0.1
100
AcDbArc
 50
314.4284717041
 51
22.0562511617
  0
ARC
  5
361
100
AcDbEntity
  8
0
100
AcDbCircle
 62
7
  6
CONTINUOUS
 10
9.7094834891
 20
13.5486981213
 40
0.06
100
AcDbArc
 50
98.8015353092
 51
180.0
  0
ARC
  5
362
100
AcDbEntity
  8
0
100
AcDbCircle
 62
7
  6
CONTINUOUS
 10
9.572268378
 20
12.0215793847
 40
0.05
100
AcDbArc
 50
134.4284718478
 51
230.0599998062
  0
ARC
  5
363
100
AcDbEntity
  8
0
100
AcDbCircle
 62
7
  6
CONTINUOUS
 10
9.0294834891
 20
13.2959350034
 40
0.02
100
AcDbArc
 50
90.0
 51
180.0
  0
ARC
  5
364
100
AcDbEntity
  8
0
100
AcDbCircle
 62
7
  6
CONTINUOUS
 10
9.0294834891
 20
12.3959350034
 40
0.02
100
AcDbArc
 50
180.0
 51
270.0
  0
ARC
  5
365
100
AcDbEntity
  8
0
100
AcDbCircle
 62
7
  6
CONTINUOUS
 10
11.2374834891
 20
9.9064612393
 40
1.81
100
AcDbArc
 50
157.9437488383
 51
200.639884246
  0
ARC
  5
366
100
AcDbEntity
  8
0
100
AcDbCircle
 62
9
  6
CONTINUOUS
 10
11.938138867
 20
9.5378213708
 40
1.4748815166
100
AcDbArc
 50
149.3542029833
 51
149.5741011072
  0
ARC
  5
367
100
AcDbEntity
  8
0
100
AcDbCircle
 62
9
  6
CONTINUOUS
 10
11.8750375018
 20
9.574689888
 40
1.4017989171
100
AcDbArc
 50
149.6388684042
 51
150.2709060853
  0
ARC
  5
368
100
AcDbEntity
  8
0
100
AcDbCircle
 62
9
  6
CONTINUOUS
 10
11.7861502147
 20
9.6250853128
 40
1.2996199546
100
AcDbArc
 50
150.2569391225
 51
151.6643806816
  0
ARC
  5
369
100
AcDbEntity
  8
0
100
AcDbCircle
 62
9
  6
CONTINUOUS
 10
11.7287226442
 20
9.6561322072
 40
1.2343372587
100
AcDbArc
 50
151.667619223
 51
152.1780635836
  0
ARC
  5
36A
100
AcDbEntity
  8
0
100
AcDbCircle
 62
7
  6
CONTINUOUS
 10
10.9594133828
 20
10.8207030843
 40
0.35
100
AcDbArc
 50
133.2760423328
 51
181.14680461
  0
ARC
  5
36B
100
AcDbEntity
  8
0
100
AcDbCircle
 62
7
  6
CONTINUOUS
 10
10.5017261656
 20
9.3036981213
 40
0.1
100
AcDbArc
 50
269.9997651526
 51
339.3599970517
  0
ARC
  5
36C
100
AcDbEntity
  8
0
100
AcDbCircle
 62
7
  6
CONTINUOUS
 10
10.6717013444
 20
10.6236981213
 40
0.1
100
AcDbArc
 50
134.4284791743
 51
202.0562511617
  0
ARC
  5
36D
100
AcDbEntity
  8
0
100
AcDbCircle
 62
7
  6
CONTINUOUS
 10
10.4294834891
 20
9.2036981213
 40
0.06
100
AcDbArc
 50
278.7977505622
 51
360.0
  0
ARC
  5
36E
100
AcDbEntity
  8
0
100
AcDbCircle
 62
7
  6
CONTINUOUS
 10
10.5666986003
 20
10.7308168579
 40
0.05
100
AcDbArc
 50
314.4284569072
 51
50.0600232456
  0
ARC
  5
36F
100
AcDbEntity
  8
0
100
AcDbCircle
 62
7
  6
CONTINUOUS
 10
11.2374834891
 20
12.8459350034
 40
1.81
100
AcDbArc
 50
197.3632888069
 51
202.0562511617
  0
ARC
  5
370
100
AcDbEntity
  8
0
100
AcDbCircle
 62
7
  6
CONTINUOUS
 10
11.2374834891
 20
12.8459350034
 40
1.81
100
AcDbArc
 50
159.3601226816
 51
162.6367111931
  0
ARC
  5
371
100
AcDbEntity
  8
0
100
AcDbCircle
 62
7
  6
CONTINUOUS
 10
11.2144834891
 20
11.9386981213
 40
0.64
100
AcDbArc
 50
180.0
 51
219.3364150787
  0
ARC
  5
372
100
AcDbEntity
  8
0
100
AcDbCircle
 62
7
  6
CONTINUOUS
 10
10.5017261656
 20
13.4486981213
 40
0.1
100
AcDbArc
 50
20.6398775589
 51
90.0000001502
  0
ARC
  5
373
100
AcDbEntity
  8
0
100
AcDbCircle
 62
7
  6
CONTINUOUS
 10
10.6717013444
 20
12.1286981213
 40
0.1
100
AcDbArc
 50
157.9437488383
 51
225.5715282959
  0
ARC
  5
374
100
AcDbEntity
  8
0
100
AcDbCircle
 62
7
  6
CONTINUOUS
 10
10.4294834891
 20
13.5486981213
 40
0.06
100
AcDbArc
 50
0.0
 51
81.1984646908
  0
ARC
  5
375
100
AcDbEntity
  8
0
100
AcDbCircle
 62
7
  6
CONTINUOUS
 10
10.5666986003
 20
12.0215793847
 40
0.05
100
AcDbArc
 50
309.9400001938
 51
45.5715281522
  0
ARC
  5
376
100
AcDbEntity
  8
0
100
AcDbCircle
 62
7
  6
CONTINUOUS
 10
21.7204574192
 20
6.491368572
 40
4.2200000006
100
AcDbArc
 50
168.8942851853
 51
171.1690097257
  0
ARC
  5
377
100
AcDbEntity
  8
0
100
AcDbCircle
 62
7
  6
CONTINUOUS
 10
20.6374834891
 20
6.5617043573
 40
1.37252
100
AcDbArc
 50
60.9109121001
 51
65.7406771287
  0
ARC
  5
378
100
AcDbEntity
  8
0
100
AcDbCircle
 62
7
  6
CONTINUOUS
 10
20.6374834891
 20
6.5617043573
 40
1.37252
100
AcDbArc
 50
114.2594044275
 51
120.8742125682
  0
ARC
  5
379
100
AcDbEntity
  8
0
100
AcDbCircle
 62
7
  6
CONTINUOUS
 10
18.8394834891
 20
6.7080159417
 40
0.94
100
AcDbArc
 50
93.2758289597
 51
109.8783240236
  0
ARC
  5
37A
100
AcDbEntity
  8
0
100
AcDbCircle
 62
7
  6
CONTINUOUS
 10
18.1960770246
 20
4.9039544394
 40
0.5427098904
100
AcDbArc
 50
172.5215511923
 51
224.3483385606
  0
ARC
  5
37B
100
AcDbEntity
  8
0
100
AcDbCircle
 62
7
  6
CONTINUOUS
 10
17.7198899536
 20
4.9039544394
 40
0.5427098904
100
AcDbArc
 50
315.6516614394
 51
7.4784488077
  0
ARC
  5
37C
100
AcDbEntity
  8
0
100
AcDbCircle
 62
7
  6
CONTINUOUS
 10
19.4556805962
 20
6.1011999275
 40
0.5
100
AcDbArc
 50
54.9534203508
 51
84.3986824383
  0
ARC
  5
37D
100
AcDbEntity
  8
0
100
AcDbCircle
 62
7
  6
CONTINUOUS
 10
18.2217688267
 20
6.392338935
 40
0.41
100
AcDbArc
 50
63.7136175837
 51
83.7465591694
  0
ARC
  5
37E
100
AcDbEntity
  8
0
100
AcDbCircle
 62
7
  6
CONTINUOUS
 10
17.9538356862
 20
4.4945118506
 40
0.11
100
AcDbArc
 50
195.7842662421
 51
270.0
  0
ARC
  5
37F
100
AcDbEntity
  8
0
100
AcDbCircle
 62
7
  6
CONTINUOUS
 10
17.9621312921
 20
4.4945118506
 40
0.11
100
AcDbArc
 50
270.0
 51
344.2157337579
  0
ARC
  5
380
100
AcDbEntity
  8
0
100
AcDbCircle
 62
7
  6
CONTINUOUS
 10
18.7794834891
 20
6.5121484603
 40
0.11
100
AcDbArc
 50
51.7750897985
 51
86.7241710403
  0
ARC
  5
381
100
AcDbEntity
  8
0
100
AcDbCircle
 62
7
  6
CONTINUOUS
 10
18.4464834891
 20
6.5984151392
 40
0.1
100
AcDbArc
 50
65.6102863759
 51
86.7241710402
  0
ARC
  5
382
100
AcDbEntity
  8
0
100
AcDbCircle
 62
7
  6
CONTINUOUS
 10
19.9844834891
 20
6.6145455886
 40
0.1
100
AcDbArc
 50
180.0
 51
239.1257819437
  0
ARC
  5
383
100
AcDbEntity
  8
0
100
AcDbCircle
 62
7
  6
CONTINUOUS
 10
19.7944834891
 20
6.5842243573
 40
0.09
100
AcDbArc
 50
234.9534203508
 51
360.0
  0
ARC
  5
384
100
AcDbEntity
  8
0
100
AcDbCircle
 62
7
  6
CONTINUOUS
 10
18.8784834891
 20
6.6378425333
 40
0.05
100
AcDbArc
 50
231.7750897985
 51
325.0847937526
  0
ARC
  5
385
100
AcDbEntity
  8
0
100
AcDbCircle
 62
7
  6
CONTINUOUS
 10
18.4544834891
 20
6.7381863809
 40
0.04
100
AcDbArc
 50
180.0
 51
266.7241710402
  0
ARC
  5
386
100
AcDbEntity
  8
0
100
AcDbCircle
 62
7
  6
CONTINUOUS
 10
21.3694834891
 20
6.4742243573
 40
0.035
100
AcDbArc
 50
180.0
 51
307.7089948184
  0
ARC
  5
387
100
AcDbEntity
  8
0
100
AcDbCircle
 62
7
  6
CONTINUOUS
 10
18.9694834891
 20
6.6814260677
 40
0.03
100
AcDbArc
 50
180.0
 51
264.3986824383
  0
ARC
  5
388
100
AcDbEntity
  8
0
100
AcDbCircle
 62
7
  6
CONTINUOUS
 10
18.3944834891
 20
6.7420097021
 40
0.02
100
AcDbArc
 50
0.0
 51
63.7136175836
  0
ARC
  5
389
100
AcDbEntity
  8
0
100
AcDbCircle
 62
7
  6
CONTINUOUS
 10
21.3144834891
 20
6.4898701032
 40
0.02
100
AcDbArc
 50
0.0
 51
119.0890878988
  0
ARC
  5
38A
100
AcDbEntity
  8
0
100
AcDbCircle
 62
7
  6
CONTINUOUS
 10
18.8394834891
 20
7.5604327729
 40
0.94
100
AcDbArc
 50
250.1216759764
 51
266.7241710403
  0
ARC
  5
38B
100
AcDbEntity
  8
0
100
AcDbCircle
 62
7
  6
CONTINUOUS
 10
17.9579834891
 20
7.1342243573
 40
0.45
100
AcDbArc
 50
291.1684560133
 51
301.2417366958
  0
ARC
  5
38C
100
AcDbEntity
  8
0
100
AcDbCircle
 62
7
  6
CONTINUOUS
 10
17.9579834891
 20
7.1342243573
 40
0.45
100
AcDbArc
 50
246.7296969967
 51
248.8315439867
  0
ARC
  5
38D
100
AcDbEntity
  8
0
100
AcDbCircle
 62
7
  6
CONTINUOUS
 10
17.9579834891
 20
7.1342243573
 40
0.45
100
AcDbArc
 50
58.7582633115
 51
113.2703029899
  0
ARC
  5
38E
100
AcDbEntity
  8
0
100
AcDbCircle
 62
7
  6
CONTINUOUS
 10
18.2217688267
 20
7.8761097796
 40
0.41
100
AcDbArc
 50
276.253440829
 51
296.2863824163
  0
ARC
  5
38F
100
AcDbEntity
  8
0
100
AcDbCircle
 62
7
  6
CONTINUOUS
 10
18.0809034952
 20
7.3368562208
 40
0.213
100
AcDbArc
 50
41.7863579426
 51
58.75827275
  0
ARC
  5
390
100
AcDbEntity
  8
0
100
AcDbCircle
 62
7
  6
CONTINUOUS
 10
18.0809034953
 20
6.9315924938
 40
0.213
100
AcDbArc
 50
301.2417272573
 51
318.213642052
  0
ARC
  5
391
100
AcDbEntity
  8
0
100
AcDbCircle
 62
7
  6
CONTINUOUS
 10
17.8592161678
 20
7.3638871889
 40
0.2
100
AcDbArc
 50
113.2702952785
 51
177.0372992989
  0
ARC
  5
392
100
AcDbEntity
  8
0
100
AcDbCircle
 62
7
  6
CONTINUOUS
 10
17.8592161678
 20
6.9045615257
 40
0.2
100
AcDbArc
 50
182.9627007011
 51
246.7297047215
  0
ARC
  5
393
100
AcDbEntity
  8
0
100
AcDbCircle
 62
7
  6
CONTINUOUS
 10
18.7794834891
 20
7.7563002543
 40
0.11
100
AcDbArc
 50
273.2758289597
 51
308.2249102015
  0
ARC
  5
394
100
AcDbEntity
  8
0
100
AcDbCircle
 62
7
  6
CONTINUOUS
 10
18.4464834891
 20
7.6700335754
 40
0.1
100
AcDbArc
 50
273.2758289598
 51
294.3897136241
  0
ARC
  5
395
100
AcDbEntity
  8
0
100
AcDbCircle
 62
7
  6
CONTINUOUS
 10
17.6394834891
 20
6.9542244242
 40
0.06
100
AcDbArc
 50
180.0
 51
270.0
  0
ARC
  5
396
100
AcDbEntity
  8
0
100
AcDbCircle
 62
7
  6
CONTINUOUS
 10
17.6394834891
 20
7.3142242904
 40
0.06
100
AcDbArc
 50
90.0
 51
180.0
  0
ARC
  5
397
100
AcDbEntity
  8
0
100
AcDbCircle
 62
7
  6
CONTINUOUS
 10
18.8784834891
 20
7.6306061813
 40
0.05
100
AcDbArc
 50
34.9152062474
 51
128.2249102015
  0
ARC
  5
398
100
AcDbEntity
  8
0
100
AcDbCircle
 62
7
  6
CONTINUOUS
 10
18.4544834891
 20
7.5302623337
 40
0.04
100
AcDbArc
 50
93.2758289598
 51
180.0
  0
ARC
  5
399
100
AcDbEntity
  8
0
100
AcDbCircle
 62
7
  6
CONTINUOUS
 10
18.2630247656
 20
6.7688352962
 40
0.03125
100
AcDbArc
 50
83.7465591694
 51
138.213642052
  0
ARC
  5
39A
100
AcDbEntity
  8
0
100
AcDbCircle
 62
7
  6
CONTINUOUS
 10
18.2630247656
 20
7.4996134184
 40
0.03125
100
AcDbArc
 50
221.7863579427
 51
276.253440829
  0
ARC
  5
39B
100
AcDbEntity
  8
0
100
AcDbCircle
 62
7
  6
CONTINUOUS
 10
18.9694834891
 20
7.5870226469
 40
0.03
100
AcDbArc
 50
95.6013175617
 51
180.0
  0
ARC
  5
39C
100
AcDbEntity
  8
0
100
AcDbCircle
 62
7
  6
CONTINUOUS
 10
18.3944834891
 20
7.5264390125
 40
0.02
100
AcDbArc
 50
296.2863824164
 51
360.0
  0
ARC
  5
39D
100
AcDbEntity
  8
0
100
AcDbCircle
 62
7
  6
CONTINUOUS
 10
19.4924834891
 20
8.9992243573
 40
0.64
100
AcDbArc
 50
320.6635849213
 51
360.0
  0
ARC
  5
39E
100
AcDbEntity
  8
0
100
AcDbCircle
 62
7
  6
CONTINUOUS
 10
19.4556805962
 20
8.1672487871
 40
0.5
100
AcDbArc
 50
275.6013175617
 51
305.0465796492
  0
ARC
  5
39F
100
AcDbEntity
  8
0
100
AcDbCircle
 62
7
  6
CONTINUOUS
 10
21.7204574192
 20
7.7770801426
 40
4.2200000006
100
AcDbArc
 50
188.8309902743
 51
191.1057148147
  0
ARC
  5
3A0
100
AcDbEntity
  8
0
100
AcDbCircle
 62
7
  6
CONTINUOUS
 10
20.6374834891
 20
7.7067443573
 40
1.37252
100
AcDbArc
 50
239.1257874318
 51
299.0890878999
  0
ARC
  5
3A1
100
AcDbEntity
  8
0
100
AcDbCircle
 62
7
  6
CONTINUOUS
 10
19.7475535954
 20
7.8812293203
 40
0.35
100
AcDbArc
 50
358.85319539
 51
46.7239576672
  0
ARC
  5
3A2
100
AcDbEntity
  8
0
100
AcDbCircle
 62
7
  6
CONTINUOUS
 10
21.5274133828
 20
7.8812293203
 40
0.35
100
AcDbArc
 50
133.2760423328
 51
181.14680461
  0
ARC
  5
3A3
100
AcDbEntity
  8
0
100
AcDbCircle
 62
7
  6
CONTINUOUS
 10
19.9844834891
 20
7.653903126
 40
0.1
100
AcDbArc
 50
120.8742180563
 51
180.0
  0
ARC
  5
3A4
100
AcDbEntity
  8
0
100
AcDbCircle
 62
7
  6
CONTINUOUS
 10
19.7944834891
 20
7.6842243573
 40
0.09
100
AcDbArc
 50
0.0
 51
125.0465796492
  0
ARC
  5
3A5
100
AcDbEntity
  8
0
100
AcDbCircle
 62
7
  6
CONTINUOUS
 10
21.3694834891
 20
7.7942243573
 40
0.035
100
AcDbArc
 50
52.2910051816
 51
180.0
  0
ARC
  5
3A6
100
AcDbEntity
  8
0
100
AcDbCircle
 62
7
  6
CONTINUOUS
 10
21.3144834891
 20
7.7785786115
 40
0.02
100
AcDbArc
 50
240.9109121012
 51
360.0
  0
ARC
  5
3A7
100
AcDbEntity
  8
0
100
AcDbCircle
 62
7
  6
CONTINUOUS
 10
20.6217612024
 20
8.3857197236
 40
2.31
100
AcDbArc
 50
90.0
 51
98.8015353093
  0
ARC
  5
3A8
100
AcDbEntity
  8
0
100
AcDbCircle
 62
7
  6
CONTINUOUS
 10
20.6532057759
 20
8.3857197236
 40
2.31
100
AcDbArc
 50
81.1984646907
 51
90.0
  0
ARC
  5
3A9
100
AcDbEntity
  8
0
100
AcDbCircle
 62
7
  6
CONTINUOUS
 10
21.7824834891
 20
8.9992243573
 40
0.64
100
AcDbArc
 50
180.0
 51
219.3364150787
  0
ARC
  5
3AA
100
AcDbEntity
  8
0
100
AcDbCircle
 62
7
  6
CONTINUOUS
 10
20.0324681198
 20
7.9042104508
 40
0.1000174805
100
AcDbArc
 50
294.2557369642
 51
342.4533138686
  0
ARC
  5
3AB
100
AcDbEntity
  8
0
100
AcDbCircle
 62
7
  6
CONTINUOUS
 10
21.2424988043
 20
7.9042104298
 40
0.1000174555
100
AcDbArc
 50
197.5466424224
 51
245.7443243045
  0
ARC
  5
3AC
100
AcDbEntity
  8
0
100
AcDbCircle
 62
7
  6
CONTINUOUS
 10
26.1899345373
 20
6.015815988
 40
8.0
100
AcDbArc
 50
177.4296127483
 51
187.4784488077
  0
ARC
  5
3AD
100
AcDbEntity
  8
0
100
AcDbCircle
 62
7
  6
CONTINUOUS
 10
22.0137199832
 20
5.6409501295
 40
1.0182742278
100
AcDbArc
 50
58.4578522728
 51
127.708994818
  0
ARC
  5
3AE
100
AcDbEntity
  8
0
100
AcDbCircle
 62
7
  6
CONTINUOUS
 10
23.2631322411
 20
5.2752454702
 40
0.89
100
AcDbArc
 50
29.9241230472
 51
53.3429556259
  0
ARC
  5
3AF
100
AcDbEntity
  8
0
100
AcDbCircle
 62
7
  6
CONTINUOUS
 10
23.9155176534
 20
6.4905890079
 40
0.47
100
AcDbArc
 50
191.2092591463
 51
253.8116350097
  0
ARC
  5
3B0
100
AcDbEntity
  8
0
100
AcDbCircle
 62
7
  6
CONTINUOUS
 10
24.1194834891
 20
5.7922243573
 40
0.035
100
AcDbArc
 50
316.1484090249
 51
360.0
  0
ARC
  5
3B1
100
AcDbEntity
  8
0
100
AcDbCircle
 62
7
  6
CONTINUOUS
 10
24.0644834891
 20
5.7042243573
 40
0.03
100
AcDbArc
 50
180.0
 51
270.0
  0
ARC
  5
3B2
100
AcDbEntity
  8
0
100
AcDbCircle
 62
7
  6
CONTINUOUS
 10
22.5594834891
 20
6.5300864014
 40
0.025
100
AcDbArc
 50
238.457829964
 51
0.00003659
  0
ARC
  5
3B3
100
AcDbEntity
  8
0
100
AcDbCircle
 62
7
  6
CONTINUOUS
 10
22.0137199832
 20
8.6274985851
 40
1.0182742278
100
AcDbArc
 50
232.291005182
 51
301.5421477272
  0
ARC
  5
3B4
100
AcDbEntity
  8
0
100
AcDbCircle
 62
7
  6
CONTINUOUS
 10
23.2631322411
 20
8.9932032444
 40
0.89
100
AcDbArc
 50
306.6570443741
 51
330.0758769528
  0
ARC
  5
3B5
100
AcDbEntity
  8
0
100
AcDbCircle
 62
7
  6
CONTINUOUS
 10
23.9155176534
 20
7.7778597067
 40
0.47
100
AcDbArc
 50
106.1883649903
 51
168.7907408537
  0
ARC
  5
3B6
100
AcDbEntity
  8
0
100
AcDbCircle
 62
7
  6
CONTINUOUS
 10
24.1194834891
 20
8.4762243573
 40
0.035
100
AcDbArc
 50
0.0
 51
43.8515909751
  0
ARC
  5
3B7
100
AcDbEntity
  8
0
100
AcDbCircle
 62
7
  6
CONTINUOUS
 10
24.0644834891
 20
8.5642243573
 40
0.03
100
AcDbArc
 50
90.0
 51
180.0
  0
ARC
  5
3B8
100
AcDbEntity
  8
0
100
AcDbCircle
 62
7
  6
CONTINUOUS
 10
22.5594834891
 20
7.7383623132
 40
0.025
100
AcDbArc
 50
359.99996341
 51
121.542170036
  0
ARC
  5
3B9
100
AcDbEntity
  8
0
100
AcDbCircle
 62
7
  6
CONTINUOUS
 10
21.8054834891
 20
9.9064612393
 40
1.81
100
AcDbArc
 50
197.3632888069
 51
202.0562511617
  0
ARC
  5
3BA
100
AcDbEntity
  8
0
100
AcDbCircle
 62
7
  6
CONTINUOUS
 10
21.8054834891
 20
9.9064612393
 40
1.81
100
AcDbArc
 50
159.3601226816
 51
162.6367111931
  0
ARC
  5
3BB
100
AcDbEntity
  8
0
100
AcDbCircle
 62
7
  6
CONTINUOUS
 10
19.4694834891
 20
9.9064612393
 40
1.81
100
AcDbArc
 50
337.9437488383
 51
20.6398773184
  0
ARC
  5
3BC
100
AcDbEntity
  8
0
100
AcDbCircle
 62
9
  6
CONTINUOUS
 10
18.89394921
 20
9.6104007323
 40
1.3302334054
100
AcDbArc
 50
27.9176596573
 51
30.2146293627
  0
ARC
  5
3BD
100
AcDbEntity
  8
0
100
AcDbCircle
 62
9
  6
CONTINUOUS
 10
18.9732012531
 20
10.1594757115
 40
1.2400507197
100
AcDbArc
 50
331.5513690264
 51
332.1332734117
  0
ARC
  5
3BE
100
AcDbEntity
  8
0
100
AcDbCircle
 62
7
  6
CONTINUOUS
 10
20.2052408127
 20
10.5092243573
 40
0.1
100
AcDbArc
 50
89.9999998498
 51
159.3601224411
  0
ARC
  5
3BF
100
AcDbEntity
  8
0
100
AcDbCircle
 62
7
  6
CONTINUOUS
 10
21.0697261656
 20
10.5092243573
 40
0.1
100
AcDbArc
 50
20.6398775589
 51
90.0000001502
  0
ARC
  5
3C0
100
AcDbEntity
  8
0
100
AcDbCircle
 62
7
  6
CONTINUOUS
 10
21.2397013444
 20
9.1892243573
 40
0.1
100
AcDbArc
 50
157.9437488383
 51
225.5715282959
  0
ARC
  5
3C1
100
AcDbEntity
  8
0
100
AcDbCircle
 62
7
  6
CONTINUOUS
 10
20.0352656339
 20
9.1892243573
 40
0.1
100
AcDbArc
 50
314.4284717041
 51
22.0562511617
  0
ARC
  5
3C2
100
AcDbEntity
  8
0
100
AcDbCircle
 62
7
  6
CONTINUOUS
 10
20.2774834891
 20
10.6092243573
 40
0.06
100
AcDbArc
 50
98.8015353092
 51
180.0
  0
ARC
  5
3C3
100
AcDbEntity
  8
0
100
AcDbCircle
 62
7
  6
CONTINUOUS
 10
20.9974834891
 20
10.6092243573
 40
0.06
100
AcDbArc
 50
0.0
 51
81.1984646908
  0
ARC
  5
3C4
100
AcDbEntity
  8
0
100
AcDbCircle
 62
7
  6
CONTINUOUS
 10
20.140268378
 20
9.0821056207
 40
0.05
100
AcDbArc
 50
134.4284718477
 51
230.0599998062
  0
ARC
  5
3C5
100
AcDbEntity
  8
0
100
AcDbCircle
 62
7
  6
CONTINUOUS
 10
21.1346986003
 20
9.0821056207
 40
0.05
100
AcDbArc
 50
309.9400001938
 51
45.5715281523
  0
ARC
  5
3C6
100
AcDbEntity
  8
0
100
AcDbCircle
 62
7
  6
CONTINUOUS
 10
19.5974834891
 20
10.3564612393
 40
0.02
100
AcDbArc
 50
90.0
 51
180.0
  0
ARC
  5
3C7
100
AcDbEntity
  8
0
100
AcDbCircle
 62
7
  6
CONTINUOUS
 10
19.5974834891
 20
9.4564612393
 40
0.02
100
AcDbArc
 50
180.0
 51
270.0
  0
SPLINE
  5
3C8
100
AcDbEntity
  8
0
100
AcDbSpline
 62
7
  6
CONTINUOUS
 70
0
 71
3
 72
44
 73
40
 74
0
 42
0.0000001
 43
0.0000001
 44
0.0000000001
 40
0.0
 40
0.0
 40
0.0
 40
0.0
 40
0.013088001
 40
0.0260305522
 40
0.0509924943
 40
0.0743277827
 40
0.0959561725
 40
0.1160482176
 40
0.1348462666
 40
0.1525834073
 40
0.1694590343
 40
0.2012310724
 40
0.2311452318
 40
0.2598211229
 40
0.2876643385
 40
0.3149443968
 40
0.3418427493
 40
0.3684827499
 40
0.3949488815
 40
0.44756793
 40
0.5000077275
 40
0.5524475324
 40
0.6050665799
 40
0.6581578785
 40
0.6850562048
 40
0.7123362456
 40
0.7401794437
 40
0.768855306
 40
0.7987694277
 40
0.8305414036
 40
0.8474169908
 40
0.8651540733
 40
0.8839520218
 40
0.9040439685
 40
0.925672267
 40
0.9490075839
 40
0.9739696183
 40
0.986912201
 40
1.0
 40
1.0
 40
1.0
 40
1.0
 10
19.7944834891
 20
7.7677714946
 30
0.0
 10
19.7958758874
 20
7.7677714946
 30
0.0
 10
19.7986460328
 20
7.7676827532
 30
0.0
 10
19.8040500341
 20
7.7671778274
 30
0.0
 10
19.8104725792
 20
7.765985928
 30
0.0
 10
19.8175961935
 20
7.7637907607
 30
0.0
 10
19.8239656276
 20
7.761051635
 30
0.0
 10
19.8296086828
 20
7.7579318853
 30
0.0
 10
19.8346007297
 20
7.7545459664
 30
0.0
 10
19.8390249154
 20
7.7509702527
 30
0.0
 10
19.8441637923
 20
7.7461174551
 30
0.0
 10
19.8496255554
 20
7.7397558528
 30
0.0
 10
19.8549701901
 20
7.7317423234
 30
0.0
 10
19.8592678923
 20
7.7235974498
 30
0.0
 10
19.8627296661
 20
7.7153715538
 30
0.0
 10
19.8655118091
 20
7.7070937522
 30
0.0
 10
19.8677323266
 20
7.6987823613
 30
0.0
 10
19.8694807611
 20
7.6904486672
 30
0.0
 10
19.8712704454
 20
7.6793408462
 30
0.0
 10
19.872645737
 20
7.6654016468
 30
0.0
 10
19.8731687774
 20
7.6486435326
 30
0.0
 10
19.8726458334
 20
7.631884199
 30
0.0
 10
19.87099186
 20
7.6151269023
 30
0.0
 10
19.8684586016
 20
7.6012242976
 30
0.0
 10
19.8655118086
 20
7.5901929911
 30
0.0
 10
19.8627296089
 20
7.5819151113
 30
0.0
 10
19.8592678219
 20
7.5736892576
 30
0.0
 10
19.8549700959
 20
7.5655443991
 30
0.0
 10
19.8496254631
 20
7.557530886
 30
0.0
 10
19.8441636738
 20
7.5511693261
 30
0.0
 10
19.8390248108
 20
7.5463165388
 30
0.0
 10
19.8346006237
 20
7.54274086
 30
0.0
 10
19.8296085974
 20
7.5393549607
 30
0.0
 10
19.8239655657
 20
7.5362352319
 30
0.0
 10
19.8175961475
 20
7.5334961143
 30
0.0
 10
19.8104725318
 20
7.5313009388
 30
0.0
 10
19.8040499409
 20
7.5301091387
 30
0.0
 10
19.7986459738
 20
7.5296042073
 30
0.0
 10
19.7958758657
 20
7.5295147234
 30
0.0
 10
19.7944834889
 20
7.5295147234
 30
0.0
  0
SPLINE
  5
3C9
100
AcDbEntity
  8
0
100
AcDbSpline
 62
7
  6
CONTINUOUS
 70
0
 71
3
 72
16
 73
12
 74
0
 42
0.0000001
 43
0.0000001
 44
0.0000000001
 40
0.0
 40
0.0
 40
0.0
 40
0.0
 40
0.0791028415
 40
0.157114366
 40
0.3064728474
 40
0.444583317
 40
0.5714995206
 40
0.688804038
 40
0.7983074026
 40
0.9016108079
 40
1.0
 40
1.0
 40
1.0
 40
1.0
 10
19.7944834889
 20
7.5295147234
 30
0.0
 10
19.7929332282
 20
7.5295147234
 30
0.0
 10
19.7898530094
 20
7.5296255332
 30
0.0
 10
19.7838753133
 20
7.5302456836
 30
0.0
 10
19.7768381535
 20
7.5316988105
 30
0.0
 10
19.7691370486
 20
7.5343370071
 30
0.0
 10
19.7623641721
 20
7.537578226
 30
0.0
 10
19.7564532129
 20
7.5412224411
 30
0.0
 10
19.7512923396
 20
7.5451390588
 30
0.0
 10
19.7467726252
 20
7.5492442129
 30
0.0
 10
19.7440666239
 20
7.552131729
 30
0.0
 10
19.7428016919
 20
7.5535870773
 30
0.0
  0
SPLINE
  5
3CA
100
AcDbEntity
  8
0
100
AcDbSpline
 62
7
  6
CONTINUOUS
 70
0
 71
3
 72
18
 73
14
 74
0
 42
0.0000001
 43
0.0000001
 44
0.0000000001
 40
0.0
 40
0.0
 40
0.0
 40
0.0
 40
0.1250106656
 40
0.2500257747
 40
0.3750300392
 40
0.5000225726
 40
0.5625432985
 40
0.6250636435
 40
0.7499695192
 40
0.8124836424
 40
0.8749917678
 40
0.9374977731
 40
1.0
 40
1.0
 40
1.0
 40
1.0
 10
19.7428016919
 20
7.324337097
 30
0.0
 10
19.7440398303
 20
7.3271861399
 30
0.0
 10
19.7466704235
 20
7.3328192686
 30
0.0
 10
19.7511529472
 20
7.3409985012
 30
0.0
 10
19.7562643672
 20
7.3488036208
 30
0.0
 10
19.7611421431
 20
7.3548689732
 30
0.0
 10
19.7654734725
 20
7.3593304321
 30
0.0
 10
19.7701062936
 20
7.3634717704
 30
0.0
 10
19.7752375371
 20
7.3670460118
 30
0.0
 10
19.7808341727
 20
7.369764121
 30
0.0
 10
19.785246609
 20
7.3713008124
 30
0.0
 10
19.7898200882
 20
7.3722571976
 30
0.0
 10
19.7929303411
 20
7.3724803164
 30
0.0
 10
19.794483489
 20
7.3724803164
 30
0.0
  0
SPLINE
  5
3CB
100
AcDbEntity
  8
0
100
AcDbSpline
 62
7
  6
CONTINUOUS
 70
0
 71
3
 72
29
 73
25
 74
0
 42
0.0000001
 43
0.0000001
 44
0.0000000001
 40
0.0
 40
0.0
 40
0.0
 40
0.0
 40
0.0156275901
 40
0.0312580366
 40
0.0468860088
 40
0.0625168644
 40
0.0937476269
 40
0.1249909135
 40
0.1562402273
 40
0.1874923703
 40
0.2187459225
 40
0.2499998318
 40
0.2812528573
 40
0.3125063986
 40
0.3437594446
 40
0.3750120199
 40
0.4375103645
 40
0.5000099861
 40
0.5625099867
 40
0.6250097729
 40
0.687509899
 40
0.7500099541
 40
0.8750042302
 40
1.0
 40
1.0
 40
1.0
 40
1.0
 10
19.794483489
 20
7.3724803164
 30
0.0
 10
19.7958779653
 20
7.3724803164
 30
0.0
 10
19.7986700359
 20
7.372300675
 30
0.0
 10
19.8027908977
 20
7.3715259509
 30
0.0
 10
19.8067935215
 20
7.3702758368
 30
0.0
 10
19.8119126324
 20
7.3680424012
 30
0.0
 10
19.8178567095
 20
7.3643258858
 30
0.0
 10
19.8241861717
 20
7.3588213443
 30
0.0
 10
19.8297844775
 20
7.3525827909
 30
0.0
 10
19.8347361463
 20
7.345826276
 30
0.0
 10
19.8391277771
 20
7.3386965774
 30
0.0
 10
19.8430344232
 20
7.3312924909
 30
0.0
 10
19.8465207753
 20
7.3236830305
 30
0.0
 10
19.8496387602
 20
7.3159164869
 30
0.0
 10
19.8524334274
 20
7.3080285439
 30
0.0
 10
19.8557777285
 20
7.2973853543
 30
0.0
 10
19.8593230363
 20
7.2838924795
 30
0.0
 10
19.862760508
 20
7.2675133402
 30
0.0
 10
19.8655287968
 20
7.2510091482
 30
0.0
 10
19.8677415174
 20
7.2344225894
 30
0.0
 10
19.8694856669
 20
7.2177808886
 30
0.0
 10
19.8712755784
 20
7.195543673
 30
0.0
 10
19.8726469097
 20
7.1676864058
 30
0.0
 10
19.8729946348
 20
7.1453779413
 30
0.0
 10
19.8729946348
 20
7.1342243573
 30
0.0
  0
SPLINE
  5
3CC
100
AcDbEntity
  8
0
100
AcDbSpline
 62
7
  6
CONTINUOUS
 70
0
 71
3
 72
18
 73
14
 74
0
 42
0.0000001
 43
0.0000001
 44
0.0000000001
 40
0.0
 40
0.0
 40
0.0
 40
0.0
 40
0.0625023463
 40
0.1250085355
 40
0.1875165364
 40
0.250030703
 40
0.3749365059
 40
0.4374567825
 40
0.4999774643
 40
0.6249699379
 40
0.7499741752
 40
0.8749893116
 40
1.0
 40
1.0
 40
1.0
 40
1.0
 10
19.794483489
 20
6.8959680112
 30
0.0
 10
19.7929303376
 20
6.8959680112
 30
0.0
 10
19.7898201117
 20
6.8961916631
 30
0.0
 10
19.7852466222
 20
6.8971478787
 30
0.0
 10
19.7808341723
 20
6.8986845875
 30
0.0
 10
19.7752375492
 20
6.9014027071
 30
0.0
 10
19.7701062987
 20
6.9049769399
 30
0.0
 10
19.7654734791
 20
6.9091182765
 30
0.0
 10
19.7611421505
 20
6.9135797334
 30
0.0
 10
19.7562643742
 20
6.919645085
 30
0.0
 10
19.7511529516
 20
6.9274502052
 30
0.0
 10
19.7466704254
 20
6.9356294411
 30
0.0
 10
19.744039831
 20
6.9412625731
 30
0.0
 10
19.7428016919
 20
6.9441116176
 30
0.0
  0
SPLINE
  5
3CD
100
AcDbEntity
  8
0
100
AcDbSpline
 62
7
  6
CONTINUOUS
 70
0
 71
3
 72
15
 73
11
 74
0
 42
0.0000001
 43
0.0000001
 44
0.0000000001
 40
0.0
 40
0.0
 40
0.0
 40
0.0
 40
0.1249945657
 40
0.2499898412
 40
0.3749886131
 40
0.4999896432
 40
0.6249919851
 40
0.7499940751
 40
0.8749984399
 40
1.0
 40
1.0
 40
1.0
 40
1.0
 10
19.6949660953
 20
7.1342243573
 30
0.0
 10
19.6949660953
 20
7.1259974911
 30
0.0
 10
19.6955966736
 20
7.1095370105
 30
0.0
 10
19.6983787058
 20
7.0849929136
 30
0.0
 10
19.7028447955
 20
7.0607009202
 30
0.0
 10
19.7087823477
 20
7.0367305041
 30
0.0
 10
19.7159563191
 20
7.0131044278
 30
0.0
 10
19.7241377602
 20
6.9898110911
 30
0.0
 10
19.7331196946
 20
6.9668171389
 30
0.0
 10
19.7395225248
 20
6.9516572101
 30
0.0
 10
19.7428016919
 20
6.9441116176
 30
0.0
  0
SPLINE
  5
3CE
100
AcDbEntity
  8
0
100
AcDbSpline
 62
7
  6
CONTINUOUS
 70
0
 71
3
 72
28
 73
24
 74
0
 42
0.0000001
 43
0.0000001
 44
0.0000000001
 40
0.0
 40
0.0
 40
0.0
 40
0.0
 40
0.068386361
 40
0.1354129244
 40
0.168327807
 40
0.2008049066
 40
0.2642990738
 40
0.3257375029
 40
0.3852063866
 40
0.4430422827
 40
0.471574133
 40
0.4999885589
 40
0.5284042188
 40
0.5569381779
 40
0.5857044979
 40
0.6148049894
 40
0.6742659928
 40
0.7357019284
 40
0.7991979988
 40
0.8316771439
 40
0.8645927927
 40
0.9316164329
 40
1.0
 40
1.0
 40
1.0
 40
1.0
 10
19.7428016919
 20
6.7148616373
 30
0.0
 10
19.7395509773
 20
6.7111215767
 30
0.0
 10
19.7332135615
 20
6.7036282798
 30
0.0
 10
19.7256969668
 20
6.6940168043
 30
0.0
 10
19.7200799355
 20
6.6862360992
 30
0.0
 10
19.7148342883
 20
6.6785081427
 30
0.0
 10
19.7088940162
 20
6.6687580963
 30
0.0
 10
19.7029336925
 20
6.6567759282
 30
0.0
 10
19.6984352032
 20
6.6445999413
 30
0.0
 10
19.6960631474
 20
6.6342630295
 30
0.0
 10
19.6951260514
 20
6.6259916528
 30
0.0
 10
19.6948950182
 20
6.6198045436
 30
0.0
 10
19.6951313447
 20
6.6136177297
 30
0.0
 10
19.6958329614
 20
6.607440627
 30
0.0
 10
19.6969997452
 20
6.601283975
 30
0.0
 10
19.6991606468
 20
6.5930556805
 30
0.0
 10
19.7029338596
 20
6.5828323106
 30
0.0
 10
19.7088929949
 20
6.5708517709
 30
0.0
 10
19.7148349691
 20
6.5611021797
 30
0.0
 10
19.7200817757
 20
6.5533746684
 30
0.0
 10
19.7256990004
 20
6.5455941083
 30
0.0
 10
19.7332145
 20
6.5359822616
 30
0.0
 10
19.7395511101
 20
6.5284888054
 30
0.0
 10
19.7428016919
 20
6.5247488976
 30
0.0
  0
SPLINE
  5
3CF
100
AcDbEntity
  8
0
100
AcDbSpline
 62
7
  6
CONTINUOUS
 70
0
 71
3
 72
28
 73
24
 74
0
 42
0.0000001
 43
0.0000001
 44
0.0000000001
 40
0.0
 40
0.0
 40
0.0
 40
0.0
 40
0.0312018502
 40
0.046830681
 40
0.0624624645
 40
0.0936950266
 40
0.1249401314
 40
0.1561912589
 40
0.1874452162
 40
0.2187005835
 40
0.2499563086
 40
0.2812111489
 40
0.3124665048
 40
0.3437213653
 40
0.3749757547
 40
0.4374777269
 40
0.4999809758
 40
0.562484603
 40
0.6249880158
 40
0.6874917687
 40
0.7499954499
 40
0.8749969781
 40
1.0
 40
1.0
 40
1.0
 40
1.0
 10
19.794483489
 20
6.8959680112
 30
0.0
 10
19.7972675217
 20
6.8959680112
 30
0.0
 10
19.8014661799
 20
6.8965082725
 30
0.0
 10
19.8067926955
 20
6.8981727321
 30
0.0
 10
19.8119130628
 20
6.9004063826
 30
0.0
 10
19.817856532
 20
6.9041227809
 30
0.0
 10
19.8241861921
 20
6.9096273584
 30
0.0
 10
19.8297844494
 20
6.9158659002
 30
0.0
 10
19.8347361347
 20
6.9226224175
 30
0.0
 10
19.8391277644
 20
6.9297521153
 30
0.0
 10
19.8430344131
 20
6.9371562028
 30
0.0
 10
19.8465207667
 20
6.9447656639
 30
0.0
 10
19.849638753
 20
6.9525322082
 30
0.0
 10
19.8524334212
 20
6.9604201521
 30
0.0
 10
19.8557777236
 20
6.9710633428
 30
0.0
 10
19.8593230326
 20
6.9845562191
 30
0.0
 10
19.8627605053
 20
7.0009353603
 30
0.0
 10
19.865528795
 20
7.0174395541
 30
0.0
 10
19.8677415164
 20
7.0340261147
 30
0.0
 10
19.8694856659
 20
7.0506678173
 30
0.0
 10
19.8712755782
 20
7.0729050352
 30
0.0
 10
19.8726469094
 20
7.1007623054
 30
0.0
 10
19.8729946348
 20
7.1230707722
 30
0.0
 10
19.8729946348
 20
7.1342243573
 30
0.0
  0
SPLINE
  5
3D0
100
AcDbEntity
  8
0
100
AcDbSpline
 62
7
  6
CONTINUOUS
 70
0
 71
3
 72
28
 73
24
 74
0
 42
0.0000001
 43
0.0000001
 44
0.0000000001
 40
0.0
 40
0.0
 40
0.0
 40
0.0
 40
0.0683834613
 40
0.1354070048
 40
0.1683226909
 40
0.200801849
 40
0.2642976903
 40
0.32573361
 40
0.3851946832
 40
0.4142951437
 40
0.4430614604
 40
0.471595491
 40
0.5000112119
 40
0.5284256542
 40
0.5569575124
 40
0.6147935354
 40
0.6742624243
 40
0.7357008569
 40
0.7991951251
 40
0.8316722396
 40
0.864587116
 40
0.9316136586
 40
1.0
 40
1.0
 40
1.0
 40
1.0
 10
19.7428016919
 20
7.743699817
 30
0.0
 10
19.7395511157
 20
7.7399599156
 30
0.0
 10
19.733214527
 20
7.7324664619
 30
0.0
 10
19.7256990495
 20
7.7228546165
 30
0.0
 10
19.7200818021
 20
7.715074079
 30
0.0
 10
19.7148349708
 20
7.7073466021
 30
0.0
 10
19.70889301
 20
7.6975970195
 30
0.0
 10
19.7029339881
 20
7.685616444
 30
0.0
 10
19.6991606753
 20
7.6753931169
 30
0.0
 10
19.6969997219
 20
7.6671648308
 30
0.0
 10
19.6958330306
 20
7.6610081585
 30
0.0
 10
19.6951314388
 20
7.6548310471
 30
0.0
 10
19.6948950575
 20
7.6486442269
 30
0.0
 10
19.6951260325
 20
7.6424571082
 30
0.0
 10
19.6960632036
 20
7.6341857282
 30
0.0
 10
19.6984352815
 20
7.6238488209
 30
0.0
 10
19.7029336692
 20
7.6116727869
 30
0.0
 10
19.7088940283
 20
7.5996906258
 30
0.0
 10
19.7148343104
 20
7.5899405791
 30
0.0
 10
19.7200799578
 20
7.5822126148
 30
0.0
 10
19.7256969814
 20
7.574431907
 30
0.0
 10
19.7332135676
 20
7.5648204314
 30
0.0
 10
19.7395509788
 20
7.5573271362
 30
0.0
 10
19.7428016919
 20
7.5535870773
 30
0.0
  0
SPLINE
  5
3D1
100
AcDbEntity
  8
0
100
AcDbSpline
 62
7
  6
CONTINUOUS
 70
0
 71
3
 72
15
 73
11
 74
0
 42
0.0000001
 43
0.0000001
 44
0.0000000001
 40
0.0
 40
0.0
 40
0.0
 40
0.0
 40
0.1250015549
 40
0.2500059174
 40
0.3750080126
 40
0.5000103646
 40
0.6250114019
 40
0.750010196
 40
0.8750054698
 40
1.0
 40
1.0
 40
1.0
 40
1.0
 10
19.7428016919
 20
7.324337097
 30
0.0
 10
19.7395225249
 20
7.3167915049
 30
0.0
 10
19.7331196961
 20
7.301631576
 30
0.0
 10
19.7241377597
 20
7.2786376248
 30
0.0
 10
19.7159563194
 20
7.2553442868
 30
0.0
 10
19.7087823473
 20
7.2317182092
 30
0.0
 10
19.7028447944
 20
7.2077477906
 30
0.0
 10
19.6983787053
 20
7.1834557952
 30
0.0
 10
19.6955966736
 20
7.1589116993
 30
0.0
 10
19.6949660953
 20
7.1424512212
 30
0.0
 10
19.6949660953
 20
7.1342243573
 30
0.0
  0
SPLINE
  5
3D2
100
AcDbEntity
  8
0
100
AcDbSpline
 62
7
  6
CONTINUOUS
 70
0
 71
3
 72
16
 73
12
 74
0
 42
0.0000001
 43
0.0000001
 44
0.0000000001
 40
0.0
 40
0.0
 40
0.0
 40
0.0
 40
0.0983890801
 40
0.2016923511
 40
0.311195611
 40
0.4285000405
 40
0.5554162013
 40
0.6935265519
 40
0.84288491
 40
0.9208961793
 40
1.0
 40
1.0
 40
1.0
 40
1.0
 10
19.7428016919
 20
6.7148616373
 30
0.0
 10
19.7440666219
 20
6.7163169834
 30
0.0
 10
19.746772619
 20
6.7192044947
 30
0.0
 10
19.7512923258
 20
6.7233096437
 30
0.0
 10
19.7564531901
 20
6.7272262578
 30
0.0
 10
19.7623641419
 20
6.730870474
 30
0.0
 10
19.7691370096
 20
6.7341116811
 30
0.0
 10
19.776838101
 20
6.7367499378
 30
0.0
 10
19.7838752494
 20
6.7382029
 30
0.0
 10
19.7898529457
 20
6.7388234424
 30
0.0
 10
19.7929332098
 20
6.7389333149
 30
0.0
 10
19.7944834891
 20
6.7389333149
 30
0.0
  0
SPLINE
  5
3D3
100
AcDbEntity
  8
0
100
AcDbSpline
 62
7
  6
CONTINUOUS
 70
0
 71
3
 72
44
 73
40
 74
0
 42
0.0000001
 43
0.0000001
 44
0.0000000001
 40
0.0
 40
0.0
 40
0.0
 40
0.0
 40
0.013088001
 40
0.0260305522
 40
0.0509924943
 40
0.0743277827
 40
0.0959561726
 40
0.1160482177
 40
0.1348462666
 40
0.1525834073
 40
0.1694590343
 40
0.2012310724
 40
0.2311452318
 40
0.2598211229
 40
0.2876643386
 40
0.3149443968
 40
0.3418427493
 40
0.3684827499
 40
0.3949488815
 40
0.44756793
 40
0.5000077275
 40
0.5524475324
 40
0.6050665799
 40
0.6581578785
 40
0.6850562048
 40
0.7123362457
 40
0.7401794437
 40
0.768855306
 40
0.7987694277
 40
0.8305414036
 40
0.8474169908
 40
0.8651540733
 40
0.8839520218
 40
0.9040439685
 40
0.925672267
 40
0.9490075839
 40
0.9739696183
 40
0.986912201
 40
1.0
 40
1.0
 40
1.0
 40
1.0
 10
19.7944834891
 20
6.7389333149
 30
0.0
 10
19.7958758874
 20
6.7389333149
 30
0.0
 10
19.7986460328
 20
6.7388445735
 30
0.0
 10
19.8040500342
 20
6.7383396477
 30
0.0
 10
19.8104725792
 20
6.7371477483
 30
0.0
 10
19.8175961935
 20
6.734952581
 30
0.0
 10
19.8239656276
 20
6.7322134553
 30
0.0
 10
19.8296086828
 20
6.7290937056
 30
0.0
 10
19.8346007297
 20
6.7257077867
 30
0.0
 10
19.8390249154
 20
6.722132073
 30
0.0
 10
19.8441637923
 20
6.7172792754
 30
0.0
 10
19.8496255554
 20
6.7109176731
 30
0.0
 10
19.8549701901
 20
6.7029041437
 30
0.0
 10
19.8592678923
 20
6.6947592701
 30
0.0
 10
19.8627296661
 20
6.6865333741
 30
0.0
 10
19.8655118091
 20
6.6782555725
 30
0.0
 10
19.8677323266
 20
6.6699441816
 30
0.0
 10
19.8694807611
 20
6.6616104875
 30
0.0
 10
19.8712704454
 20
6.6505026665
 30
0.0
 10
19.872645737
 20
6.6365634671
 30
0.0
 10
19.8731687774
 20
6.6198053529
 30
0.0
 10
19.8726458334
 20
6.6030460193
 30
0.0
 10
19.87099186
 20
6.5862887226
 30
0.0
 10
19.8684586016
 20
6.5723861179
 30
0.0
 10
19.8655118086
 20
6.5613548114
 30
0.0
 10
19.8627296089
 20
6.5530769316
 30
0.0
 10
19.8592678219
 20
6.5448510779
 30
0.0
 10
19.8549700959
 20
6.5367062194
 30
0.0
 10
19.8496254631
 20
6.5286927063
 30
0.0
 10
19.8441636738
 20
6.5223311464
 30
0.0
 10
19.8390248108
 20
6.5174783591
 30
0.0
 10
19.8346006237
 20
6.5139026803
 30
0.0
 10
19.8296085974
 20
6.510516781
 30
0.0
 10
19.8239655657
 20
6.5073970523
 30
0.0
 10
19.8175961475
 20
6.5046579346
 30
0.0
 10
19.8104725318
 20
6.5024627591
 30
0.0
 10
19.8040499409
 20
6.501270959
 30
0.0
 10
19.7986459738
 20
6.5007660276
 30
0.0
 10
19.7958758657
 20
6.5006765437
 30
0.0
 10
19.7944834889
 20
6.5006765437
 30
0.0
  0
SPLINE
  5
3D4
100
AcDbEntity
  8
0
100
AcDbSpline
 62
7
  6
CONTINUOUS
 70
0
 71
3
 72
16
 73
12
 74
0
 42
0.0000001
 43
0.0000001
 44
0.0000000001
 40
0.0
 40
0.0
 40
0.0
 40
0.0
 40
0.0791028414
 40
0.1571143659
 40
0.3064728473
 40
0.444583317
 40
0.5714995206
 40
0.688804038
 40
0.7983074026
 40
0.9016108079
 40
1.0
 40
1.0
 40
1.0
 40
1.0
 10
19.7944834889
 20
6.5006765437
 30
0.0
 10
19.7929332282
 20
6.5006765437
 30
0.0
 10
19.7898530094
 20
6.5007873535
 30
0.0
 10
19.7838753133
 20
6.5014075039
 30
0.0
 10
19.7768381535
 20
6.5028606308
 30
0.0
 10
19.7691370486
 20
6.5054988274
 30
0.0
 10
19.7623641721
 20
6.5087400463
 30
0.0
 10
19.7564532129
 20
6.5123842614
 30
0.0
 10
19.7512923396
 20
6.5163008791
 30
0.0
 10
19.7467726252
 20
6.5204060332
 30
0.0
 10
19.7440666239
 20
6.5232935493
 30
0.0
 10
19.7428016919
 20
6.5247488976
 30
0.0
  0
SPLINE
  5
3D5
100
AcDbEntity
  8
0
100
AcDbSpline
 62
7
  6
CONTINUOUS
 70
0
 71
3
 72
16
 73
12
 74
0
 42
0.0000001
 43
0.0000001
 44
0.0000000001
 40
0.0
 40
0.0
 40
0.0
 40
0.0
 40
0.0983890801
 40
0.2016923511
 40
0.3111956111
 40
0.4285000405
 40
0.5554162014
 40
0.693526552
 40
0.84288491
 40
0.9208961794
 40
1.0
 40
1.0
 40
1.0
 40
1.0
 10
19.7428016919
 20
7.743699817
 30
0.0
 10
19.7440666219
 20
7.7451551631
 30
0.0
 10
19.746772619
 20
7.7480426744
 30
0.0
 10
19.7512923258
 20
7.7521478234
 30
0.0
 10
19.7564531901
 20
7.7560644375
 30
0.0
 10
19.7623641419
 20
7.7597086537
 30
0.0
 10
19.7691370096
 20
7.7629498608
 30
0.0
 10
19.776838101
 20
7.7655881175
 30
0.0
 10
19.7838752495
 20
7.7670410797
 30
0.0
 10
19.7898529457
 20
7.7676616221
 30
0.0
 10
19.7929332098
 20
7.7677714946
 30
0.0
 10
19.7944834891
 20
7.7677714946
 30
0.0
  0
SPLINE
  5
3D6
100
AcDbEntity
  8
0
100
AcDbSpline
 62
7
  6
CONTINUOUS
 70
0
 71
3
 72
21
 73
17
 74
0
 42
0.0000001
 43
0.0000001
 44
0.0000000001
 40
0.0
 40
0.0
 40
0.0
 40
0.0
 40
0.0625023633
 40
0.1250071786
 40
0.1875096689
 40
0.2500137629
 40
0.3749983128
 40
0.43750158
 40
0.5000029876
 40
0.5625048871
 40
0.6250049641
 40
0.6875053704
 40
0.7500044832
 40
0.8125036107
 40
0.8750027008
 40
1.0
 40
1.0
 40
1.0
 40
1.0
 10
10.0694834891
 20
10.9925104181
 30
0.0
 10
10.0632910605
 20
10.9925104181
 30
0.0
 10
10.0509031702
 20
10.9928608855
 30
0.0
 10
10.0323822112
 20
10.9944163198
 30
0.0
 10
10.0139688142
 20
10.9969427515
 30
0.0
 10
9.9896138033
 20
11.0014886561
 30
0.0
 10
9.9655818651
 20
11.0075951214
 30
0.0
 10
9.941891197
 20
11.0148239324
 30
0.0
 10
9.9242682112
 20
11.0207081032
 30
0.0
 10
9.9067759585
 20
11.02696586
 30
0.0
 10
9.8893907429
 20
11.0335140026
 30
0.0
 10
9.8720920976
 20
11.0402858668
 30
0.0
 10
9.8548561312
 20
11.0472149631
 30
0.0
 10
9.8376640059
 20
11.05425151
 30
0.0
 10
9.8147719383
 20
11.0637079121
 30
0.0
 10
9.7976118085
 20
11.0708218408
 30
0.0
 10
9.7861550578
 20
11.0755238961
 30
0.0
  0
SPLINE
  5
3D7
100
AcDbEntity
  8
0
100
AcDbSpline
 62
7
  6
CONTINUOUS
 70
0
 71
3
 72
22
 73
18
 74
0
 42
0.0000001
 43
0.0000001
 44
0.0000000001
 40
0.0
 40
0.0
 40
0.0
 40
0.0
 40
0.1249558822
 40
0.249914818
 40
0.3124019029
 40
0.3748876956
 40
0.4373744323
 40
0.4998749019
 40
0.562380168
 40
0.6248790063
 40
0.687387731
 40
0.7499085607
 40
0.8124258375
 40
0.8436912987
 40
0.8749643091
 40
0.9375023766
 40
1.0
 40
1.0
 40
1.0
 40
1.0
 10
9.7861550578
 20
11.5330196772
 30
0.0
 10
9.797268199
 20
11.5389303498
 30
0.0
 10
9.8195464715
 20
11.550655417
 30
0.0
 10
9.8476539073
 20
11.5648144485
 30
0.0
 10
9.8703657193
 20
11.5756806401
 30
0.0
 10
9.8875387235
 20
11.5835365053
 30
0.0
 10
9.9048725326
 20
11.5910353443
 30
0.0
 10
9.9223845854
 20
11.5981147045
 30
0.0
 10
9.9400926956
 20
11.6046942196
 30
0.0
 10
9.9580115013
 20
11.6106819295
 30
0.0
 10
9.9761477045
 20
11.6159846819
 30
0.0
 10
9.9944964079
 20
11.6205093312
 30
0.0
 10
10.0099515635
 20
11.6235535554
 30
0.0
 10
10.0223982913
 20
11.6255040257
 30
0.0
 10
10.0348954894
 20
11.6271161055
 30
0.0
 10
10.0505899011
 20
11.6284842786
 30
0.0
 10
10.0631878995
 20
11.6288594536
 30
0.0
 10
10.0694834891
 20
11.6288594536
 30
0.0
  0
SPLINE
  5
3D8
100
AcDbEntity
  8
0
100
AcDbSpline
 62
7
  6
CONTINUOUS
 70
0
 71
3
 72
22
 73
18
 74
0
 42
0.0000001
 43
0.0000001
 44
0.0000000001
 40
0.0
 40
0.0
 40
0.0
 40
0.0
 40
0.0624977506
 40
0.1250362546
 40
0.1563095789
 40
0.1875752741
 40
0.2500924313
 40
0.3126129646
 40
0.3751216706
 40
0.4376203603
 40
0.5001254823
 40
0.5626260316
 40
0.6251127615
 40
0.6875984283
 40
0.7500853981
 40
0.8750442299
 40
1.0
 40
1.0
 40
1.0
 40
1.0
 10
10.0694834891
 20
11.6288594536
 30
0.0
 10
10.0757790923
 20
11.6288594536
 30
0.0
 10
10.0883771485
 20
11.6284842961
 30
0.0
 10
10.1040716557
 20
11.627116207
 30
0.0
 10
10.1165689731
 20
11.625504269
 30
0.0
 10
10.1290157668
 20
11.6235539257
 30
0.0
 10
10.1444708871
 20
11.6205095807
 30
0.0
 10
10.1628194757
 20
11.6159846435
 30
0.0
 10
10.1809555849
 20
11.6106817374
 30
0.0
 10
10.1988743553
 20
11.6046940193
 30
0.0
 10
10.2165824591
 20
11.5981145419
 30
0.0
 10
10.2340944977
 20
11.5910351611
 30
0.0
 10
10.2514283396
 20
11.5835364086
 30
0.0
 10
10.2686013756
 20
11.5756806674
 30
0.0
 10
10.2913131811
 20
11.5648145349
 30
0.0
 10
10.3194205361
 20
11.5506554087
 30
0.0
 10
10.3416987881
 20
11.5389303451
 30
0.0
 10
10.3528119205
 20
11.5330196772
 30
0.0
  0
SPLINE
  5
3D9
100
AcDbEntity
  8
0
100
AcDbSpline
 62
7
  6
CONTINUOUS
 70
0
 71
3
 72
21
 73
17
 74
0
 42
0.0000001
 43
0.0000001
 44
0.0000000001
 40
0.0
 40
0.0
 40
0.0
 40
0.0
 40
0.1249972989
 40
0.187496389
 40
0.2499955165
 40
0.3124946291
 40
0.3749950351
 40
0.4374951117
 40
0.4999970101
 40
0.5624984169
 40
0.6250016827
 40
0.7499862341
 40
0.8124903309
 40
0.8749928236
 40
0.9374976386
 40
1.0
 40
1.0
 40
1.0
 40
1.0
 10
10.3528119205
 20
11.0755238961
 30
0.0
 10
10.3413551698
 20
11.0708218408
 30
0.0
 10
10.3241950402
 20
11.0637079118
 30
0.0
 10
10.3013029724
 20
11.0542515103
 30
0.0
 10
10.2841108472
 20
11.0472149631
 30
0.0
 10
10.2668748808
 20
11.0402858668
 30
0.0
 10
10.2495762355
 20
11.0335140029
 30
0.0
 10
10.2321910202
 20
11.0269658601
 30
0.0
 10
10.2146987677
 20
11.0207081036
 30
0.0
 10
10.1970757822
 20
11.0148239327
 30
0.0
 10
10.1733851142
 20
11.0075951216
 30
0.0
 10
10.1493531757
 20
11.0014886563
 30
0.0
 10
10.1249981642
 20
10.9969427515
 30
0.0
 10
10.1065847666
 20
10.99441632
 30
0.0
 10
10.0880638077
 20
10.9928608852
 30
0.0
 10
10.0756759175
 20
10.9925104181
 30
0.0
 10
10.0694834891
 20
10.9925104181
 30
0.0
  0
SPLINE
  5
3DA
100
AcDbEntity
  8
0
100
AcDbSpline
 62
7
  6
CONTINUOUS
 70
0
 71
3
 72
39
 73
35
 74
0
 42
0.0000001
 43
0.0000001
 44
0.0000000001
 40
0.0
 40
0.0
 40
0.0
 40
0.0
 40
0.0665555395
 40
0.0998282259
 40
0.1330198418
 40
0.1660597732
 40
0.1988775011
 40
0.2313905483
 40
0.2635150892
 40
0.295163945
 40
0.3262541909
 40
0.3567154794
 40
0.3865056174
 40
0.4156255407
 40
0.4441410438
 40
0.4721921123
 40
0.4861123628
 40
0.4999999966
 40
0.5138876301
 40
0.5278078821
 40
0.5558589517
 40
0.5843744521
 40
0.6134943727
 40
0.6432845099
 40
0.6737458038
 40
0.7048360428
 40
0.7364849093
 40
0.7686094412
 40
0.8011224977
 40
0.8339402232
 40
0.8669801556
 40
0.9001717751
 40
0.9334444592
 40
1.0
 40
1.0
 40
1.0
 40
1.0
 10
9.7045228436
 20
11.0755238961
 30
0.0
 10
9.6987857285
 20
11.0708146669
 30
0.0
 10
9.690215657
 20
11.0637084672
 30
0.0
 10
9.6787789231
 20
11.0542604839
 30
0.0
 10
9.6701923852
 20
11.0472310612
 30
0.0
 10
9.6615838111
 20
11.0403091269
 30
0.0
 10
9.6529457584
 20
11.0335457214
 30
0.0
 10
9.6442653654
 20
11.0270043701
 30
0.0
 10
9.6355320454
 20
11.0207543067
 30
0.0
 10
9.6267343463
 20
11.0148746239
 30
0.0
 10
9.6178611468
 20
11.0094549959
 30
0.0
 10
9.6089033948
 20
11.0045934083
 30
0.0
 10
9.5998545586
 20
11.0003965409
 30
0.0
 10
9.5907131365
 20
10.9969743283
 30
0.0
 10
9.5814868648
 20
10.9944323772
 30
0.0
 10
9.5737193235
 20
10.9931230086
 30
0.0
 10
9.5675092507
 20
10.9925979581
 30
0.0
 10
9.5628586291
 20
10.9924672207
 30
0.0
 10
9.5582080069
 20
10.9925979543
 30
0.0
 10
9.5519979348
 20
10.9931230143
 30
0.0
 10
9.5442303927
 20
10.9944323751
 30
0.0
 10
9.5350041205
 20
10.996974325
 30
0.0
 10
9.5258627013
 20
11.0003965426
 30
0.0
 10
9.5168138623
 20
11.0045934046
 30
0.0
 10
9.5078561132
 20
11.009454997
 30
0.0
 10
9.4989829089
 20
11.0148746191
 30
0.0
 10
9.4901852158
 20
11.0207543098
 30
0.0
 10
9.4814518876
 20
11.0270043639
 30
0.0
 10
9.4727715008
 20
11.0335457231
 30
0.0
 10
9.4641334435
 20
11.0403091241
 30
0.0
 10
9.4555248702
 20
11.0472310598
 30
0.0
 10
9.4469383339
 20
11.0542604847
 30
0.0
 10
9.4355015972
 20
11.0637084651
 30
0.0
 10
9.4269315275
 20
11.0708146668
 30
0.0
 10
9.4211944123
 20
11.0755238961
 30
0.0
  0
SPLINE
  5
3DB
100
AcDbEntity
  8
0
100
AcDbSpline
 62
7
  6
CONTINUOUS
 70
0
 71
3
 72
35
 73
31
 74
0
 42
0.0000001
 43
0.0000001
 44
0.0000000001
 40
0.0
 40
0.0
 40
0.0
 40
0.0
 40
0.0690372408
 40
0.1032427633
 40
0.1371650491
 40
0.2038652897
 40
0.2365061306
 40
0.2685689231
 40
0.2999704131
 40
0.3306545252
 40
0.3605766116
 40
0.389707823
 40
0.4180816838
 40
0.4458048715
 40
0.4730390778
 40
0.5000010556
 40
0.5269624494
 40
0.5541963302
 40
0.5819199475
 40
0.6102937713
 40
0.6394241428
 40
0.669345614
 40
0.7000298904
 40
0.731431317
 40
0.7634939824
 40
0.7961349255
 40
0.862834976
 40
0.8967572664
 40
0.9309628124
 40
1.0
 40
1.0
 40
1.0
 40
1.0
 10
9.4211944123
 20
11.5330196772
 30
0.0
 10
9.426725837
 20
11.5389036015
 30
0.0
 10
9.4350443381
 20
11.5476598547
 30
0.0
 10
9.4462843088
 20
11.5591107681
 30
0.0
 10
9.4574859385
 20
11.5702135525
 30
0.0
 10
9.4688475781
 20
11.5808960868
 30
0.0
 10
9.4804681662
 20
11.5909608664
 30
0.0
 10
9.4892086584
 20
11.5980351081
 30
0.0
 10
9.4980497885
 20
11.6046081867
 30
0.0
 10
9.5069985113
 20
11.6105972425
 30
0.0
 10
9.5160586207
 20
11.6159130234
 30
0.0
 10
9.5252318848
 20
11.6204568336
 30
0.0
 10
9.5345172524
 20
11.6241242074
 30
0.0
 10
9.5439037172
 20
11.6268150581
 30
0.0
 10
9.55336051
 20
11.6284762526
 30
0.0
 10
9.5628589306
 20
11.6290498123
 30
0.0
 10
9.572357457
 20
11.6284773398
 30
0.0
 10
9.5818139969
 20
11.6268147543
 30
0.0
 10
9.5912002135
 20
11.6241232587
 30
0.0
 10
9.6004858736
 20
11.6204567922
 30
0.0
 10
9.6096590386
 20
11.6159131217
 30
0.0
 10
9.618718969
 20
11.6105973369
 30
0.0
 10
9.6276675161
 20
11.6046081261
 30
0.0
 10
9.6365086332
 20
11.5980350409
 30
0.0
 10
9.6452491201
 20
11.5909608062
 30
0.0
 10
9.6568695957
 20
11.5808959368
 30
0.0
 10
9.6682313526
 20
11.5702135452
 30
0.0
 10
9.6794329516
 20
11.5591107548
 30
0.0
 10
9.6906729051
 20
11.5476598294
 30
0.0
 10
9.6989914231
 20
11.538903597
 30
0.0
 10
9.7045228436
 20
11.5330196772
 30
0.0
  0
SPLINE
  5
3DC
100
AcDbEntity
  8
0
100
AcDbSpline
 62
7
  6
CONTINUOUS
 70
0
 71
3
 72
39
 73
35
 74
0
 42
0.0000001
 43
0.0000001
 44
0.0000000001
 40
0.0
 40
0.0
 40
0.0
 40
0.0
 40
0.0665555395
 40
0.0998282259
 40
0.1330198417
 40
0.1660597731
 40
0.198877501
 40
0.2313905478
 40
0.263515089
 40
0.2951639443
 40
0.3262541905
 40
0.3567154788
 40
0.3865056168
 40
0.4156255402
 40
0.4441410431
 40
0.4721921115
 40
0.4861123618
 40
0.4999999957
 40
0.5138876291
 40
0.5278078812
 40
0.5558589508
 40
0.5843744515
 40
0.6134943721
 40
0.6432845093
 40
0.6737458034
 40
0.7048360421
 40
0.7364849092
 40
0.7686094408
 40
0.8011224976
 40
0.8339402231
 40
0.8669801555
 40
0.9001717751
 40
0.9334444592
 40
1.0
 40
1.0
 40
1.0
 40
1.0
 10
10.717772566
 20
11.0755238961
 30
0.0
 10
10.7120354509
 20
11.0708146669
 30
0.0
 10
10.7034653794
 20
11.0637084673
 30
0.0
 10
10.6920286455
 20
11.0542604839
 30
0.0
 10
10.6834421076
 20
11.0472310612
 30
0.0
 10
10.6748335335
 20
11.040309127
 30
0.0
 10
10.6661954809
 20
11.0335457214
 30
0.0
 10
10.6575150878
 20
11.0270043704
 30
0.0
 10
10.648781768
 20
11.0207543066
 30
0.0
 10
10.6399840687
 20
11.0148746242
 30
0.0
 10
10.6311108695
 20
11.0094549958
 30
0.0
 10
10.6221531174
 20
11.0045934085
 30
0.0
 10
10.6131042812
 20
11.0003965408
 30
0.0
 10
10.6039628591
 20
10.9969743285
 30
0.0
 10
10.5947365874
 20
10.9944323773
 30
0.0
 10
10.5869690462
 20
10.9931230083
 30
0.0
 10
10.5807589735
 20
10.9925979584
 30
0.0
 10
10.5761083518
 20
10.9924672207
 30
0.0
 10
10.5714577297
 20
10.992597954
 30
0.0
 10
10.5652476575
 20
10.9931230147
 30
0.0
 10
10.5574801154
 20
10.9944323749
 30
0.0
 10
10.5482538432
 20
10.9969743249
 30
0.0
 10
10.539112424
 20
11.0003965427
 30
0.0
 10
10.5300635848
 20
11.0045934044
 30
0.0
 10
10.5211058359
 20
11.009454997
 30
0.0
 10
10.5122326313
 20
11.0148746188
 30
0.0
 10
10.5034349385
 20
11.0207543099
 30
0.0
 10
10.49470161
 20
11.0270043637
 30
0.0
 10
10.4860212233
 20
11.0335457231
 30
0.0
 10
10.4773831659
 20
11.040309124
 30
0.0
 10
10.4687745926
 20
11.0472310597
 30
0.0
 10
10.4601880564
 20
11.0542604847
 30
0.0
 10
10.4487513196
 20
11.0637084651
 30
0.0
 10
10.4401812499
 20
11.0708146668
 30
0.0
 10
10.4344441347
 20
11.0755238961
 30
0.0
  0
SPLINE
  5
3DD
100
AcDbEntity
  8
0
100
AcDbSpline
 62
7
  6
CONTINUOUS
 70
0
 71
3
 72
35
 73
31
 74
0
 42
0.0000001
 43
0.0000001
 44
0.0000000001
 40
0.0
 40
0.0
 40
0.0
 40
0.0
 40
0.0690371613
 40
0.1032427003
 40
0.137165005
 40
0.2038652474
 40
0.2365063637
 40
0.2685690067
 40
0.2999704583
 40
0.3306550561
 40
0.3605770717
 40
0.3897078907
 40
0.418081788
 40
0.4458053959
 40
0.4730396489
 40
0.5000013923
 40
0.5269628525
 40
0.554196435
 40
0.5819193672
 40
0.6102931465
 40
0.6394241793
 40
0.6693459682
 40
0.700029786
 40
0.731431237
 40
0.7634940236
 40
0.7961346665
 40
0.8628347899
 40
0.8967571036
 40
0.9309626737
 40
1.0
 40
1.0
 40
1.0
 40
1.0
 10
10.4344441347
 20
11.5330196772
 30
0.0
 10
10.4399755566
 20
11.5389035985
 30
0.0
 10
10.4482940963
 20
11.5476598157
 30
0.0
 10
10.4595340603
 20
11.5591107419
 30
0.0
 10
10.4707356574
 20
11.5702135817
 30
0.0
 10
10.4820973931
 20
11.5808960721
 30
0.0
 10
10.4937177973
 20
11.5909611015
 30
0.0
 10
10.5024583181
 20
11.5980353408
 30
0.0
 10
10.5112995016
 20
11.604608412
 30
0.0
 10
10.5202481371
 20
11.6105976864
 30
0.0
 10
10.5293081509
 20
11.6159136468
 30
0.0
 10
10.5384813878
 20
11.6204574581
 30
0.0
 10
10.5477670543
 20
11.6241241187
 30
0.0
 10
10.557153526
 20
11.6268150399
 30
0.0
 10
10.5666102576
 20
11.6284768643
 30
0.0
 10
10.5761087276
 20
11.6290500227
 30
0.0
 10
10.5856071461
 20
11.6284772077
 30
0.0
 10
10.5950637095
 20
11.6268154269
 30
0.0
 10
10.6044498763
 20
11.6241239857
 30
0.0
 10
10.6137351249
 20
11.620456484
 30
0.0
 10
10.6229083185
 20
11.6159126675
 30
0.0
 10
10.6319683889
 20
11.6105969877
 30
0.0
 10
10.640917085
 20
11.6046080102
 30
0.0
 10
10.6497581879
 20
11.5980349493
 30
0.0
 10
10.6584986835
 20
11.5909607477
 30
0.0
 10
10.6701193874
 20
11.5808961443
 30
0.0
 10
10.6814810386
 20
11.5702136522
 30
0.0
 10
10.6926826765
 20
11.559110869
 30
0.0
 10
10.7039226436
 20
11.5476599109
 30
0.0
 10
10.7122411308
 20
11.5389036126
 30
0.0
 10
10.717772566
 20
11.5330196772
 30
0.0
  0
SPLINE
  5
3DE
100
AcDbEntity
  8
0
100
AcDbSpline
 62
7
  6
CONTINUOUS
 70
0
 71
3
 72
21
 73
17
 74
0
 42
0.0000001
 43
0.0000001
 44
0.0000000001
 40
0.0
 40
0.0
 40
0.0
 40
0.0
 40
0.0625023633
 40
0.1250071786
 40
0.1875096689
 40
0.2500137629
 40
0.3749983128
 40
0.43750158
 40
0.5000029876
 40
0.5625048871
 40
0.6250049641
 40
0.6875053704
 40
0.7500044832
 40
0.8125036107
 40
0.8750027008
 40
1.0
 40
1.0
 40
1.0
 40
1.0
 10
20.6374834891
 20
8.053036654
 30
0.0
 10
20.6312910605
 20
8.053036654
 30
0.0
 10
20.6189031702
 20
8.0533871215
 30
0.0
 10
20.6003822112
 20
8.0549425557
 30
0.0
 10
20.5819688142
 20
8.0574689874
 30
0.0
 10
20.5576138033
 20
8.0620148921
 30
0.0
 10
20.5335818651
 20
8.0681213574
 30
0.0
 10
20.509891197
 20
8.0753501684
 30
0.0
 10
20.4922682112
 20
8.0812343392
 30
0.0
 10
20.4747759585
 20
8.0874920959
 30
0.0
 10
20.4573907429
 20
8.0940402386
 30
0.0
 10
20.4400920976
 20
8.1008121027
 30
0.0
 10
20.4228561312
 20
8.1077411991
 30
0.0
 10
20.4056640059
 20
8.114777746
 30
0.0
 10
20.3827719383
 20
8.1242341481
 30
0.0
 10
20.3656118085
 20
8.1313480768
 30
0.0
 10
20.3541550578
 20
8.1360501321
 30
0.0
  0
SPLINE
  5
3DF
100
AcDbEntity
  8
0
100
AcDbSpline
 62
7
  6
CONTINUOUS
 70
0
 71
3
 72
22
 73
18
 74
0
 42
0.0000001
 43
0.0000001
 44
0.0000000001
 40
0.0
 40
0.0
 40
0.0
 40
0.0
 40
0.1249558822
 40
0.249914818
 40
0.3124019029
 40
0.3748876956
 40
0.4373744323
 40
0.4998749019
 40
0.562380168
 40
0.6248790063
 40
0.687387731
 40
0.7499085607
 40
0.8124258375
 40
0.8436912987
 40
0.8749643091
 40
0.9375023766
 40
1.0
 40
1.0
 40
1.0
 40
1.0
 10
20.3541550578
 20
8.5935459132
 30
0.0
 10
20.365268199
 20
8.5994565858
 30
0.0
 10
20.3875464715
 20
8.611181653
 30
0.0
 10
20.4156539073
 20
8.6253406845
 30
0.0
 10
20.4383657193
 20
8.6362068761
 30
0.0
 10
20.4555387235
 20
8.6440627413
 30
0.0
 10
20.4728725326
 20
8.6515615803
 30
0.0
 10
20.4903845854
 20
8.6586409405
 30
0.0
 10
20.5080926956
 20
8.6652204556
 30
0.0
 10
20.5260115013
 20
8.6712081655
 30
0.0
 10
20.5441477045
 20
8.6765109178
 30
0.0
 10
20.5624964079
 20
8.6810355672
 30
0.0
 10
20.5779515635
 20
8.6840797914
 30
0.0
 10
20.5903982913
 20
8.6860302617
 30
0.0
 10
20.6028954894
 20
8.6876423415
 30
0.0
 10
20.6185899011
 20
8.6890105146
 30
0.0
 10
20.6311878995
 20
8.6893856896
 30
0.0
 10
20.6374834891
 20
8.6893856896
 30
0.0
  0
SPLINE
  5
3E0
100
AcDbEntity
  8
0
100
AcDbSpline
 62
7
  6
CONTINUOUS
 70
0
 71
3
 72
22
 73
18
 74
0
 42
0.0000001
 43
0.0000001
 44
0.0000000001
 40
0.0
 40
0.0
 40
0.0
 40
0.0
 40
0.0624977506
 40
0.1250362546
 40
0.1563095789
 40
0.1875752741
 40
0.2500924313
 40
0.3126129646
 40
0.3751216706
 40
0.4376203603
 40
0.5001254823
 40
0.5626260316
 40
0.6251127615
 40
0.6875984283
 40
0.7500853981
 40
0.8750442299
 40
1.0
 40
1.0
 40
1.0
 40
1.0
 10
20.6374834891
 20
8.6893856896
 30
0.0
 10
20.6437790923
 20
8.6893856896
 30
0.0
 10
20.6563771485
 20
8.6890105321
 30
0.0
 10
20.6720716557
 20
8.6876424429
 30
0.0
 10
20.6845689731
 20
8.686030505
 30
0.0
 10
20.6970157668
 20
8.6840801617
 30
0.0
 10
20.7124708871
 20
8.6810358167
 30
0.0
 10
20.7308194757
 20
8.6765108795
 30
0.0
 10
20.7489555849
 20
8.6712079734
 30
0.0
 10
20.7668743553
 20
8.6652202553
 30
0.0
 10
20.7845824591
 20
8.6586407779
 30
0.0
 10
20.8020944977
 20
8.651561397
 30
0.0
 10
20.8194283396
 20
8.6440626445
 30
0.0
 10
20.8366013756
 20
8.6362069034
 30
0.0
 10
20.8593131811
 20
8.6253407709
 30
0.0
 10
20.8874205361
 20
8.6111816446
 30
0.0
 10
20.9096987881
 20
8.5994565811
 30
0.0
 10
20.9208119205
 20
8.5935459132
 30
0.0
  0
SPLINE
  5
3E1
100
AcDbEntity
  8
0
100
AcDbSpline
 62
7
  6
CONTINUOUS
 70
0
 71
3
 72
21
 73
17
 74
0
 42
0.0000001
 43
0.0000001
 44
0.0000000001
 40
0.0
 40
0.0
 40
0.0
 40
0.0
 40
0.1249972989
 40
0.187496389
 40
0.2499955165
 40
0.3124946291
 40
0.3749950351
 40
0.4374951117
 40
0.4999970101
 40
0.5624984169
 40
0.6250016827
 40
0.7499862341
 40
0.8124903309
 40
0.8749928236
 40
0.9374976386
 40
1.0
 40
1.0
 40
1.0
 40
1.0
 10
20.9208119205
 20
8.1360501321
 30
0.0
 10
20.9093551698
 20
8.1313480768
 30
0.0
 10
20.8921950402
 20
8.1242341478
 30
0.0
 10
20.8693029724
 20
8.1147777462
 30
0.0
 10
20.8521108472
 20
8.1077411991
 30
0.0
 10
20.8348748808
 20
8.1008121027
 30
0.0
 10
20.8175762355
 20
8.0940402389
 30
0.0
 10
20.8001910202
 20
8.087492096
 30
0.0
 10
20.7826987677
 20
8.0812343396
 30
0.0
 10
20.7650757822
 20
8.0753501687
 30
0.0
 10
20.7413851142
 20
8.0681213576
 30
0.0
 10
20.7173531757
 20
8.0620148922
 30
0.0
 10
20.6929981642
 20
8.0574689874
 30
0.0
 10
20.6745847666
 20
8.0549425559
 30
0.0
 10
20.6560638077
 20
8.0533871211
 30
0.0
 10
20.6436759175
 20
8.053036654
 30
0.0
 10
20.6374834891
 20
8.053036654
 30
0.0
  0
SPLINE
  5
3E2
100
AcDbEntity
  8
0
100
AcDbSpline
 62
7
  6
CONTINUOUS
 70
0
 71
3
 72
39
 73
35
 74
0
 42
0.0000001
 43
0.0000001
 44
0.0000000001
 40
0.0
 40
0.0
 40
0.0
 40
0.0
 40
0.0665555395
 40
0.0998282259
 40
0.1330198418
 40
0.1660597732
 40
0.1988775011
 40
0.2313905483
 40
0.2635150892
 40
0.295163945
 40
0.3262541909
 40
0.3567154794
 40
0.3865056174
 40
0.4156255407
 40
0.4441410438
 40
0.4721921123
 40
0.4861123628
 40
0.4999999966
 40
0.5138876301
 40
0.5278078821
 40
0.5558589517
 40
0.5843744521
 40
0.6134943727
 40
0.6432845099
 40
0.6737458038
 40
0.7048360428
 40
0.7364849093
 40
0.7686094412
 40
0.8011224977
 40
0.8339402232
 40
0.8669801556
 40
0.9001717751
 40
0.9334444592
 40
1.0
 40
1.0
 40
1.0
 40
1.0
 10
20.2725228436
 20
8.1360501321
 30
0.0
 10
20.2667857285
 20
8.1313409029
 30
0.0
 10
20.258215657
 20
8.1242347032
 30
0.0
 10
20.2467789231
 20
8.1147867198
 30
0.0
 10
20.2381923852
 20
8.1077572971
 30
0.0
 10
20.2295838111
 20
8.1008353629
 30
0.0
 10
20.2209457584
 20
8.0940719574
 30
0.0
 10
20.2122653654
 20
8.0875306061
 30
0.0
 10
20.2035320454
 20
8.0812805427
 30
0.0
 10
20.1947343463
 20
8.0754008599
 30
0.0
 10
20.1858611468
 20
8.0699812318
 30
0.0
 10
20.1769033948
 20
8.0651196443
 30
0.0
 10
20.1678545586
 20
8.0609227768
 30
0.0
 10
20.1587131365
 20
8.0575005643
 30
0.0
 10
20.1494868648
 20
8.0549586131
 30
0.0
 10
20.1417193235
 20
8.0536492446
 30
0.0
 10
20.1355092507
 20
8.0531241941
 30
0.0
 10
20.1308586291
 20
8.0529934567
 30
0.0
 10
20.1262080069
 20
8.0531241903
 30
0.0
 10
20.1199979348
 20
8.0536492503
 30
0.0
 10
20.1122303927
 20
8.0549586111
 30
0.0
 10
20.1030041205
 20
8.057500561
 30
0.0
 10
20.0938627013
 20
8.0609227786
 30
0.0
 10
20.0848138623
 20
8.0651196406
 30
0.0
 10
20.0758561132
 20
8.069981233
 30
0.0
 10
20.0669829089
 20
8.0754008551
 30
0.0
 10
20.0581852158
 20
8.0812805458
 30
0.0
 10
20.0494518876
 20
8.0875305999
 30
0.0
 10
20.0407715008
 20
8.094071959
 30
0.0
 10
20.0321334435
 20
8.10083536
 30
0.0
 10
20.0235248702
 20
8.1077572957
 30
0.0
 10
20.0149383339
 20
8.1147867207
 30
0.0
 10
20.0035015972
 20
8.1242347011
 30
0.0
 10
19.9949315275
 20
8.1313409028
 30
0.0
 10
19.9891944123
 20
8.1360501321
 30
0.0
  0
SPLINE
  5
3E3
100
AcDbEntity
  8
0
100
AcDbSpline
 62
7
  6
CONTINUOUS
 70
0
 71
3
 72
35
 73
31
 74
0
 42
0.0000001
 43
0.0000001
 44
0.0000000001
 40
0.0
 40
0.0
 40
0.0
 40
0.0
 40
0.0690372408
 40
0.1032427633
 40
0.1371650491
 40
0.2038652897
 40
0.2365061306
 40
0.2685689231
 40
0.2999704131
 40
0.3306545252
 40
0.3605766116
 40
0.389707823
 40
0.4180816838
 40
0.4458048715
 40
0.4730390778
 40
0.5000010556
 40
0.5269624494
 40
0.5541963302
 40
0.5819199475
 40
0.6102937713
 40
0.6394241428
 40
0.669345614
 40
0.7000298904
 40
0.731431317
 40
0.7634939824
 40
0.7961349255
 40
0.862834976
 40
0.8967572664
 40
0.9309628124
 40
1.0
 40
1.0
 40
1.0
 40
1.0
 10
19.9891944123
 20
8.5935459132
 30
0.0
 10
19.994725837
 20
8.5994298375
 30
0.0
 10
20.0030443381
 20
8.6081860907
 30
0.0
 10
20.0142843088
 20
8.619637004
 30
0.0
 10
20.0254859385
 20
8.6307397885
 30
0.0
 10
20.0368475781
 20
8.6414223227
 30
0.0
 10
20.0484681662
 20
8.6514871024
 30
0.0
 10
20.0572086584
 20
8.6585613441
 30
0.0
 10
20.0660497885
 20
8.6651344227
 30
0.0
 10
20.0749985113
 20
8.6711234785
 30
0.0
 10
20.0840586207
 20
8.6764392594
 30
0.0
 10
20.0932318848
 20
8.6809830695
 30
0.0
 10
20.1025172524
 20
8.6846504434
 30
0.0
 10
20.1119037172
 20
8.687341294
 30
0.0
 10
20.12136051
 20
8.6890024885
 30
0.0
 10
20.1308589306
 20
8.6895760482
 30
0.0
 10
20.140357457
 20
8.6890035758
 30
0.0
 10
20.1498139969
 20
8.6873409903
 30
0.0
 10
20.1592002135
 20
8.6846494946
 30
0.0
 10
20.1684858736
 20
8.6809830282
 30
0.0
 10
20.1776590386
 20
8.6764393577
 30
0.0
 10
20.186718969
 20
8.6711235728
 30
0.0
 10
20.1956675161
 20
8.665134362
 30
0.0
 10
20.2045086332
 20
8.6585612768
 30
0.0
 10
20.2132491201
 20
8.6514870421
 30
0.0
 10
20.2248695957
 20
8.6414221728
 30
0.0
 10
20.2362313526
 20
8.6307397812
 30
0.0
 10
20.2474329516
 20
8.6196369908
 30
0.0
 10
20.2586729051
 20
8.6081860654
 30
0.0
 10
20.2669914231
 20
8.5994298329
 30
0.0
 10
20.2725228436
 20
8.5935459132
 30
0.0
  0
SPLINE
  5
3E4
100
AcDbEntity
  8
0
100
AcDbSpline
 62
7
  6
CONTINUOUS
 70
0
 71
3
 72
39
 73
35
 74
0
 42
0.0000001
 43
0.0000001
 44
0.0000000001
 40
0.0
 40
0.0
 40
0.0
 40
0.0
 40
0.0665555395
 40
0.0998282259
 40
0.1330198417
 40
0.1660597731
 40
0.198877501
 40
0.2313905478
 40
0.263515089
 40
0.2951639443
 40
0.3262541905
 40
0.3567154788
 40
0.3865056168
 40
0.4156255402
 40
0.4441410431
 40
0.4721921115
 40
0.4861123618
 40
0.4999999957
 40
0.5138876291
 40
0.5278078812
 40
0.5558589508
 40
0.5843744515
 40
0.6134943721
 40
0.6432845093
 40
0.6737458034
 40
0.7048360421
 40
0.7364849092
 40
0.7686094408
 40
0.8011224976
 40
0.8339402231
 40
0.8669801555
 40
0.9001717751
 40
0.9334444592
 40
1.0
 40
1.0
 40
1.0
 40
1.0
 10
21.285772566
 20
8.1360501321
 30
0.0
 10
21.2800354509
 20
8.1313409029
 30
0.0
 10
21.2714653794
 20
8.1242347033
 30
0.0
 10
21.2600286455
 20
8.1147867198
 30
0.0
 10
21.2514421076
 20
8.1077572972
 30
0.0
 10
21.2428335335
 20
8.100835363
 30
0.0
 10
21.2341954809
 20
8.0940719573
 30
0.0
 10
21.2255150878
 20
8.0875306064
 30
0.0
 10
21.216781768
 20
8.0812805426
 30
0.0
 10
21.2079840687
 20
8.0754008602
 30
0.0
 10
21.1991108695
 20
8.0699812318
 30
0.0
 10
21.1901531174
 20
8.0651196444
 30
0.0
 10
21.1811042812
 20
8.0609227768
 30
0.0
 10
21.1719628591
 20
8.0575005644
 30
0.0
 10
21.1627365874
 20
8.0549586133
 30
0.0
 10
21.1549690462
 20
8.0536492443
 30
0.0
 10
21.1487589735
 20
8.0531241943
 30
0.0
 10
21.1441083518
 20
8.0529934567
 30
0.0
 10
21.1394577297
 20
8.05312419
 30
0.0
 10
21.1332476575
 20
8.0536492506
 30
0.0
 10
21.1254801154
 20
8.0549586109
 30
0.0
 10
21.1162538432
 20
8.0575005608
 30
0.0
 10
21.107112424
 20
8.0609227786
 30
0.0
 10
21.0980635848
 20
8.0651196404
 30
0.0
 10
21.0891058359
 20
8.069981233
 30
0.0
 10
21.0802326313
 20
8.0754008548
 30
0.0
 10
21.0714349385
 20
8.0812805459
 30
0.0
 10
21.06270161
 20
8.0875305996
 30
0.0
 10
21.0540212233
 20
8.0940719591
 30
0.0
 10
21.0453831659
 20
8.1008353599
 30
0.0
 10
21.0367745926
 20
8.1077572957
 30
0.0
 10
21.0281880564
 20
8.1147867207
 30
0.0
 10
21.0167513196
 20
8.1242347011
 30
0.0
 10
21.0081812499
 20
8.1313409028
 30
0.0
 10
21.0024441347
 20
8.1360501321
 30
0.0
  0
SPLINE
  5
3E5
100
AcDbEntity
  8
0
100
AcDbSpline
 62
7
  6
CONTINUOUS
 70
0
 71
3
 72
35
 73
31
 74
0
 42
0.0000001
 43
0.0000001
 44
0.0000000001
 40
0.0
 40
0.0
 40
0.0
 40
0.0
 40
0.0690371613
 40
0.1032427003
 40
0.137165005
 40
0.2038652474
 40
0.2365063637
 40
0.2685690067
 40
0.2999704583
 40
0.3306550561
 40
0.3605770717
 40
0.3897078907
 40
0.418081788
 40
0.4458053959
 40
0.4730396489
 40
0.5000013923
 40
0.5269628525
 40
0.554196435
 40
0.5819193672
 40
0.6102931465
 40
0.6394241793
 40
0.6693459682
 40
0.700029786
 40
0.731431237
 40
0.7634940236
 40
0.7961346665
 40
0.8628347899
 40
0.8967571036
 40
0.9309626737
 40
1.0
 40
1.0
 40
1.0
 40
1.0
 10
21.0024441347
 20
8.5935459132
 30
0.0
 10
21.0079755566
 20
8.5994298345
 30
0.0
 10
21.0162940963
 20
8.6081860517
 30
0.0
 10
21.0275340603
 20
8.6196369779
 30
0.0
 10
21.0387356574
 20
8.6307398177
 30
0.0
 10
21.0500973931
 20
8.641422308
 30
0.0
 10
21.0617177973
 20
8.6514873375
 30
0.0
 10
21.0704583181
 20
8.6585615767
 30
0.0
 10
21.0792995016
 20
8.6651346479
 30
0.0
 10
21.0882481371
 20
8.6711239223
 30
0.0
 10
21.0973081509
 20
8.6764398827
 30
0.0
 10
21.1064813878
 20
8.6809836941
 30
0.0
 10
21.1157670543
 20
8.6846503547
 30
0.0
 10
21.125153526
 20
8.6873412759
 30
0.0
 10
21.1346102576
 20
8.6890031002
 30
0.0
 10
21.1441087276
 20
8.6895762586
 30
0.0
 10
21.1536071461
 20
8.6890034437
 30
0.0
 10
21.1630637095
 20
8.6873416629
 30
0.0
 10
21.1724498763
 20
8.6846502217
 30
0.0
 10
21.1817351249
 20
8.68098272
 30
0.0
 10
21.1909083185
 20
8.6764389035
 30
0.0
 10
21.1999683889
 20
8.6711232237
 30
0.0
 10
21.208917085
 20
8.6651342462
 30
0.0
 10
21.2177581879
 20
8.6585611853
 30
0.0
 10
21.2264986835
 20
8.6514869837
 30
0.0
 10
21.2381193874
 20
8.6414223803
 30
0.0
 10
21.2494810386
 20
8.6307398882
 30
0.0
 10
21.2606826765
 20
8.619637105
 30
0.0
 10
21.2719226436
 20
8.6081861468
 30
0.0
 10
21.2802411308
 20
8.5994298485
 30
0.0
 10
21.285772566
 20
8.5935459132
 30
0.0
  0
SPLINE
  5
3E6
100
AcDbEntity
  8
0
100
AcDbSpline
 62
7
  6
CONTINUOUS
 70
0
 71
3
 72
17
 73
13
 74
0
 42
0.0000001
 43
0.0000001
 44
0.0000000001
 40
0.0
 40
0.0
 40
0.0
 40
0.0
 40
0.1195161703
 40
0.2435286196
 40
0.3069347665
 40
0.3709903571
 40
0.4999999592
 40
0.6290095676
 40
0.6930651657
 40
0.7564713227
 40
0.8804837984
 40
1.0
 40
1.0
 40
1.0
 40
1.0
 10
9.4145188707
 20
12.3759351639
 30
0.0
 10
9.4195649805
 20
12.3759351706
 30
0.0
 10
9.4298612112
 20
12.3751448508
 30
0.0
 10
9.4425364404
 20
12.3721893008
 30
0.0
 10
9.4525193944
 20
12.3685423725
 30
0.0
 10
9.4623695798
 20
12.3640217369
 30
0.0
 10
9.4740170931
 20
12.3568776758
 30
0.0
 10
9.4843115664
 20
12.3478929108
 30
0.0
 10
9.491565785
 20
12.3398406669
 30
0.0
 10
9.4980257322
 20
12.3314009644
 30
0.0
 10
9.5046292592
 20
12.3201853406
 30
0.0
 10
9.5084562601
 20
12.3105941423
 30
0.0
 10
9.5099621596
 20
12.3057779712
 30
0.0
  0
SPLINE
  5
3E7
100
AcDbEntity
  8
0
100
AcDbSpline
 62
7
  6
CONTINUOUS
 70
0
 71
3
 72
17
 73
13
 74
0
 42
0.0000001
 43
0.0000001
 44
0.0000000001
 40
0.0
 40
0.0
 40
0.0
 40
0.0
 40
0.119516179
 40
0.2435286338
 40
0.306934782
 40
0.3709903732
 40
0.4999999744
 40
0.6290095797
 40
0.6930651756
 40
0.7564713304
 40
0.8804838018
 40
1.0
 40
1.0
 40
1.0
 40
1.0
 10
9.4145188707
 20
13.3159348615
 30
0.0
 10
9.4195649799
 20
13.3159348555
 30
0.0
 10
9.429861209
 20
13.3167251768
 30
0.0
 10
9.4425364361
 20
13.3196807275
 30
0.0
 10
9.4525193882
 20
13.3233276557
 30
0.0
 10
9.4623695716
 20
13.3278482909
 30
0.0
 10
9.4740170824
 20
13.3349923504
 30
0.0
 10
9.484311554
 20
13.3439771128
 30
0.0
 10
9.4915657718
 20
13.3520293542
 30
0.0
 10
9.4980257184
 20
13.360469054
 30
0.0
 10
9.5046292456
 20
13.3716846742
 30
0.0
 10
9.5084562474
 20
13.3812758696
 30
0.0
 10
9.5099621476
 20
13.3860920393
 30
0.0
  0
SPLINE
  5
3E8
100
AcDbEntity
  8
0
100
AcDbSpline
 62
9
  6
CONTINUOUS
 70
0
 71
3
 72
31
 73
27
 74
0
 42
0.0000001
 43
0.0000001
 44
0.0000000001
 40
0.0
 40
0.0
 40
0.0
 40
0.0
 40
0.0002754822
 40
0.000616903
 40
0.001093805
 40
0.0024531372
 40
0.0043516476
 40
0.0067875055
 40
0.0097588804
 40
0.0132639421
 40
0.0173008609
 40
0.0269629512
 40
0.0387305192
 40
0.0525889374
 40
0.068523584
 40
0.0865198422
 40
0.1065631007
 40
0.1527119689
 40
0.2067264095
 40
0.2683279361
 40
0.3372386377
 40
0.4131812695
 40
0.4958762558
 40
0.5850234546
 40
0.7814432457
 40
1.0
 40
1.0
 40
1.0
 40
1.0
 10
9.4145190155
 20
13.3159348615
 30
0.0
 10
9.4145255351
 20
13.3159275145
 30
0.0
 10
9.4145363979
 20
13.3159081472
 30
0.0
 10
9.4145591244
 20
13.3158765172
 30
0.0
 10
9.4146023441
 20
13.3158119645
 30
0.0
 10
9.4146775035
 20
13.3157020699
 30
0.0
 10
9.4147913414
 20
13.3155339601
 30
0.0
 10
9.4149375717
 20
13.3153183909
 30
0.0
 10
9.415115739
 20
13.3150552587
 30
0.0
 10
9.415325805
 20
13.3147447859
 30
0.0
 10
9.4156693103
 20
13.3142365591
 30
0.0
 10
9.4161772571
 20
13.3134838903
 30
0.0
 10
9.4168801615
 20
13.3124403124
 30
0.0
 10
9.4177069019
 20
13.3112104907
 30
0.0
 10
9.4186562635
 20
13.3097954944
 30
0.0
 10
9.419727034
 20
13.3081963947
 30
0.0
 10
9.4213949191
 20
13.3057006008
 30
0.0
 10
9.4237712358
 20
13.3021336036
 30
0.0
 10
9.4269557005
 20
13.2973245047
 30
0.0
 10
9.4305693801
 20
13.2918262674
 30
0.0
 10
9.4345883782
 20
13.2856588626
 30
0.0
 10
9.4389886557
 20
13.2788423014
 30
0.0
 10
9.4437459572
 20
13.2713974815
 30
0.0
 10
9.4507577019
 20
13.2602956095
 30
0.0
 10
9.4602156533
 20
13.2450095575
 30
0.0
 10
9.4678231993
 20
13.2323179608
 30
0.0
 10
9.4717770415
 20
13.2256026726
 30
0.0
  0
LINE
  5
3E9
100
AcDbEntity
  8
0
100
AcDbLine
 62
9
  6
CONTINUOUS
 10
9.4717770415
 20
13.2256026726
 11
9.4727256736
 21
13.2239891412
  0
SPLINE
  5
3EA
100
AcDbEntity
  8
0
100
AcDbSpline
 62
9
  6
CONTINUOUS
 70
0
 71
3
 72
24
 73
20
 74
0
 42
0.0000001
 43
0.0000001
 44
0.0000000001
 40
0.0
 40
0.0
 40
0.0
 40
0.0
 40
0.0545789397
 40
0.1123594428
 40
0.1728368659
 40
0.2355431343
 40
0.3000586656
 40
0.3659218536
 40
0.3992440793
 40
0.432743955
 40
0.5000062345
 40
0.5672689987
 40
0.6007698485
 40
0.6340938296
 40
0.7644055851
 40
0.8271215113
 40
0.8876103353
 40
0.9454046413
 40
1.0
 40
1.0
 40
1.0
 40
1.0
 10
9.501371865
 20
13.172692684
 30
0.0
 10
9.5072076166
 20
13.1616587044
 30
0.0
 10
9.5188726151
 20
13.1387563795
 30
0.0
 10
9.5355247427
 20
13.1028964906
 30
0.0
 10
9.5513317774
 20
13.0646310664
 30
0.0
 10
9.5656487926
 20
13.0241378252
 30
0.0
 10
9.5778189305
 20
12.9816582859
 30
0.0
 10
9.5855929347
 20
12.9449958181
 30
0.0
 10
9.5900941197
 20
12.9149785505
 30
0.0
 10
9.5933981079
 20
12.8844849704
 30
0.0
 10
9.5951294358
 20
12.846044351
 30
0.0
 10
9.5934142041
 20
12.8076030746
 30
0.0
 10
9.5901219977
 20
12.7771069633
 30
0.0
 10
9.5834518516
 20
12.7325093346
 30
0.0
 10
9.5707218406
 20
12.6821082865
 30
0.0
 10
9.5514045061
 20
12.6274284227
 30
0.0
 10
9.5356019123
 20
12.5891487613
 30
0.0
 10
9.5189527464
 20
12.5532779507
 30
0.0
 10
9.5072881899
 20
12.5303674272
 30
0.0
 10
9.5014522468
 20
12.5193293013
 30
0.0
  0
SPLINE
  5
3EB
100
AcDbEntity
  8
0
100
AcDbSpline
 62
9
  6
CONTINUOUS
 70
0
 71
3
 72
34
 73
30
 74
0
 42
0.0000001
 43
0.0000001
 44
0.0000000001
 40
0.0
 40
0.0
 40
0.0
 40
0.0
 40
0.2128967693
 40
0.3122828032
 40
0.4065046544
 40
0.4951985529
 40
0.577977495
 40
0.6544502967
 40
0.7242232605
 40
0.7869151007
 40
0.8421688989
 40
0.8896292587
 40
0.910325572
 40
0.9289399136
 40
0.9454365181
 40
0.9597951068
 40
0.9719969705
 40
0.9820233911
 40
0.9862149589
 40
0.9898556429
 40
0.9929431011
 40
0.9954749911
 40
0.9974489697
 40
0.9982260099
 40
0.9988626934
 40
0.9993587272
 40
0.9997138183
 40
0.9999276735
 40
1.0
 40
1.0
 40
1.0
 40
1.0
 10
9.4955091028
 20
12.5082256988
 30
0.0
 10
9.490263686
 20
12.4985432251
 30
0.0
 10
9.4823831974
 20
12.484440698
 30
0.0
 10
9.4718068607
 20
12.4662677245
 30
0.0
 10
9.4643338211
 20
12.453722643
 30
0.0
 10
9.4571929048
 20
12.4419803494
 30
0.0
 10
9.4504373981
 20
12.4310787346
 30
0.0
 10
9.4441217415
 20
12.4210563518
 30
0.0
 10
9.43830026
 20
12.41195096
 30
0.0
 10
9.433024375
 20
12.4037996387
 30
0.0
 10
9.4283388573
 20
12.3966411184
 30
0.0
 10
9.4248191337
 20
12.3913157813
 30
0.0
 10
9.4223339108
 20
12.3875784461
 30
0.0
 10
9.4207320945
 20
12.3851770438
 30
0.0
 10
9.4193098411
 20
12.3830499229
 30
0.0
 10
9.4180698557
 20
12.3811999296
 30
0.0
 10
9.4170144551
 20
12.3796291076
 30
0.0
 10
9.4162510844
 20
12.3784956393
 30
0.0
 10
9.4157344081
 20
12.3777299164
 30
0.0
 10
9.4154182236
 20
12.3772618911
 30
0.0
 10
9.4151498802
 20
12.3768651457
 30
0.0
 10
9.4149296392
 20
12.3765399448
 30
0.0
 10
9.4147763155
 20
12.3763137537
 30
0.0
 10
9.414677871
 20
12.3761687973
 30
0.0
 10
9.4146224515
 20
12.3760870178
 30
0.0
 10
9.4145789824
 20
12.3760235351
 30
0.0
 10
9.4145484745
 20
12.3759776164
 30
0.0
 10
9.4145289666
 20
12.3759508561
 30
0.0
 10
9.4145214985
 20
12.3759379435
 30
0.0
 10
9.4145190155
 20
12.3759351453
 30
0.0
  0
SPLINE
  5
3EC
100
AcDbEntity
  8
0
100
AcDbSpline
 62
9
  6
CONTINUOUS
 70
0
 71
3
 72
99
 73
95
 74
0
 42
0.0000001
 43
0.0000001
 44
0.0000000001
 40
0.0
 40
0.0
 40
0.0
 40
0.0
 40
0.0000281261
 40
0.0000754578
 40
0.0001432787
 40
0.000232065
 40
0.000342085
 40
0.0004735314
 40
0.0008013201
 40
0.0012165515
 40
0.0017202418
 40
0.0023133768
 40
0.0029969345
 40
0.0037718949
 40
0.0046392444
 40
0.0066523178
 40
0.0090299228
 40
0.0117628434
 40
0.0148418396
 40
0.0182576605
 40
0.0220014773
 40
0.0260655775
 40
0.0304424343
 40
0.0351245303
 40
0.0453739058
 40
0.0567460093
 40
0.0691679162
 40
0.0825697188
 40
0.0968880405
 40
0.1120609386
 40
0.1280295537
 40
0.1447371779
 40
0.1621291165
 40
0.1801576811
 40
0.1987779234
 40
0.2376219692
 40
0.2783466159
 40
0.3206618245
 40
0.3642942193
 40
0.3865114181
 40
0.4089451035
 40
0.4315549096
 40
0.454296442
 40
0.4771271884
 40
0.5000034988
 40
0.5228791135
 40
0.5457081912
 40
0.5684475361
 40
0.5910535203
 40
0.6356912927
 40
0.6793161608
 40
0.7216280336
 40
0.7422013038
 40
0.7623416023
 40
0.7820161139
 40
0.8011872226
 40
0.8378434458
 40
0.8552377518
 40
0.8719447674
 40
0.8879144626
 40
0.90309171
 40
0.9174149287
 40
0.930821542
 40
0.9432457273
 40
0.9546188791
 40
0.9648721261
 40
0.9695573266
 40
0.9739368142
 40
0.9780020091
 40
0.9817443334
 40
0.9851559381
 40
0.9882302819
 40
0.9909609561
 40
0.9933415497
 40
0.9943985622
 40
0.9953656499
 40
0.9962421474
 40
0.9970276964
 40
0.9977219806
 40
0.9983246839
 40
0.9988354902
 40
0.9990563331
 40
0.9992540832
 40
0.999428701
 40
0.9995801468
 40
0.9997083813
 40
0.9998133648
 40
0.9998950579
 40
0.9999271582
 40
0.999953421
 40
0.9999738415
 40
0.9999884147
 40
0.9999971357
 40
1.0
 40
1.0
 40
1.0
 40
1.0
 10
9.5099620445
 20
12.3057779353
 30
0.0
 10
9.5099588835
 20
12.3057880447
 30
0.0
 10
9.5099616422
 20
12.305817505
 30
0.0
 10
9.509974556
 20
12.3058693458
 30
0.0
 10
9.5099996266
 20
12.3059422975
 30
0.0
 10
9.5100363408
 20
12.3060356461
 30
0.0
 10
9.5100850838
 20
12.3061501255
 30
0.0
 10
9.5101725765
 20
12.3063458218
 30
0.0
 10
9.5103125397
 20
12.3066439519
 30
0.0
 10
9.5105163945
 20
12.3070668812
 30
0.0
 10
9.5107660922
 20
12.3075786477
 30
0.0
 10
9.5110608542
 20
12.3081808563
 30
0.0
 10
9.5113999536
 20
12.3088751044
 30
0.0
 10
9.5117826237
 20
12.3096629958
 30
0.0
 10
9.5123800467
 20
12.3109031946
 30
0.0
 10
9.5132288942
 20
12.3126921726
 30
0.0
 10
9.5143682964
 20
12.31512088
 30
0.0
 10
9.5156705478
 20
12.3179165731
 30
0.0
 10
9.5171328298
 20
12.3210690359
 30
0.0
 10
9.5187525237
 20
12.3245681383
 30
0.0
 10
9.5205265537
 20
12.3284045995
 30
0.0
 10
9.5224481185
 20
12.3325715765
 30
0.0
 10
9.5245111226
 20
12.3370624348
 30
0.0
 10
9.5275345395
 20
12.3436754374
 30
0.0
 10
9.5316233849
 20
12.352697936
 30
0.0
 10
9.5368582609
 20
12.3644010169
 30
0.0
 10
9.5425119505
 20
12.3772171056
 30
0.0
 10
9.5485345068
 20
12.3910829251
 30
0.0
 10
9.5548679659
 20
12.4059428497
 30
0.0
 10
9.5614571899
 20
12.4217440267
 30
0.0
 10
9.5682480236
 20
12.4384353474
 30
0.0
 10
9.5751875489
 20
12.455967507
 30
0.0
 10
9.5822240778
 20
12.4742945452
 30
0.0
 10
9.5892985026
 20
12.4933772959
 30
0.0
 10
9.5988395115
 20
12.5201592191
 30
0.0
 10
9.6105053431
 20
12.5552544374
 30
0.0
 10
9.6235241446
 20
12.5992804542
 30
0.0
 10
9.6352462213
 20
12.6455359927
 30
0.0
 10
9.6434294112
 20
12.6854581173
 30
0.0
 10
9.6488422523
 20
12.718264809
 30
0.0
 10
9.6522737022
 20
12.7433647049
 30
0.0
 10
9.6550019365
 20
12.7687494171
 30
0.0
 10
9.6569912049
 20
12.7943529986
 30
0.0
 10
9.6581974726
 20
12.8201061487
 30
0.0
 10
9.6586003403
 20
12.8459348705
 30
0.0
 10
9.6582017952
 20
12.871763098
 30
0.0
 10
9.6569937992
 20
12.897514441
 30
0.0
 10
9.6550043791
 20
12.9231152279
 30
0.0
 10
9.6513799794
 20
12.9568119737
 30
0.0
 10
9.6451264584
 20
12.9981167985
 30
0.0
 10
9.6352610626
 20
13.0463091983
 30
0.0
 10
9.6254158388
 20
13.0852069619
 30
0.0
 10
9.6168216232
 20
13.1152708755
 30
0.0
 10
9.6101711418
 20
13.1370196949
 30
0.0
 10
9.6033279814
 20
13.158153954
 30
0.0
 10
9.5941717178
 20
13.185073587
 30
0.0
 10
9.5847579258
 20
13.2109955495
 30
0.0
 10
9.5752077849
 20
13.2358725189
 30
0.0
 10
9.5682615545
 20
13.2534032249
 30
0.0
 10
9.5614651662
 20
13.2700942174
 30
0.0
 10
9.5548756364
 20
13.2858994679
 30
0.0
 10
9.5485436931
 20
13.3007657874
 30
0.0
 10
9.5425229829
 20
13.3146373365
 30
0.0
 10
9.536866384
 20
13.3274555038
 30
0.0
 10
9.5316261674
 20
13.3391591615
 30
0.0
 10
9.527536563
 20
13.3481846253
 30
0.0
 10
9.524513973
 20
13.3548019832
 30
0.0
 10
9.5224513483
 20
13.3592958464
 30
0.0
 10
9.5205298279
 20
13.3634637707
 30
0.0
 10
9.5187551695
 20
13.367298028
 30
0.0
 10
9.5171326506
 20
13.3707915205
 30
0.0
 10
9.515666705
 20
13.3739376644
 30
0.0
 10
9.5143615984
 20
13.376730398
 30
0.0
 10
9.513376067
 20
13.3788338997
 30
0.0
 10
9.5126714138
 20
13.3803355637
 30
0.0
 10
9.5122070854
 20
13.3813243063
 30
0.0
 10
9.5117860172
 20
13.3822204218
 30
0.0
 10
9.5114084547
 20
13.3830234678
 30
0.0
 10
9.5110745957
 20
13.3837331249
 30
0.0
 10
9.5107846289
 20
13.3843490874
 30
0.0
 10
9.5105704812
 20
13.3848036793
 30
0.0
 10
9.5104212501
 20
13.3851202762
 30
0.0
 10
9.5103259673
 20
13.3853223351
 30
0.0
 10
9.5102417994
 20
13.3855007445
 30
0.0
 10
9.5101687713
 20
13.3856554522
 30
0.0
 10
9.5101069032
 20
13.3857864616
 30
0.0
 10
9.5100562294
 20
13.3858936169
 30
0.0
 10
9.5100209786
 20
13.3859682367
 30
0.0
 10
9.509998416
 20
13.3860156791
 30
0.0
 10
9.5099856583
 20
13.3860429523
 30
0.0
 10
9.5099758674
 20
13.3860625847
 30
0.0
 10
9.5099685394
 20
13.3860801662
 30
0.0
 10
9.5099647147
 20
13.3860842995
 30
0.0
 10
9.5099623664
 20
13.3860931009
 30
0.0
 10
9.5099620445
 20
13.3860920714
 30
0.0
  0
SPLINE
  5
3ED
100
AcDbEntity
  8
0
100
AcDbSpline
 62
7
  6
CONTINUOUS
 70
0
 71
3
 72
17
 73
13
 74
0
 42
0.0000001
 43
0.0000001
 44
0.0000000001
 40
0.0
 40
0.0
 40
0.0
 40
0.0
 40
0.1195161703
 40
0.2435286196
 40
0.3069347665
 40
0.3709903571
 40
0.4999999592
 40
0.6290095676
 40
0.6930651657
 40
0.7564713227
 40
0.8804837984
 40
1.0
 40
1.0
 40
1.0
 40
1.0
 10
19.9825188707
 20
9.4364613999
 30
0.0
 10
19.9875649805
 20
9.4364614066
 30
0.0
 10
19.9978612112
 20
9.4356710867
 30
0.0
 10
20.0105364404
 20
9.4327155368
 30
0.0
 10
20.0205193944
 20
9.4290686085
 30
0.0
 10
20.0303695798
 20
9.4245479728
 30
0.0
 10
20.0420170931
 20
9.4174039118
 30
0.0
 10
20.0523115664
 20
9.4084191468
 30
0.0
 10
20.059565785
 20
9.4003669029
 30
0.0
 10
20.0660257322
 20
9.3919272003
 30
0.0
 10
20.0726292592
 20
9.3807115766
 30
0.0
 10
20.0764562601
 20
9.3711203782
 30
0.0
 10
20.0779621596
 20
9.3663042072
 30
0.0
  0
SPLINE
  5
3EE
100
AcDbEntity
  8
0
100
AcDbSpline
 62
7
  6
CONTINUOUS
 70
0
 71
3
 72
17
 73
13
 74
0
 42
0.0000001
 43
0.0000001
 44
0.0000000001
 40
0.0
 40
0.0
 40
0.0
 40
0.0
 40
0.119516179
 40
0.2435286338
 40
0.306934782
 40
0.3709903732
 40
0.4999999744
 40
0.6290095797
 40
0.6930651756
 40
0.7564713304
 40
0.8804838018
 40
1.0
 40
1.0
 40
1.0
 40
1.0
 10
19.9825188707
 20
10.3764610974
 30
0.0
 10
19.9875649799
 20
10.3764610915
 30
0.0
 10
19.997861209
 20
10.3772514127
 30
0.0
 10
20.0105364361
 20
10.3802069635
 30
0.0
 10
20.0205193882
 20
10.3838538917
 30
0.0
 10
20.0303695716
 20
10.3883745268
 30
0.0
 10
20.0420170824
 20
10.3955185863
 30
0.0
 10
20.052311554
 20
10.4045033487
 30
0.0
 10
20.0595657718
 20
10.4125555902
 30
0.0
 10
20.0660257184
 20
10.42099529
 30
0.0
 10
20.0726292456
 20
10.4322109102
 30
0.0
 10
20.0764562474
 20
10.4418021056
 30
0.0
 10
20.0779621476
 20
10.4466182753
 30
0.0
  0
SPLINE
  5
3EF
100
AcDbEntity
  8
0
100
AcDbSpline
 62
9
  6
CONTINUOUS
 70
0
 71
3
 72
32
 73
28
 74
0
 42
0.0000001
 43
0.0000001
 44
0.0000000001
 40
0.0
 40
0.0
 40
0.0
 40
0.0
 40
0.0000701489
 40
0.0002770861
 40
0.0006205729
 40
0.0011003704
 40
0.0024679423
 40
0.0043778913
 40
0.0068283075
 40
0.0098172809
 40
0.0133429022
 40
0.0174032621
 40
0.027120563
 40
0.0389539177
 40
0.0528880659
 40
0.0689077527
 40
0.0869977292
 40
0.1071427328
 40
0.153500596
 40
0.207711728
 40
0.2694856867
 40
0.3385326961
 40
0.4145636881
 40
0.4972809535
 40
0.5863654737
 40
0.7823543991
 40
1.0
 40
1.0
 40
1.0
 40
1.0
 10
19.9825190155
 20
10.3764610974
 30
0.0
 10
19.9825207889
 20
10.3764590989
 30
0.0
 10
19.9825261207
 20
10.3764498973
 30
0.0
 10
19.9825400212
 20
10.3764308266
 30
0.0
 10
19.9825617654
 20
10.3763981246
 30
0.0
 10
19.982608891
 20
10.376329277
 30
0.0
 10
19.9826891554
 20
10.3762107738
 30
0.0
 10
19.982811725
 20
10.3760302918
 30
0.0
 10
19.9829687555
 20
10.375798549
 30
0.0
 10
19.9831602163
 20
10.3755158029
 30
0.0
 10
19.9833858864
 20
10.3751821622
 30
0.0
 10
19.9837548891
 20
10.3746360738
 30
0.0
 10
19.9843004565
 20
10.3738273874
 30
0.0
 10
19.9850553163
 20
10.3727062285
 30
0.0
 10
19.9859430088
 20
10.3713851111
 30
0.0
 10
19.9869621848
 20
10.3698652304
 30
0.0
 10
19.9881114815
 20
10.3681477734
 30
0.0
 10
19.989900938
 20
10.3654682728
 30
0.0
 10
19.9924483022
 20
10.3616404923
 30
0.0
 10
19.9958582581
 20
10.3564821382
 30
0.0
 10
19.9997230298
 20
10.3505885161
 30
0.0
 10
20.0040158919
 20
10.3439818277
 30
0.0
 10
20.0087101359
 20
10.3366847179
 30
0.0
 10
20.0137775744
 20
10.3287203039
 30
0.0
 10
20.021229274
 20
10.3168575688
 30
0.0
 10
20.0312524018
 20
10.300541417
 30
0.0
 10
20.0392955085
 20
10.286993033
 30
0.0
 10
20.0434655352
 20
10.2798281973
 30
0.0
  0
SPLINE
  5
3F0
100
AcDbEntity
  8
0
100
AcDbSpline
 62
9
  6
CONTINUOUS
 70
0
 71
3
 72
24
 73
20
 74
0
 42
0.0000001
 43
0.0000001
 44
0.0000000001
 40
0.0
 40
0.0
 40
0.0
 40
0.0
 40
0.0545789397
 40
0.1123594428
 40
0.1728368659
 40
0.2355431343
 40
0.3000586656
 40
0.3659218536
 40
0.3992440793
 40
0.432743955
 40
0.5000062345
 40
0.5672689987
 40
0.6007698485
 40
0.6340938296
 40
0.7644055851
 40
0.8271215113
 40
0.8876103353
 40
0.9454046413
 40
1.0
 40
1.0
 40
1.0
 40
1.0
 10
20.069371865
 20
10.23321892
 30
0.0
 10
20.0752076166
 20
10.2221849404
 30
0.0
 10
20.0868726151
 20
10.1992826154
 30
0.0
 10
20.1035247427
 20
10.1634227266
 30
0.0
 10
20.1193317774
 20
10.1251573023
 30
0.0
 10
20.1336487926
 20
10.0846640612
 30
0.0
 10
20.1458189305
 20
10.0421845219
 30
0.0
 10
20.1535929347
 20
10.0055220541
 30
0.0
 10
20.1580941197
 20
9.9755047865
 30
0.0
 10
20.1613981079
 20
9.9450112063
 30
0.0
 10
20.1631294358
 20
9.9065705869
 30
0.0
 10
20.1614142041
 20
9.8681293105
 30
0.0
 10
20.1581219977
 20
9.8376331992
 30
0.0
 10
20.1514518516
 20
9.7930355706
 30
0.0
 10
20.1387218406
 20
9.7426345225
 30
0.0
 10
20.1194045061
 20
9.6879546587
 30
0.0
 10
20.1036019123
 20
9.6496749972
 30
0.0
 10
20.0869527464
 20
9.6138041867
 30
0.0
 10
20.0752881899
 20
9.5908936632
 30
0.0
 10
20.0694522468
 20
9.5798555373
 30
0.0
  0
SPLINE
  5
3F1
100
AcDbEntity
  8
0
100
AcDbSpline
 62
9
  6
CONTINUOUS
 70
0
 71
3
 72
34
 73
30
 74
0
 42
0.0000001
 43
0.0000001
 44
0.0000000001
 40
0.0
 40
0.0
 40
0.0
 40
0.0
 40
0.2128967693
 40
0.3122828032
 40
0.4065046544
 40
0.4951985529
 40
0.577977495
 40
0.6544502967
 40
0.7242232605
 40
0.7869151007
 40
0.8421688989
 40
0.8896292587
 40
0.910325572
 40
0.9289399136
 40
0.9454365181
 40
0.9597951068
 40
0.9719969705
 40
0.9820233911
 40
0.9862149589
 40
0.9898556429
 40
0.9929431011
 40
0.9954749911
 40
0.9974489697
 40
0.9982260099
 40
0.9988626934
 40
0.9993587272
 40
0.9997138183
 40
0.9999276735
 40
1.0
 40
1.0
 40
1.0
 40
1.0
 10
20.0635091028
 20
9.5687519348
 30
0.0
 10
20.058263686
 20
9.5590694611
 30
0.0
 10
20.0503831974
 20
9.544966934
 30
0.0
 10
20.0398068607
 20
9.5267939605
 30
0.0
 10
20.0323338211
 20
9.5142488789
 30
0.0
 10
20.0251929048
 20
9.5025065853
 30
0.0
 10
20.0184373981
 20
9.4916049706
 30
0.0
 10
20.0121217415
 20
9.4815825878
 30
0.0
 10
20.00630026
 20
9.472477196
 30
0.0
 10
20.001024375
 20
9.4643258747
 30
0.0
 10
19.9963388573
 20
9.4571673543
 30
0.0
 10
19.9928191337
 20
9.4518420173
 30
0.0
 10
19.9903339108
 20
9.4481046821
 30
0.0
 10
19.9887320945
 20
9.4457032798
 30
0.0
 10
19.9873098411
 20
9.4435761588
 30
0.0
 10
19.9860698557
 20
9.4417261655
 30
0.0
 10
19.9850144551
 20
9.4401553436
 30
0.0
 10
19.9842510844
 20
9.4390218753
 30
0.0
 10
19.9837344081
 20
9.4382561523
 30
0.0
 10
19.9834182236
 20
9.437788127
 30
0.0
 10
19.9831498802
 20
9.4373913817
 30
0.0
 10
19.9829296392
 20
9.4370661807
 30
0.0
 10
19.9827763155
 20
9.4368399896
 30
0.0
 10
19.982677871
 20
9.4366950332
 30
0.0
 10
19.9826224515
 20
9.4366132538
 30
0.0
 10
19.9825789824
 20
9.436549771
 30
0.0
 10
19.9825484745
 20
9.4365038524
 30
0.0
 10
19.9825289666
 20
9.4364770921
 30
0.0
 10
19.9825214985
 20
9.4364641795
 30
0.0
 10
19.9825190155
 20
9.4364613812
 30
0.0
  0
SPLINE
  5
3F2
100
AcDbEntity
  8
0
100
AcDbSpline
 62
9
  6
CONTINUOUS
 70
0
 71
3
 72
99
 73
95
 74
0
 42
0.0000001
 43
0.0000001
 44
0.0000000001
 40
0.0
 40
0.0
 40
0.0
 40
0.0
 40
0.0000281261
 40
0.0000754578
 40
0.0001432787
 40
0.000232065
 40
0.000342085
 40
0.0004735314
 40
0.0008013201
 40
0.0012165515
 40
0.0017202418
 40
0.0023133768
 40
0.0029969345
 40
0.0037718949
 40
0.0046392444
 40
0.0066523178
 40
0.0090299228
 40
0.0117628434
 40
0.0148418396
 40
0.0182576605
 40
0.0220014773
 40
0.0260655775
 40
0.0304424343
 40
0.0351245303
 40
0.0453739058
 40
0.0567460093
 40
0.0691679162
 40
0.0825697188
 40
0.0968880405
 40
0.1120609386
 40
0.1280295537
 40
0.1447371779
 40
0.1621291165
 40
0.1801576811
 40
0.1987779234
 40
0.2376219692
 40
0.2783466159
 40
0.3206618245
 40
0.3642942193
 40
0.3865114181
 40
0.4089451035
 40
0.4315549096
 40
0.454296442
 40
0.4771271884
 40
0.5000034988
 40
0.5228791135
 40
0.5457081912
 40
0.5684475361
 40
0.5910535203
 40
0.6356912927
 40
0.6793161608
 40
0.7216280336
 40
0.7422013038
 40
0.7623416023
 40
0.7820161139
 40
0.8011872226
 40
0.8378434458
 40
0.8552377518
 40
0.8719447674
 40
0.8879144626
 40
0.90309171
 40
0.9174149287
 40
0.930821542
 40
0.9432457273
 40
0.9546188791
 40
0.9648721261
 40
0.9695573266
 40
0.9739368142
 40
0.9780020091
 40
0.9817443334
 40
0.9851559381
 40
0.9882302819
 40
0.9909609561
 40
0.9933415497
 40
0.9943985622
 40
0.9953656499
 40
0.9962421474
 40
0.9970276964
 40
0.9977219806
 40
0.9983246839
 40
0.9988354902
 40
0.9990563331
 40
0.9992540832
 40
0.999428701
 40
0.9995801468
 40
0.9997083813
 40
0.9998133648
 40
0.9998950579
 40
0.9999271582
 40
0.999953421
 40
0.9999738415
 40
0.9999884147
 40
0.9999971357
 40
1.0
 40
1.0
 40
1.0
 40
1.0
 10
20.0779620445
 20
9.3663041713
 30
0.0
 10
20.0779588835
 20
9.3663142807
 30
0.0
 10
20.0779616422
 20
9.366343741
 30
0.0
 10
20.077974556
 20
9.3663955817
 30
0.0
 10
20.0779996266
 20
9.3664685335
 30
0.0
 10
20.0780363408
 20
9.366561882
 30
0.0
 10
20.0780850838
 20
9.3666763615
 30
0.0
 10
20.0781725765
 20
9.3668720578
 30
0.0
 10
20.0783125397
 20
9.3671701878
 30
0.0
 10
20.0785163945
 20
9.3675931172
 30
0.0
 10
20.0787660922
 20
9.3681048837
 30
0.0
 10
20.0790608542
 20
9.3687070923
 30
0.0
 10
20.0793999536
 20
9.3694013403
 30
0.0
 10
20.0797826237
 20
9.3701892317
 30
0.0
 10
20.0803800467
 20
9.3714294305
 30
0.0
 10
20.0812288942
 20
9.3732184086
 30
0.0
 10
20.0823682964
 20
9.3756471159
 30
0.0
 10
20.0836705478
 20
9.3784428091
 30
0.0
 10
20.0851328298
 20
9.3815952719
 30
0.0
 10
20.0867525237
 20
9.3850943742
 30
0.0
 10
20.0885265537
 20
9.3889308355
 30
0.0
 10
20.0904481185
 20
9.3930978125
 30
0.0
 10
20.0925111226
 20
9.3975886708
 30
0.0
 10
20.0955345395
 20
9.4042016734
 30
0.0
 10
20.0996233849
 20
9.413224172
 30
0.0
 10
20.1048582609
 20
9.4249272528
 30
0.0
 10
20.1105119505
 20
9.4377433416
 30
0.0
 10
20.1165345068
 20
9.451609161
 30
0.0
 10
20.1228679659
 20
9.4664690856
 30
0.0
 10
20.1294571899
 20
9.4822702627
 30
0.0
 10
20.1362480236
 20
9.4989615833
 30
0.0
 10
20.1431875489
 20
9.516493743
 30
0.0
 10
20.1502240778
 20
9.5348207812
 30
0.0
 10
20.1572985026
 20
9.5539035319
 30
0.0
 10
20.1668395115
 20
9.5806854551
 30
0.0
 10
20.1785053431
 20
9.6157806734
 30
0.0
 10
20.1915241446
 20
9.6598066901
 30
0.0
 10
20.2032462213
 20
9.7060622287
 30
0.0
 10
20.2114294112
 20
9.7459843533
 30
0.0
 10
20.2168422523
 20
9.778791045
 30
0.0
 10
20.2202737022
 20
9.8038909409
 30
0.0
 10
20.2230019365
 20
9.8292756531
 30
0.0
 10
20.2249912049
 20
9.8548792346
 30
0.0
 10
20.2261974726
 20
9.8806323846
 30
0.0
 10
20.2266003403
 20
9.9064611065
 30
0.0
 10
20.2262017952
 20
9.9322893339
 30
0.0
 10
20.2249937992
 20
9.9580406769
 30
0.0
 10
20.2230043791
 20
9.9836414639
 30
0.0
 10
20.2193799794
 20
10.0173382096
 30
0.0
 10
20.2131264584
 20
10.0586430344
 30
0.0
 10
20.2032610626
 20
10.1068354343
 30
0.0
 10
20.1934158388
 20
10.1457331978
 30
0.0
 10
20.1848216232
 20
10.1757971115
 30
0.0
 10
20.1781711418
 20
10.1975459309
 30
0.0
 10
20.1713279814
 20
10.21868019
 30
0.0
 10
20.1621717178
 20
10.245599823
 30
0.0
 10
20.1527579258
 20
10.2715217855
 30
0.0
 10
20.1432077849
 20
10.2963987549
 30
0.0
 10
20.1362615545
 20
10.3139294609
 30
0.0
 10
20.1294651662
 20
10.3306204533
 30
0.0
 10
20.1228756364
 20
10.3464257039
 30
0.0
 10
20.1165436931
 20
10.3612920233
 30
0.0
 10
20.1105229829
 20
10.3751635724
 30
0.0
 10
20.104866384
 20
10.3879817398
 30
0.0
 10
20.0996261674
 20
10.3996853974
 30
0.0
 10
20.095536563
 20
10.4087108613
 30
0.0
 10
20.092513973
 20
10.4153282192
 30
0.0
 10
20.0904513483
 20
10.4198220824
 30
0.0
 10
20.0885298279
 20
10.4239900066
 30
0.0
 10
20.0867551695
 20
10.4278242639
 30
0.0
 10
20.0851326506
 20
10.4313177564
 30
0.0
 10
20.083666705
 20
10.4344639004
 30
0.0
 10
20.0823615984
 20
10.4372566339
 30
0.0
 10
20.081376067
 20
10.4393601357
 30
0.0
 10
20.0806714138
 20
10.4408617997
 30
0.0
 10
20.0802070854
 20
10.4418505423
 30
0.0
 10
20.0797860172
 20
10.4427466578
 30
0.0
 10
20.0794084547
 20
10.4435497038
 30
0.0
 10
20.0790745957
 20
10.4442593609
 30
0.0
 10
20.0787846289
 20
10.4448753234
 30
0.0
 10
20.0785704812
 20
10.4453299153
 30
0.0
 10
20.0784212501
 20
10.4456465121
 30
0.0
 10
20.0783259673
 20
10.445848571
 30
0.0
 10
20.0782417994
 20
10.4460269804
 30
0.0
 10
20.0781687713
 20
10.4461816881
 30
0.0
 10
20.0781069032
 20
10.4463126976
 30
0.0
 10
20.0780562294
 20
10.4464198529
 30
0.0
 10
20.0780209786
 20
10.4464944727
 30
0.0
 10
20.077998416
 20
10.4465419151
 30
0.0
 10
20.0779856583
 20
10.4465691883
 30
0.0
 10
20.0779758674
 20
10.4465888206
 30
0.0
 10
20.0779685394
 20
10.4466064022
 30
0.0
 10
20.0779647147
 20
10.4466105355
 30
0.0
 10
20.0779623664
 20
10.4466193369
 30
0.0
 10
20.0779620445
 20
10.4466183074
 30
0.0
  0
SPLINE
  5
3F3
100
AcDbEntity
  8
0
100
AcDbSpline
 62
7
  6
CONTINUOUS
 70
0
 71
3
 72
15
 73
11
 74
0
 42
0.0000001
 43
0.0000001
 44
0.0000000001
 40
0.0
 40
0.0
 40
0.0
 40
0.0
 40
0.243158903
 40
0.3066564479
 40
0.3708043736
 40
0.4999999431
 40
0.6291955212
 40
0.6933434572
 40
0.756841016
 40
1.0
 40
1.0
 40
1.0
 40
1.0
 10
10.7244481076
 20
10.3764610559
 30
0.0
 10
10.714196435
 20
10.37646104
 30
0.0
 10
10.7011356941
 20
10.3784864219
 30
0.0
 10
10.6864488794
 20
10.3838535678
 30
0.0
 10
10.6765966406
 20
10.3883746154
 30
0.0
 10
10.6649500038
 20
10.3955187228
 30
0.0
 10
10.6546557487
 20
10.4045026385
 30
0.0
 10
10.6474005244
 20
10.4125567202
 30
0.0
 10
10.6378949785
 20
10.4249725778
 30
0.0
 10
10.632064186
 20
10.4368337363
 30
0.0
 10
10.629004804
 20
10.446618267
 30
0.0
  0
SPLINE
  5
3F4
100
AcDbEntity
  8
0
100
AcDbSpline
 62
7
  6
CONTINUOUS
 70
0
 71
3
 72
15
 73
11
 74
0
 42
0.0000001
 43
0.0000001
 44
0.0000000001
 40
0.0
 40
0.0
 40
0.0
 40
0.0
 40
0.2431587986
 40
0.3066563358
 40
0.3708042602
 40
0.4999998416
 40
0.629195447
 40
0.6933434002
 40
0.7568409761
 40
1.0
 40
1.0
 40
1.0
 40
1.0
 10
10.7244481076
 20
9.4364615989
 30
0.0
 10
10.7141964207
 20
9.4364616314
 30
0.0
 10
10.7011356567
 20
9.4344362608
 30
0.0
 10
10.686448817
 20
9.4290691137
 30
0.0
 10
10.6765965591
 20
9.4245480598
 30
0.0
 10
10.6649499006
 20
9.4174039364
 30
0.0
 10
10.654655631
 20
9.4084199952
 30
0.0
 10
10.6474004
 20
9.4003658894
 30
0.0
 10
10.6378948501
 20
9.3879499949
 30
0.0
 10
10.6320640657
 20
9.3760888015
 30
0.0
 10
10.629004697
 20
9.3663042452
 30
0.0
  0
SPLINE
  5
3F5
100
AcDbEntity
  8
0
100
AcDbSpline
 62
9
  6
CONTINUOUS
 70
0
 71
3
 72
34
 73
30
 74
0
 42
0.0000001
 43
0.0000001
 44
0.0000000001
 40
0.0
 40
0.0
 40
0.0
 40
0.0
 40
0.0000735396
 40
0.0002900942
 40
0.0006493557
 40
0.0011510162
 40
0.0017947673
 40
0.0025803012
 40
0.0045754845
 40
0.0071341021
 40
0.0102536902
 40
0.0139317859
 40
0.0181659265
 40
0.0282924948
 40
0.0406137064
 40
0.0551098814
 40
0.0717613454
 40
0.0905424302
 40
0.1114092633
 40
0.1343145761
 40
0.1592111602
 40
0.2147895961
 40
0.2777683313
 40
0.3477624217
 40
0.4243586018
 40
0.5071406239
 40
0.5956954125
 40
0.7885525656
 40
1.0
 40
1.0
 40
1.0
 40
1.0
 10
10.7244477485
 20
9.4364615989
 30
0.0
 10
10.7244449321
 20
9.436464621
 30
0.0
 10
10.7244368591
 20
9.4364789785
 30
0.0
 10
10.7244152468
 20
9.4365082604
 30
0.0
 10
10.7243818015
 20
9.4365587892
 30
0.0
 10
10.7243340146
 20
9.4366284769
 30
0.0
 10
10.7242731711
 20
9.4367182901
 30
0.0
 10
10.7241650917
 20
9.4368774225
 30
0.0
 10
10.7239968178
 20
9.4371257142
 30
0.0
 10
10.7237551416
 20
9.437482644
 30
0.0
 10
10.723460744
 20
9.4379180489
 30
0.0
 10
10.7231139207
 20
9.4384316243
 30
0.0
 10
10.7225473057
 20
9.4392717381
 30
0.0
 10
10.7217103495
 20
9.4405151573
 30
0.0
 10
10.7205534906
 20
9.4422381449
 30
0.0
 10
10.7191946866
 20
9.4442670324
 30
0.0
 10
10.7176366712
 20
9.4465992502
 30
0.0
 10
10.7158830886
 20
9.4492312014
 30
0.0
 10
10.7139396365
 20
9.4521587894
 30
0.0
 10
10.7118125647
 20
9.4553768204
 30
0.0
 10
10.708621109
 20
9.4602286909
 30
0.0
 10
10.704218189
 20
9.4669781349
 30
0.0
 10
10.698480313
 20
9.4758812994
 30
0.0
 10
10.6921638272
 20
9.4858159674
 30
0.0
 10
10.6853305761
 20
9.4967399775
 30
0.0
 10
10.6780429206
 20
9.5086090792
 30
0.0
 10
10.6674987516
 20
9.5261415521
 30
0.0
 10
10.6536022853
 20
9.55009062
 30
0.0
 10
10.6427056777
 20
9.5700218787
 30
0.0
 10
10.6371603868
 20
9.5805261117
 30
0.0
  0
SPLINE
  5
3F6
100
AcDbEntity
  8
0
100
AcDbSpline
 62
9
  6
CONTINUOUS
 70
0
 71
3
 72
23
 73
19
 74
0
 42
0.0000001
 43
0.0000001
 44
0.0000000001
 40
0.0
 40
0.0
 40
0.0
 40
0.0
 40
0.0546390924
 40
0.1124564108
 40
0.1729513899
 40
0.2356602834
 40
0.365930838
 40
0.3992413631
 40
0.4327282495
 40
0.4999627237
 40
0.5671978195
 40
0.6006858218
 40
0.6339982659
 40
0.7642832573
 40
0.8270027869
 40
0.8875104033
 40
0.9453429098
 40
1.0
 40
1.0
 40
1.0
 40
1.0
 10
10.6371603868
 20
9.5805261117
 30
0.0
 10
10.6313430888
 20
9.5915455973
 30
0.0
 10
10.6197191671
 20
9.6144126435
 30
0.0
 10
10.6031326317
 20
9.650208054
 30
0.0
 10
10.5873960007
 20
9.6883941709
 30
0.0
 10
10.5681660821
 20
9.7429215151
 30
0.0
 10
10.5554934629
 20
9.7931703003
 30
0.0
 10
10.548846979
 20
9.8376271635
 30
0.0
 10
10.5455630871
 20
9.8680244427
 30
0.0
 10
10.5438420384
 20
9.9063408146
 30
0.0
 10
10.5455453364
 20
9.94465827
 30
0.0
 10
10.5488162006
 20
9.9750577991
 30
0.0
 10
10.5554443141
 20
10.0195214357
 30
0.0
 10
10.5681001965
 20
10.0697811208
 30
0.0
 10
10.5873169518
 20
10.1243222555
 30
0.0
 10
10.6030474875
 20
10.1625204106
 30
0.0
 10
10.6196310207
 20
10.1983287495
 30
0.0
 10
10.6312543812
 20
10.2212045849
 30
0.0
 10
10.6370718739
 20
10.2322286088
 30
0.0
  0
LINE
  5
3F7
100
AcDbEntity
  8
0
100
AcDbLine
 62
9
  6
CONTINUOUS
 10
10.6654858374
 20
10.2832270961
 11
10.6663708897
 21
10.2847361583
  0
SPLINE
  5
3F8
100
AcDbEntity
  8
0
100
AcDbSpline
 62
9
  6
CONTINUOUS
 70
0
 71
3
 72
31
 73
27
 74
0
 42
0.0000001
 43
0.0000001
 44
0.0000000001
 40
0.0
 40
0.0
 40
0.0
 40
0.0
 40
0.2190717963
 40
0.4157329601
 40
0.5049145735
 40
0.5875961001
 40
0.6634893975
 40
0.7323233345
 40
0.7938272849
 40
0.8477299962
 40
0.8937598701
 40
0.9137461237
 40
0.9316898056
 40
0.9475767022
 40
0.961392595
 40
0.9731232602
 40
0.9827544691
 40
0.9867783298
 40
0.9902719885
 40
0.9932336652
 40
0.9956615796
 40
0.9975539513
 40
0.9989089993
 40
0.9993844703
 40
0.9997249426
 40
1.0
 40
1.0
 40
1.0
 40
1.0
 10
10.6692468679
 20
10.2896116226
 30
0.0
 10
10.6730778182
 20
10.296077781
 30
0.0
 10
10.6804394286
 20
10.3082945892
 30
0.0
 10
10.6895798907
 20
10.3230096041
 30
0.0
 10
10.6963455679
 20
10.3336902505
 30
0.0
 10
10.7009299858
 20
10.3408479108
 30
0.0
 10
10.7051670309
 20
10.3473989688
 30
0.0
 10
10.7090341642
 20
10.3533239267
 30
0.0
 10
10.7125088154
 20
10.3586040734
 30
0.0
 10
10.7155685985
 20
10.363220636
 30
0.0
 10
10.7178504278
 20
10.3666439742
 30
0.0
 10
10.7194513004
 20
10.3690385962
 30
0.0
 10
10.7204788218
 20
10.3705725795
 30
0.0
 10
10.7213897409
 20
10.3719298743
 30
0.0
 10
10.7221829257
 20
10.3731094762
 30
0.0
 10
10.7228572381
 20
10.3741103851
 30
0.0
 10
10.7233444881
 20
10.3748322518
 30
0.0
 10
10.7236739774
 20
10.3753196631
 30
0.0
 10
10.7238754648
 20
10.3756174103
 30
0.0
 10
10.724046351
 20
10.3758697579
 30
0.0
 10
10.7241866131
 20
10.3760764861
 30
0.0
 10
10.7242957898
 20
10.3762377229
 30
0.0
 10
10.7243679167
 20
10.3763430926
 30
0.0
 10
10.7244093412
 20
10.3764050468
 30
0.0
 10
10.7244312295
 20
10.3764353331
 30
0.0
 10
10.7244415211
 20
10.3764540534
 30
0.0
 10
10.7244478813
 20
10.3764610245
 30
0.0
  0
SPLINE
  5
3F9
100
AcDbEntity
  8
0
100
AcDbSpline
 62
9
  6
CONTINUOUS
 70
0
 71
3
 72
92
 73
88
 74
0
 42
0.0000001
 43
0.0000001
 44
0.0000000001
 40
0.0
 40
0.0
 40
0.0
 40
0.0
 40
0.0000285244
 40
0.0000761863
 40
0.0001442899
 40
0.0002333216
 40
0.0004751715
 40
0.0008032356
 40
0.0012186249
 40
0.0017223528
 40
0.0023154003
 40
0.00299874
 40
0.0037733461
 40
0.0046401992
 40
0.0066525395
 40
0.0090301544
 40
0.0117634285
 40
0.0148427149
 40
0.0182583532
 40
0.022001052
 40
0.0260632599
 40
0.030437938
 40
0.0351180592
 40
0.045366181
 40
0.0567409915
 40
0.0691651436
 40
0.0825647269
 40
0.096878514
 40
0.1120482511
 40
0.1280162221
 40
0.1447252036
 40
0.1621188448
 40
0.1801472386
 40
0.1987663908
 40
0.2376074411
 40
0.2783301688
 40
0.3206482477
 40
0.3423179469
 40
0.3642826667
 40
0.3865027181
 40
0.4089368435
 40
0.4315465561
 40
0.4542908455
 40
0.4771233943
 40
0.499999337
 40
0.5228754005
 40
0.5457070478
 40
0.5684479187
 40
0.5910539149
 40
0.6356991317
 40
0.6793273387
 40
0.7006674775
 40
0.7216396137
 40
0.7623533708
 40
0.801201935
 40
0.8378558067
 40
0.8552476045
 40
0.8719522197
 40
0.8879201721
 40
0.9030951537
 40
0.917416429
 40
0.9308222119
 40
0.9432461438
 40
0.9546196686
 40
0.964873617
 40
0.9695586757
 40
0.9739372684
 40
0.9780004972
 40
0.9817395341
 40
0.9851473648
 40
0.9882188365
 40
0.9909488751
 40
0.9933324034
 40
0.9953643464
 40
0.9962467517
 40
0.997038826
 40
0.9977395088
 40
0.9983477387
 40
0.998862455
 40
0.9992826014
 40
0.9994568843
 40
0.9996071358
 40
0.9997332322
 40
0.9998350578
 40
0.9999125154
 40
0.9999655611
 40
1.0
 40
1.0
 40
1.0
 40
1.0
 10
10.6290049338
 20
10.4466183074
 30
0.0
 10
10.6290081396
 20
10.4466080547
 30
0.0
 10
10.6290055507
 20
10.4465783204
 30
0.0
 10
10.6289927172
 20
10.4465260416
 30
0.0
 10
10.6289677625
 20
10.4464527206
 30
0.0
 10
10.6289130301
 20
10.4463129213
 30
0.0
 10
10.6288125128
 20
10.4460858333
 30
0.0
 10
10.6286552546
 20
10.4457498087
 30
0.0
 10
10.6284513522
 20
10.4453266602
 30
0.0
 10
10.6282016986
 20
10.4448148374
 30
0.0
 10
10.6279069128
 20
10.4442127425
 30
0.0
 10
10.6275677829
 20
10.4435187816
 30
0.0
 10
10.6271850733
 20
10.4427313496
 30
0.0
 10
10.6265874475
 20
10.4414919002
 30
0.0
 10
10.6257385267
 20
10.4397034483
 30
0.0
 10
10.6245995868
 20
10.4372746566
 30
0.0
 10
10.623297832
 20
10.4344784371
 30
0.0
 10
10.6218359981
 20
10.4313255485
 30
0.0
 10
10.6202167053
 20
10.4278266502
 30
0.0
 10
10.6184422015
 20
10.4239917007
 30
0.0
 10
10.6165194879
 20
10.419827371
 30
0.0
 10
10.6144552831
 20
10.4153395324
 30
0.0
 10
10.6114302402
 20
10.4087294563
 30
0.0
 10
10.6073421334
 20
10.3997067509
 30
0.0
 10
10.6021130747
 20
10.3879994415
 30
0.0
 10
10.5964638939
 20
10.375180146
 30
0.0
 10
10.5904393675
 20
10.3613169342
 30
0.0
 10
10.5841017984
 20
10.3464626983
 30
0.0
 10
10.5775104909
 20
10.33066565
 30
0.0
 10
10.5707211917
 20
10.3139745511
 30
0.0
 10
10.5637851157
 20
10.2964399001
 30
0.0
 10
10.5567523983
 20
10.2781100973
 30
0.0
 10
10.5496786556
 20
10.2590267731
 30
0.0
 10
10.540137403
 20
10.2322464619
 30
0.0
 10
10.528463544
 20
10.1971559435
 30
0.0
 10
10.5154396032
 20
10.1531323413
 30
0.0
 10
10.5057547752
 20
10.1148928191
 30
0.0
 10
10.498884013
 20
10.0832584117
 30
0.0
 10
10.4942192878
 20
10.0588978051
 30
0.0
 10
10.4901406348
 20
10.0341402695
 30
0.0
 10
10.4867025972
 20
10.0090401028
 30
0.0
 10
10.4839636132
 20
9.9836551106
 30
0.0
 10
10.4819707784
 20
9.9580499535
 30
0.0
 10
10.4807521212
 20
9.932295705
 30
0.0
 10
10.4803435565
 20
9.9064659183
 30
0.0
 10
10.4807641359
 20
9.8806367597
 30
0.0
 10
10.4819819839
 20
9.8548841693
 30
0.0
 10
10.4839741897
 20
9.8292818383
 30
0.0
 10
10.4876063125
 20
9.7955823678
 30
0.0
 10
10.4938347689
 20
9.7542700572
 30
0.0
 10
10.5021125185
 20
9.713810918
 30
0.0
 10
10.5097058472
 20
9.6823472642
 30
0.0
 10
10.517704159
 20
9.6521180971
 30
0.0
 10
10.5284749825
 20
9.6158122745
 30
0.0
 10
10.5422648488
 20
9.5742687732
 30
0.0
 10
10.5542107285
 20
9.5413834945
 30
0.0
 10
10.5637631206
 20
9.5165100679
 30
0.0
 10
10.5707100081
 20
9.4989821912
 30
0.0
 10
10.5775055619
 20
9.4822933274
 30
0.0
 10
10.5840952904
 20
9.4664904567
 30
0.0
 10
10.5904273202
 20
9.4516261173
 30
0.0
 10
10.5964471718
 20
9.4377553261
 30
0.0
 10
10.6021026066
 20
9.4249368324
 30
0.0
 10
10.6073412841
 20
9.4132320507
 30
0.0
 10
10.6114296364
 20
9.4042055562
 30
0.0
 10
10.6144522963
 20
9.3975883126
 30
0.0
 10
10.6165152312
 20
9.3930957976
 30
0.0
 10
10.618437391
 20
9.3889306821
 30
0.0
 10
10.6202133437
 20
9.385100738
 30
0.0
 10
10.6218377632
 20
9.3816122251
 30
0.0
 10
10.6233053594
 20
9.3784698509
 30
0.0
 10
10.6246112554
 20
9.3756777015
 30
0.0
 10
10.6257506243
 20
9.37323985
 30
0.0
 10
10.6265925747
 20
9.3714310474
 30
0.0
 10
10.6271782194
 20
9.3701640282
 30
0.0
 10
10.6275525362
 20
9.3693516441
 30
0.0
 10
10.6278831873
 20
9.3686328187
 30
0.0
 10
10.6281702867
 20
9.3680089583
 30
0.0
 10
10.628414028
 20
9.367481367
 30
0.0
 10
10.6285904099
 20
9.3671028733
 30
0.0
 10
10.628710494
 20
9.3668492108
 30
0.0
 10
10.6287836669
 20
9.3666966196
 30
0.0
 10
10.6288471512
 20
9.3665675882
 30
0.0
 10
10.6288969039
 20
9.3664680786
 30
0.0
 10
10.6289433777
 20
9.3663831025
 30
0.0
 10
10.6289627957
 20
9.3663464141
 30
0.0
 10
10.6290010633
 20
9.3662917927
 30
0.0
 10
10.6290049338
 20
9.3663041713
 30
0.0
  0
SPLINE
  5
3FA
100
AcDbEntity
  8
0
100
AcDbSpline
 62
7
  6
CONTINUOUS
 70
0
 71
3
 72
22
 73
18
 74
0
 42
0.0000001
 43
0.0000001
 44
0.0000000001
 40
0.0
 40
0.0
 40
0.0
 40
0.0
 40
0.0713841882
 40
0.1384347562
 40
0.2617206563
 40
0.319457255
 40
0.3755698083
 40
0.4308891123
 40
0.486257124
 40
0.5424902632
 40
0.6002422088
 40
0.6597614867
 40
0.7213405209
 40
0.7854433825
 40
0.8527047967
 40
0.923916174
 40
1.0
 40
1.0
 40
1.0
 40
1.0
 10
1.269707163
 20
12.3104774132
 30
0.0
 10
1.2690619092
 20
12.3129782031
 30
0.0
 10
1.2676532744
 20
12.3177907692
 30
0.0
 10
1.2643124978
 20
12.3266557169
 30
0.0
 10
1.2600918006
 20
12.3346509749
 30
0.0
 10
1.254916583
 20
12.3415128594
 30
0.0
 10
1.2507011963
 20
12.3459690737
 30
0.0
 10
1.2460652866
 20
12.3498538033
 30
0.0
 10
1.2410071548
 20
12.3531778249
 30
0.0
 10
1.2355298955
 20
12.3559508193
 30
0.0
 10
1.2296496351
 20
12.358182246
 30
0.0
 10
1.2233694813
 20
12.3597983855
 30
0.0
 10
1.2167154789
 20
12.3607097048
 30
0.0
 10
1.2097187617
 20
12.3608255501
 30
0.0
 10
1.2024117313
 20
12.3600554126
 30
0.0
 10
1.1948293189
 20
12.3583106412
 30
0.0
 10
1.1898000297
 20
12.3565062272
 30
0.0
 10
1.1872634211
 20
12.3554370587
 30
0.0
  0
SPLINE
  5
3FB
100
AcDbEntity
  8
0
100
AcDbSpline
 62
7
  6
CONTINUOUS
 70
0
 71
3
 72
22
 73
18
 74
0
 42
0.0000001
 43
0.0000001
 44
0.0000000001
 40
0.0
 40
0.0
 40
0.0
 40
0.0
 40
0.0713841882
 40
0.1384347562
 40
0.2617206563
 40
0.319457255
 40
0.3755698083
 40
0.4308891123
 40
0.486257124
 40
0.5424902632
 40
0.6002422088
 40
0.6597614867
 40
0.7213405209
 40
0.7854433825
 40
0.8527047967
 40
0.923916174
 40
1.0
 40
1.0
 40
1.0
 40
1.0
 10
1.269707163
 20
13.3813925935
 30
0.0
 10
1.2690619092
 20
13.3788918036
 30
0.0
 10
1.2676532744
 20
13.3740792375
 30
0.0
 10
1.2643124978
 20
13.3652142898
 30
0.0
 10
1.2600918006
 20
13.3572190318
 30
0.0
 10
1.254916583
 20
13.3503571473
 30
0.0
 10
1.2507011963
 20
13.345900933
 30
0.0
 10
1.2460652866
 20
13.3420162034
 30
0.0
 10
1.2410071548
 20
13.3386921818
 30
0.0
 10
1.2355298955
 20
13.3359191874
 30
0.0
 10
1.2296496351
 20
13.3336877607
 30
0.0
 10
1.2233694813
 20
13.3320716212
 30
0.0
 10
1.2167154789
 20
13.3311603019
 30
0.0
 10
1.2097187617
 20
13.3310444566
 30
0.0
 10
1.2024117313
 20
13.3318145942
 30
0.0
 10
1.1948293189
 20
13.3335593655
 30
0.0
 10
1.1898000297
 20
13.3353637795
 30
0.0
 10
1.1872634211
 20
13.3364329481
 30
0.0
  0
SPLINE
  5
3FC
100
AcDbEntity
  8
0
100
AcDbSpline
 62
7
  6
CONTINUOUS
 70
0
 71
3
 72
24
 73
20
 74
0
 42
0.0000001
 43
0.0000001
 44
0.0000000001
 40
0.0
 40
0.0
 40
0.0
 40
0.0
 40
0.0748942593
 40
0.1447317153
 40
0.2105826173
 40
0.2733306829
 40
0.3336414452
 40
0.3919505745
 40
0.4204408429
 40
0.4485029742
 40
0.5036504829
 40
0.5582610147
 40
0.6132620353
 40
0.6695908078
 40
0.7281499445
 40
0.7897727969
 40
0.8552037497
 40
0.9250927531
 40
1.0
 40
1.0
 40
1.0
 40
1.0
 10
0.3017035571
 20
12.3554370587
 30
0.0
 10
0.2996156982
 20
12.3563170813
 30
0.0
 10
0.2954736423
 20
12.3577788502
 30
0.0
 10
0.2892247404
 20
12.3591060908
 30
0.0
 10
0.2832216556
 20
12.359568844
 30
0.0
 10
0.2774990784
 20
12.3592567507
 30
0.0
 10
0.2720890707
 20
12.3582614243
 30
0.0
 10
0.2678313572
 20
12.3569279208
 30
0.0
 10
0.2646165129
 20
12.3556049478
 30
0.0
 10
0.2615663626
 20
12.3541470533
 30
0.0
 10
0.2579627681
 20
12.3520292455
 30
0.0
 10
0.2539924727
 20
12.3489955331
 30
0.0
 10
0.2503984719
 20
12.3454726318
 30
0.0
 10
0.247179033
 20
12.3414512331
 30
0.0
 10
0.2443300296
 20
12.3369223473
 30
0.0
 10
0.2418458889
 20
12.3318763289
 30
0.0
 10
0.2397202242
 20
12.3263022304
 30
0.0
 10
0.2379466934
 20
12.32018837
 30
0.0
 10
0.2370287606
 20
12.3159013398
 30
0.0
 10
0.2366204829
 20
12.3136722851
 30
0.0
  0
SPLINE
  5
3FD
100
AcDbEntity
  8
0
100
AcDbSpline
 62
7
  6
CONTINUOUS
 70
0
 71
3
 72
24
 73
20
 74
0
 42
0.0000001
 43
0.0000001
 44
0.0000000001
 40
0.0
 40
0.0
 40
0.0
 40
0.0
 40
0.0748942593
 40
0.1447317153
 40
0.2105826173
 40
0.2733306829
 40
0.3336414452
 40
0.3919505745
 40
0.4204408429
 40
0.4485029742
 40
0.5036504829
 40
0.5582610147
 40
0.6132620353
 40
0.6695908078
 40
0.7281499445
 40
0.7897727969
 40
0.8552037497
 40
0.9250927531
 40
1.0
 40
1.0
 40
1.0
 40
1.0
 10
0.3017035571
 20
13.3364329481
 30
0.0
 10
0.2996156982
 20
13.3355529254
 30
0.0
 10
0.2954736423
 20
13.3340911565
 30
0.0
 10
0.2892247404
 20
13.3327639159
 30
0.0
 10
0.2832216556
 20
13.3323011627
 30
0.0
 10
0.2774990784
 20
13.332613256
 30
0.0
 10
0.2720890707
 20
13.3336085824
 30
0.0
 10
0.2678313572
 20
13.3349420859
 30
0.0
 10
0.2646165129
 20
13.3362650589
 30
0.0
 10
0.2615663626
 20
13.3377229534
 30
0.0
 10
0.2579627681
 20
13.3398407612
 30
0.0
 10
0.2539924727
 20
13.3428744736
 30
0.0
 10
0.2503984719
 20
13.3463973749
 30
0.0
 10
0.247179033
 20
13.3504187736
 30
0.0
 10
0.2443300296
 20
13.3549476594
 30
0.0
 10
0.2418458889
 20
13.3599936778
 30
0.0
 10
0.2397202242
 20
13.3655677763
 30
0.0
 10
0.2379466934
 20
13.3716816367
 30
0.0
 10
0.2370287606
 20
13.3759686669
 30
0.0
 10
0.2366204829
 20
13.3781977216
 30
0.0
  0
SPLINE
  5
3FE
100
AcDbEntity
  8
0
100
AcDbSpline
 62
9
  6
CONTINUOUS
 70
0
 71
3
 72
10
 73
6
 74
0
 42
0.0000001
 43
0.0000001
 44
0.0000000001
 40
0.0
 40
0.0
 40
0.0
 40
0.0
 40
0.5375354087
 40
0.7798112449
 40
1.0
 40
1.0
 40
1.0
 40
1.0
 10
-0.108827564
 20
12.4376696489
 30
0.0
 10
-0.1198377797
 20
12.4437660315
 30
0.0
 10
-0.1364531097
 20
12.4515121133
 30
0.0
 10
-0.1585273088
 20
12.4593370906
 30
0.0
 10
-0.1689248969
 20
12.4623821331
 30
0.0
 10
-0.1739080728
 20
12.4637030999
 30
0.0
  0
SPLINE
  5
3FF
100
AcDbEntity
  8
0
100
AcDbSpline
 62
9
  6
CONTINUOUS
 70
0
 71
3
 72
10
 73
6
 74
0
 42
0.0000001
 43
0.0000001
 44
0.0000000001
 40
0.0
 40
0.0
 40
0.0
 40
0.0
 40
0.2445820614
 40
0.4932922253
 40
1.0
 40
1.0
 40
1.0
 40
1.0
 10
-0.1739099291
 20
12.4636994595
 30
0.0
 10
-0.1733375643
 20
12.4580406432
 30
0.0
 10
-0.1719842451
 20
12.446647206
 30
0.0
 10
-0.1686379332
 20
12.4236328132
 30
0.0
 10
-0.1656309084
 20
12.4063226322
 30
0.0
 10
-0.1635675428
 20
12.3947213449
 30
0.0
  0
SPLINE
  5
400
100
AcDbEntity
  8
0
100
AcDbSpline
 62
9
  6
CONTINUOUS
 70
0
 71
3
 72
39
 73
35
 74
0
 42
0.0000001
 43
0.0000001
 44
0.0000000001
 40
0.0
 40
0.0
 40
0.0
 40
0.0
 40
0.1810662854
 40
0.2701127898
 40
0.3574670043
 40
0.4425400324
 40
0.5246929888
 40
0.6032085382
 40
0.6773136855
 40
0.7461371709
 40
0.808751683
 40
0.8374193076
 40
0.8641596297
 40
0.8888462515
 40
0.9113526648
 40
0.9315551523
 40
0.9493389852
 40
0.9645913239
 40
0.9712354297
 40
0.9772116663
 40
0.9825108798
 40
0.9871239154
 40
0.9910416214
 40
0.994256183
 40
0.9955983715
 40
0.9967631847
 40
0.9977501372
 40
0.9985587436
 40
0.9991885185
 40
0.9996389765
 40
0.99979681
 40
0.9999096321
 40
0.9999773824
 40
1.0
 40
1.0
 40
1.0
 40
1.0
 10
-0.9377496284
 20
12.4637018858
 30
0.0
 10
-0.9421311425
 20
12.4558159668
 30
0.0
 10
-0.9486809649
 20
12.4440593352
 30
0.0
 10
-0.9573852548
 20
12.4285209033
 30
0.0
 10
-0.963772566
 20
12.4171665964
 30
0.0
 10
-0.9700150898
 20
12.4061249479
 30
0.0
 10
-0.9760665771
 20
12.395481216
 30
0.0
 10
-0.9818731846
 20
12.3853269056
 30
0.0
 10
-0.9873751538
 20
12.3757634739
 30
0.0
 10
-0.9925055872
 20
12.3669003385
 30
0.0
 10
-0.9965206037
 20
12.3600073637
 30
0.0
 10
-0.9994904471
 20
12.3549321199
 30
0.0
 10
-1.0015103466
 20
12.3514904722
 30
0.0
 10
-1.0033785955
 20
12.3483157622
 30
0.0
 10
-1.0050847005
 20
12.3454235926
 30
0.0
 10
-1.0066184662
 20
12.3428290645
 30
0.0
 10
-1.0079703985
 20
12.3405469
 30
0.0
 10
-1.0089796121
 20
12.3388468753
 30
0.0
 10
-1.0096893848
 20
12.3376532409
 30
0.0
 10
-1.0101460025
 20
12.3368860226
 30
0.0
 10
-1.0105510762
 20
12.3362058891
 30
0.0
 10
-1.0109037833
 20
12.3356139432
 30
0.0
 10
-1.0112033332
 20
12.3351112289
 30
0.0
 10
-1.0114193776
 20
12.3347484591
 30
0.0
 10
-1.0115651921
 20
12.3345035054
 30
0.0
 10
-1.011654225
 20
12.3343539128
 30
0.0
 10
-1.011729625
 20
12.3342271489
 30
0.0
 10
-1.0117914437
 20
12.334123309
 30
0.0
 10
-1.011839427
 20
12.3340423789
 30
0.0
 10
-1.0118711882
 20
12.3339894418
 30
0.0
 10
-1.0118892202
 20
12.3339584398
 30
0.0
 10
-1.0118983654
 20
12.3339441362
 30
0.0
 10
-1.0119025945
 20
12.3339350944
 30
0.0
 10
-1.0119058693
 20
12.3339315734
 30
0.0
 10
-1.0119060427
 20
12.33393046
 30
0.0
  0
SPLINE
  5
401
100
AcDbEntity
  8
0
100
AcDbSpline
 62
9
  6
CONTINUOUS
 70
0
 71
3
 72
23
 73
19
 74
0
 42
0.0000001
 43
0.0000001
 44
0.0000000001
 40
0.0
 40
0.0
 40
0.0
 40
0.0
 40
0.1857441732
 40
0.3650332654
 40
0.5334549612
 40
0.6118700794
 40
0.6854461365
 40
0.7534199624
 40
0.8149010306
 40
0.8689667323
 40
0.9146942226
 40
0.9512267211
 40
0.9658557503
 40
0.9779723507
 40
0.9875108034
 40
0.9944053838
 40
0.9985903613
 40
1.0
 40
1.0
 40
1.0
 40
1.0
 10
-0.9377496188
 20
12.4637018744
 30
0.0
 10
-0.9458384452
 20
12.4592056828
 30
0.0
 10
-0.9617261762
 20
12.4503536724
 30
0.0
 10
-0.9849042019
 20
12.4373456742
 30
0.0
 10
-1.003371762
 20
12.4268712044
 30
0.0
 10
-1.017228614
 20
12.4189439292
 30
0.0
 10
-1.0267271511
 20
12.4134769546
 30
0.0
 10
-1.0354796141
 20
12.4084051821
 30
0.0
 10
-1.043378834
 20
12.4037998501
 30
0.0
 10
-1.0503108992
 20
12.3997363349
 30
0.0
 10
-1.0561632826
 20
12.3962889868
 30
0.0
 10
-1.0603182142
 20
12.3938313421
 30
0.0
 10
-1.0630294561
 20
12.392222314
 30
0.0
 10
-1.0645834684
 20
12.3912986175
 30
0.0
 10
-1.0658051882
 20
12.3905701007
 30
0.0
 10
-1.0666880696
 20
12.3900449107
 30
0.0
 10
-1.0672208117
 20
12.3897234031
 30
0.0
 10
-1.0674613817
 20
12.3895825324
 30
0.0
 10
-1.0675210387
 20
12.3895454681
 30
0.0
  0
SPLINE
  5
402
100
AcDbEntity
  8
0
100
AcDbSpline
 62
9
  6
CONTINUOUS
 70
0
 71
3
 72
34
 73
30
 74
0
 42
0.0000001
 43
0.0000001
 44
0.0000000001
 40
0.0
 40
0.0
 40
0.0
 40
0.0
 40
0.2021370114
 40
0.389335088
 40
0.4765190936
 40
0.5588538948
 40
0.6358754166
 40
0.7070913861
 40
0.7719724326
 40
0.8299194543
 40
0.8560983258
 40
0.8803089735
 40
0.9024719537
 40
0.9225073322
 40
0.9403415443
 40
0.9559279547
 40
0.969226625
 40
0.9801975281
 40
0.9847975366
 40
0.9888005544
 40
0.9922015545
 40
0.9949955049
 40
0.9971773688
 40
0.998037193
 40
0.9987421045
 40
0.9992914723
 40
0.9996846653
 40
0.9999210518
 40
1.0
 40
1.0
 40
1.0
 40
1.0
 10
-0.1635696585
 20
12.3947236082
 30
0.0
 10
-0.1618931909
 20
12.3852847657
 30
0.0
 10
-0.1577082668
 20
12.367264077
 30
0.0
 10
-0.1507144896
 20
12.3457540655
 30
0.0
 10
-0.1447258016
 20
12.3299299441
 30
0.0
 10
-0.1402854902
 20
12.319111861
 30
0.0
 10
-0.1358843313
 20
12.3091004706
 30
0.0
 10
-0.1316184785
 20
12.2999366939
 30
0.0
 10
-0.1275858524
 20
12.2916640717
 30
0.0
 10
-0.1243885895
 20
12.2853615801
 30
0.0
 10
-0.1220152286
 20
12.2808045766
 30
0.0
 10
-0.1204067161
 20
12.2777627843
 30
0.0
 10
-0.1189189881
 20
12.2749867754
 30
0.0
 10
-0.1175623412
 20
12.2724836594
 30
0.0
 10
-0.1163464125
 20
12.2702590634
 30
0.0
 10
-0.1152770227
 20
12.2683184937
 30
0.0
 10
-0.1143591158
 20
12.2666661114
 30
0.0
 10
-0.1136902574
 20
12.265471429
 30
0.0
 10
-0.1132346603
 20
12.2646626021
 30
0.0
 10
-0.1129544453
 20
12.2641670352
 30
0.0
 10
-0.1127157204
 20
12.2637464063
 30
0.0
 10
-0.112519049
 20
12.2634012262
 30
0.0
 10
-0.112381722
 20
12.2631609307
 30
0.0
 10
-0.1122932594
 20
12.2630068419
 30
0.0
 10
-0.1122434636
 20
12.2629197936
 30
0.0
 10
-0.1122041032
 20
12.2628523592
 30
0.0
 10
-0.1121770532
 20
12.2628032752
 30
0.0
 10
-0.1121587061
 20
12.2627753107
 30
0.0
 10
-0.1121528168
 20
12.2627611894
 30
0.0
 10
-0.112150283
 20
12.2627584328
 30
0.0
  0
SPLINE
  5
403
100
AcDbEntity
  8
0
100
AcDbSpline
 62
9
  6
CONTINUOUS
 70
0
 71
3
 72
15
 73
11
 74
0
 42
0.0000001
 43
0.0000001
 44
0.0000000001
 40
0.0
 40
0.0
 40
0.0
 40
0.0
 40
0.1194093696
 40
0.2437997008
 40
0.371759691
 40
0.501439626
 40
0.6309188996
 40
0.7582974094
 40
0.881770191
 40
1.0
 40
1.0
 40
1.0
 40
1.0
 10
-0.0916183582
 20
12.4272647437
 30
0.0
 10
-0.0948517784
 20
12.4272498581
 30
0.0
 10
-0.1014562887
 20
12.4268562495
 30
0.0
 10
-0.1114059864
 20
12.4252132266
 30
0.0
 10
-0.1213962782
 20
12.4224557593
 30
0.0
 10
-0.1311799851
 20
12.418639429
 30
0.0
 10
-0.1404926171
 20
12.4138195404
 30
0.0
 10
-0.1491185563
 20
12.4081576847
 30
0.0
 10
-0.1568546378
 20
12.4018016597
 30
0.0
 10
-0.1614542709
 20
12.3971244993
 30
0.0
 10
-0.1635672966
 20
12.3947193359
 30
0.0
  0
SPLINE
  5
404
100
AcDbEntity
  8
0
100
AcDbSpline
 62
9
  6
CONTINUOUS
 70
0
 71
3
 72
43
 73
39
 74
0
 42
0.0000001
 43
0.0000001
 44
0.0000000001
 40
0.0
 40
0.0
 40
0.0
 40
0.0
 40
0.0000195769
 40
0.0000782846
 40
0.0001761236
 40
0.0003130946
 40
0.0004891983
 40
0.0007044353
 40
0.0012523117
 40
0.0019567288
 40
0.0028176915
 40
0.0038350935
 40
0.005008511
 40
0.0078214723
 40
0.0112527369
 40
0.0152984676
 40
0.0199548286
 40
0.0252179862
 40
0.0310837624
 40
0.0375460818
 40
0.0445982232
 40
0.0604451046
 40
0.078570664
 40
0.0989139833
 40
0.1214005912
 40
0.1459547255
 40
0.17250033
 40
0.2009587036
 40
0.2312505476
 40
0.2970168945
 40
0.3691440524
 40
0.4469707521
 40
0.529859765
 40
0.6172055073
 40
0.708425188
 40
0.802978577
 40
0.9003503362
 40
1.0
 40
1.0
 40
1.0
 40
1.0
 10
-0.0199598855
 20
12.3345488429
 30
0.0
 10
-0.019960627
 20
12.3345486431
 30
0.0
 10
-0.0199623103
 20
12.3345526276
 30
0.0
 10
-0.0199676519
 20
12.3345557766
 30
0.0
 10
-0.0199755078
 20
12.334564933
 30
0.0
 10
-0.019986996
 20
12.3345759174
 30
0.0
 10
-0.0200015689
 20
12.3345907771
 30
0.0
 10
-0.0200275785
 20
12.3346168103
 30
0.0
 10
-0.0200681695
 20
12.3346576686
 30
0.0
 10
-0.0201266466
 20
12.3347164057
 30
0.0
 10
-0.020198106
 20
12.3347882303
 30
0.0
 10
-0.0202825429
 20
12.3348730866
 30
0.0
 10
-0.0204209652
 20
12.3350122462
 30
0.0
 10
-0.0206260897
 20
12.3352186087
 30
0.0
 10
-0.0209104626
 20
12.3355050617
 30
0.0
 10
-0.0212455346
 20
12.3358430743
 30
0.0
 10
-0.0216308889
 20
12.3362324239
 30
0.0
 10
-0.022066099
 20
12.3366728783
 30
0.0
 10
-0.0225506786
 20
12.3371641406
 30
0.0
 10
-0.0230839949
 20
12.3377058988
 30
0.0
 10
-0.0238910572
 20
12.3385275747
 30
0.0
 10
-0.0250165264
 20
12.3396777888
 30
0.0
 10
-0.0265025458
 20
12.341204632
 30
0.0
 10
-0.0281649968
 20
12.3429231925
 30
0.0
 10
-0.0299955687
 20
12.3448299465
 30
0.0
 10
-0.0319856695
 20
12.3469207768
 30
0.0
 10
-0.0341265255
 20
12.3491914688
 30
0.0
 10
-0.0364089071
 20
12.3516380019
 30
0.0
 10
-0.039720018
 20
12.3552287432
 30
0.0
 10
-0.044146486
 20
12.3601209386
 30
0.0
 10
-0.049728369
 20
12.366481204
 30
0.0
 10
-0.0556287355
 20
12.3734539207
 30
0.0
 10
-0.0617514255
 20
12.3810179008
 30
0.0
 10
-0.0679979912
 20
12.3891536954
 30
0.0
 10
-0.0742589701
 20
12.3978498047
 30
0.0
 10
-0.080405701
 20
12.4071044053
 30
0.0
 10
-0.086303565
 20
12.4169089167
 30
0.0
 10
-0.0899122552
 20
12.4237498657
 30
0.0
 10
-0.0916197728
 20
12.4272660877
 30
0.0
  0
SPLINE
  5
405
100
AcDbEntity
  8
0
100
AcDbSpline
 62
9
  6
CONTINUOUS
 70
0
 71
3
 72
79
 73
75
 74
0
 42
0.0000001
 43
0.0000001
 44
0.0000000001
 40
0.0
 40
0.0
 40
0.0
 40
0.0
 40
0.0000877468
 40
0.0002434219
 40
0.0004714646
 40
0.0007737787
 40
0.0011516764
 40
0.0016062709
 40
0.0021385954
 40
0.0027496489
 40
0.0042118818
 40
0.0060008433
 40
0.0081238179
 40
0.0105798453
 40
0.0133622656
 40
0.0164642798
 40
0.0198790711
 40
0.0235998124
 40
0.0319330828
 40
0.041421126
 40
0.0520262015
 40
0.063709773
 40
0.0764252238
 40
0.090122177
 40
0.104750936
 40
0.1202657685
 40
0.1537788034
 40
0.1903047826
 40
0.2294770108
 40
0.2709411692
 40
0.3143501018
 40
0.359340335
 40
0.4055397858
 40
0.4525527364
 40
0.4999772225
 40
0.5237155555
 40
0.5474020878
 40
0.5709862815
 40
0.5944177016
 40
0.6176455048
 40
0.6406192208
 40
0.6856147331
 40
0.7290295243
 40
0.7705013377
 40
0.8096764975
 40
0.8462023103
 40
0.879723086
 40
0.895243697
 40
0.9098765575
 40
0.9235746735
 40
0.9362903277
 40
0.9479756413
 40
0.9585852518
 40
0.9680765085
 40
0.9764067398
 40
0.9801232291
 40
0.9835337335
 40
0.9866330992
 40
0.9894161726
 40
0.9918778014
 40
0.9940128858
 40
0.9958191726
 40
0.996599635
 40
0.9972987093
 40
0.9979166942
 40
0.9984538886
 40
0.998910594
 40
0.9992871179
 40
0.999583783
 40
0.9998009525
 40
0.9998798768
 40
0.9999391496
 40
0.9999789705
 40
1.0
 40
1.0
 40
1.0
 40
1.0
 10
20.0735582527
 20
7.8130234525
 30
0.0
 10
20.0735887849
 20
7.8130372123
 30
0.0
 10
20.0736862107
 20
7.8130350977
 30
0.0
 10
20.0738617467
 20
7.8130093967
 30
0.0
 10
20.0741183478
 20
7.8129504505
 30
0.0
 10
20.0744529126
 20
7.8128617562
 30
0.0
 10
20.0748693794
 20
7.8127420206
 30
0.0
 10
20.0753683003
 20
7.8125925565
 30
0.0
 10
20.0759514569
 20
7.8124138977
 30
0.0
 10
20.0769014346
 20
7.8121198386
 30
0.0
 10
20.0783092453
 20
7.8116828418
 30
0.0
 10
20.0802707088
 20
7.8110830483
 30
0.0
 10
20.0825999544
 20
7.8103890956
 30
0.0
 10
20.0852972628
 20
7.8096028113
 30
0.0
 10
20.0883567714
 20
7.8087239621
 30
0.0
 10
20.0917708037
 20
7.8077539781
 30
0.0
 10
20.0955315126
 20
7.8066938652
 30
0.0
 10
20.1012163263
 20
7.8051007035
 30
0.0
 10
20.1091361438
 20
7.8028930156
 30
0.0
 10
20.1195960475
 20
7.8000125787
 30
0.0
 10
20.1313032754
 20
7.7968458127
 30
0.0
 10
20.1442186049
 20
7.7934285705
 30
0.0
 10
20.1582966172
 20
7.7897931617
 30
0.0
 10
20.1734872977
 20
7.785972021
 30
0.0
 10
20.1897407001
 20
7.7819972652
 30
0.0
 10
20.2133825342
 20
7.7763998264
 30
0.0
 10
20.2452513054
 20
7.7692800679
 30
0.0
 10
20.2860971762
 20
7.7609616164
 30
0.0
 10
20.3300916049
 20
7.7529399896
 30
0.0
 10
20.3768530259
 20
7.745511328
 30
0.0
 10
20.4259893224
 20
7.7389729872
 30
0.0
 10
20.4770830076
 20
7.7335772754
 30
0.0
 10
20.5296842354
 20
7.7295625625
 30
0.0
 10
20.583309959
 20
7.7270702757
 30
0.0
 10
20.6284153838
 20
7.7263658545
 30
0.0
 10
20.66461583
 20
7.7266382465
 30
0.0
 10
20.6917110065
 20
7.7272701805
 30
0.0
 10
20.7186759182
 20
7.7283183973
 30
0.0
 10
20.7454469684
 20
7.7297658407
 30
0.0
 10
20.7719610231
 20
7.7315965901
 30
0.0
 10
20.8066463641
 20
7.7345083973
 30
0.0
 10
20.8489290233
 20
7.7389658766
 30
0.0
 10
20.8980730931
 20
7.7454992639
 30
0.0
 10
20.9448416758
 20
7.7529232058
 30
0.0
 10
20.9888395307
 20
7.7609487622
 30
0.0
 10
21.0296867482
 20
7.7692805723
 30
0.0
 10
21.0615609656
 20
7.7763989147
 30
0.0
 10
21.0852109883
 20
7.7819909586
 30
0.0
 10
21.1014692576
 20
7.7859635949
 30
0.0
 10
21.1166614674
 20
7.7897872477
 30
0.0
 10
21.1307397337
 20
7.7934264129
 30
0.0
 10
21.1436571438
 20
7.79684543
 30
0.0
 10
21.1553686703
 20
7.8000101585
 30
0.0
 10
21.1658309977
 20
7.8028885762
 30
0.0
 10
21.173748765
 20
7.8050978488
 30
0.0
 10
21.1794275934
 20
7.8066959829
 30
0.0
 10
21.1831829091
 20
7.80775948
 30
0.0
 10
21.1865937281
 20
7.8087319896
 30
0.0
 10
21.1896545034
 20
7.8096114018
 30
0.0
 10
21.1923597489
 20
7.810395466
 30
0.0
 10
21.1947049453
 20
7.8110825646
 30
0.0
 10
21.1964327293
 20
7.8115948867
 30
0.0
 10
21.1976345244
 20
7.8119531869
 30
0.0
 10
21.1984015901
 20
7.8121822673
 30
0.0
 10
21.1990797277
 20
7.8123846544
 30
0.0
 10
21.1996694248
 20
7.8125599418
 30
0.0
 10
21.2001711486
 20
7.8127076858
 30
0.0
 10
21.2005854149
 20
7.8128276086
 30
0.0
 10
21.2009125929
 20
7.8129190981
 30
0.0
 10
21.2011315321
 20
7.8129769106
 30
0.0
 10
21.2012634799
 20
7.8130072888
 30
0.0
 10
21.2013305054
 20
7.8130208714
 30
0.0
 10
21.2013752276
 20
7.8130262823
 30
0.0
 10
21.2013996271
 20
7.8130275529
 30
0.0
 10
21.2014069445
 20
7.8130242552
 30
0.0
  0
SPLINE
  5
406
100
AcDbEntity
  8
0
100
AcDbSpline
 62
9
  6
CONTINUOUS
 70
0
 71
3
 72
29
 73
25
 74
0
 42
0.0000001
 43
0.0000001
 44
0.0000000001
 40
0.0
 40
0.0
 40
0.0
 40
0.0
 40
0.0453548118
 40
0.0974320947
 40
0.1553256519
 40
0.218149583
 40
0.2511202572
 40
0.2849750327
 40
0.3196034078
 40
0.3548937837
 40
0.3907146519
 40
0.4269300712
 40
0.5000041467
 40
0.5730783163
 40
0.6092937853
 40
0.6451146457
 40
0.6804049126
 40
0.7150330524
 40
0.7488874717
 40
0.7818576728
 40
0.844680322
 40
0.9025721979
 40
0.9546474696
 40
1.0
 40
1.0
 40
1.0
 40
1.0
 10
21.0626900276
 20
7.8745443435
 30
0.0
 10
21.050283403
 20
7.8703099979
 30
0.0
 10
21.023516558
 20
7.861545943
 30
0.0
 10
20.9804732262
 20
7.8487609855
 30
0.0
 10
20.9321432723
 20
7.8361240939
 30
0.0
 10
20.8887574056
 20
7.8265251931
 30
0.0
 10
20.851933056
 20
7.8195660356
 30
0.0
 10
20.8230025574
 20
7.8147613864
 30
0.0
 10
20.7933029673
 20
7.8105438205
 30
0.0
 10
20.7629427287
 20
7.8070028721
 30
0.0
 10
20.7320466701
 20
7.8041771017
 30
0.0
 10
20.6901920362
 20
7.8014093507
 30
0.0
 10
20.6374746799
 20
7.7999603651
 30
0.0
 10
20.5847573326
 20
7.8014101605
 30
0.0
 10
20.5429026988
 20
7.8041785052
 30
0.0
 10
20.5120066987
 20
7.8070047022
 30
0.0
 10
20.4816466107
 20
7.8105460637
 30
0.0
 10
20.4519472801
 20
7.8147640163
 30
0.0
 10
20.4230171496
 20
7.8195690024
 30
0.0
 10
20.3861934896
 20
7.8265285222
 30
0.0
 10
20.3428087103
 20
7.836127735
 30
0.0
 10
20.2944802813
 20
7.8487647692
 30
0.0
 10
20.2514387181
 20
7.8615496135
 30
0.0
 10
20.2246731156
 20
7.8703134743
 30
0.0
 10
20.2122671434
 20
7.8745476897
 30
0.0
  0
ENDSEC
  0
SECTION
  2
OBJECTS
  0
DICTIONARY
  5
C
100
AcDbDictionary
280
0
281
1
  3
ACAD_GROUP
350
D
  3
ACAD_MLINESTYLE
350
17
  3
ACAD_LAYOUT
350
1A
  3
ACAD_PLOTSETTINGS
350
19
  3
ACAD_PLOTSTYLENAME
350
E
  0
DICTIONARY
  5
D
102
{ACAD_REACTORS
330
C
102
}
100
AcDbDictionary
280
0
281
1
  0
ACDBDICTIONARYWDFLT
  5
E
102
{ACAD_REACTORS
330
C
102
}
100
AcDbDictionary
281
1
  3
Normal
350
F
100
AcDbDictionaryWithDefault
340
F
  0
DICTIONARY
  5
17
102
{ACAD_REACTORS
330
C
102
}
100
AcDbDictionary
280
0
281
1
  3
Standard
350
18
  0
DICTIONARY
  5
19
102
{ACAD_REACTORS
330
C
102
}
100
AcDbDictionary
281
1
  0
DICTIONARY
  5
1A
102
{ACAD_REACTORS
330
C
102
}
100
AcDbDictionary
281
1
  3
Model
350
407
  3
Layout1
350
408
  0
ACDBPLACEHOLDER
  5
F
102
{ACAD_REACTORS
330
E
102
}
  0
MLINESTYLE
  5
18
102
{ACAD_REACTORS
330
17
102
}
100
AcDbMlineStyle
  2
STANDARD
 70
0
  3

 62
256
 51
90.0
 52
90.0
 71
2
 49
0.5
 62
256
  6
BYLAYER
 49
-0.5
 62
256
  6
BYLAYER
  0
LAYOUT
  5
407
102
{ACAD_REACTORS
330
1A
102
}
100
AcDbPlotSettings
  1

  2
none_device
  4
ANSI_C_(22.00_x_17.00_Inches)
  6

 40
0.0
 41
0.0
 42
0.0
 43
0.0
 44
558.8
 45
431.8
 46
0.0
 47
0.0
 48
0.0
 49
0.0
140
0.0
141
0.0
142
1.0
143
1.0
 70
1024
 72
0
 73
0
 74
0
  7

 75
0
147
1.0
148
0.0
149
0.0
100
AcDbLayout
  1
Model
 70
0
 71
0
 10
0.0
 20
0.0
 11
22.0
 21
17.0
 12
0.0
 22
0.0
 32
0.0
 14
0.0
 24
0.0
 34
0.0
 15
0.0
 25
0.0
 35
0.0
146
0.0
 13
0.0
 23
0.0
 33
0.0
 16
1.0
 26
0.0
 36
0.0
 17
0.0
 27
1.0
 37
0.0
 76
0
330
202
345
0
346
0
  0
LAYOUT
  5
408
102
{ACAD_REACTORS
330
1A
102
}
100
AcDbPlotSettings
  1

  2
none_device
  4
ANSI_C_(22.00_x_17.00_Inches)
  6

 40
0.0
 41
0.0
 42
0.0
 43
0.0
 44
558.8
 45
431.8
 46
0.0
 47
0.0
 48
0.0
 49
0.0
140
0.0
141
0.0
142
1.0
143
1.0
 70
0
 72
0
 73
0
 74
0
  7

 75
0
147
1.0
148
0.0
149
0.0
100
AcDbLayout
  1
Layout1
 70
0
 71
1
 10
0.0
 20
0.0
 11
22.0
 21
17.0
 12
0.0
 22
0.0
 32
0.0
 14
0.0
 24
0.0
 34
0.0
 15
0.0
 25
0.0
 35
0.0
146
0.0
 13
0.0
 23
0.0
 33
0.0
 16
1.0
 26
0.0
 36
0.0
 17
0.0
 27
1.0
 37
0.0
 76
0
330
203
345
0
346
0
  0
ENDSEC
  0
EOF
