999
DXF file: E:\BT Custom\CADOUTPUT\_TOP.dxf
999
Pro/ENGINEER 2018400 by Parametric Technology Corporation
  0
SECTION
  2
HEADER
  9
$ACADVER
  1
AC1018
  9
$DWGCODEPAGE
  3
ANSI_1252
  9
$EXTMAX
 10
22.0
 20
17.0
 30
0.0
  9
$EXTMIN
 10
0.0
 20
0.0
 30
0.0
  9
$LIMMIN
 10
0.0
 20
0.0
  9
$LIMMAX
 10
22.0
 20
17.0
  9
$VIEWCTR
 10
11.0
 20
8.5
  9
$VIEWSIZE
 40
17.0
  9
$CLAYER
  8
0
  9
$LTSCALE
 40
1.21
  9
$CELTYPE
  6
BYLAYER
  9
$DIMSCALE
 40
1.0
  9
$DIMASZ
 40
0.1
  9
$DIMEXO
 40
0.0625
  9
$DIMDLI
 40
0.836
  9
$DIMEXE
 40
0.125
  9
$DIMCEN
 40
0.198
  9
$DIMLFAC
 40
1.0
  9
$DIMBLK
  1
_FILLED
  9
$DIMALT
 70
1
  9
$DIMALTD
 70
2
  9
$DIMALTTD
 70
2
  9
$DIMALTF
 40
25.4
  9
$DIMTXT
 40
0.08
  9
$DIMTOL
 70
1
  9
$DIMLIM
 70
0
  9
$DIMTFAC
 40
1.0
  9
$DIMTP
 40
0.001
  9
$DIMTM
 40
0.001
  9
$DIMGAP
 40
0.09
  9
$DIMDSEP
 70
46
  9
$AUNITS
 70
0
  9
$PDMODE
 70
3
  9
$PDSIZE
 40
0.06
  9
$HANDSEED
  5
327
  9
$TILEMODE
 70
1
  9
$MEASUREMENT
 70
0
  9
$INSUNITS
 70
1
  0
ENDSEC
  0
SECTION
  2
CLASSES
  0
CLASS
  1
ACDBDICTIONARYWDFLT
  2
AcDbDictionaryWithDefault
  3
AutoCAD 2000
 90
0
 91
1
280
0
281
0
  0
CLASS
  1
ACDBPLACEHOLDER
  2
AcDbPlaceHolder
  3
AutoCAD 2000
 90
0
 91
1
280
0
281
0
  0
CLASS
  1
LAYOUT
  2
AcDbLayout
  3
AutoCAD 2000
 90
0
 91
0
280
0
281
0
  0
ENDSEC
  0
SECTION
  2
TABLES
  0
TABLE
  2
VPORT
  5
8
100
AcDbSymbolTable
 70
2
  0
VPORT
  5
1F4
100
AcDbSymbolTableRecord
100
AcDbViewportTableRecord
  2
*ACTIVE
 70
0
 10
0.0
 20
0.0
 11
1.0
 21
1.0
 12
11.0
 22
8.5
 13
0.0
 23
0.0
 14
1.0
 24
1.0
 15
0.0
 25
0.0
 16
0.0
 26
0.0
 36
1.0
 17
0.0
 27
0.0
 37
0.0
 40
17.0
 41
1.2941176471
 42
50.0
 43
0.0
 44
0.0
 50
0.0
 51
0.0
 71
0
 72
100
 73
1
 74
1
 75
0
 76
0
 77
0
 78
0
  0
ENDTAB
  0
TABLE
  2
LTYPE
  5
5
100
AcDbSymbolTable
 70
6
  0
LTYPE
  5
14
100
AcDbSymbolTableRecord
100
AcDbLinetypeTableRecord
  2
BYBLOCK
 70
0
  3

 72
65
 73
0
 40
0.0
  0
LTYPE
  5
15
100
AcDbSymbolTableRecord
100
AcDbLinetypeTableRecord
  2
BYLAYER
 70
0
  3

 72
65
 73
0
 40
0.0
  0
LTYPE
  5
16
100
AcDbSymbolTableRecord
100
AcDbLinetypeTableRecord
  2
CONTINUOUS
 70
64
  3
Solid line
 72
65
 73
0
 40
0.0
  0
LTYPE
  5
1F5
100
AcDbSymbolTableRecord
100
AcDbLinetypeTableRecord
  2
CENTER
 70
64
  3
____ _ ____ _ ____ _ ____ _ ____ _ ____ _ ____
 72
65
 73
4
 40
0.6
 49
0.375
 74
0
 49
-0.075
 74
0
 49
0.075
 74
0
 49
-0.075
 74
0
  0
LTYPE
  5
1F6
100
AcDbSymbolTableRecord
100
AcDbLinetypeTableRecord
  2
HIDDEN
 70
64
  3
- - - - - - - - - - - - - - - - - - - -
 72
65
 73
2
 40
0.2
 49
0.1
 74
0
 49
-0.1
 74
0
  0
LTYPE
  5
1F7
100
AcDbSymbolTableRecord
100
AcDbLinetypeTableRecord
  2
PHANTOM
 70
64
  3
_____ _ _ _____ _ _ _____ _ _ _____
 72
65
 73
6
 40
0.8
 49
0.45
 74
0
 49
-0.05
 74
0
 49
0.1
 74
0
 49
-0.05
 74
0
 49
0.1
 74
0
 49
-0.05
 74
0
  0
LTYPE
  5
1F8
100
AcDbSymbolTableRecord
100
AcDbLinetypeTableRecord
  2
DOT
 70
64
  3
. . . . . . . . . . . . . . . . . . . .
 72
65
 73
2
 40
0.2
 49
0.1
 74
0
 49
-0.1
 74
0
  0
LTYPE
  5
1F9
100
AcDbSymbolTableRecord
100
AcDbLinetypeTableRecord
  2
DASHED
 70
64
  3
- - - - - - - - - - - - - - - - - - - -
 72
65
 73
2
 40
0.2
 49
0.1
 74
0
 49
-0.1
 74
0
  0
ENDTAB
  0
TABLE
  2
LAYER
  5
2
100
AcDbSymbolTable
 70
36
  0
LAYER
  5
10
100
AcDbSymbolTableRecord
100
AcDbLayerTableRecord
  2
0
 70
0
 62
7
  6
CONTINUOUS
370
-3
390
F
  0
LAYER
  5
1FA
100
AcDbSymbolTableRecord
100
AcDbLayerTableRecord
  2
DEFAULT_1
 70
0
 62
7
  6
CENTER
370
-3
390
F
  0
LAYER
  5
1FB
100
AcDbSymbolTableRecord
100
AcDbLayerTableRecord
  2
DEFAULT_2
 70
0
 62
8
  6
HIDDEN
370
-3
390
F
  0
LAYER
  5
1FC
100
AcDbSymbolTableRecord
100
AcDbLayerTableRecord
  2
DEFAULT_3
 70
0
 62
7
  6
PHANTOM
370
-3
390
F
  0
LAYER
  5
1FD
100
AcDbSymbolTableRecord
100
AcDbLayerTableRecord
  2
ALL_FEATURES
 70
0
 62
7
  6
CONTINUOUS
370
-3
390
F
  0
LAYER
  5
1FE
100
AcDbSymbolTableRecord
100
AcDbLayerTableRecord
  2
AXES_FEATURES
 70
0
 62
7
  6
CONTINUOUS
370
-3
390
F
  0
LAYER
  5
1FF
100
AcDbSymbolTableRecord
100
AcDbLayerTableRecord
  2
DIMENSIONS
 70
0
 62
7
  6
CONTINUOUS
370
-3
390
F
  0
ENDTAB
  0
TABLE
  2
STYLE
  5
3
100
AcDbSymbolTable
 70
1
  0
STYLE
  5
11
100
AcDbSymbolTableRecord
100
AcDbTextStyleTableRecord
  2
STANDARD
 70
0
 40
0.0
 41
0.8
 50
0.0
 71
0
 42
0.2
  3
txt
  4

  0
STYLE
  5
200
100
AcDbSymbolTableRecord
100
AcDbTextStyleTableRecord
  2
TEXTSTYLE_1
 70
0
 40
0.0
 41
0.8
 50
0.0
 71
0
 42
0.2
  3
gdt
  4

  0
ENDTAB
  0
TABLE
  2
VIEW
  5
6
100
AcDbSymbolTable
 70
0
  0
ENDTAB
  0
TABLE
  2
UCS
  5
7
100
AcDbSymbolTable
 70
0
  0
ENDTAB
  0
TABLE
  2
APPID
  5
9
100
AcDbSymbolTable
 70
1
  0
APPID
  5
201
100
AcDbSymbolTableRecord
100
AcDbRegAppTableRecord
  2
ACAD
 70
0
  0
ENDTAB
  0
TABLE
  2
BLOCK_RECORD
  5
1
100
AcDbSymbolTable
 70
0
  0
BLOCK_RECORD
  5
202
100
AcDbSymbolTableRecord
100
AcDbBlockTableRecord
  2
*Model_Space
  0
BLOCK_RECORD
  5
203
100
AcDbSymbolTableRecord
100
AcDbBlockTableRecord
  2
*Paper_Space
  0
BLOCK_RECORD
  5
204
100
AcDbSymbolTableRecord
100
AcDbBlockTableRecord
  2
_FILLED
  0
ENDTAB
  0
TABLE
  2
DIMSTYLE
  5
A
100
AcDbSymbolTable
 70
1
100
AcDbDimStyleTable
 71
0
  0
DIMSTYLE
105
205
100
AcDbSymbolTableRecord
100
AcDbDimStyleTableRecord
  2
STANDARD
 70
0
  3

  4

 40
1.0
 41
0.1
 42
0.0625
 43
0.38
 44
0.125
 45
0.0
 46
0.0
 47
0.001
 48
0.001
140
0.08
141
0.09
142
0.0
143
25.4
144
1.0
145
0.0
146
1.0
147
0.09
 71
1.0
 72
0.0
 73
1
 74
1
 75
0
 76
0
 77
0
 78
4
 79
1
170
1
171
2
172
0
173
0
174
0
175
0
176
0
177
0
178
0
270
2
179
3
271
3
272
3
273
2
274
2
275
0
280
0
281
0
282
0
283
1
284
4
285
0
286
0
287
3
288
0
340
11
278
46
341
204
342
204
343
204
344
204
  0
ENDTAB
  0
ENDSEC
  0
SECTION
  2
BLOCKS
  0
BLOCK
  5
20
100
AcDbEntity
  8
0
100
AcDbBlockBegin
  2
*Model_Space
 70
0
 10
0.0
 20
0.0
 30
0.0
  3
*Model_Space
  1

  0
ENDBLK
  5
21
100
AcDbEntity
  8
0
100
AcDbBlockEnd
  0
BLOCK
  5
1C
100
AcDbEntity
  8
0
100
AcDbBlockBegin
  2
*Paper_Space
 70
0
 10
0.0
 20
0.0
 30
0.0
  3
*Paper_Space
  1

  0
ENDBLK
  5
1D
100
AcDbEntity
  8
0
100
AcDbBlockEnd
  0
BLOCK
  5
206
100
AcDbEntity
  8
0
100
AcDbBlockBegin
  2
_FILLED
 70
64
 10
0.0
 20
0.0
  3
_FILLED
  1

  0
SOLID
  5
207
100
AcDbEntity
  8
0
  6
BYBLOCK
 62
0
100
AcDbTrace
 10
0.0
 20
0.0
 11
-1.0
 21
0.2
 12
-1.0
 22
-0.2
 13
-1.0
 23
-0.2
  0
ENDBLK
  5
208
100
AcDbEntity
  8
0
  6
BYBLOCK
 62
0
100
AcDbBlockEnd
  0
ENDSEC
  0
SECTION
  2
ENTITIES
  0
LINE
  5
209
100
AcDbEntity
  8
0
100
AcDbLine
 62
7
  6
CONTINUOUS
 10
11.0423254817
 20
-5.9621681396
 11
11.0523111948
 21
-5.9621681396
  0
LINE
  5
20A
100
AcDbEntity
  8
0
100
AcDbLine
 62
7
  6
CONTINUOUS
 10
10.8673184052
 20
-5.9331681396
 11
11.2273135605
 21
-5.9331681396
  0
LINE
  5
20B
100
AcDbEntity
  8
0
100
AcDbLine
 62
7
  6
CONTINUOUS
 10
11.0523183383
 20
-5.9621681396
 11
11.2173183383
 21
-5.9331681396
  0
LINE
  5
20C
100
AcDbEntity
  8
0
100
AcDbLine
 62
9
  6
CONTINUOUS
 10
10.8073183383
 20
-5.8731681396
 11
11.2873183383
 21
-5.8731681396
  0
LINE
  5
20D
100
AcDbEntity
  8
0
100
AcDbLine
 62
7
  6
CONTINUOUS
 10
11.2873183383
 20
-5.8531681396
 11
10.8073183383
 21
-5.8531681396
  0
LINE
  5
20E
100
AcDbEntity
  8
0
100
AcDbLine
 62
9
  6
CONTINUOUS
 10
10.6339252413
 20
-5.732449318
 11
11.4607079514
 21
-5.7324574188
  0
LINE
  5
20F
100
AcDbEntity
  8
0
100
AcDbLine
 62
9
  6
CONTINUOUS
 10
11.4320639009
 20
-5.3212782258
 11
10.662574285
 21
-5.3212757373
  0
LINE
  5
210
100
AcDbEntity
  8
0
100
AcDbLine
 62
9
  6
CONTINUOUS
 10
10.7027522734
 20
-5.2729284795
 11
11.3918844031
 21
-5.2729284795
  0
LINE
  5
211
100
AcDbEntity
  8
0
100
AcDbLine
 62
9
  6
CONTINUOUS
 10
10.7129933334
 20
-5.2462229077
 11
11.3816433432
 21
-5.2462229077
  0
LINE
  5
212
100
AcDbEntity
  8
0
100
AcDbLine
 62
9
  6
CONTINUOUS
 10
11.4216011593
 20
-5.1093109774
 11
10.6730355173
 21
-5.1093109774
  0
LINE
  5
213
100
AcDbEntity
  8
0
100
AcDbLine
 62
7
  6
CONTINUOUS
 10
11.4433561675
 20
-5.0981681396
 11
10.651280509
 21
-5.0981681396
  0
LINE
  5
214
100
AcDbEntity
  8
0
100
AcDbLine
 62
9
  6
CONTINUOUS
 10
10.6113457214
 20
-5.0604538539
 11
11.4832909552
 21
-5.0604538539
  0
LINE
  5
215
100
AcDbEntity
  8
0
100
AcDbLine
 62
9
  6
CONTINUOUS
 10
11.4920517752
 20
-5.0248740469
 11
10.6025849013
 21
-5.0248740469
  0
LINE
  5
216
100
AcDbEntity
  8
0
100
AcDbLine
 62
7
  6
CONTINUOUS
 10
11.0423183383
 20
-5.9621681396
 11
10.8773183383
 21
-5.9331681396
  0
LINE
  5
217
100
AcDbEntity
  8
0
100
AcDbLine
 62
9
  6
CONTINUOUS
 10
10.5895349326
 20
-4.9927905104
 11
11.505101744
 21
-4.9927905104
  0
LINE
  5
218
100
AcDbEntity
  8
0
100
AcDbLine
 62
9
  6
CONTINUOUS
 10
10.5350627026
 20
-4.7268824253
 11
11.559573974
 21
-4.7268824253
  0
LINE
  5
219
100
AcDbEntity
  8
0
100
AcDbLine
 62
9
  6
CONTINUOUS
 10
10.5116571165
 20
-4.6651056396
 11
11.5829795601
 21
-4.6651056396
  0
LINE
  5
21A
100
AcDbEntity
  8
0
100
AcDbLine
 62
7
  6
CONTINUOUS
 10
11.5723116171
 20
-4.5931681396
 11
10.5223250595
 21
-4.5931681396
  0
LINE
  5
21B
100
AcDbEntity
  8
0
100
AcDbLine
 62
7
  6
CONTINUOUS
 10
10.5976050407
 20
-4.5731681396
 11
11.4970316359
 21
-4.5731681396
  0
LINE
  5
21C
100
AcDbEntity
  8
0
100
AcDbLine
 62
9
  6
CONTINUOUS
 10
10.5789372496
 20
-4.5459908437
 11
11.515699427
 21
-4.5459908437
  0
LINE
  5
21D
100
AcDbEntity
  8
0
100
AcDbLine
 62
9
  6
CONTINUOUS
 10
10.5277773449
 20
-4.1654012572
 11
11.5668593317
 21
-4.1654012572
  0
LINE
  5
21E
100
AcDbEntity
  8
0
100
AcDbLine
 62
9
  6
CONTINUOUS
 10
10.5273183383
 20
-3.4015597015
 11
11.5673183383
 21
-3.4015597015
  0
LINE
  5
21F
100
AcDbEntity
  8
0
100
AcDbLine
 62
9
  6
CONTINUOUS
 10
10.5472818852
 20
-3.3192714016
 11
11.5473547914
 21
-3.3192714016
  0
LINE
  5
220
100
AcDbEntity
  8
0
100
AcDbLine
 62
9
  6
CONTINUOUS
 10
11.5957315496
 20
-3.0138325711
 11
10.498905127
 21
-3.0138325711
  0
LINE
  5
221
100
AcDbEntity
  8
0
100
AcDbLine
 62
7
  6
CONTINUOUS
 10
10.5150862501
 20
-2.9910311458
 11
10.5150556201
 21
-2.9910311458
  0
LINE
  5
222
100
AcDbEntity
  8
0
100
AcDbLine
 62
9
  6
CONTINUOUS
 10
11.5795810565
 20
-2.9910311458
 11
10.5150862501
 21
-2.9910311458
  0
LINE
  5
223
100
AcDbEntity
  8
0
100
AcDbLine
 62
9
  6
CONTINUOUS
 10
10.5568203936
 20
-2.9259480716
 11
11.537816283
 21
-2.9259480716
  0
LINE
  5
224
100
AcDbEntity
  8
0
100
AcDbLine
 62
7
  6
CONTINUOUS
 10
11.0001879574
 20
18.0581209373
 11
10.980640181
 21
18.0468350233
  0
LINE
  5
225
100
AcDbEntity
  8
0
100
AcDbLine
 62
7
  6
CONTINUOUS
 10
10.5289964956
 20
17.7860784199
 11
10.5094487191
 21
17.774792506
  0
LINE
  5
226
100
AcDbEntity
  8
0
100
AcDbLine
 62
9
  6
CONTINUOUS
 10
10.5568203936
 20
-2.0403882076
 11
11.537816283
 21
-2.0403882076
  0
LINE
  5
227
100
AcDbEntity
  8
0
100
AcDbLine
 62
9
  6
CONTINUOUS
 10
10.5118607481
 20
-1.9579444657
 11
11.5827759285
 21
-1.9579444657
  0
LINE
  5
228
100
AcDbEntity
  8
0
100
AcDbLine
 62
9
  6
CONTINUOUS
 10
10.5014138959
 20
-1.925870594
 11
11.5932227807
 21
-1.925870594
  0
LINE
  5
229
100
AcDbEntity
  8
0
100
AcDbLine
 62
7
  6
CONTINUOUS
 10
10.5670681767
 20
-1.846083824
 11
11.5275684999
 21
-1.846083824
  0
LINE
  5
22A
100
AcDbEntity
  8
0
100
AcDbLine
 62
9
  6
CONTINUOUS
 10
11.5275684999
 20
-1.7731681396
 11
10.5670681767
 21
-1.7731681396
  0
LINE
  5
22B
100
AcDbEntity
  8
0
100
AcDbLine
 62
7
  6
CONTINUOUS
 10
11.5075670839
 20
-1.7531681396
 11
10.5870695927
 21
-1.7531681396
  0
LINE
  5
22C
100
AcDbEntity
  8
0
100
AcDbLine
 62
7
  6
CONTINUOUS
 10
11.565640181
 20
17.0335853009
 11
11.5851879574
 21
17.0448712149
  0
LINE
  5
22D
100
AcDbEntity
  8
0
100
AcDbLine
 62
7
  6
CONTINUOUS
 10
11.5932227807
 20
-1.925870594
 11
11.5275684999
 21
-1.846083824
  0
LINE
  5
22E
100
AcDbEntity
  8
0
100
AcDbLine
 62
7
  6
CONTINUOUS
 10
10.5895349326
 20
-4.9927905104
 11
10.6025849013
 21
-5.0248740469
  0
LINE
  5
22F
100
AcDbEntity
  8
0
100
AcDbLine
 62
7
  6
CONTINUOUS
 10
11.505101744
 20
15.2922094896
 11
11.4920517752
 21
15.2601259531
  0
LINE
  5
230
100
AcDbEntity
  8
0
100
AcDbLine
 62
7
  6
CONTINUOUS
 10
10.5973259945
 20
5.7818318604
 11
11.497310682
 21
5.7818318604
  0
LINE
  5
231
100
AcDbEntity
  8
0
100
AcDbLine
 62
7
  6
CONTINUOUS
 10
10.5472818852
 20
-3.3192714016
 11
10.498905127
 21
-3.0138325711
  0
LINE
  5
232
100
AcDbEntity
  8
0
100
AcDbLine
 62
7
  6
CONTINUOUS
 10
9.5873183383
 20
20.8368318604
 11
9.5873183383
 21
20.9168318604
  0
LINE
  5
233
100
AcDbEntity
  8
0
100
AcDbLine
 62
7
  6
CONTINUOUS
 10
9.9023183383
 20
20.5568318604
 11
9.9023183383
 21
20.5668318604
  0
LINE
  5
234
100
AcDbEntity
  8
0
100
AcDbLine
 62
9
  6
CONTINUOUS
 10
10.5773183383
 20
5.8018318604
 11
11.5173183383
 21
5.8018318604
  0
LINE
  5
235
100
AcDbEntity
  8
0
100
AcDbLine
 62
7
  6
CONTINUOUS
 10
10.5094487191
 20
6.4768712149
 11
10.5289964956
 21
6.4655853009
  0
LWPOLYLINE
  5
236
100
AcDbEntity
  8
0
100
AcDbPolyline
 62
7
  6
CONTINUOUS
 90
5
 70
0
 10
10.5541421996
 20
6.4308067503
 10
10.5626094285
 20
6.4189969675
 10
10.5711122857
 20
6.4014729881
 10
10.5760560446
 20
6.3826364339
 10
10.5773195269
 20
6.3667905746
  0
LINE
  5
237
100
AcDbEntity
  8
0
100
AcDbLine
 62
7
  6
CONTINUOUS
 10
10.4533183383
 20
16.4673144666
 11
10.4533183383
 21
16.6453430061
  0
LINE
  5
238
100
AcDbEntity
  8
0
100
AcDbLine
 62
7
  6
CONTINUOUS
 10
10.4623183383
 20
17.6931602917
 11
10.4623183383
 21
17.6705884638
  0
LINE
  5
239
100
AcDbEntity
  8
0
100
AcDbLine
 62
7
  6
CONTINUOUS
 10
10.4623183383
 20
17.149075257
 11
10.4623183383
 21
17.1265034291
  0
LINE
  5
23A
100
AcDbEntity
  8
0
100
AcDbLine
 62
7
  6
CONTINUOUS
 10
10.4623183383
 20
7.1251602917
 11
10.4623183383
 21
7.1025884638
  0
LINE
  5
23B
100
AcDbEntity
  8
0
100
AcDbLine
 62
7
  6
CONTINUOUS
 10
10.4623183383
 20
6.581075257
 11
10.4623183383
 21
6.5585034291
  0
LINE
  5
23C
100
AcDbEntity
  8
0
100
AcDbLine
 62
7
  6
CONTINUOUS
 10
10.5063183383
 20
19.3568318604
 11
10.5063183383
 21
20.2268318604
  0
LINE
  5
23D
100
AcDbEntity
  8
0
100
AcDbLine
 62
7
  6
CONTINUOUS
 10
10.5670681767
 20
-1.7731681396
 11
10.5670681767
 21
-1.846083824
  0
LINE
  5
23E
100
AcDbEntity
  8
0
100
AcDbLine
 62
7
  6
CONTINUOUS
 10
10.5773183383
 20
16.9347905746
 11
10.5773183383
 21
16.3698318604
  0
LINE
  5
23F
100
AcDbEntity
  8
0
100
AcDbLine
 62
7
  6
CONTINUOUS
 10
10.5773183383
 20
6.3667905746
 11
10.5773183383
 21
5.8018318604
  0
LINE
  5
240
100
AcDbEntity
  8
0
100
AcDbLine
 62
7
  6
CONTINUOUS
 10
10.5773183383
 20
7.3168731463
 11
10.5773183383
 21
7.8998318604
  0
LINE
  5
241
100
AcDbEntity
  8
0
100
AcDbLine
 62
7
  6
CONTINUOUS
 10
10.6723183383
 20
5.7818318604
 11
10.6723183383
 21
-1.7531681396
  0
LINE
  5
242
100
AcDbEntity
  8
0
100
AcDbLine
 62
7
  6
CONTINUOUS
 10
10.6723183383
 20
7.8998318604
 11
10.6723183383
 21
16.3498318604
  0
LINE
  5
243
100
AcDbEntity
  8
0
100
AcDbLine
 62
7
  6
CONTINUOUS
 10
10.7248183383
 20
-4.5731681396
 11
10.7248183383
 21
-4.5931681396
  0
LINE
  5
244
100
AcDbEntity
  8
0
100
AcDbLine
 62
7
  6
CONTINUOUS
 10
10.7263117445
 20
-4.5731681396
 11
10.7263117445
 21
-4.5931681396
  0
LINE
  5
245
100
AcDbEntity
  8
0
100
AcDbLine
 62
7
  6
CONTINUOUS
 10
10.8073183383
 20
-5.8731681396
 11
10.8073183383
 21
-5.8531681396
  0
LINE
  5
246
100
AcDbEntity
  8
0
100
AcDbLine
 62
7
  6
CONTINUOUS
 10
10.8599680201
 20
-4.5931681396
 11
10.8599680201
 21
-4.5731681396
  0
LINE
  5
247
100
AcDbEntity
  8
0
100
AcDbLine
 62
7
  6
CONTINUOUS
 10
10.9136620627
 20
-4.5731681396
 11
10.9136620627
 21
-4.5931681396
  0
LINE
  5
248
100
AcDbEntity
  8
0
100
AcDbLine
 62
9
  6
CONTINUOUS
 10
11.0473183197
 20
16.754867242
 11
11.0473183298
 21
16.8503105188
  0
LINE
  5
249
100
AcDbEntity
  8
0
100
AcDbLine
 62
9
  6
CONTINUOUS
 10
11.047318362
 20
7.4967964788
 11
11.0473183612
 21
7.4916416837
  0
LINE
  5
24A
100
AcDbEntity
  8
0
100
AcDbLine
 62
9
  6
CONTINUOUS
 10
11.0473183197
 20
6.186867242
 11
11.0473183298
 21
6.2823105188
  0
LWPOLYLINE
  5
24B
100
AcDbEntity
  8
0
100
AcDbPolyline
 62
7
  6
CONTINUOUS
 90
5
 70
0
 10
11.5173171523
 20
16.934790574
 10
11.5185805247
 20
16.9506357498
 10
11.5235244194
 20
16.9694730598
 10
11.5320278642
 20
16.9869979729
 10
11.5404941113
 20
16.9988063129
  0
LINE
  5
24C
100
AcDbEntity
  8
0
100
AcDbLine
 62
7
  6
CONTINUOUS
 10
11.5299733826
 20
15.7389036868
 11
11.5827301902
 21
16.2768318604
  0
LWPOLYLINE
  5
24D
100
AcDbEntity
  8
0
100
AcDbPolyline
 62
7
  6
CONTINUOUS
 90
4
 70
0
 10
10.5773195296
 20
7.3168731463
 10
10.5752193624
 20
7.2964866902
 10
10.5673642368
 20
7.273377526
 10
10.5541167128
 20
7.2528264003
  0
LINE
  5
24E
100
AcDbEntity
  8
0
100
AcDbLine
 62
7
  6
CONTINUOUS
 10
11.0001879574
 20
7.4901209373
 11
10.980640181
 21
7.4788350233
  0
LINE
  5
24F
100
AcDbEntity
  8
0
100
AcDbLine
 62
7
  6
CONTINUOUS
 10
10.5289964956
 20
7.2180784199
 11
10.5094487191
 21
7.206792506
  0
LINE
  5
250
100
AcDbEntity
  8
0
100
AcDbLine
 62
7
  6
CONTINUOUS
 10
11.5851879574
 20
7.206792506
 11
11.565640181
 21
7.2180784199
  0
LINE
  5
251
100
AcDbEntity
  8
0
100
AcDbLine
 62
7
  6
CONTINUOUS
 10
11.1139964956
 20
7.4788350233
 11
11.0944487191
 21
7.4901209373
  0
LINE
  5
252
100
AcDbEntity
  8
0
100
AcDbLine
 62
7
  6
CONTINUOUS
 10
10.564663294
 20
15.7389036868
 11
10.5119064864
 21
16.2768318604
  0
LINE
  5
253
100
AcDbEntity
  8
0
100
AcDbLine
 62
7
  6
CONTINUOUS
 10
11.1809746139
 20
-4.5931681396
 11
11.1809746139
 21
-4.5731681396
  0
LINE
  5
254
100
AcDbEntity
  8
0
100
AcDbLine
 62
7
  6
CONTINUOUS
 10
11.2346686565
 20
-4.5731681396
 11
11.2346686565
 21
-4.5931681396
  0
LINE
  5
255
100
AcDbEntity
  8
0
100
AcDbLine
 62
7
  6
CONTINUOUS
 10
11.2873183383
 20
-5.8731681396
 11
11.2873183383
 21
-5.8531681396
  0
LINE
  5
256
100
AcDbEntity
  8
0
100
AcDbLine
 62
7
  6
CONTINUOUS
 10
11.3683249321
 20
-4.5931681396
 11
11.3683249321
 21
-4.5731681396
  0
LINE
  5
257
100
AcDbEntity
  8
0
100
AcDbLine
 62
7
  6
CONTINUOUS
 10
11.3698183383
 20
-4.5731681396
 11
11.3698183383
 21
-4.5931681396
  0
LINE
  5
258
100
AcDbEntity
  8
0
100
AcDbLine
 62
7
  6
CONTINUOUS
 10
11.4223183383
 20
5.7818318604
 11
11.4223183383
 21
-1.7531681396
  0
LINE
  5
259
100
AcDbEntity
  8
0
100
AcDbLine
 62
7
  6
CONTINUOUS
 10
11.4223183383
 20
7.8998318604
 11
11.4223183383
 21
16.3498318604
  0
LINE
  5
25A
100
AcDbEntity
  8
0
100
AcDbLine
 62
7
  6
CONTINUOUS
 10
11.5173183383
 20
16.934790574
 11
11.5173183383
 21
16.3698318604
  0
LINE
  5
25B
100
AcDbEntity
  8
0
100
AcDbLine
 62
7
  6
CONTINUOUS
 10
11.5173183383
 20
6.366790574
 11
11.5173183383
 21
5.8018318604
  0
LINE
  5
25C
100
AcDbEntity
  8
0
100
AcDbLine
 62
7
  6
CONTINUOUS
 10
11.5173183383
 20
7.3168731492
 11
11.5173183383
 21
7.8998318604
  0
LINE
  5
25D
100
AcDbEntity
  8
0
100
AcDbLine
 62
7
  6
CONTINUOUS
 10
11.5275684999
 20
-1.7731681396
 11
11.5275684999
 21
-1.846083824
  0
LINE
  5
25E
100
AcDbEntity
  8
0
100
AcDbLine
 62
7
  6
CONTINUOUS
 10
11.5883183383
 20
19.3568318604
 11
11.5883183383
 21
20.2268318604
  0
LINE
  5
25F
100
AcDbEntity
  8
0
100
AcDbLine
 62
7
  6
CONTINUOUS
 10
11.6323183383
 20
6.5585034291
 11
11.6323183383
 21
6.581075257
  0
LINE
  5
260
100
AcDbEntity
  8
0
100
AcDbLine
 62
7
  6
CONTINUOUS
 10
11.6323183383
 20
7.1025884638
 11
11.6323183383
 21
7.1251602917
  0
LINE
  5
261
100
AcDbEntity
  8
0
100
AcDbLine
 62
7
  6
CONTINUOUS
 10
11.6323183383
 20
17.1265034291
 11
11.6323183383
 21
17.149075257
  0
LINE
  5
262
100
AcDbEntity
  8
0
100
AcDbLine
 62
7
  6
CONTINUOUS
 10
11.6323183383
 20
17.6705884638
 11
11.6323183383
 21
17.6931602917
  0
LINE
  5
263
100
AcDbEntity
  8
0
100
AcDbLine
 62
7
  6
CONTINUOUS
 10
11.6413183383
 20
16.4673144666
 11
11.6413183383
 21
16.6453430061
  0
LWPOLYLINE
  5
264
100
AcDbEntity
  8
0
100
AcDbPolyline
 62
7
  6
CONTINUOUS
 90
5
 70
0
 10
11.5173171523
 20
6.366790574
 10
11.5185805247
 20
6.3826357498
 10
11.5235244194
 20
6.4014730598
 10
11.5320278642
 20
6.4189979729
 10
11.5404941113
 20
6.4308063129
  0
LINE
  5
265
100
AcDbEntity
  8
0
100
AcDbLine
 62
7
  6
CONTINUOUS
 10
11.5173105168
 20
7.8998318604
 11
10.5773261597
 21
7.8998318604
  0
LWPOLYLINE
  5
266
100
AcDbEntity
  8
0
100
AcDbPolyline
 62
7
  6
CONTINUOUS
 90
4
 70
0
 10
11.5405142596
 20
7.2528332454
 10
11.5273242911
 20
7.2732703293
 10
11.5193996739
 20
7.2965714978
 10
11.5173171274
 20
7.3168731492
  0
LINE
  5
267
100
AcDbEntity
  8
0
100
AcDbLine
 62
7
  6
CONTINUOUS
 10
12.1923183383
 20
20.5568318604
 11
12.1923183383
 21
20.5668318604
  0
LINE
  5
268
100
AcDbEntity
  8
0
100
AcDbLine
 62
7
  6
CONTINUOUS
 10
12.5073183383
 20
20.8368318604
 11
12.5073183383
 21
20.9168318604
  0
LINE
  5
269
100
AcDbEntity
  8
0
100
AcDbLine
 62
7
  6
CONTINUOUS
 10
11.565640181
 20
6.4655853009
 11
11.5851879574
 21
6.4768712149
  0
LINE
  5
26A
100
AcDbEntity
  8
0
100
AcDbLine
 62
7
  6
CONTINUOUS
 10
11.5473547914
 20
-3.3192714016
 11
11.5957315496
 21
-3.0138325711
  0
LINE
  5
26B
100
AcDbEntity
  8
0
100
AcDbLine
 62
7
  6
CONTINUOUS
 10
10.5895349326
 20
15.2922094896
 11
10.6025849013
 21
15.2601259531
  0
LINE
  5
26C
100
AcDbEntity
  8
0
100
AcDbLine
 62
7
  6
CONTINUOUS
 10
11.505101744
 20
-4.9927905104
 11
11.4920517752
 21
-5.0248740469
  0
LWPOLYLINE
  5
26D
100
AcDbEntity
  8
0
100
AcDbPolyline
 62
7
  6
CONTINUOUS
 90
5
 70
0
 10
10.5541421996
 20
16.9988067503
 10
10.5626094285
 20
16.9869969675
 10
10.5711122857
 20
16.9694729881
 10
10.5760560446
 20
16.9506364339
 10
10.5773195269
 20
16.9347905746
  0
LINE
  5
26E
100
AcDbEntity
  8
0
100
AcDbLine
 62
7
  6
CONTINUOUS
 10
10.5014138959
 20
-1.925870594
 11
10.5670681767
 21
-1.846083824
  0
LINE
  5
26F
100
AcDbEntity
  8
0
100
AcDbLine
 62
9
  6
CONTINUOUS
 10
10.6339252413
 20
14.552550682
 11
10.6723183383
 21
14.552550682
  0
LINE
  5
270
100
AcDbEntity
  8
0
100
AcDbLine
 62
9
  6
CONTINUOUS
 10
11.4607079514
 20
14.5525425812
 11
11.4223183383
 21
14.5525504346
  0
LINE
  5
271
100
AcDbEntity
  8
0
100
AcDbLine
 62
9
  6
CONTINUOUS
 10
10.6723183383
 20
14.9637245763
 11
10.662574285
 21
14.9637242627
  0
LINE
  5
272
100
AcDbEntity
  8
0
100
AcDbLine
 62
7
  6
CONTINUOUS
 10
11.4433561675
 20
15.1868318604
 11
11.4223183383
 21
15.1868318604
  0
LINE
  5
273
100
AcDbEntity
  8
0
100
AcDbLine
 62
7
  6
CONTINUOUS
 10
10.6723183383
 20
15.1868318604
 11
10.651280509
 21
15.1868318604
  0
LINE
  5
274
100
AcDbEntity
  8
0
100
AcDbLine
 62
9
  6
CONTINUOUS
 10
11.4832909552
 20
15.2245461461
 11
11.4223183383
 21
15.2245461461
  0
LINE
  5
275
100
AcDbEntity
  8
0
100
AcDbLine
 62
9
  6
CONTINUOUS
 10
10.6113457214
 20
15.2245461461
 11
10.6723183383
 21
15.2245461461
  0
LINE
  5
276
100
AcDbEntity
  8
0
100
AcDbLine
 62
9
  6
CONTINUOUS
 10
11.4920517752
 20
15.2601259531
 11
11.4223183383
 21
15.2601259531
  0
LINE
  5
277
100
AcDbEntity
  8
0
100
AcDbLine
 62
9
  6
CONTINUOUS
 10
10.6723183383
 20
15.2601259531
 11
10.6025849013
 21
15.2601259531
  0
LINE
  5
278
100
AcDbEntity
  8
0
100
AcDbLine
 62
9
  6
CONTINUOUS
 10
11.505101744
 20
15.2922094896
 11
11.4223183383
 21
15.2922094896
  0
LINE
  5
279
100
AcDbEntity
  8
0
100
AcDbLine
 62
9
  6
CONTINUOUS
 10
10.5895349326
 20
15.2922094896
 11
10.6723183383
 21
15.2922094896
  0
LINE
  5
27A
100
AcDbEntity
  8
0
100
AcDbLine
 62
9
  6
CONTINUOUS
 10
10.5350627026
 20
15.5581175747
 11
10.6723183383
 21
15.5581175747
  0
LINE
  5
27B
100
AcDbEntity
  8
0
100
AcDbLine
 62
9
  6
CONTINUOUS
 10
11.4223183383
 20
15.5581175747
 11
11.559573974
 21
15.5581175747
  0
LINE
  5
27C
100
AcDbEntity
  8
0
100
AcDbLine
 62
9
  6
CONTINUOUS
 10
11.5829795601
 20
15.6198943604
 11
11.4223183383
 21
15.6198943604
  0
LINE
  5
27D
100
AcDbEntity
  8
0
100
AcDbLine
 62
9
  6
CONTINUOUS
 10
10.5116571165
 20
15.6198943604
 11
10.6723183383
 21
15.6198943604
  0
LINE
  5
27E
100
AcDbEntity
  8
0
100
AcDbLine
 62
7
  6
CONTINUOUS
 10
11.5723116171
 20
15.6918318604
 11
11.4223183383
 21
15.6918318604
  0
LINE
  5
27F
100
AcDbEntity
  8
0
100
AcDbLine
 62
7
  6
CONTINUOUS
 10
10.6723183383
 20
15.6918318604
 11
10.5223250595
 21
15.6918318604
  0
LINE
  5
280
100
AcDbEntity
  8
0
100
AcDbLine
 62
7
  6
CONTINUOUS
 10
10.5945200486
 20
15.7118318604
 11
10.6723183383
 21
15.7118318604
  0
LINE
  5
281
100
AcDbEntity
  8
0
100
AcDbLine
 62
7
  6
CONTINUOUS
 10
11.4223183383
 20
15.7118318604
 11
11.5001166279
 21
15.7118318604
  0
LINE
  5
282
100
AcDbEntity
  8
0
100
AcDbLine
 62
9
  6
CONTINUOUS
 10
11.4223183383
 20
14.9637246859
 11
11.4320639009
 21
14.9637217742
  0
LINE
  5
283
100
AcDbEntity
  8
0
100
AcDbLine
 62
7
  6
CONTINUOUS
 10
10.5094487191
 20
17.0448712149
 11
10.5289964956
 21
17.0335853009
  0
LINE
  5
284
100
AcDbEntity
  8
0
100
AcDbLine
 62
9
  6
CONTINUOUS
 10
10.564663294
 20
15.7389036868
 11
10.6723183383
 21
15.7389036868
  0
LINE
  5
285
100
AcDbEntity
  8
0
100
AcDbLine
 62
9
  6
CONTINUOUS
 10
11.4223183383
 20
15.7389036868
 11
11.5299733826
 21
15.7389036868
  0
LINE
  5
286
100
AcDbEntity
  8
0
100
AcDbLine
 62
9
  6
CONTINUOUS
 10
11.5827301902
 20
16.2768318604
 11
11.4223183383
 21
16.2768318604
  0
LINE
  5
287
100
AcDbEntity
  8
0
100
AcDbLine
 62
9
  6
CONTINUOUS
 10
10.6723183383
 20
16.2768318604
 11
10.5119064864
 21
16.2768318604
  0
LINE
  5
288
100
AcDbEntity
  8
0
100
AcDbLine
 62
7
  6
CONTINUOUS
 10
10.5973259945
 20
16.3498318604
 11
11.497310682
 21
16.3498318604
  0
LINE
  5
289
100
AcDbEntity
  8
0
100
AcDbLine
 62
9
  6
CONTINUOUS
 10
10.5773183383
 20
16.3698318604
 11
11.5173183383
 21
16.3698318604
  0
LINE
  5
28A
100
AcDbEntity
  8
0
100
AcDbLine
 62
9
  6
CONTINUOUS
 10
11.6413183383
 20
16.5151500632
 11
11.5173183383
 21
16.5151500632
  0
LINE
  5
28B
100
AcDbEntity
  8
0
100
AcDbLine
 62
9
  6
CONTINUOUS
 10
10.5773183383
 20
16.5151500632
 11
10.4533183383
 21
16.5151500632
  0
LINE
  5
28C
100
AcDbEntity
  8
0
100
AcDbLine
 62
7
  6
CONTINUOUS
 10
11.5973183383
 20
16.6568318604
 11
11.5173183383
 21
16.6568318604
  0
LINE
  5
28D
100
AcDbEntity
  8
0
100
AcDbLine
 62
7
  6
CONTINUOUS
 10
10.5773183383
 20
16.6568318604
 11
10.4973183383
 21
16.6568318604
  0
LINE
  5
28E
100
AcDbEntity
  8
0
100
AcDbLine
 62
9
  6
CONTINUOUS
 10
11.6528267025
 20
16.7055163605
 11
11.5173183383
 21
16.7055163605
  0
LINE
  5
28F
100
AcDbEntity
  8
0
100
AcDbLine
 62
9
  6
CONTINUOUS
 10
10.5773183383
 20
16.7055163605
 11
10.4418099741
 21
16.7055163605
  0
LINE
  5
290
100
AcDbEntity
  8
0
100
AcDbLine
 62
7
  6
CONTINUOUS
 10
11.5851879574
 20
17.774792506
 11
11.565640181
 21
17.7860784199
  0
LINE
  5
291
100
AcDbEntity
  8
0
100
AcDbLine
 62
7
  6
CONTINUOUS
 10
11.1139964956
 20
18.0468350233
 11
11.0944487191
 21
18.0581209373
  0
LINE
  5
292
100
AcDbEntity
  8
0
100
AcDbLine
 62
9
  6
CONTINUOUS
 10
10.4204413808
 20
18.0771084812
 11
11.6741952958
 21
18.0771084812
  0
LINE
  5
293
100
AcDbEntity
  8
0
100
AcDbLine
 62
7
  6
CONTINUOUS
 10
10.3873192619
 20
18.1068318604
 11
11.7073174147
 21
18.1068318604
  0
LINE
  5
294
100
AcDbEntity
  8
0
100
AcDbLine
 62
9
  6
CONTINUOUS
 10
10.3596288751
 20
18.163239654
 11
11.7350078015
 21
18.163239654
  0
LINE
  5
295
100
AcDbEntity
  8
0
100
AcDbLine
 62
9
  6
CONTINUOUS
 10
10.4218739981
 20
19.3187537111
 11
11.6727626785
 21
19.3187537111
  0
LINE
  5
296
100
AcDbEntity
  8
0
100
AcDbLine
 62
7
  6
CONTINUOUS
 10
10.4431809745
 20
19.3568318604
 11
11.651455702
 21
19.3568318604
  0
LINE
  5
297
100
AcDbEntity
  8
0
100
AcDbLine
 62
7
  6
CONTINUOUS
 10
10.3123183383
 20
20.2268318604
 11
11.7823183383
 21
20.2268318604
  0
LINE
  5
298
100
AcDbEntity
  8
0
100
AcDbLine
 62
7
  6
CONTINUOUS
 10
9.9023183383
 20
20.5568318604
 11
12.1923183383
 21
20.5568318604
  0
LINE
  5
299
100
AcDbEntity
  8
0
100
AcDbLine
 62
7
  6
CONTINUOUS
 10
12.1923183383
 20
20.5668318604
 11
9.9023183383
 21
20.5668318604
  0
LINE
  5
29A
100
AcDbEntity
  8
0
100
AcDbLine
 62
7
  6
CONTINUOUS
 10
9.6173183383
 20
20.8068318604
 11
12.4773183383
 21
20.8068318604
  0
LINE
  5
29B
100
AcDbEntity
  8
0
100
AcDbLine
 62
9
  6
CONTINUOUS
 10
9.5873183383
 20
20.8368318604
 11
12.5073183383
 21
20.8368318604
  0
LINE
  5
29C
100
AcDbEntity
  8
0
100
AcDbLine
 62
7
  6
CONTINUOUS
 10
12.5073183383
 20
20.9168318604
 11
9.5873183383
 21
20.9168318604
  0
LINE
  5
29D
100
AcDbEntity
  8
0
100
AcDbLine
 62
7
  6
CONTINUOUS
 10
9.7053183383
 20
20.9268318604
 11
12.3893183383
 21
20.9268318604
  0
ARC
  5
29E
100
AcDbEntity
  8
0
100
AcDbCircle
 62
7
  6
CONTINUOUS
 10
10.4873183383
 20
-2.4831681396
 40
1.14
100
AcDbArc
 50
337.1448062399
 51
22.8551937601
  0
ARC
  5
29F
100
AcDbEntity
  8
0
100
AcDbCircle
 62
7
  6
CONTINUOUS
 10
10.6211099227
 20
-4.6731681396
 40
0.94
100
AcDbArc
 50
340.1216759764
 51
356.7241710403
  0
ARC
  5
2A0
100
AcDbEntity
  8
0
100
AcDbCircle
 62
9
  6
CONTINUOUS
 10
11.0428072602
 20
6.7838341497
 40
0.7135904143
100
AcDbArc
 50
61.4346335479
 51
62.1197517042
  0
ARC
  5
2A1
100
AcDbEntity
  8
0
100
AcDbCircle
 62
7
  6
CONTINUOUS
 10
10.305432916
 20
-5.2908828021
 40
0.41
100
AcDbArc
 50
6.2534408306
 51
26.2863824163
  0
ARC
  5
2A2
100
AcDbEntity
  8
0
100
AcDbCircle
 62
7
  6
CONTINUOUS
 10
10.20558138
 20
-4.402445051
 40
0.4
100
AcDbArc
 50
338.9695236741
 51
36.3424046392
  0
ARC
  5
2A3
100
AcDbEntity
  8
0
100
AcDbCircle
 62
7
  6
CONTINUOUS
 10
10.8446864748
 20
-5.4317481335
 40
0.213
100
AcDbArc
 50
131.786357948
 51
148.7582727427
  0
ARC
  5
2A4
100
AcDbEntity
  8
0
100
AcDbCircle
 62
7
  6
CONTINUOUS
 10
10.8176555066
 20
-5.6534354609
 40
0.2
100
AcDbArc
 50
203.2702952785
 51
267.0372992989
  0
ARC
  5
2A5
100
AcDbEntity
  8
0
100
AcDbCircle
 62
7
  6
CONTINUOUS
 10
10.4252424413
 20
-4.7331681396
 40
0.11
100
AcDbArc
 50
3.2758289597
 51
38.2249102015
  0
ARC
  5
2A6
100
AcDbEntity
  8
0
100
AcDbCircle
 62
7
  6
CONTINUOUS
 10
10.4386361677
 20
-3.3364791927
 40
0.11
100
AcDbArc
 50
323.7264555496
 51
9.0
  0
ARC
  5
2A7
100
AcDbEntity
  8
0
100
AcDbCircle
 62
7
  6
CONTINUOUS
 10
10.5115091202
 20
-5.0661681396
 40
0.1
100
AcDbArc
 50
3.2758289598
 51
24.3897136241
  0
ARC
  5
2A8
100
AcDbEntity
  8
0
100
AcDbCircle
 62
7
  6
CONTINUOUS
 10
10.8673183383
 20
-5.8731681396
 40
0.06
100
AcDbArc
 50
180.0
 51
270.0
  0
ARC
  5
2A9
100
AcDbEntity
  8
0
100
AcDbCircle
 62
7
  6
CONTINUOUS
 10
10.5509365143
 20
-4.6341681396
 40
0.05
100
AcDbArc
 50
124.9152062474
 51
218.2249102016
  0
ARC
  5
2AA
100
AcDbEntity
  8
0
100
AcDbCircle
 62
7
  6
CONTINUOUS
 10
10.6512803619
 20
-5.0581681396
 40
0.04
100
AcDbArc
 50
183.2758289598
 51
270.0
  0
ARC
  5
2AB
100
AcDbEntity
  8
0
100
AcDbCircle
 62
7
  6
CONTINUOUS
 10
10.6819292772
 20
-5.2496268631
 40
0.03125
100
AcDbArc
 50
311.786357948
 51
6.2534408306
  0
ARC
  5
2AC
100
AcDbEntity
  8
0
100
AcDbCircle
 62
7
  6
CONTINUOUS
 10
10.6551036831
 20
-5.1181681396
 40
0.02
100
AcDbArc
 50
26.2863824164
 51
90.0
  0
ARC
  5
2AD
100
AcDbEntity
  8
0
100
AcDbCircle
 62
7
  6
CONTINUOUS
 10
10.5973183383
 20
5.8018318604
 40
0.02
100
AcDbArc
 50
180.0
 51
270.0
  0
ARC
  5
2AE
100
AcDbEntity
  8
0
100
AcDbCircle
 62
7
  6
CONTINUOUS
 10
10.5870681767
 20
-1.7731681396
 40
0.02
100
AcDbArc
 50
90.0
 51
180.0
  0
ARC
  5
2AF
100
AcDbEntity
  8
0
100
AcDbCircle
 62
7
  6
CONTINUOUS
 10
10.5186588933
 20
-3.0107038788
 40
0.02
100
AcDbArc
 50
100.3792928282
 51
189.0000088123
  0
ARC
  5
2B0
100
AcDbEntity
  8
0
100
AcDbCircle
 62
7
  6
CONTINUOUS
 10
10.5168574697
 20
-1.9385787028
 40
0.02
100
AcDbArc
 50
140.5499383566
 51
255.5321876633
  0
ARC
  5
2B1
100
AcDbEntity
  8
0
100
AcDbCircle
 62
7
  6
CONTINUOUS
 10
10.5976050407
 20
-4.5531681396
 40
0.02
100
AcDbArc
 50
158.9695043387
 51
270.0
  0
ARC
  5
2B2
100
AcDbEntity
  8
0
100
AcDbCircle
 62
7
  6
CONTINUOUS
 10
10.4747983383
 20
17.4098318604
 40
1.37252
100
AcDbArc
 50
329.1257878631
 51
29.0890878999
  0
ARC
  5
2B3
100
AcDbEntity
  8
0
100
AcDbCircle
 62
7
  6
CONTINUOUS
 10
9.5540441104
 20
18.7860683544
 40
1.0182742278
100
AcDbArc
 50
322.291005182
 51
31.5421477272
  0
ARC
  5
2B4
100
AcDbEntity
  8
0
100
AcDbCircle
 62
7
  6
CONTINUOUS
 10
10.6211099227
 20
15.6118318604
 40
0.94
100
AcDbArc
 50
340.1216759764
 51
356.7241710403
  0
ARC
  5
2B5
100
AcDbEntity
  8
0
100
AcDbCircle
 62
7
  6
CONTINUOUS
 10
9.1883394512
 20
20.0354806124
 40
0.89
100
AcDbArc
 50
36.657044374
 51
60.0758769528
  0
ARC
  5
2B6
100
AcDbEntity
  8
0
100
AcDbCircle
 62
7
  6
CONTINUOUS
 10
10.0142939085
 20
16.2280289675
 40
0.5
100
AcDbArc
 50
5.6013175617
 51
28.5921131724
  0
ARC
  5
2B7
100
AcDbEntity
  8
0
100
AcDbCircle
 62
7
  6
CONTINUOUS
 10
10.4036829889
 20
20.6878660247
 40
0.47
100
AcDbArc
 50
196.1883649903
 51
258.7907408537
  0
ARC
  5
2B8
100
AcDbEntity
  8
0
100
AcDbCircle
 62
7
  6
CONTINUOUS
 10
10.8446864748
 20
14.8532518665
 40
0.213
100
AcDbArc
 50
144.2388211038
 51
148.7582727427
  0
ARC
  5
2B9
100
AcDbEntity
  8
0
100
AcDbCircle
 62
7
  6
CONTINUOUS
 10
10.8176555066
 20
14.6315645391
 40
0.2
100
AcDbArc
 50
203.2702952785
 51
223.2777286688
  0
ARC
  5
2BA
100
AcDbEntity
  8
0
100
AcDbCircle
 62
7
  6
CONTINUOUS
 10
10.4252424413
 20
15.5518318604
 40
0.11
100
AcDbArc
 50
3.2758289597
 51
38.2249102015
  0
ARC
  5
2BB
100
AcDbEntity
  8
0
100
AcDbCircle
 62
7
  6
CONTINUOUS
 10
10.5115091202
 20
15.2188318604
 40
0.1
100
AcDbArc
 50
3.2758289598
 51
24.3897136241
  0
ARC
  5
2BC
100
AcDbEntity
  8
0
100
AcDbCircle
 62
7
  6
CONTINUOUS
 10
10.5276395696
 20
16.7568318604
 40
0.1
100
AcDbArc
 50
210.8742121369
 51
270.0
  0
ARC
  5
2BD
100
AcDbEntity
  8
0
100
AcDbCircle
 62
7
  6
CONTINUOUS
 10
10.4973183383
 20
16.5668318604
 40
0.09
100
AcDbArc
 50
90.0
 51
119.2675775975
  0
ARC
  5
2BE
100
AcDbEntity
  8
0
100
AcDbCircle
 62
7
  6
CONTINUOUS
 10
10.5509365143
 20
15.6508318604
 40
0.05
100
AcDbArc
 50
124.9152062474
 51
218.2249102016
  0
ARC
  5
2BF
100
AcDbEntity
  8
0
100
AcDbCircle
 62
7
  6
CONTINUOUS
 10
10.6512803619
 20
15.2268318604
 40
0.04
100
AcDbArc
 50
183.2758289598
 51
270.0
  0
ARC
  5
2C0
100
AcDbEntity
  8
0
100
AcDbCircle
 62
7
  6
CONTINUOUS
 10
9.7053183383
 20
20.8918318604
 40
0.035
100
AcDbArc
 50
90.0
 51
133.8515909751
  0
ARC
  5
2C1
100
AcDbEntity
  8
0
100
AcDbCircle
 62
7
  6
CONTINUOUS
 10
10.3873183383
 20
18.1418318604
 40
0.035
100
AcDbArc
 50
142.291005182
 51
270.0
  0
ARC
  5
2C2
100
AcDbEntity
  8
0
100
AcDbCircle
 62
7
  6
CONTINUOUS
 10
10.5945200486
 20
15.7418318604
 40
0.03
100
AcDbArc
 50
185.6013175617
 51
270.0
  0
ARC
  5
2C3
100
AcDbEntity
  8
0
100
AcDbCircle
 62
7
  6
CONTINUOUS
 10
9.6173183383
 20
20.8368318604
 40
0.03
100
AcDbArc
 50
180.0
 51
270.0
  0
ARC
  5
2C4
100
AcDbEntity
  8
0
100
AcDbCircle
 62
7
  6
CONTINUOUS
 10
10.4431803824
 20
19.3318318604
 40
0.025
100
AcDbArc
 50
90.0
 51
211.5421482618
  0
ARC
  5
2C5
100
AcDbEntity
  8
0
100
AcDbCircle
 62
7
  6
CONTINUOUS
 10
10.6551036831
 20
15.1668318604
 40
0.02
100
AcDbArc
 50
29.9486936422
 51
90.0
  0
ARC
  5
2C6
100
AcDbEntity
  8
0
100
AcDbCircle
 62
7
  6
CONTINUOUS
 10
10.5973183383
 20
16.3698318604
 40
0.02
100
AcDbArc
 50
180.0
 51
270.0
  0
ARC
  5
2C7
100
AcDbEntity
  8
0
100
AcDbCircle
 62
7
  6
CONTINUOUS
 10
10.4029640841
 20
18.0868318604
 40
0.02
100
AcDbArc
 50
330.9109121001
 51
90.0
  0
ARC
  5
2C8
100
AcDbEntity
  8
0
100
AcDbCircle
 62
7
  6
CONTINUOUS
 10
11.0473183383
 20
-3.7831681396
 40
0.645
100
AcDbArc
 50
323.6575953608
 51
36.2735444504
  0
ARC
  5
2C9
100
AcDbEntity
  8
0
100
AcDbCircle
 62
7
  6
CONTINUOUS
 10
11.0473183383
 20
-3.7831681396
 40
0.645
100
AcDbArc
 50
143.7264555496
 51
216.3424046392
  0
ARC
  5
2CA
100
AcDbEntity
  8
0
100
AcDbCircle
 62
7
  6
CONTINUOUS
 10
11.0473183383
 20
-5.5546681396
 40
0.45
100
AcDbArc
 50
148.7582727427
 51
203.2702952784
  0
ARC
  5
2CB
100
AcDbEntity
  8
0
100
AcDbCircle
 62
7
  6
CONTINUOUS
 10
11.0473192752
 20
-5.5546682177
 40
0.4499988427
100
AcDbArc
 50
336.7296667222
 51
31.2417976376
  0
ARC
  5
2CC
100
AcDbEntity
  8
0
100
AcDbCircle
 62
7
  6
CONTINUOUS
 10
11.2499502018
 20
-5.4317481335
 40
0.213
100
AcDbArc
 50
31.24172725
 51
48.2136420574
  0
ARC
  5
2CD
100
AcDbEntity
  8
0
100
AcDbCircle
 62
7
  6
CONTINUOUS
 10
11.2769811699
 20
-5.6534354609
 40
0.2
100
AcDbArc
 50
272.9627007011
 51
336.7297047215
  0
ARC
  5
2CE
100
AcDbEntity
  8
0
100
AcDbCircle
 62
7
  6
CONTINUOUS
 10
11.2273183383
 20
-5.8731681396
 40
0.06
100
AcDbArc
 50
270.0
 51
360.0
  0
ARC
  5
2CF
100
AcDbEntity
  8
0
100
AcDbCircle
 62
7
  6
CONTINUOUS
 10
11.4433563147
 20
-5.0581681396
 40
0.04
100
AcDbArc
 50
270.0
 51
356.7241710402
  0
ARC
  5
2D0
100
AcDbEntity
  8
0
100
AcDbCircle
 62
7
  6
CONTINUOUS
 10
11.4127073994
 20
-5.2496268631
 40
0.03125
100
AcDbArc
 50
173.746559171
 51
228.2136420573
  0
ARC
  5
2D1
100
AcDbEntity
  8
0
100
AcDbCircle
 62
7
  6
CONTINUOUS
 10
11.4395329935
 20
-5.1181681396
 40
0.02
100
AcDbArc
 50
90.0
 51
153.7136175835
  0
ARC
  5
2D2
100
AcDbEntity
  8
0
100
AcDbCircle
 62
9
  6
CONTINUOUS
 10
11.0520158059
 20
6.9001749251
 40
0.7139829
100
AcDbArc
 50
241.5121813715
 51
242.3624730223
  0
ARC
  5
2D3
100
AcDbEntity
  8
0
100
AcDbCircle
 62
7
  6
CONTINUOUS
 10
11.0473183383
 20
6.8418318604
 40
0.65
100
AcDbArc
 50
325.8419327632
 51
334.1580672368
  0
ARC
  5
2D4
100
AcDbEntity
  8
0
100
AcDbCircle
 62
7
  6
CONTINUOUS
 10
11.0473183383
 20
6.8418318604
 40
0.65
100
AcDbArc
 50
205.8419327632
 51
214.1580672368
  0
ARC
  5
2D5
100
AcDbEntity
  8
0
100
AcDbCircle
 62
7
  6
CONTINUOUS
 10
11.0473183383
 20
6.8418318604
 40
0.65
100
AcDbArc
 50
145.8419327632
 51
154.1580672368
  0
ARC
  5
2D6
100
AcDbEntity
  8
0
100
AcDbCircle
 62
7
  6
CONTINUOUS
 10
11.0473183383
 20
6.8418318604
 40
0.65
100
AcDbArc
 50
85.8419327632
 51
94.1580672368
  0
ARC
  5
2D7
100
AcDbEntity
  8
0
100
AcDbCircle
 62
7
  6
CONTINUOUS
 10
11.0473183383
 20
6.8418318604
 40
0.65
100
AcDbArc
 50
25.8419327632
 51
34.1580672368
  0
ARC
  5
2D8
100
AcDbEntity
  8
0
100
AcDbCircle
 62
7
  6
CONTINUOUS
 10
11.0473183383
 20
6.8418318604
 40
0.642
100
AcDbArc
 50
320.1984048113
 51
219.8018932921
  0
CIRCLE
  5
2D9
100
AcDbEntity
  8
0
100
AcDbCircle
 62
9
  6
CONTINUOUS
 10
11.0473183383
 20
6.8418318604
 40
0.5258241194
  0
CIRCLE
  5
2DA
100
AcDbEntity
  8
0
100
AcDbCircle
 62
9
  6
CONTINUOUS
 10
11.0473183383
 20
6.8418318604
 40
0.4322426762
  0
CIRCLE
  5
2DB
100
AcDbEntity
  8
0
100
AcDbCircle
 62
7
  6
CONTINUOUS
 10
11.0473183383
 20
6.8418318604
 40
0.42
  0
CIRCLE
  5
2DC
100
AcDbEntity
  8
0
100
AcDbCircle
 62
9
  6
CONTINUOUS
 10
11.0473183383
 20
6.8418318604
 40
0.369180739
  0
ARC
  5
2DD
100
AcDbEntity
  8
0
100
AcDbCircle
 62
7
  6
CONTINUOUS
 10
11.6073183383
 20
-2.4831681396
 40
1.14
100
AcDbArc
 50
157.1448062399
 51
202.8551937601
  0
ARC
  5
2DE
100
AcDbEntity
  8
0
100
AcDbCircle
 62
7
  6
CONTINUOUS
 10
11.4735267538
 20
-4.6731681396
 40
0.94
100
AcDbArc
 50
183.2758289597
 51
199.8783240236
  0
ARC
  5
2DF
100
AcDbEntity
  8
0
100
AcDbCircle
 62
7
  6
CONTINUOUS
 10
11.7892037606
 20
-5.2908828021
 40
0.41
100
AcDbArc
 50
153.7136175837
 51
173.746559171
  0
ARC
  5
2E0
100
AcDbEntity
  8
0
100
AcDbCircle
 62
7
  6
CONTINUOUS
 10
11.8890552966
 20
-4.402445051
 40
0.4
100
AcDbArc
 50
143.6575953608
 51
201.0304763259
  0
ARC
  5
2E1
100
AcDbEntity
  8
0
100
AcDbCircle
 62
7
  6
CONTINUOUS
 10
11.6693942353
 20
-4.7331681396
 40
0.11
100
AcDbArc
 50
141.7750897985
 51
176.7241710403
  0
ARC
  5
2E2
100
AcDbEntity
  8
0
100
AcDbCircle
 62
7
  6
CONTINUOUS
 10
11.6560005088
 20
-3.3364791927
 40
0.11
100
AcDbArc
 50
171.0
 51
216.2735444504
  0
ARC
  5
2E3
100
AcDbEntity
  8
0
100
AcDbCircle
 62
7
  6
CONTINUOUS
 10
11.5831275563
 20
-5.0661681396
 40
0.1
100
AcDbArc
 50
155.6102863759
 51
176.7241710402
  0
ARC
  5
2E4
100
AcDbEntity
  8
0
100
AcDbCircle
 62
7
  6
CONTINUOUS
 10
11.5437001622
 20
-4.6341681396
 40
0.05
100
AcDbArc
 50
321.7750897984
 51
55.0847937526
  0
ARC
  5
2E5
100
AcDbEntity
  8
0
100
AcDbCircle
 62
7
  6
CONTINUOUS
 10
11.5075684999
 20
-1.7731681396
 40
0.02
100
AcDbArc
 50
0.0
 51
90.0
  0
ARC
  5
2E6
100
AcDbEntity
  8
0
100
AcDbCircle
 62
7
  6
CONTINUOUS
 10
11.5759777832
 20
-3.0107038788
 40
0.02
100
AcDbArc
 50
350.9999911877
 51
79.6207071718
  0
ARC
  5
2E7
100
AcDbEntity
  8
0
100
AcDbCircle
 62
7
  6
CONTINUOUS
 10
11.5777792069
 20
-1.9385787028
 40
0.02
100
AcDbArc
 50
284.4678123367
 51
39.4500616434
  0
ARC
  5
2E8
100
AcDbEntity
  8
0
100
AcDbCircle
 62
7
  6
CONTINUOUS
 10
11.4970316359
 20
-4.5531681396
 40
0.02
100
AcDbArc
 50
270.0
 51
21.0304956613
  0
ARC
  5
2E9
100
AcDbEntity
  8
0
100
AcDbCircle
 62
7
  6
CONTINUOUS
 10
11.4973183383
 20
5.8018318604
 40
0.02
100
AcDbArc
 50
270.0
 51
360.0
  0
ARC
  5
2EA
100
AcDbEntity
  8
0
100
AcDbCircle
 62
7
  6
CONTINUOUS
 10
11.6198383383
 20
17.4098318604
 40
1.37252
100
AcDbArc
 50
150.9109121001
 51
210.8742121369
  0
ARC
  5
2EB
100
AcDbEntity
  8
0
100
AcDbCircle
 62
7
  6
CONTINUOUS
 10
11.4735267538
 20
15.6118318604
 40
0.94
100
AcDbArc
 50
183.2758289597
 51
199.8783240236
  0
ARC
  5
2EC
100
AcDbEntity
  8
0
100
AcDbCircle
 62
9
  6
CONTINUOUS
 10
11.0520158059
 20
17.4681749252
 40
0.7139829002
100
AcDbArc
 50
241.5121813715
 51
242.3624730223
  0
ARC
  5
2ED
100
AcDbEntity
  8
0
100
AcDbCircle
 62
7
  6
CONTINUOUS
 10
11.0473183383
 20
17.4098318604
 40
0.65
100
AcDbArc
 50
325.8419327632
 51
334.1580672368
  0
ARC
  5
2EE
100
AcDbEntity
  8
0
100
AcDbCircle
 62
7
  6
CONTINUOUS
 10
11.0473183383
 20
17.4098318604
 40
0.65
100
AcDbArc
 50
205.8419327632
 51
214.1580672368
  0
ARC
  5
2EF
100
AcDbEntity
  8
0
100
AcDbCircle
 62
7
  6
CONTINUOUS
 10
11.0473183383
 20
17.4098318604
 40
0.65
100
AcDbArc
 50
145.8419327632
 51
154.1580672368
  0
ARC
  5
2F0
100
AcDbEntity
  8
0
100
AcDbCircle
 62
7
  6
CONTINUOUS
 10
11.0473183383
 20
17.4098318604
 40
0.65
100
AcDbArc
 50
85.8419327632
 51
94.1580672368
  0
ARC
  5
2F1
100
AcDbEntity
  8
0
100
AcDbCircle
 62
7
  6
CONTINUOUS
 10
11.0473183383
 20
17.4098318604
 40
0.65
100
AcDbArc
 50
25.8419327632
 51
34.1580672368
  0
ARC
  5
2F2
100
AcDbEntity
  8
0
100
AcDbCircle
 62
7
  6
CONTINUOUS
 10
11.0473183383
 20
17.4098318604
 40
0.642
100
AcDbArc
 50
320.1984048113
 51
219.8018932921
  0
CIRCLE
  5
2F3
100
AcDbEntity
  8
0
100
AcDbCircle
 62
9
  6
CONTINUOUS
 10
11.0473183383
 20
17.4098318604
 40
0.5258241194
  0
ARC
  5
2F4
100
AcDbEntity
  8
0
100
AcDbCircle
 62
7
  6
CONTINUOUS
 10
11.0473183383
 20
14.7303318604
 40
0.45
100
AcDbArc
 50
148.7582727427
 51
203.2702952784
  0
ARC
  5
2F5
100
AcDbEntity
  8
0
100
AcDbCircle
 62
7
  6
CONTINUOUS
 10
11.0473192752
 20
14.7303317823
 40
0.4499988427
100
AcDbArc
 50
336.7296667222
 51
31.2417976376
  0
CIRCLE
  5
2F6
100
AcDbEntity
  8
0
100
AcDbCircle
 62
9
  6
CONTINUOUS
 10
11.0473183383
 20
17.4098318604
 40
0.4322426762
  0
CIRCLE
  5
2F7
100
AcDbEntity
  8
0
100
AcDbCircle
 62
7
  6
CONTINUOUS
 10
11.0473183383
 20
17.4098318604
 40
0.42
  0
CIRCLE
  5
2F8
100
AcDbEntity
  8
0
100
AcDbCircle
 62
9
  6
CONTINUOUS
 10
11.0473183383
 20
17.4098318604
 40
0.369180739
  0
ARC
  5
2F9
100
AcDbEntity
  8
0
100
AcDbCircle
 62
7
  6
CONTINUOUS
 10
11.2499502018
 20
14.8532518665
 40
0.213
100
AcDbArc
 50
31.24172725
 51
35.7611819372
  0
ARC
  5
2FA
100
AcDbEntity
  8
0
100
AcDbCircle
 62
7
  6
CONTINUOUS
 10
11.2769811699
 20
14.6315645391
 40
0.2
100
AcDbArc
 50
316.7222713312
 51
336.7297047215
  0
ARC
  5
2FB
100
AcDbEntity
  8
0
100
AcDbCircle
 62
7
  6
CONTINUOUS
 10
11.6693942353
 20
15.5518318604
 40
0.11
100
AcDbArc
 50
141.7750897985
 51
176.7241710403
  0
ARC
  5
2FC
100
AcDbEntity
  8
0
100
AcDbCircle
 62
7
  6
CONTINUOUS
 10
11.5831275563
 20
15.2188318604
 40
0.1
100
AcDbArc
 50
155.6102863759
 51
176.7241710402
  0
ARC
  5
2FD
100
AcDbEntity
  8
0
100
AcDbCircle
 62
7
  6
CONTINUOUS
 10
11.566997107
 20
16.7568318604
 40
0.1
100
AcDbArc
 50
270.0
 51
329.1257878631
  0
ARC
  5
2FE
100
AcDbEntity
  8
0
100
AcDbCircle
 62
7
  6
CONTINUOUS
 10
11.5973183383
 20
16.5668318604
 40
0.09
100
AcDbArc
 50
60.7324224025
 51
90.0
  0
ARC
  5
2FF
100
AcDbEntity
  8
0
100
AcDbCircle
 62
7
  6
CONTINUOUS
 10
11.5437001622
 20
15.6508318604
 40
0.05
100
AcDbArc
 50
321.7750897984
 51
55.0847937526
  0
ARC
  5
300
100
AcDbEntity
  8
0
100
AcDbCircle
 62
7
  6
CONTINUOUS
 10
11.4433563147
 20
15.2268318604
 40
0.04
100
AcDbArc
 50
270.0
 51
356.7241710402
  0
ARC
  5
301
100
AcDbEntity
  8
0
100
AcDbCircle
 62
7
  6
CONTINUOUS
 10
11.5001166279
 20
15.7418318604
 40
0.03
100
AcDbArc
 50
270.0
 51
354.3986824383
  0
ARC
  5
302
100
AcDbEntity
  8
0
100
AcDbCircle
 62
7
  6
CONTINUOUS
 10
11.4395329935
 20
15.1668318604
 40
0.02
100
AcDbArc
 50
90.0
 51
150.0513063578
  0
ARC
  5
303
100
AcDbEntity
  8
0
100
AcDbCircle
 62
7
  6
CONTINUOUS
 10
11.4973183383
 20
16.3698318604
 40
0.02
100
AcDbArc
 50
270.0
 51
360.0
  0
ARC
  5
304
100
AcDbEntity
  8
0
100
AcDbCircle
 62
7
  6
CONTINUOUS
 10
11.6909536877
 20
20.6878660247
 40
0.47
100
AcDbArc
 50
281.2092591463
 51
343.8116350097
  0
ARC
  5
305
100
AcDbEntity
  8
0
100
AcDbCircle
 62
7
  6
CONTINUOUS
 10
11.7073183383
 20
18.1418318604
 40
0.035
100
AcDbArc
 50
270.0
 51
37.708994818
  0
ARC
  5
306
100
AcDbEntity
  8
0
100
AcDbCircle
 62
7
  6
CONTINUOUS
 10
11.6514562942
 20
19.3318318604
 40
0.025
100
AcDbArc
 50
328.4578517382
 51
90.0
  0
ARC
  5
307
100
AcDbEntity
  8
0
100
AcDbCircle
 62
7
  6
CONTINUOUS
 10
11.6916725924
 20
18.0868318604
 40
0.02
100
AcDbArc
 50
90.0
 51
209.0890878999
  0
ARC
  5
308
100
AcDbEntity
  8
0
100
AcDbCircle
 62
7
  6
CONTINUOUS
 10
12.0803427681
 20
16.2280289675
 40
0.5
100
AcDbArc
 50
151.4078868276
 51
174.3986824383
  0
ARC
  5
309
100
AcDbEntity
  8
0
100
AcDbCircle
 62
7
  6
CONTINUOUS
 10
12.5405925661
 20
18.7860683544
 40
1.0182742278
100
AcDbArc
 50
148.4578522728
 51
217.708994818
  0
ARC
  5
30A
100
AcDbEntity
  8
0
100
AcDbCircle
 62
7
  6
CONTINUOUS
 10
12.9062972254
 20
20.0354806124
 40
0.89
100
AcDbArc
 50
119.9241230472
 51
143.342955626
  0
ARC
  5
30B
100
AcDbEntity
  8
0
100
AcDbCircle
 62
7
  6
CONTINUOUS
 10
12.3893183383
 20
20.8918318604
 40
0.035
100
AcDbArc
 50
46.1484090249
 51
90.0
  0
ARC
  5
30C
100
AcDbEntity
  8
0
100
AcDbCircle
 62
7
  6
CONTINUOUS
 10
12.4773183383
 20
20.8368318604
 40
0.03
100
AcDbArc
 50
270.0
 51
360.0
  0
SPLINE
  5
30D
100
AcDbEntity
  8
0
100
AcDbSpline
 62
7
  6
CONTINUOUS
 70
0
 71
3
 72
17
 73
13
 74
0
 42
0.0000001
 43
0.0000001
 44
0.0000000001
 40
0.0
 40
0.0
 40
0.0
 40
0.0
 40
0.1190563644
 40
0.239212865
 40
0.360763555
 40
0.4840708824
 40
0.6095336229
 40
0.7374605535
 40
0.8024239337
 40
0.8679260095
 40
0.9338582238
 40
1.0
 40
1.0
 40
1.0
 40
1.0
 10
11.5173558104
 20
16.6139107496
 30
0.0
 10
11.519407676
 20
16.6126801884
 30
0.0
 10
11.5234553452
 20
16.6100792004
 30
0.0
 10
11.5292648036
 20
16.6057302012
 30
0.0
 10
11.5347528059
 20
16.6008474506
 30
0.0
 10
11.5397969044
 20
16.5953549285
 30
0.0
 10
11.5442177676
 20
16.5891834966
 30
0.0
 10
11.5471574999
 20
16.5834668448
 30
0.0
 10
11.5489183423
 20
16.5785751694
 30
0.0
 10
11.5499034625
 20
16.5747466633
 30
0.0
 10
11.5505131726
 20
16.5708170879
 30
0.0
 10
11.5506553404
 20
16.5681610576
 30
0.0
 10
11.5506553404
 20
16.5668318602
 30
0.0
  0
SPLINE
  5
30E
100
AcDbEntity
  8
0
100
AcDbSpline
 62
7
  6
CONTINUOUS
 70
0
 71
3
 72
16
 73
12
 74
0
 42
0.0000001
 43
0.0000001
 44
0.0000000001
 40
0.0
 40
0.0
 40
0.0
 40
0.0
 40
0.066152862
 40
0.1320921782
 40
0.197604036
 40
0.2625758206
 40
0.3905207032
 40
0.5160027484
 40
0.6393289198
 40
0.7608984522
 40
1.0
 40
1.0
 40
1.0
 40
1.0
 10
11.5506553404
 20
16.5668318602
 30
0.0
 10
11.5506553404
 20
16.5655021326
 30
0.0
 10
11.550512685
 20
16.5628451542
 30
0.0
 10
11.5499031727
 20
16.5589140495
 30
0.0
 10
11.5489169982
 20
16.5550843197
 30
0.0
 10
11.5471549962
 20
16.5501910297
 30
0.0
 10
11.5442132366
 20
16.5444726472
 30
0.0
 10
11.5397896233
 20
16.5382997814
 30
0.0
 10
11.5347421926
 20
16.5328058162
 30
0.0
 10
11.5274638113
 20
16.5263329309
 30
0.0
 10
11.5214577426
 20
16.5222125287
 30
0.0
 10
11.5173357475
 20
16.5197410635
 30
0.0
  0
SPLINE
  5
30F
100
AcDbEntity
  8
0
100
AcDbSpline
 62
7
  6
CONTINUOUS
 70
0
 71
3
 72
16
 73
12
 74
0
 42
0.0000001
 43
0.0000001
 44
0.0000000001
 40
0.0
 40
0.0
 40
0.0
 40
0.0
 40
0.2391014585
 40
0.3606709889
 40
0.4839972154
 40
0.609479296
 40
0.7374242092
 40
0.8023957564
 40
0.867908048
 40
0.9338467747
 40
1.0
 40
1.0
 40
1.0
 40
1.0
 10
10.577300997
 20
16.519741023
 30
0.0
 10
10.573179001
 20
16.522212484
 30
0.0
 10
10.5671729282
 20
16.5263328798
 30
0.0
 10
10.5598945451
 20
16.5328057605
 30
0.0
 10
10.5548470929
 20
16.5382997151
 30
0.0
 10
10.5504235152
 20
16.5444725971
 30
0.0
 10
10.5474816259
 20
16.5501909268
 30
0.0
 10
10.5457198224
 20
16.5550842897
 30
0.0
 10
10.5447333397
 20
16.5589139145
 30
0.0
 10
10.5441238938
 20
16.5628451013
 30
0.0
 10
10.5439825076
 20
16.5655021253
 30
0.0
 10
10.5439825076
 20
16.5668318604
 30
0.0
  0
SPLINE
  5
310
100
AcDbEntity
  8
0
100
AcDbSpline
 62
7
  6
CONTINUOUS
 70
0
 71
3
 72
16
 73
12
 74
0
 42
0.0000001
 43
0.0000001
 44
0.0000000001
 40
0.0
 40
0.0
 40
0.0
 40
0.0
 40
0.1319261732
 40
0.1974393167
 40
0.2624130934
 40
0.3903611516
 40
0.51584548
 40
0.6391741992
 40
0.7607461564
 40
0.8809233446
 40
1.0
 40
1.0
 40
1.0
 40
1.0
 10
10.5439825076
 20
16.5668318604
 30
0.0
 10
10.5439825076
 20
16.569482506
 30
0.0
 10
10.5444023487
 20
16.5734632801
 30
0.0
 10
10.5457182427
 20
16.5785741162
 30
0.0
 10
10.5474788357
 20
16.5834664478
 30
0.0
 10
10.5504183766
 20
16.5891824578
 30
0.0
 10
10.5548388801
 20
16.5953538586
 30
0.0
 10
10.5598826518
 20
16.6008462404
 30
0.0
 10
10.5653703191
 20
16.6057289288
 30
0.0
 10
10.5711794415
 20
16.6100778716
 30
0.0
 10
10.5752268666
 20
16.61267886
 30
0.0
 10
10.5772786139
 20
16.6139094156
 30
0.0
  0
SPLINE
  5
311
100
AcDbEntity
  8
0
100
AcDbSpline
 62
9
  6
CONTINUOUS
 70
0
 71
3
 72
16
 73
12
 74
0
 42
0.0000001
 43
0.0000001
 44
0.0000000001
 40
0.0
 40
0.0
 40
0.0
 40
0.0
 40
0.1375593687
 40
0.2059441985
 40
0.2738064308
 40
0.4072811051
 40
0.5369349568
 40
0.6617818689
 40
0.7810631001
 40
0.8940271631
 40
1.0
 40
1.0
 40
1.0
 40
1.0
 10
11.0473183383
 20
16.7548673867
 30
0.0
 10
11.0633814381
 20
16.7548682252
 30
0.0
 10
11.0874404397
 20
16.7557145662
 30
0.0
 10
11.1192984126
 20
16.7584732639
 30
0.0
 10
11.1505717849
 20
16.7622590007
 30
0.0
 10
11.1886853037
 20
16.7688653715
 30
0.0
 10
11.2327548999
 20
16.7795034156
 30
0.0
 10
11.2744733273
 20
16.792430826
 30
0.0
 10
11.3135131383
 20
16.8071504035
 30
0.0
 10
11.3496268315
 20
16.8231864663
 30
0.0
 10
11.3724159709
 20
16.8348030294
 30
0.0
 10
11.3832911528
 20
16.8407075158
 30
0.0
  0
SPLINE
  5
312
100
AcDbEntity
  8
0
100
AcDbSpline
 62
9
  6
CONTINUOUS
 70
0
 71
3
 72
19
 73
15
 74
0
 42
0.0000001
 43
0.0000001
 44
0.0000000001
 40
0.0
 40
0.0
 40
0.0
 40
0.0
 40
0.2092393133
 40
0.4000950891
 40
0.5702932688
 40
0.7169235042
 40
0.8367150868
 40
0.885402085
 40
0.9259762162
 40
0.9579919968
 40
0.9811649734
 40
0.9893588056
 40
0.9952498387
 40
1.0
 40
1.0
 40
1.0
 40
1.0
 10
11.3832911528
 20
16.8407075158
 30
0.0
 10
11.3933497131
 20
16.8461686319
 30
0.0
 10
11.4123350803
 20
16.8570756172
 30
0.0
 10
11.4386555687
 20
16.8738373388
 30
0.0
 10
11.4614454602
 20
16.8897188692
 30
0.0
 10
11.480536539
 20
16.9040767815
 30
0.0
 10
11.4939901658
 20
16.9148554953
 30
0.0
 10
11.5027717994
 20
16.9221802764
 30
0.0
 10
11.5078221198
 20
16.9264818823
 30
0.0
 10
11.5117862294
 20
16.9299061466
 30
0.0
 10
11.51439483
 20
16.9321899516
 30
0.0
 10
11.5159215838
 20
16.9335399785
 30
0.0
 10
11.5166903871
 20
16.9342258402
 30
0.0
 10
11.5171250869
 20
16.9346129692
 30
0.0
 10
11.5173171523
 20
16.9347879699
 30
0.0
  0
SPLINE
  5
313
100
AcDbEntity
  8
0
100
AcDbSpline
 62
9
  6
CONTINUOUS
 70
0
 71
3
 72
27
 73
23
 74
0
 42
0.0000001
 43
0.0000001
 44
0.0000000001
 40
0.0
 40
0.0
 40
0.0
 40
0.0
 40
0.0002989277
 40
0.0011929447
 40
0.0026781754
 40
0.0047507486
 40
0.0074067976
 40
0.0106424603
 40
0.018837199
 40
0.0293041636
 40
0.0420126284
 40
0.0569319469
 40
0.074031554
 40
0.1146090426
 40
0.1632991381
 40
0.2196202634
 40
0.283097846
 40
0.3532737784
 40
0.4297335719
 40
0.5999273509
 40
0.7907741204
 40
1.0
 40
1.0
 40
1.0
 40
1.0
 10
10.5773195269
 20
16.9347879647
 30
0.0
 10
10.5773313399
 20
16.9347766389
 30
0.0
 10
10.5773805979
 20
16.9347337131
 30
0.0
 10
10.5774887962
 20
16.9346347863
 30
0.0
 10
10.5776705785
 20
16.9344724246
 30
0.0
 10
10.5779238734
 20
16.9342453456
 30
0.0
 10
10.5782492929
 20
16.9339551481
 30
0.0
 10
10.5788255181
 20
16.9334426187
 30
0.0
 10
10.5797233883
 20
16.9326482856
 30
0.0
 10
10.581013297
 20
16.9315144318
 30
0.0
 10
10.5825842526
 20
16.9301427022
 30
0.0
 10
10.5844341054
 20
16.9285383234
 30
0.0
 10
10.5874453396
 20
16.9259444216
 30
0.0
 10
10.5918786769
 20
16.9221686608
 30
0.0
 10
10.5979997134
 20
16.9170633725
 30
0.0
 10
10.60515575
 20
16.9112426103
 30
0.0
 10
10.6133151101
 20
16.9047926865
 30
0.0
 10
10.6224480759
 20
16.8977984632
 30
0.0
 10
10.6363949881
 20
16.8874850489
 30
0.0
 10
10.6560527185
 20
16.8737892619
 30
0.0
 10
10.6823963271
 20
16.8570178873
 30
0.0
 10
10.7013985708
 20
16.8461055531
 30
0.0
 10
10.7114660194
 20
16.8406421176
 30
0.0
  0
SPLINE
  5
314
100
AcDbEntity
  8
0
100
AcDbSpline
 62
9
  6
CONTINUOUS
 70
0
 71
3
 72
18
 73
14
 74
0
 42
0.0000001
 43
0.0000001
 44
0.0000000001
 40
0.0
 40
0.0
 40
0.0
 40
0.0
 40
0.2209973152
 40
0.2801547401
 40
0.3406956161
 40
0.4025337018
 40
0.4655900248
 40
0.5297726114
 40
0.594960022
 40
0.7278611865
 40
0.7953552754
 40
0.8633291249
 40
1.0
 40
1.0
 40
1.0
 40
1.0
 10
10.7208160087
 20
16.8356575136
 30
0.0
 10
10.7429768679
 20
16.8240534497
 30
0.0
 10
10.7718749707
 20
16.8107982144
 30
0.0
 10
10.8079267386
 20
16.7971044364
 30
0.0
 10
10.8273396358
 20
16.7903574043
 30
0.0
 10
10.8473620853
 20
16.7840489286
 30
0.0
 10
10.8679625904
 20
16.7782344874
 30
0.0
 10
10.8891008646
 20
16.7729662643
 30
0.0
 10
10.91811949
 20
16.7666854129
 30
0.0
 10
10.9477958853
 20
16.7617319391
 30
0.0
 10
10.9779735821
 20
16.7582147928
 30
0.0
 10
11.0086747805
 20
16.7556535511
 30
0.0
 10
11.031848272
 20
16.7548682592
 30
0.0
 10
11.0473183383
 20
16.7548674055
 30
0.0
  0
SPLINE
  5
315
100
AcDbEntity
  8
0
100
AcDbSpline
 62
9
  6
CONTINUOUS
 70
0
 71
3
 72
50
 73
46
 74
0
 42
0.0000001
 43
0.0000001
 44
0.0000000001
 40
0.0
 40
0.0
 40
0.0
 40
0.0
 40
0.0000204108
 40
0.0000463753
 40
0.0000828477
 40
0.0001873224
 40
0.0003338461
 40
0.0005224303
 40
0.000753086
 40
0.0010258247
 40
0.0013406574
 40
0.0020966502
 40
0.003021026
 40
0.004112995
 40
0.0053714954
 40
0.0067954664
 40
0.0083838485
 40
0.0120496158
 40
0.0163603575
 40
0.0213076633
 40
0.0268827555
 40
0.0330740771
 40
0.0398689279
 40
0.0472546881
 40
0.0637488492
 40
0.0824585709
 40
0.1032917105
 40
0.1261593435
 40
0.1509712675
 40
0.1776299186
 40
0.2060395036
 40
0.2361224335
 40
0.267828465
 40
0.3011125769
 40
0.3722082003
 40
0.4489880327
 40
0.5310602108
 40
0.6179990244
 40
0.7092387259
 40
0.7562381113
 40
0.8040100146
 40
0.8524243376
 40
0.9013474568
 40
0.9506079976
 40
1.0
 40
1.0
 40
1.0
 40
1.0
 10
11.5405019776
 20
16.9988150531
 30
0.0
 10
11.5405041026
 20
16.9988179068
 30
0.0
 10
11.5404893768
 20
16.9988056401
 30
0.0
 10
11.5404817401
 20
16.9988014479
 30
0.0
 10
11.5404553989
 20
16.9987825389
 30
0.0
 10
11.5404160753
 20
16.99875566
 30
0.0
 10
11.5403523049
 20
16.9987110439
 30
0.0
 10
11.5402717242
 20
16.9986549968
 30
0.0
 10
11.5401726389
 20
16.9985859048
 30
0.0
 10
11.5400556807
 20
16.9985043656
 30
0.0
 10
11.5398635628
 20
16.9983703613
 30
0.0
 10
11.5395783452
 20
16.9981713427
 30
0.0
 10
11.5391820743
 20
16.9978947009
 30
0.0
 10
11.5387138511
 20
16.9975681117
 30
0.0
 10
11.5381738931
 20
16.9971921312
 30
0.0
 10
11.5375624678
 20
16.9967673537
 30
0.0
 10
11.5366055828
 20
16.9961043457
 30
0.0
 10
11.5352329883
 20
16.9951577337
 30
0.0
 10
11.5333743615
 20
16.993884539
 30
0.0
 10
11.5312361974
 20
16.9924304972
 30
0.0
 10
11.5288211732
 20
16.9908006362
 30
0.0
 10
11.5261316547
 20
16.989001821
 30
0.0
 10
11.5231704469
 20
16.9870415365
 30
0.0
 10
11.5186964463
 20
16.9841129587
 30
0.0
 10
11.5124497036
 20
16.9801004241
 30
0.0
 10
11.5041663828
 20
16.9749222359
 30
0.0
 10
11.4948629009
 20
16.9692817194
 30
0.0
 10
11.4845590861
 20
16.9632416874
 30
0.0
 10
11.4732762801
 20
16.9568666559
 30
0.0
 10
11.4610361194
 20
16.9502260276
 30
0.0
 10
11.4478596431
 20
16.9433893758
 30
0.0
 10
11.4337634944
 20
16.9364210303
 30
0.0
 10
11.4187611123
 20
16.9293755161
 30
0.0
 10
11.3970832035
 20
16.9197373126
 30
0.0
 10
11.3678130937
 20
16.9078523037
 30
0.0
 10
11.3300105114
 20
16.8944771861
 30
0.0
 10
11.2889633351
 20
16.8821311537
 30
0.0
 10
11.2449036541
 20
16.8712386887
 30
0.0
 10
11.2063413997
 20
16.8638011572
 30
0.0
 10
11.1742819859
 20
16.8589210313
 30
0.0
 10
11.1495101296
 20
16.8558343806
 30
0.0
 10
11.1243299866
 20
16.8533885578
 30
0.0
 10
11.0988328185
 20
16.8516207603
 30
0.0
 10
11.0731264772
 20
16.8505515227
 30
0.0
 10
11.0559283815
 20
16.8503105786
 30
0.0
 10
11.0473183383
 20
16.8503104157
 30
0.0
  0
SPLINE
  5
316
100
AcDbEntity
  8
0
100
AcDbSpline
 62
9
  6
CONTINUOUS
 70
0
 71
3
 72
48
 73
44
 74
0
 42
0.0000001
 43
0.0000001
 44
0.0000000001
 40
0.0
 40
0.0
 40
0.0
 40
0.0
 40
0.0986410391
 40
0.147561398
 40
0.1959691337
 40
0.2437328834
 40
0.2907272413
 40
0.3368399552
 40
0.3819601004
 40
0.4688823841
 40
0.550949327
 40
0.6277224555
 40
0.6988170122
 40
0.7638338347
 40
0.7939265082
 40
0.8223250777
 40
0.8489627345
 40
0.8737664869
 40
0.896645448
 40
0.9175013415
 40
0.9362336751
 40
0.952742592
 40
0.960131932
 40
0.9669275639
 40
0.9731166657
 40
0.9786875532
 40
0.9836313598
 40
0.9879395928
 40
0.9916037233
 40
0.9931915757
 40
0.9946151886
 40
0.9958734867
 40
0.9969653952
 40
0.9978901216
 40
0.9986474532
 40
0.9992372483
 40
0.9994692753
 40
0.9996593651
 40
0.9998074999
 40
0.9999136621
 40
0.999950998
 40
0.9999778342
 40
1.0
 40
1.0
 40
1.0
 40
1.0
 10
11.0473183383
 20
16.8503104157
 30
0.0
 10
11.0301232906
 20
16.8502743542
 30
0.0
 10
11.0043918005
 20
16.8510115775
 30
0.0
 10
10.9703114865
 20
16.8533961699
 30
0.0
 10
10.9451338881
 20
16.8558384474
 30
0.0
 10
10.9203650469
 20
16.8589188417
 30
0.0
 10
10.8960850572
 20
16.8626139402
 30
0.0
 10
10.8723658079
 20
16.8668734703
 30
0.0
 10
10.841950886
 20
16.8731650258
 30
0.0
 10
10.8057000746
 20
16.8821225379
 30
0.0
 10
10.7646583556
 20
16.8944666679
 30
0.0
 10
10.7268571711
 20
16.9078397041
 30
0.0
 10
10.6924608851
 20
16.921801338
 30
0.0
 10
10.6660989615
 20
16.9338423961
 30
0.0
 10
10.6467981738
 20
16.9433851782
 30
0.0
 10
10.6336232401
 20
16.9502162445
 30
0.0
 10
10.6213861728
 20
16.9568477307
 30
0.0
 10
10.6101044201
 20
16.9632182373
 30
0.0
 10
10.599797287
 20
16.9692614708
 30
0.0
 10
10.590486983
 20
16.9749096982
 30
0.0
 10
10.5821955758
 20
16.9800946338
 30
0.0
 10
10.5759436851
 20
16.9841122989
 30
0.0
 10
10.5714672732
 20
16.9870432307
 30
0.0
 10
10.5685057495
 20
16.989003683
 30
0.0
 10
10.5658166092
 20
16.9908012641
 30
0.0
 10
10.5634021609
 20
16.9924288614
 30
0.0
 10
10.5612650367
 20
16.9938812464
 30
0.0
 10
10.559407321
 20
16.9951533953
 30
0.0
 10
10.558035364
 20
16.9960994829
 30
0.0
 10
10.5570788323
 20
16.9967622187
 30
0.0
 10
10.5564675489
 20
16.9971868618
 30
0.0
 10
10.5559276476
 20
16.9975627275
 30
0.0
 10
10.5554593357
 20
16.9978892158
 30
0.0
 10
10.5550627359
 20
16.9981658668
 30
0.0
 10
10.5547379949
 20
16.9983925458
 30
0.0
 10
10.5545123519
 20
16.9985502203
 30
0.0
 10
10.5543677813
 20
16.9986512982
 30
0.0
 10
10.5542863895
 20
16.99870835
 30
0.0
 10
10.5542228395
 20
16.9987526948
 30
0.0
 10
10.5541814732
 20
16.9987821522
 30
0.0
 10
10.5541568772
 20
16.9987989248
 30
0.0
 10
10.554145163
 20
16.9988081994
 30
0.0
 10
10.5541370655
 20
16.9988119937
 30
0.0
 10
10.5541346971
 20
16.9988150467
 30
0.0
  0
SPLINE
  5
317
100
AcDbEntity
  8
0
100
AcDbSpline
 62
9
  6
CONTINUOUS
 70
0
 71
3
 72
15
 73
11
 74
0
 42
0.0000001
 43
0.0000001
 44
0.0000000001
 40
0.0
 40
0.0
 40
0.0
 40
0.0
 40
0.1376482634
 40
0.2739516979
 40
0.4074836323
 40
0.5371687467
 40
0.6620152719
 40
0.7812604859
 40
0.8941484933
 40
1.0
 40
1.0
 40
1.0
 40
1.0
 10
11.0473183383
 20
7.4967962921
 30
0.0
 10
11.0312000412
 20
7.4967953546
 30
0.0
 10
10.9991106122
 20
7.4956621311
 30
0.0
 10
10.9516152143
 20
7.4907275648
 30
0.0
 10
10.9054887426
 20
7.4827057609
 30
0.0
 10
10.8612937669
 20
7.4720011101
 30
0.0
 10
10.8194720168
 20
7.4589978199
 30
0.0
 10
10.7803518958
 20
7.4441984751
 30
0.0
 10
10.7441823805
 20
7.4280839314
 30
0.0
 10
10.7213657431
 20
7.4164151422
 30
0.0
 10
10.7104808915
 20
7.4104859538
 30
0.0
  0
SPLINE
  5
318
100
AcDbEntity
  8
0
100
AcDbSpline
 62
9
  6
CONTINUOUS
 70
0
 71
3
 72
30
 73
26
 74
0
 42
0.0000001
 43
0.0000001
 44
0.0000000001
 40
0.0
 40
0.0
 40
0.0
 40
0.0
 40
0.2093206307
 40
0.307210775
 40
0.4002358807
 40
0.4881036637
 40
0.5704559135
 40
0.646910449
 40
0.7170735381
 40
0.780531531
 40
0.8368274862
 40
0.8854889075
 40
0.9068071517
 40
0.9260364738
 40
0.9431217477
 40
0.9580280807
 40
0.9707250656
 40
0.9811822149
 40
0.9893689624
 40
0.9926013636
 40
0.9952546673
 40
0.9973250315
 40
0.9988086097
 40
0.999701551
 40
1.0
 40
1.0
 40
1.0
 40
1.0
 10
10.7104808915
 20
7.4104859538
 30
0.0
 10
10.7004859905
 20
7.4050415386
 30
0.0
 10
10.6860047948
 20
7.3966984816
 30
0.0
 10
10.6675369077
 20
7.3851839382
 30
0.0
 10
10.654849935
 20
7.376885823
 30
0.0
 10
10.6430352424
 20
7.3688037594
 30
0.0
 10
10.632113163
 20
7.3610173676
 30
0.0
 10
10.6221072195
 20
7.3536080446
 30
0.0
 10
10.613041823
 20
7.3466578238
 30
0.0
 10
10.6049432485
 20
7.3402502228
 30
0.0
 10
10.5978409479
 20
7.3344692487
 30
0.0
 10
10.5925692082
 20
7.3300699402
 30
0.0
 10
10.5888697931
 20
7.3269325669
 30
0.0
 10
10.5864886658
 20
7.3248953204
 30
0.0
 10
10.5843786528
 20
7.3230774278
 30
0.0
 10
10.5825432162
 20
7.3214852707
 30
0.0
 10
10.5809842016
 20
7.3201237508
 30
0.0
 10
10.5797050407
 20
7.3189992745
 30
0.0
 10
10.5788125461
 20
7.3182094957
 30
0.0
 10
10.5782433301
 20
7.3177033571
 30
0.0
 10
10.5779151907
 20
7.3174103298
 30
0.0
 10
10.5776775715
 20
7.3171982396
 30
0.0
 10
10.5774661531
 20
7.3170071551
 30
0.0
 10
10.5774135181
 20
7.3169618313
 30
0.0
 10
10.5773078955
 20
7.3168644464
 30
0.0
 10
10.5773195296
 20
7.3168757597
 30
0.0
  0
SPLINE
  5
319
100
AcDbEntity
  8
0
100
AcDbSpline
 62
9
  6
CONTINUOUS
 70
0
 71
3
 72
37
 73
33
 74
0
 42
0.0000001
 43
0.0000001
 44
0.0000000001
 40
0.0
 40
0.0
 40
0.0
 40
0.0
 40
0.0000747684
 40
0.0001681045
 40
0.0002986616
 40
0.000671197
 40
0.0011918923
 40
0.0018602652
 40
0.0026758339
 40
0.0047466326
 40
0.0074004393
 40
0.0106334091
 40
0.0144417021
 40
0.0188214827
 40
0.0237689203
 40
0.0292801888
 40
0.0419789352
 40
0.0568872159
 40
0.0739746023
 40
0.0932061133
 40
0.1145265144
 40
0.1378752651
 40
0.1631921936
 40
0.2194916409
 40
0.28295227
 40
0.3531169785
 40
0.4295719926
 40
0.5119233536
 40
0.5997886738
 40
0.6928097988
 40
0.7906945947
 40
1.0
 40
1.0
 40
1.0
 40
1.0
 10
11.5173171275
 20
7.3168757945
 30
0.0
 10
11.5173134642
 20
7.3168775665
 30
0.0
 10
11.5173076938
 20
7.3168852112
 30
0.0
 10
11.5172951056
 20
7.3168953268
 30
0.0
 10
11.5172713076
 20
7.3169175206
 30
0.0
 10
11.5172296986
 20
7.3169544991
 30
0.0
 10
11.5171666349
 20
7.3170115179
 30
0.0
 10
11.517085445
 20
7.3170843855
 30
0.0
 10
11.5169414667
 20
7.3172136246
 30
0.0
 10
11.5167167755
 20
7.3174147012
 30
0.0
 10
11.5163936161
 20
7.3177030471
 30
0.0
 10
11.5159993314
 20
7.3180537141
 30
0.0
 10
11.5155341967
 20
7.3184660701
 30
0.0
 10
11.5149984728
 20
7.3189394616
 30
0.0
 10
11.514392426
 20
7.3194732428
 30
0.0
 10
11.5134452435
 20
7.3203047276
 30
0.0
 10
11.5120875741
 20
7.3214903615
 30
0.0
 10
11.5102500301
 20
7.3230843106
 30
0.0
 10
11.5081377381
 20
7.3249041101
 30
0.0
 10
11.5057540171
 20
7.3269435057
 30
0.0
 10
11.5031015108
 20
7.329192894
 30
0.0
 10
11.500183973
 20
7.3316417758
 30
0.0
 10
11.4957876477
 20
7.3352899197
 30
0.0
 10
11.4896634681
 20
7.3402743191
 30
0.0
 10
11.4815564039
 20
7.3466878172
 30
0.0
 10
11.472481583
 20
7.3536441744
 30
0.0
 10
11.4624653067
 20
7.3610597146
 30
0.0
 10
11.4515320289
 20
7.3688522861
 30
0.0
 10
11.4397053007
 20
7.3769403597
 30
0.0
 10
11.4270054808
 20
7.3852442176
 30
0.0
 10
11.4085191178
 20
7.396766044
 30
0.0
 10
11.3940233574
 20
7.4051137057
 30
0.0
 10
11.3840184068
 20
7.4105607511
 30
0.0
  0
SPLINE
  5
31A
100
AcDbEntity
  8
0
100
AcDbSpline
 62
9
  6
CONTINUOUS
 70
0
 71
3
 72
16
 73
12
 74
0
 42
0.0000001
 43
0.0000001
 44
0.0000000001
 40
0.0
 40
0.0
 40
0.0
 40
0.0
 40
0.2204156288
 40
0.3399952161
 40
0.4648720752
 40
0.5290888309
 40
0.5943323126
 40
0.727396289
 40
0.7949925931
 40
0.8630801152
 40
1.0
 40
1.0
 40
1.0
 40
1.0
 10
11.3765000662
 20
7.414595904
 30
0.0
 10
11.3542507851
 20
7.4263665874
 30
0.0
 10
11.3189362409
 20
7.4427315721
 30
0.0
 10
11.2690838172
 20
7.4610386884
 30
0.0
 10
11.235312652
 20
7.4712287685
 30
0.0
 10
11.2071435538
 20
7.4783235093
 30
0.0
 10
11.1778524452
 20
7.4847304008
 30
0.0
 10
11.1478845451
 20
7.489786212
 30
0.0
 10
11.1174000453
 20
7.4933774753
 30
0.0
 10
11.0863753397
 20
7.4959931866
 30
0.0
 10
11.0629543035
 20
7.4967953022
 30
0.0
 10
11.0473183383
 20
7.4967962525
 30
0.0
  0
SPLINE
  5
31B
100
AcDbEntity
  8
0
100
AcDbSpline
 62
9
  6
CONTINUOUS
 70
0
 71
3
 72
16
 73
12
 74
0
 42
0.0000001
 43
0.0000001
 44
0.0000000001
 40
0.0
 40
0.0
 40
0.0
 40
0.0
 40
0.1375593687
 40
0.2059441985
 40
0.2738064308
 40
0.4072811051
 40
0.5369349568
 40
0.6617818689
 40
0.7810631001
 40
0.8940271631
 40
1.0
 40
1.0
 40
1.0
 40
1.0
 10
11.0473183383
 20
6.1868673867
 30
0.0
 10
11.0633814381
 20
6.1868682252
 30
0.0
 10
11.0874404397
 20
6.1877145662
 30
0.0
 10
11.1192984126
 20
6.1904732639
 30
0.0
 10
11.1505717849
 20
6.1942590007
 30
0.0
 10
11.1886853037
 20
6.2008653715
 30
0.0
 10
11.2327548999
 20
6.2115034156
 30
0.0
 10
11.2744733273
 20
6.224430826
 30
0.0
 10
11.3135131383
 20
6.2391504035
 30
0.0
 10
11.3496268315
 20
6.2551864663
 30
0.0
 10
11.3724159709
 20
6.2668030294
 30
0.0
 10
11.3832911528
 20
6.2727075158
 30
0.0
  0
SPLINE
  5
31C
100
AcDbEntity
  8
0
100
AcDbSpline
 62
9
  6
CONTINUOUS
 70
0
 71
3
 72
19
 73
15
 74
0
 42
0.0000001
 43
0.0000001
 44
0.0000000001
 40
0.0
 40
0.0
 40
0.0
 40
0.0
 40
0.2092393133
 40
0.4000950891
 40
0.5702932688
 40
0.7169235042
 40
0.8367150868
 40
0.885402085
 40
0.9259762162
 40
0.9579919968
 40
0.9811649734
 40
0.9893588056
 40
0.9952498387
 40
1.0
 40
1.0
 40
1.0
 40
1.0
 10
11.3832911528
 20
6.2727075158
 30
0.0
 10
11.3933497131
 20
6.2781686319
 30
0.0
 10
11.4123350803
 20
6.2890756172
 30
0.0
 10
11.4386555687
 20
6.3058373388
 30
0.0
 10
11.4614454602
 20
6.3217188692
 30
0.0
 10
11.480536539
 20
6.3360767815
 30
0.0
 10
11.4939901658
 20
6.3468554953
 30
0.0
 10
11.5027717994
 20
6.3541802764
 30
0.0
 10
11.5078221198
 20
6.3584818823
 30
0.0
 10
11.5117862294
 20
6.3619061466
 30
0.0
 10
11.51439483
 20
6.3641899516
 30
0.0
 10
11.5159215838
 20
6.3655399785
 30
0.0
 10
11.5166903871
 20
6.3662258402
 30
0.0
 10
11.5171250869
 20
6.3666129692
 30
0.0
 10
11.5173171523
 20
6.3667879699
 30
0.0
  0
SPLINE
  5
31D
100
AcDbEntity
  8
0
100
AcDbSpline
 62
9
  6
CONTINUOUS
 70
0
 71
3
 72
27
 73
23
 74
0
 42
0.0000001
 43
0.0000001
 44
0.0000000001
 40
0.0
 40
0.0
 40
0.0
 40
0.0
 40
0.0002989277
 40
0.0011929447
 40
0.0026781754
 40
0.0047507486
 40
0.0074067976
 40
0.0106424603
 40
0.018837199
 40
0.0293041636
 40
0.0420126284
 40
0.0569319469
 40
0.074031554
 40
0.1146090426
 40
0.1632991381
 40
0.2196202634
 40
0.283097846
 40
0.3532737784
 40
0.4297335719
 40
0.5999273509
 40
0.7907741204
 40
1.0
 40
1.0
 40
1.0
 40
1.0
 10
10.5773195269
 20
6.3667879647
 30
0.0
 10
10.5773313399
 20
6.3667766389
 30
0.0
 10
10.5773805979
 20
6.3667337131
 30
0.0
 10
10.5774887962
 20
6.3666347863
 30
0.0
 10
10.5776705785
 20
6.3664724246
 30
0.0
 10
10.5779238734
 20
6.3662453456
 30
0.0
 10
10.5782492929
 20
6.3659551481
 30
0.0
 10
10.5788255181
 20
6.3654426187
 30
0.0
 10
10.5797233883
 20
6.3646482856
 30
0.0
 10
10.581013297
 20
6.3635144318
 30
0.0
 10
10.5825842526
 20
6.3621427022
 30
0.0
 10
10.5844341054
 20
6.3605383234
 30
0.0
 10
10.5874453396
 20
6.3579444216
 30
0.0
 10
10.5918786769
 20
6.3541686608
 30
0.0
 10
10.5979997134
 20
6.3490633725
 30
0.0
 10
10.60515575
 20
6.3432426103
 30
0.0
 10
10.6133151101
 20
6.3367926865
 30
0.0
 10
10.6224480759
 20
6.3297984632
 30
0.0
 10
10.6363949881
 20
6.3194850489
 30
0.0
 10
10.6560527185
 20
6.3057892619
 30
0.0
 10
10.6823963271
 20
6.2890178873
 30
0.0
 10
10.7013985708
 20
6.2781055531
 30
0.0
 10
10.7114660194
 20
6.2726421176
 30
0.0
  0
SPLINE
  5
31E
100
AcDbEntity
  8
0
100
AcDbSpline
 62
9
  6
CONTINUOUS
 70
0
 71
3
 72
18
 73
14
 74
0
 42
0.0000001
 43
0.0000001
 44
0.0000000001
 40
0.0
 40
0.0
 40
0.0
 40
0.0
 40
0.2209973152
 40
0.2801547401
 40
0.3406956161
 40
0.4025337018
 40
0.4655900248
 40
0.5297726114
 40
0.594960022
 40
0.7278611865
 40
0.7953552754
 40
0.8633291249
 40
1.0
 40
1.0
 40
1.0
 40
1.0
 10
10.7208160087
 20
6.2676575136
 30
0.0
 10
10.7429768679
 20
6.2560534497
 30
0.0
 10
10.7718749707
 20
6.2427982144
 30
0.0
 10
10.8079267386
 20
6.2291044364
 30
0.0
 10
10.8273396358
 20
6.2223574043
 30
0.0
 10
10.8473620853
 20
6.2160489286
 30
0.0
 10
10.8679625904
 20
6.2102344874
 30
0.0
 10
10.8891008646
 20
6.2049662643
 30
0.0
 10
10.91811949
 20
6.1986854129
 30
0.0
 10
10.9477958853
 20
6.1937319391
 30
0.0
 10
10.9779735821
 20
6.1902147928
 30
0.0
 10
11.0086747805
 20
6.1876535511
 30
0.0
 10
11.031848272
 20
6.1868682592
 30
0.0
 10
11.0473183383
 20
6.1868674055
 30
0.0
  0
SPLINE
  5
31F
100
AcDbEntity
  8
0
100
AcDbSpline
 62
9
  6
CONTINUOUS
 70
0
 71
3
 72
50
 73
46
 74
0
 42
0.0000001
 43
0.0000001
 44
0.0000000001
 40
0.0
 40
0.0
 40
0.0
 40
0.0
 40
0.0000204108
 40
0.0000463753
 40
0.0000828477
 40
0.0001873224
 40
0.0003338461
 40
0.0005224303
 40
0.000753086
 40
0.0010258247
 40
0.0013406574
 40
0.0020966502
 40
0.003021026
 40
0.004112995
 40
0.0053714954
 40
0.0067954664
 40
0.0083838485
 40
0.0120496158
 40
0.0163603575
 40
0.0213076633
 40
0.0268827555
 40
0.0330740771
 40
0.0398689279
 40
0.0472546881
 40
0.0637488492
 40
0.0824585709
 40
0.1032917105
 40
0.1261593435
 40
0.1509712675
 40
0.1776299186
 40
0.2060395036
 40
0.2361224335
 40
0.267828465
 40
0.3011125769
 40
0.3722082003
 40
0.4489880327
 40
0.5310602108
 40
0.6179990244
 40
0.7092387259
 40
0.7562381113
 40
0.8040100146
 40
0.8524243376
 40
0.9013474568
 40
0.9506079976
 40
1.0
 40
1.0
 40
1.0
 40
1.0
 10
11.5405019776
 20
6.4308150531
 30
0.0
 10
11.5405041026
 20
6.4308179068
 30
0.0
 10
11.5404893768
 20
6.4308056401
 30
0.0
 10
11.5404817401
 20
6.4308014479
 30
0.0
 10
11.5404553989
 20
6.4307825389
 30
0.0
 10
11.5404160753
 20
6.43075566
 30
0.0
 10
11.5403523049
 20
6.4307110439
 30
0.0
 10
11.5402717242
 20
6.4306549968
 30
0.0
 10
11.5401726389
 20
6.4305859048
 30
0.0
 10
11.5400556807
 20
6.4305043656
 30
0.0
 10
11.5398635628
 20
6.4303703613
 30
0.0
 10
11.5395783452
 20
6.4301713427
 30
0.0
 10
11.5391820743
 20
6.4298947009
 30
0.0
 10
11.5387138511
 20
6.4295681117
 30
0.0
 10
11.5381738931
 20
6.4291921312
 30
0.0
 10
11.5375624678
 20
6.4287673537
 30
0.0
 10
11.5366055828
 20
6.4281043457
 30
0.0
 10
11.5352329883
 20
6.4271577337
 30
0.0
 10
11.5333743615
 20
6.425884539
 30
0.0
 10
11.5312361974
 20
6.4244304972
 30
0.0
 10
11.5288211732
 20
6.4228006362
 30
0.0
 10
11.5261316547
 20
6.421001821
 30
0.0
 10
11.5231704469
 20
6.4190415365
 30
0.0
 10
11.5186964463
 20
6.4161129587
 30
0.0
 10
11.5124497036
 20
6.4121004241
 30
0.0
 10
11.5041663828
 20
6.4069222359
 30
0.0
 10
11.4948629009
 20
6.4012817194
 30
0.0
 10
11.4845590861
 20
6.3952416874
 30
0.0
 10
11.4732762801
 20
6.3888666559
 30
0.0
 10
11.4610361194
 20
6.3822260276
 30
0.0
 10
11.4478596431
 20
6.3753893758
 30
0.0
 10
11.4337634944
 20
6.3684210303
 30
0.0
 10
11.4187611123
 20
6.3613755161
 30
0.0
 10
11.3970832035
 20
6.3517373126
 30
0.0
 10
11.3678130937
 20
6.3398523037
 30
0.0
 10
11.3300105114
 20
6.3264771861
 30
0.0
 10
11.2889633351
 20
6.3141311537
 30
0.0
 10
11.2449036541
 20
6.3032386887
 30
0.0
 10
11.2063413997
 20
6.2958011572
 30
0.0
 10
11.1742819859
 20
6.2909210313
 30
0.0
 10
11.1495101296
 20
6.2878343806
 30
0.0
 10
11.1243299866
 20
6.2853885578
 30
0.0
 10
11.0988328185
 20
6.2836207603
 30
0.0
 10
11.0731264772
 20
6.2825515227
 30
0.0
 10
11.0559283815
 20
6.2823105786
 30
0.0
 10
11.0473183383
 20
6.2823104157
 30
0.0
  0
SPLINE
  5
320
100
AcDbEntity
  8
0
100
AcDbSpline
 62
9
  6
CONTINUOUS
 70
0
 71
3
 72
48
 73
44
 74
0
 42
0.0000001
 43
0.0000001
 44
0.0000000001
 40
0.0
 40
0.0
 40
0.0
 40
0.0
 40
0.0986410391
 40
0.147561398
 40
0.1959691337
 40
0.2437328834
 40
0.2907272413
 40
0.3368399552
 40
0.3819601004
 40
0.4688823841
 40
0.550949327
 40
0.6277224555
 40
0.6988170122
 40
0.7638338347
 40
0.7939265082
 40
0.8223250777
 40
0.8489627345
 40
0.8737664869
 40
0.896645448
 40
0.9175013415
 40
0.9362336751
 40
0.952742592
 40
0.960131932
 40
0.9669275639
 40
0.9731166657
 40
0.9786875532
 40
0.9836313598
 40
0.9879395928
 40
0.9916037233
 40
0.9931915757
 40
0.9946151886
 40
0.9958734867
 40
0.9969653952
 40
0.9978901216
 40
0.9986474532
 40
0.9992372483
 40
0.9994692753
 40
0.9996593651
 40
0.9998074999
 40
0.9999136621
 40
0.999950998
 40
0.9999778342
 40
1.0
 40
1.0
 40
1.0
 40
1.0
 10
11.0473183383
 20
6.2823104157
 30
0.0
 10
11.0301232906
 20
6.2822743542
 30
0.0
 10
11.0043918005
 20
6.2830115775
 30
0.0
 10
10.9703114865
 20
6.2853961699
 30
0.0
 10
10.9451338881
 20
6.2878384474
 30
0.0
 10
10.9203650469
 20
6.2909188417
 30
0.0
 10
10.8960850572
 20
6.2946139402
 30
0.0
 10
10.8723658079
 20
6.2988734703
 30
0.0
 10
10.841950886
 20
6.3051650258
 30
0.0
 10
10.8057000746
 20
6.3141225379
 30
0.0
 10
10.7646583556
 20
6.3264666679
 30
0.0
 10
10.7268571711
 20
6.3398397041
 30
0.0
 10
10.6924608851
 20
6.353801338
 30
0.0
 10
10.6660989615
 20
6.3658423961
 30
0.0
 10
10.6467981738
 20
6.3753851782
 30
0.0
 10
10.6336232401
 20
6.3822162445
 30
0.0
 10
10.6213861728
 20
6.3888477307
 30
0.0
 10
10.6101044201
 20
6.3952182373
 30
0.0
 10
10.599797287
 20
6.4012614708
 30
0.0
 10
10.590486983
 20
6.4069096982
 30
0.0
 10
10.5821955758
 20
6.4120946338
 30
0.0
 10
10.5759436851
 20
6.4161122989
 30
0.0
 10
10.5714672732
 20
6.4190432307
 30
0.0
 10
10.5685057495
 20
6.421003683
 30
0.0
 10
10.5658166092
 20
6.4228012641
 30
0.0
 10
10.5634021609
 20
6.4244288614
 30
0.0
 10
10.5612650367
 20
6.4258812464
 30
0.0
 10
10.559407321
 20
6.4271533953
 30
0.0
 10
10.558035364
 20
6.4280994829
 30
0.0
 10
10.5570788323
 20
6.4287622187
 30
0.0
 10
10.5564675489
 20
6.4291868618
 30
0.0
 10
10.5559276476
 20
6.4295627275
 30
0.0
 10
10.5554593357
 20
6.4298892158
 30
0.0
 10
10.5550627359
 20
6.4301658668
 30
0.0
 10
10.5547379949
 20
6.4303925458
 30
0.0
 10
10.5545123519
 20
6.4305502203
 30
0.0
 10
10.5543677813
 20
6.4306512982
 30
0.0
 10
10.5542863895
 20
6.43070835
 30
0.0
 10
10.5542228395
 20
6.4307526948
 30
0.0
 10
10.5541814732
 20
6.4307821522
 30
0.0
 10
10.5541568772
 20
6.4307989248
 30
0.0
 10
10.554145163
 20
6.4308081994
 30
0.0
 10
10.5541370655
 20
6.4308119937
 30
0.0
 10
10.5541346971
 20
6.4308150467
 30
0.0
  0
SPLINE
  5
321
100
AcDbEntity
  8
0
100
AcDbSpline
 62
7
  6
CONTINUOUS
 70
0
 71
3
 72
24
 73
20
 74
0
 42
0.0000001
 43
0.0000001
 44
0.0000000001
 40
0.0
 40
0.0
 40
0.0
 40
0.0
 40
0.0749072469
 40
0.1447962503
 40
0.2102272031
 40
0.2718500555
 40
0.3304091922
 40
0.3867379647
 40
0.4417389853
 40
0.4963495171
 40
0.5514970258
 40
0.5795591571
 40
0.6080494255
 40
0.6663585548
 40
0.7266693171
 40
0.7894173827
 40
0.8552682847
 40
0.9251057407
 40
1.0
 40
1.0
 40
1.0
 40
1.0
 10
10.5150556201
 20
-2.9910311458
 30
0.0
 10
10.5172846748
 20
-2.9906228682
 30
0.0
 10
10.5215717049
 20
-2.9897049353
 30
0.0
 10
10.5276855654
 20
-2.9879314046
 30
0.0
 10
10.5332596638
 20
-2.9858057398
 30
0.0
 10
10.5383056823
 20
-2.9833215992
 30
0.0
 10
10.5428345681
 20
-2.9804725957
 30
0.0
 10
10.5468559668
 20
-2.9772531569
 30
0.0
 10
10.550378868
 20
-2.9736591561
 30
0.0
 10
10.5534125804
 20
-2.9696888606
 30
0.0
 10
10.5555303882
 20
-2.9660852661
 30
0.0
 10
10.5569882828
 20
-2.9630351158
 30
0.0
 10
10.5583112557
 20
-2.9598202716
 30
0.0
 10
10.5596447592
 20
-2.955562558
 30
0.0
 10
10.5606400856
 20
-2.9501525503
 30
0.0
 10
10.560952179
 20
-2.9444299731
 30
0.0
 10
10.5604894257
 20
-2.9384268884
 30
0.0
 10
10.5591621851
 20
-2.9321779865
 30
0.0
 10
10.5577004163
 20
-2.9280359305
 30
0.0
 10
10.5568203936
 20
-2.9259480716
 30
0.0
  0
SPLINE
  5
322
100
AcDbEntity
  8
0
100
AcDbSpline
 62
7
  6
CONTINUOUS
 70
0
 71
3
 72
24
 73
20
 74
0
 42
0.0000001
 43
0.0000001
 44
0.0000000001
 40
0.0
 40
0.0
 40
0.0
 40
0.0
 40
0.0749072469
 40
0.1447962503
 40
0.2102272031
 40
0.2718500555
 40
0.3304091922
 40
0.3867379647
 40
0.4417389853
 40
0.4963495171
 40
0.5514970258
 40
0.5795591571
 40
0.6080494255
 40
0.6663585548
 40
0.7266693171
 40
0.7894173827
 40
0.8552682847
 40
0.9251057407
 40
1.0
 40
1.0
 40
1.0
 40
1.0
 10
11.5795810565
 20
-2.9910311458
 30
0.0
 10
11.5773520018
 20
-2.9906228682
 30
0.0
 10
11.5730649716
 20
-2.9897049353
 30
0.0
 10
11.5669511112
 20
-2.9879314046
 30
0.0
 10
11.5613770127
 20
-2.9858057398
 30
0.0
 10
11.5563309943
 20
-2.9833215992
 30
0.0
 10
11.5518021085
 20
-2.9804725957
 30
0.0
 10
11.5477807098
 20
-2.9772531569
 30
0.0
 10
11.5442578086
 20
-2.9736591561
 30
0.0
 10
11.5412240962
 20
-2.9696888606
 30
0.0
 10
11.5391062883
 20
-2.9660852661
 30
0.0
 10
11.5376483938
 20
-2.9630351158
 30
0.0
 10
11.5363254208
 20
-2.9598202716
 30
0.0
 10
11.5349919173
 20
-2.955562558
 30
0.0
 10
11.5339965909
 20
-2.9501525503
 30
0.0
 10
11.5336844976
 20
-2.9444299731
 30
0.0
 10
11.5341472508
 20
-2.9384268884
 30
0.0
 10
11.5354744914
 20
-2.9321779865
 30
0.0
 10
11.5369362603
 20
-2.9280359305
 30
0.0
 10
11.537816283
 20
-2.9259480716
 30
0.0
  0
SPLINE
  5
323
100
AcDbEntity
  8
0
100
AcDbSpline
 62
7
  6
CONTINUOUS
 70
0
 71
3
 72
22
 73
18
 74
0
 42
0.0000001
 43
0.0000001
 44
0.0000000001
 40
0.0
 40
0.0
 40
0.0
 40
0.0
 40
0.076083826
 40
0.1472952033
 40
0.2145566175
 40
0.2786594791
 40
0.3402385133
 40
0.3997577912
 40
0.4575097368
 40
0.513742876
 40
0.5691108877
 40
0.6244301917
 40
0.680542745
 40
0.7382793437
 40
0.8615652438
 40
0.9286158118
 40
1.0
 40
1.0
 40
1.0
 40
1.0
 10
10.5568203936
 20
-2.0403882076
 30
0.0
 10
10.5578895621
 20
-2.037851599
 30
0.0
 10
10.5596939762
 20
-2.0328223099
 30
0.0
 10
10.5614387475
 20
-2.0252398974
 30
0.0
 10
10.562208885
 20
-2.0179328671
 30
0.0
 10
10.5620930397
 20
-2.0109361498
 30
0.0
 10
10.5611817204
 20
-2.0042821474
 30
0.0
 10
10.559565581
 20
-1.9980019936
 30
0.0
 10
10.5573341542
 20
-1.9921217332
 30
0.0
 10
10.5545611599
 20
-1.986644474
 30
0.0
 10
10.5512371382
 20
-1.9815863421
 30
0.0
 10
10.5473524086
 20
-1.9769504325
 30
0.0
 10
10.5428961943
 20
-1.9727350458
 30
0.0
 10
10.5360343098
 20
-1.9675598281
 30
0.0
 10
10.5280390518
 20
-1.9633391309
 30
0.0
 10
10.5191741041
 20
-1.9599983543
 30
0.0
 10
10.5143615381
 20
-1.9585897195
 30
0.0
 10
10.5118607481
 20
-1.9579444657
 30
0.0
  0
SPLINE
  5
324
100
AcDbEntity
  8
0
100
AcDbSpline
 62
7
  6
CONTINUOUS
 70
0
 71
3
 72
22
 73
18
 74
0
 42
0.0000001
 43
0.0000001
 44
0.0000000001
 40
0.0
 40
0.0
 40
0.0
 40
0.0
 40
0.076083826
 40
0.1472952033
 40
0.2145566175
 40
0.2786594791
 40
0.3402385133
 40
0.3997577912
 40
0.4575097368
 40
0.513742876
 40
0.5691108877
 40
0.6244301917
 40
0.680542745
 40
0.7382793437
 40
0.8615652438
 40
0.9286158118
 40
1.0
 40
1.0
 40
1.0
 40
1.0
 10
11.537816283
 20
-2.0403882076
 30
0.0
 10
11.5367471144
 20
-2.037851599
 30
0.0
 10
11.5349427004
 20
-2.0328223099
 30
0.0
 10
11.5331979291
 20
-2.0252398974
 30
0.0
 10
11.5324277915
 20
-2.0179328671
 30
0.0
 10
11.5325436368
 20
-2.0109361498
 30
0.0
 10
11.5334549561
 20
-2.0042821474
 30
0.0
 10
11.5350710956
 20
-1.9980019936
 30
0.0
 10
11.5373025224
 20
-1.9921217332
 30
0.0
 10
11.5400755167
 20
-1.986644474
 30
0.0
 10
11.5433995383
 20
-1.9815863421
 30
0.0
 10
11.5472842679
 20
-1.9769504325
 30
0.0
 10
11.5517404822
 20
-1.9727350458
 30
0.0
 10
11.5586023668
 20
-1.9675598281
 30
0.0
 10
11.5665976248
 20
-1.9633391309
 30
0.0
 10
11.5754625725
 20
-1.9599983543
 30
0.0
 10
11.5802751385
 20
-1.9585897195
 30
0.0
 10
11.5827759285
 20
-1.9579444657
 30
0.0
  0
ENDSEC
  0
SECTION
  2
OBJECTS
  0
DICTIONARY
  5
C
100
AcDbDictionary
280
0
281
1
  3
ACAD_GROUP
350
D
  3
ACAD_MLINESTYLE
350
17
  3
ACAD_LAYOUT
350
1A
  3
ACAD_PLOTSETTINGS
350
19
  3
ACAD_PLOTSTYLENAME
350
E
  0
DICTIONARY
  5
D
102
{ACAD_REACTORS
330
C
102
}
100
AcDbDictionary
280
0
281
1
  0
ACDBDICTIONARYWDFLT
  5
E
102
{ACAD_REACTORS
330
C
102
}
100
AcDbDictionary
281
1
  3
Normal
350
F
100
AcDbDictionaryWithDefault
340
F
  0
DICTIONARY
  5
17
102
{ACAD_REACTORS
330
C
102
}
100
AcDbDictionary
280
0
281
1
  3
Standard
350
18
  0
DICTIONARY
  5
19
102
{ACAD_REACTORS
330
C
102
}
100
AcDbDictionary
281
1
  0
DICTIONARY
  5
1A
102
{ACAD_REACTORS
330
C
102
}
100
AcDbDictionary
281
1
  3
Model
350
325
  3
Layout1
350
326
  0
ACDBPLACEHOLDER
  5
F
102
{ACAD_REACTORS
330
E
102
}
  0
MLINESTYLE
  5
18
102
{ACAD_REACTORS
330
17
102
}
100
AcDbMlineStyle
  2
STANDARD
 70
0
  3

 62
256
 51
90.0
 52
90.0
 71
2
 49
0.5
 62
256
  6
BYLAYER
 49
-0.5
 62
256
  6
BYLAYER
  0
LAYOUT
  5
325
102
{ACAD_REACTORS
330
1A
102
}
100
AcDbPlotSettings
  1

  2
none_device
  4
ANSI_C_(22.00_x_17.00_Inches)
  6

 40
0.0
 41
0.0
 42
0.0
 43
0.0
 44
558.8
 45
431.8
 46
0.0
 47
0.0
 48
0.0
 49
0.0
140
0.0
141
0.0
142
1.0
143
1.0
 70
1024
 72
0
 73
0
 74
0
  7

 75
0
147
1.0
148
0.0
149
0.0
100
AcDbLayout
  1
Model
 70
0
 71
0
 10
0.0
 20
0.0
 11
22.0
 21
17.0
 12
0.0
 22
0.0
 32
0.0
 14
0.0
 24
0.0
 34
0.0
 15
0.0
 25
0.0
 35
0.0
146
0.0
 13
0.0
 23
0.0
 33
0.0
 16
1.0
 26
0.0
 36
0.0
 17
0.0
 27
1.0
 37
0.0
 76
0
330
202
345
0
346
0
  0
LAYOUT
  5
326
102
{ACAD_REACTORS
330
1A
102
}
100
AcDbPlotSettings
  1

  2
none_device
  4
ANSI_C_(22.00_x_17.00_Inches)
  6

 40
0.0
 41
0.0
 42
0.0
 43
0.0
 44
558.8
 45
431.8
 46
0.0
 47
0.0
 48
0.0
 49
0.0
140
0.0
141
0.0
142
1.0
143
1.0
 70
0
 72
0
 73
0
 74
0
  7

 75
0
147
1.0
148
0.0
149
0.0
100
AcDbLayout
  1
Layout1
 70
0
 71
1
 10
0.0
 20
0.0
 11
22.0
 21
17.0
 12
0.0
 22
0.0
 32
0.0
 14
0.0
 24
0.0
 34
0.0
 15
0.0
 25
0.0
 35
0.0
146
0.0
 13
0.0
 23
0.0
 33
0.0
 16
1.0
 26
0.0
 36
0.0
 17
0.0
 27
1.0
 37
0.0
 76
0
330
203
345
0
346
0
  0
ENDSEC
  0
EOF
