999
DXF file: 1030-5711_right.dxf
999
Pro/ENGINEER 2018400 by Parametric Technology Corporation
  0
SECTION
  2
HEADER
  9
$ACADVER
  1
AC1027
  9
$DWGCODEPAGE
  3
ANSI_1252
  9
$EXTMAX
 10
11.0
 20
8.5
 30
0.0
  9
$EXTMIN
 10
0.0
 20
0.0
 30
0.0
  9
$LIMMIN
 10
0.0
 20
0.0
  9
$LIMMAX
 10
11.0
 20
8.5
  9
$VIEWCTR
 10
5.5
 20
4.25
  9
$VIEWSIZE
 40
8.5
  9
$CLAYER
  8
0
  9
$LTSCALE
 40
0.605
  9
$CELTYPE
  6
BYLAYER
  9
$DIMSCALE
 40
1.0
  9
$DIMASZ
 40
0.1
  9
$DIMEXO
 40
0.0625
  9
$DIMDLI
 40
0.418
  9
$DIMEXE
 40
0.125
  9
$DIMCEN
 40
0.099
  9
$DIMLFAC
 40
1.0
  9
$DIMBLK
  1
_FILLED
  9
$DIMALT
 70
1
  9
$DIMALTD
 70
1
  9
$DIMALTTD
 70
2
  9
$DIMALTF
 40
25.4
  9
$DIMTXT
 40
0.08
  9
$DIMTOL
 70
1
  9
$DIMLIM
 70
0
  9
$DIMTFAC
 40
1.0
  9
$DIMTP
 40
0.01
  9
$DIMTM
 40
0.01
  9
$DIMGAP
 40
0.09
  9
$DIMDSEP
 70
46
  9
$AUNITS
 70
0
  9
$PDMODE
 70
3
  9
$PDSIZE
 40
0.3125
  9
$HANDSEED
  5
3C2
  9
$TILEMODE
 70
1
  9
$MEASUREMENT
 70
0
  9
$INSUNITS
 70
1
  0
ENDSEC
  0
SECTION
  2
CLASSES
  0
CLASS
  1
ACDBDICTIONARYWDFLT
  2
AcDbDictionaryWithDefault
  3
AutoCAD 2000
 90
0
 91
1
280
0
281
0
  0
CLASS
  1
ACDBPLACEHOLDER
  2
AcDbPlaceHolder
  3
AutoCAD 2000
 90
0
 91
1
280
0
281
0
  0
CLASS
  1
LAYOUT
  2
AcDbLayout
  3
AutoCAD 2000
 90
0
 91
0
280
0
281
0
  0
ENDSEC
  0
SECTION
  2
TABLES
  0
TABLE
  2
VPORT
  5
8
100
AcDbSymbolTable
 70
2
  0
VPORT
  5
1F4
100
AcDbSymbolTableRecord
100
AcDbViewportTableRecord
  2
*ACTIVE
 70
0
 10
0.0
 20
0.0
 11
1.0
 21
1.0
 12
5.5
 22
4.25
 13
0.0
 23
0.0
 14
1.0
 24
1.0
 15
0.0
 25
0.0
 16
0.0
 26
0.0
 36
1.0
 17
0.0
 27
0.0
 37
0.0
 40
8.5
 41
1.2941176471
 42
50.0
 43
0.0
 44
0.0
 50
0.0
 51
0.0
 71
0
 72
100
 73
1
 74
1
 75
0
 76
0
 77
0
 78
0
  0
ENDTAB
  0
TABLE
  2
LTYPE
  5
5
100
AcDbSymbolTable
 70
6
  0
LTYPE
  5
14
100
AcDbSymbolTableRecord
100
AcDbLinetypeTableRecord
  2
BYBLOCK
 70
0
  3

 72
65
 73
0
 40
0.0
  0
LTYPE
  5
15
100
AcDbSymbolTableRecord
100
AcDbLinetypeTableRecord
  2
BYLAYER
 70
0
  3

 72
65
 73
0
 40
0.0
  0
LTYPE
  5
16
100
AcDbSymbolTableRecord
100
AcDbLinetypeTableRecord
  2
CONTINUOUS
 70
64
  3
Solid line
 72
65
 73
0
 40
0.0
  0
LTYPE
  5
1F5
100
AcDbSymbolTableRecord
100
AcDbLinetypeTableRecord
  2
CENTER
 70
64
  3
____ _ ____ _ ____ _ ____ _ ____ _ ____ _ ____
 72
65
 73
4
 40
0.6
 49
0.375
 74
0
 49
-0.075
 74
0
 49
0.075
 74
0
 49
-0.075
 74
0
  0
LTYPE
  5
1F6
100
AcDbSymbolTableRecord
100
AcDbLinetypeTableRecord
  2
HIDDEN
 70
64
  3
- - - - - - - - - - - - - - - - - - - -
 72
65
 73
2
 40
0.2
 49
0.1
 74
0
 49
-0.1
 74
0
  0
LTYPE
  5
1F7
100
AcDbSymbolTableRecord
100
AcDbLinetypeTableRecord
  2
PHANTOM
 70
64
  3
_____ _ _ _____ _ _ _____ _ _ _____
 72
65
 73
6
 40
0.8
 49
0.45
 74
0
 49
-0.05
 74
0
 49
0.1
 74
0
 49
-0.05
 74
0
 49
0.1
 74
0
 49
-0.05
 74
0
  0
LTYPE
  5
1F8
100
AcDbSymbolTableRecord
100
AcDbLinetypeTableRecord
  2
DOT
 70
64
  3
. . . . . . . . . . . . . . . . . . . .
 72
65
 73
2
 40
0.2
 49
0.1
 74
0
 49
-0.1
 74
0
  0
LTYPE
  5
1F9
100
AcDbSymbolTableRecord
100
AcDbLinetypeTableRecord
  2
DASHED
 70
64
  3
- - - - - - - - - - - - - - - - - - - -
 72
65
 73
2
 40
0.2
 49
0.1
 74
0
 49
-0.1
 74
0
  0
ENDTAB
  0
TABLE
  2
LAYER
  5
2
100
AcDbSymbolTable
 70
36
  0
LAYER
  5
10
100
AcDbSymbolTableRecord
100
AcDbLayerTableRecord
  2
0
 70
0
 62
7
  6
CONTINUOUS
370
-3
390
F
  0
LAYER
  5
1FA
100
AcDbSymbolTableRecord
100
AcDbLayerTableRecord
  2
DEFAULT_1
 70
0
 62
7
  6
CENTER
370
-3
390
F
  0
LAYER
  5
1FB
100
AcDbSymbolTableRecord
100
AcDbLayerTableRecord
  2
DEFAULT_2
 70
0
 62
8
  6
HIDDEN
370
-3
390
F
  0
LAYER
  5
1FC
100
AcDbSymbolTableRecord
100
AcDbLayerTableRecord
  2
DEFAULT_3
 70
0
 62
7
  6
PHANTOM
370
-3
390
F
  0
LAYER
  5
1FD
100
AcDbSymbolTableRecord
100
AcDbLayerTableRecord
  2
DEFAULT_COORDINATE_SYSTEM
 70
0
 62
7
  6
CONTINUOUS
370
-3
390
F
  0
LAYER
  5
1FE
100
AcDbSymbolTableRecord
100
AcDbLayerTableRecord
  2
DEFAULT_DATUM_AXES
 70
0
 62
7
  6
CONTINUOUS
370
-3
390
F
  0
LAYER
  5
1FF
100
AcDbSymbolTableRecord
100
AcDbLayerTableRecord
  2
DEFAULT_DATUM_PLANES
 70
0
 62
7
  6
CONTINUOUS
370
-3
390
F
  0
ENDTAB
  0
TABLE
  2
STYLE
  5
3
100
AcDbSymbolTable
 70
1
  0
STYLE
  5
11
100
AcDbSymbolTableRecord
100
AcDbTextStyleTableRecord
  2
STANDARD
 70
0
 40
0.0
 41
0.8
 50
0.0
 71
0
 42
0.2
  3
txt
  4

  0
STYLE
  5
200
100
AcDbSymbolTableRecord
100
AcDbTextStyleTableRecord
  2
TEXTSTYLE_1
 70
0
 40
0.0
 41
0.8
 50
0.0
 71
0
 42
0.2
  3
gdt
  4

  0
ENDTAB
  0
TABLE
  2
VIEW
  5
6
100
AcDbSymbolTable
 70
0
  0
ENDTAB
  0
TABLE
  2
UCS
  5
7
100
AcDbSymbolTable
 70
0
  0
ENDTAB
  0
TABLE
  2
APPID
  5
9
100
AcDbSymbolTable
 70
1
  0
APPID
  5
201
100
AcDbSymbolTableRecord
100
AcDbRegAppTableRecord
  2
ACAD
 70
0
  0
ENDTAB
  0
TABLE
  2
BLOCK_RECORD
  5
1
100
AcDbSymbolTable
 70
0
  0
BLOCK_RECORD
  5
202
100
AcDbSymbolTableRecord
100
AcDbBlockTableRecord
  2
*Model_Space
  0
BLOCK_RECORD
  5
203
100
AcDbSymbolTableRecord
100
AcDbBlockTableRecord
  2
*Paper_Space
  0
BLOCK_RECORD
  5
204
100
AcDbSymbolTableRecord
100
AcDbBlockTableRecord
  2
_FILLED
  0
ENDTAB
  0
TABLE
  2
DIMSTYLE
  5
A
100
AcDbSymbolTable
 70
1
100
AcDbDimStyleTable
 71
0
  0
DIMSTYLE
105
205
100
AcDbSymbolTableRecord
100
AcDbDimStyleTableRecord
  2
STANDARD
 70
0
  3

  4

 40
1.0
 41
0.1
 42
0.0625
 43
0.38
 44
0.125
 45
0.0
 46
0.0
 47
0.01
 48
0.01
140
0.08
141
0.09
142
0.0
143
25.4
144
1.0
145
0.0
146
1.0
147
0.09
 71
1.0
 72
0.0
 73
1
 74
1
 75
0
 76
0
 77
0
 78
4
 79
1
170
1
171
1
172
0
173
0
174
0
175
0
176
0
177
0
178
0
270
2
179
2
271
2
272
2
273
2
274
2
275
0
280
0
281
0
282
0
283
1
284
4
285
0
286
0
287
3
288
0
340
11
278
46
341
204
342
204
343
204
344
204
  0
ENDTAB
  0
ENDSEC
  0
SECTION
  2
BLOCKS
  0
BLOCK
  5
20
100
AcDbEntity
  8
0
100
AcDbBlockBegin
  2
*Model_Space
 70
0
 10
0.0
 20
0.0
 30
0.0
  3
*Model_Space
  1

  0
ENDBLK
  5
21
100
AcDbEntity
  8
0
100
AcDbBlockEnd
  0
BLOCK
  5
1C
100
AcDbEntity
  8
0
100
AcDbBlockBegin
  2
*Paper_Space
 70
0
 10
0.0
 20
0.0
 30
0.0
  3
*Paper_Space
  1

  0
ENDBLK
  5
1D
100
AcDbEntity
  8
0
100
AcDbBlockEnd
  0
BLOCK
  5
206
100
AcDbEntity
  8
0
100
AcDbBlockBegin
  2
_FILLED
 70
64
 10
0.0
 20
0.0
  3
_FILLED
  1

  0
SOLID
  5
207
100
AcDbEntity
  8
0
  6
BYBLOCK
 62
0
100
AcDbTrace
 10
0.0
 20
0.0
 11
-1.0
 21
0.2
 12
-1.0
 22
-0.2
 13
-1.0
 23
-0.2
  0
ENDBLK
  5
208
100
AcDbEntity
  8
0
  6
BYBLOCK
 62
0
100
AcDbBlockEnd
  0
ENDSEC
  0
SECTION
  2
ENTITIES
  0
MTEXT
  5
209
100
AcDbEntity
  8
0
100
AcDbMText
 62
2
  6
CONTINUOUS
  7
STANDARD
 71
3
 72
1
 10
5.5699488251
 20
1.5946487954
 30
0.0
 11
1.0
 21
0.0
 31
0.0
 73
2
 44
0.9
  1
SCALE  .500
 40
0.08
 41
0.704
  0
LINE
  5
20A
100
AcDbEntity
  8
0
100
AcDbLine
 62
7
  6
CONTINUOUS
 10
0.0
 20
0.0
 11
0.0
 21
8.5
  0
LINE
  5
20B
100
AcDbEntity
  8
0
100
AcDbLine
 62
7
  6
CONTINUOUS
 10
0.0
 20
0.0
 11
11.0
 21
0.0
  0
LINE
  5
20C
100
AcDbEntity
  8
0
100
AcDbLine
 62
7
  6
CONTINUOUS
 10
0.0
 20
8.5
 11
11.0
 21
8.5
  0
LINE
  5
20D
100
AcDbEntity
  8
0
100
AcDbLine
 62
7
  6
CONTINUOUS
 10
11.0
 20
0.0
 11
11.0
 21
8.5
  0
LINE
  5
20E
100
AcDbEntity
  8
0
100
AcDbLine
 62
7
  6
CONTINUOUS
 10
5.1337475786
 20
2.3237714662
 11
5.4387475786
 21
2.3237714662
  0
LINE
  5
20F
100
AcDbEntity
  8
0
100
AcDbLine
 62
7
  6
CONTINUOUS
 10
5.1337475786
 20
2.3385214662
 11
5.4387475786
 21
2.3385214662
  0
LINE
  5
210
100
AcDbEntity
  8
0
100
AcDbLine
 62
7
  6
CONTINUOUS
 10
5.1337475786
 20
2.3680214662
 11
5.4387475786
 21
2.3680214662
  0
LINE
  5
211
100
AcDbEntity
  8
0
100
AcDbLine
 62
7
  6
CONTINUOUS
 10
5.1337475786
 20
2.4465214662
 11
5.4387475786
 21
2.4465214662
  0
LINE
  5
212
100
AcDbEntity
  8
0
100
AcDbLine
 62
7
  6
CONTINUOUS
 10
5.1337475786
 20
2.4760214662
 11
5.4387475786
 21
2.4760214662
  0
LINE
  5
213
100
AcDbEntity
  8
0
100
AcDbLine
 62
7
  6
CONTINUOUS
 10
5.1337475786
 20
2.5545214662
 11
5.4387475786
 21
2.5545214662
  0
LINE
  5
214
100
AcDbEntity
  8
0
100
AcDbLine
 62
7
  6
CONTINUOUS
 10
5.1337475786
 20
2.5840214662
 11
5.4387475786
 21
2.5840214662
  0
LINE
  5
215
100
AcDbEntity
  8
0
100
AcDbLine
 62
7
  6
CONTINUOUS
 10
5.1337475786
 20
2.6625214662
 11
5.4387475786
 21
2.6625214662
  0
LINE
  5
216
100
AcDbEntity
  8
0
100
AcDbLine
 62
7
  6
CONTINUOUS
 10
5.1337475786
 20
2.6920214662
 11
5.4387475786
 21
2.6920214662
  0
LINE
  5
217
100
AcDbEntity
  8
0
100
AcDbLine
 62
7
  6
CONTINUOUS
 10
5.1337475786
 20
2.7705214662
 11
5.4387475786
 21
2.7705214662
  0
LINE
  5
218
100
AcDbEntity
  8
0
100
AcDbLine
 62
7
  6
CONTINUOUS
 10
5.1337475786
 20
2.8000214662
 11
5.4387475786
 21
2.8000214662
  0
LINE
  5
219
100
AcDbEntity
  8
0
100
AcDbLine
 62
7
  6
CONTINUOUS
 10
5.1337475786
 20
2.8785214662
 11
5.4387475786
 21
2.8785214662
  0
LINE
  5
21A
100
AcDbEntity
  8
0
100
AcDbLine
 62
7
  6
CONTINUOUS
 10
5.1337475786
 20
2.9080214662
 11
5.4387475786
 21
2.9080214662
  0
LINE
  5
21B
100
AcDbEntity
  8
0
100
AcDbLine
 62
7
  6
CONTINUOUS
 10
5.3000622296
 20
3.8137714662
 11
5.2724329275
 21
3.8137714662
  0
LINE
  5
21C
100
AcDbEntity
  8
0
100
AcDbLine
 62
7
  6
CONTINUOUS
 10
4.9937475786
 20
3.8270214662
 11
5.5787475786
 21
3.8270214662
  0
LINE
  5
21D
100
AcDbEntity
  8
0
100
AcDbLine
 62
7
  6
CONTINUOUS
 10
4.8362475786
 20
4.8925214662
 11
4.8362475786
 21
4.9575214662
  0
LINE
  5
21E
100
AcDbEntity
  8
0
100
AcDbLine
 62
7
  6
CONTINUOUS
 10
4.8462475786
 20
4.8675214662
 11
4.8462475786
 21
4.8925214662
  0
LINE
  5
21F
100
AcDbEntity
  8
0
100
AcDbLine
 62
7
  6
CONTINUOUS
 10
4.8690960951
 20
5.6335214662
 11
4.8774975786
 21
5.6920918082
  0
LINE
  5
220
100
AcDbEntity
  8
0
100
AcDbLine
 62
7
  6
CONTINUOUS
 10
4.8688995557
 20
5.6335214662
 11
4.8688995557
 21
5.6230841503
  0
LINE
  5
221
100
AcDbEntity
  8
0
100
AcDbLine
 62
7
  6
CONTINUOUS
 10
4.8774975786
 20
5.6920918082
 11
4.8774975786
 21
5.9700214662
  0
LINE
  5
222
100
AcDbEntity
  8
0
100
AcDbLine
 62
7
  6
CONTINUOUS
 10
4.8774975786
 20
6.0675214662
 11
4.8774975786
 21
6.1670214662
  0
LINE
  5
223
100
AcDbEntity
  8
0
100
AcDbLine
 62
7
  6
CONTINUOUS
 10
4.8774975786
 20
6.2645214662
 11
4.8774975786
 21
6.6100214662
  0
LINE
  5
224
100
AcDbEntity
  8
0
100
AcDbLine
 62
7
  6
CONTINUOUS
 10
4.9312475786
 20
4.6525214662
 11
4.9312475786
 21
4.8275214662
  0
LINE
  5
225
100
AcDbEntity
  8
0
100
AcDbLine
 62
7
  6
CONTINUOUS
 10
4.9538548318
 20
4.8275214662
 11
4.9538548318
 21
4.6725214662
  0
LINE
  5
226
100
AcDbEntity
  8
0
100
AcDbLine
 62
7
  6
CONTINUOUS
 10
4.9714975786
 20
4.6430718341
 11
4.9714975786
 21
4.6525214662
  0
LINE
  5
227
100
AcDbEntity
  8
0
100
AcDbLine
 62
7
  6
CONTINUOUS
 10
4.9714975786
 20
4.9575214662
 11
4.9714975786
 21
4.9637960984
  0
LINE
  5
228
100
AcDbEntity
  8
0
100
AcDbLine
 62
7
  6
CONTINUOUS
 10
4.9714975786
 20
4.9875718341
 11
4.9714975786
 21
4.9982460984
  0
LINE
  5
229
100
AcDbEntity
  8
0
100
AcDbLine
 62
7
  6
CONTINUOUS
 10
4.9714975786
 20
5.0220218341
 11
4.9714975786
 21
5.0326960984
  0
LINE
  5
22A
100
AcDbEntity
  8
0
100
AcDbLine
 62
7
  6
CONTINUOUS
 10
4.9714975786
 20
5.0564718341
 11
4.9714975786
 21
5.0671460984
  0
LINE
  5
22B
100
AcDbEntity
  8
0
100
AcDbLine
 62
7
  6
CONTINUOUS
 10
4.9714975786
 20
5.0909218341
 11
4.9714975786
 21
5.1015960984
  0
LINE
  5
22C
100
AcDbEntity
  8
0
100
AcDbLine
 62
7
  6
CONTINUOUS
 10
4.9714975786
 20
5.1253718341
 11
4.9714975786
 21
5.1360460984
  0
LINE
  5
22D
100
AcDbEntity
  8
0
100
AcDbLine
 62
7
  6
CONTINUOUS
 10
4.9714975786
 20
5.1598218341
 11
4.9714975786
 21
5.1704960984
  0
LINE
  5
22E
100
AcDbEntity
  8
0
100
AcDbLine
 62
7
  6
CONTINUOUS
 10
4.9714975786
 20
5.1942718341
 11
4.9714975786
 21
5.2049460984
  0
LINE
  5
22F
100
AcDbEntity
  8
0
100
AcDbLine
 62
7
  6
CONTINUOUS
 10
4.9714975786
 20
5.2287218341
 11
4.9714975786
 21
5.2393960984
  0
LINE
  5
230
100
AcDbEntity
  8
0
100
AcDbLine
 62
7
  6
CONTINUOUS
 10
4.9714975786
 20
5.2631718341
 11
4.9714975786
 21
5.2738460984
  0
LINE
  5
231
100
AcDbEntity
  8
0
100
AcDbLine
 62
7
  6
CONTINUOUS
 10
4.9714975786
 20
5.2976218341
 11
4.9714975786
 21
5.3082960984
  0
LINE
  5
232
100
AcDbEntity
  8
0
100
AcDbLine
 62
7
  6
CONTINUOUS
 10
4.9714975786
 20
5.3320718341
 11
4.9714975786
 21
5.3427460984
  0
LINE
  5
233
100
AcDbEntity
  8
0
100
AcDbLine
 62
7
  6
CONTINUOUS
 10
4.9714975786
 20
5.3665218341
 11
4.9714975786
 21
5.3771960984
  0
LINE
  5
234
100
AcDbEntity
  8
0
100
AcDbLine
 62
7
  6
CONTINUOUS
 10
4.9714975786
 20
5.4009718341
 11
4.9714975786
 21
5.4116460984
  0
LINE
  5
235
100
AcDbEntity
  8
0
100
AcDbLine
 62
7
  6
CONTINUOUS
 10
4.9918475786
 20
5.4175214662
 11
4.9918475786
 21
5.4171059641
  0
LINE
  5
236
100
AcDbEntity
  8
0
100
AcDbLine
 62
7
  6
CONTINUOUS
 10
4.9918475786
 20
5.3957089662
 11
4.9918475786
 21
5.3826559641
  0
LINE
  5
237
100
AcDbEntity
  8
0
100
AcDbLine
 62
7
  6
CONTINUOUS
 10
4.9918475786
 20
5.3612589662
 11
4.9918475786
 21
5.3482059641
  0
LINE
  5
238
100
AcDbEntity
  8
0
100
AcDbLine
 62
7
  6
CONTINUOUS
 10
4.9918475786
 20
5.3268089662
 11
4.9918475786
 21
5.3137559641
  0
LINE
  5
239
100
AcDbEntity
  8
0
100
AcDbLine
 62
7
  6
CONTINUOUS
 10
4.9918475786
 20
5.2923589662
 11
4.9918475786
 21
5.2793059641
  0
LINE
  5
23A
100
AcDbEntity
  8
0
100
AcDbLine
 62
7
  6
CONTINUOUS
 10
4.9918475786
 20
5.2579089662
 11
4.9918475786
 21
5.2448559641
  0
LINE
  5
23B
100
AcDbEntity
  8
0
100
AcDbLine
 62
7
  6
CONTINUOUS
 10
4.9918475786
 20
5.2234589662
 11
4.9918475786
 21
5.2104059641
  0
LINE
  5
23C
100
AcDbEntity
  8
0
100
AcDbLine
 62
7
  6
CONTINUOUS
 10
4.9918475786
 20
5.1890089662
 11
4.9918475786
 21
5.1759559641
  0
LINE
  5
23D
100
AcDbEntity
  8
0
100
AcDbLine
 62
7
  6
CONTINUOUS
 10
4.9918475786
 20
5.1545589662
 11
4.9918475786
 21
5.1415059641
  0
LINE
  5
23E
100
AcDbEntity
  8
0
100
AcDbLine
 62
7
  6
CONTINUOUS
 10
4.9918475786
 20
5.1201089662
 11
4.9918475786
 21
5.1070559641
  0
LINE
  5
23F
100
AcDbEntity
  8
0
100
AcDbLine
 62
7
  6
CONTINUOUS
 10
4.9918475786
 20
5.0856589662
 11
4.9918475786
 21
5.0726059641
  0
LINE
  5
240
100
AcDbEntity
  8
0
100
AcDbLine
 62
7
  6
CONTINUOUS
 10
4.9918475786
 20
5.0512089662
 11
4.9918475786
 21
5.0381559641
  0
LINE
  5
241
100
AcDbEntity
  8
0
100
AcDbLine
 62
7
  6
CONTINUOUS
 10
4.9918475786
 20
5.0167589662
 11
4.9918475786
 21
5.0037059641
  0
LINE
  5
242
100
AcDbEntity
  8
0
100
AcDbLine
 62
7
  6
CONTINUOUS
 10
4.9918475786
 20
4.9823089662
 11
4.9918475786
 21
4.9692559641
  0
LINE
  5
243
100
AcDbEntity
  8
0
100
AcDbLine
 62
7
  6
CONTINUOUS
 10
4.9918475786
 20
4.6378089662
 11
4.9918475786
 21
4.6247559641
  0
LINE
  5
244
100
AcDbEntity
  8
0
100
AcDbLine
 62
7
  6
CONTINUOUS
 10
4.9937475786
 20
3.8270214662
 11
4.9937475786
 21
4.6222714662
  0
LINE
  5
245
100
AcDbEntity
  8
0
100
AcDbLine
 62
7
  6
CONTINUOUS
 10
5.0362475786
 20
6.0700214662
 11
5.0362475786
 21
6.0675214662
  0
LINE
  5
246
100
AcDbEntity
  8
0
100
AcDbLine
 62
7
  6
CONTINUOUS
 10
5.0727475786
 20
3.6271271663
 11
5.0727475786
 21
3.2187064469
  0
LINE
  5
247
100
AcDbEntity
  8
0
100
AcDbLine
 62
7
  6
CONTINUOUS
 10
5.0727475786
 20
3.1613395206
 11
5.0727475786
 21
3.0940891261
  0
LINE
  5
248
100
AcDbEntity
  8
0
100
AcDbLine
 62
7
  6
CONTINUOUS
 10
5.0727475786
 20
3.036687619
 11
5.0727475786
 21
2.9694718054
  0
LINE
  5
249
100
AcDbEntity
  8
0
100
AcDbLine
 62
7
  6
CONTINUOUS
 10
5.0727475786
 20
2.9120702983
 11
5.0727475786
 21
2.8448544847
  0
LINE
  5
24A
100
AcDbEntity
  8
0
100
AcDbLine
 62
7
  6
CONTINUOUS
 10
5.0727475786
 20
2.7874529775
 11
5.0727475786
 21
2.720237164
  0
LINE
  5
24B
100
AcDbEntity
  8
0
100
AcDbLine
 62
7
  6
CONTINUOUS
 10
5.0727475786
 20
2.6628356568
 11
5.0727475786
 21
2.5956198433
  0
LINE
  5
24C
100
AcDbEntity
  8
0
100
AcDbLine
 62
7
  6
CONTINUOUS
 10
5.1337475786
 20
6.0700214662
 11
5.1337475786
 21
6.0675214662
  0
LINE
  5
24D
100
AcDbEntity
  8
0
100
AcDbLine
 62
7
  6
CONTINUOUS
 10
5.1337475786
 20
2.3237714662
 11
5.1337475786
 21
2.3385214662
  0
LINE
  5
24E
100
AcDbEntity
  8
0
100
AcDbLine
 62
7
  6
CONTINUOUS
 10
5.1337475786
 20
2.3680214662
 11
5.1337475786
 21
2.4465214662
  0
LINE
  5
24F
100
AcDbEntity
  8
0
100
AcDbLine
 62
7
  6
CONTINUOUS
 10
5.1337475786
 20
2.4760214662
 11
5.1337475786
 21
2.5545214662
  0
LINE
  5
250
100
AcDbEntity
  8
0
100
AcDbLine
 62
7
  6
CONTINUOUS
 10
5.1337475786
 20
2.5840214662
 11
5.1337475786
 21
2.6625214662
  0
LINE
  5
251
100
AcDbEntity
  8
0
100
AcDbLine
 62
7
  6
CONTINUOUS
 10
5.1337475786
 20
2.6920214662
 11
5.1337475786
 21
2.7705214662
  0
LINE
  5
252
100
AcDbEntity
  8
0
100
AcDbLine
 62
7
  6
CONTINUOUS
 10
5.1337475786
 20
2.8000214662
 11
5.1337475786
 21
2.8785214662
  0
LINE
  5
253
100
AcDbEntity
  8
0
100
AcDbLine
 62
7
  6
CONTINUOUS
 10
5.1337475786
 20
2.9080214662
 11
5.1337475786
 21
3.620381683
  0
LINE
  5
254
100
AcDbEntity
  8
0
100
AcDbLine
 62
7
  6
CONTINUOUS
 10
5.1587475786
 20
6.0300214662
 11
5.1587475786
 21
6.1110214662
  0
LINE
  5
255
100
AcDbEntity
  8
0
100
AcDbLine
 62
7
  6
CONTINUOUS
 10
5.1655929187
 20
6.1006810419
 11
5.1655929187
 21
6.0782767845
  0
LINE
  5
256
100
AcDbEntity
  8
0
100
AcDbLine
 62
7
  6
CONTINUOUS
 10
5.1655929187
 20
6.0679363602
 11
5.1655929187
 21
6.0300214662
  0
LINE
  5
257
100
AcDbEntity
  8
0
100
AcDbLine
 62
7
  6
CONTINUOUS
 10
5.1952560603
 20
6.0782767845
 11
5.1952560603
 21
6.0679363602
  0
LINE
  5
258
100
AcDbEntity
  8
0
100
AcDbLine
 62
7
  6
CONTINUOUS
 10
5.1998196193
 20
6.1110214662
 11
5.1998196193
 21
6.1006810419
  0
LINE
  5
259
100
AcDbEntity
  8
0
100
AcDbLine
 62
7
  6
CONTINUOUS
 10
5.2089467406
 20
6.1110214662
 11
5.2089467406
 21
6.0300214662
  0
LINE
  5
25A
100
AcDbEntity
  8
0
100
AcDbLine
 62
7
  6
CONTINUOUS
 10
5.2157920774
 20
6.1110214662
 11
5.2157920774
 21
6.0403618917
  0
LINE
  5
25B
100
AcDbEntity
  8
0
100
AcDbLine
 62
7
  6
CONTINUOUS
 10
5.2500187781
 20
6.0403618917
 11
5.2500187781
 21
6.0300214662
  0
LINE
  5
25C
100
AcDbEntity
  8
0
100
AcDbLine
 62
7
  6
CONTINUOUS
 10
5.2637475786
 20
4.8275214662
 11
5.2637475786
 21
4.6725214662
  0
LINE
  5
25D
100
AcDbEntity
  8
0
100
AcDbLine
 62
7
  6
CONTINUOUS
 10
5.3087475786
 20
4.8275214662
 11
5.3087475786
 21
4.6725214662
  0
LINE
  5
25E
100
AcDbEntity
  8
0
100
AcDbLine
 62
7
  6
CONTINUOUS
 10
5.4387475786
 20
2.3237714662
 11
5.4387475786
 21
2.3385214662
  0
LINE
  5
25F
100
AcDbEntity
  8
0
100
AcDbLine
 62
7
  6
CONTINUOUS
 10
5.4387475786
 20
2.3680214662
 11
5.4387475786
 21
2.4465214662
  0
LINE
  5
260
100
AcDbEntity
  8
0
100
AcDbLine
 62
7
  6
CONTINUOUS
 10
5.4387475786
 20
2.4760214662
 11
5.4387475786
 21
2.5545214662
  0
LINE
  5
261
100
AcDbEntity
  8
0
100
AcDbLine
 62
7
  6
CONTINUOUS
 10
5.4387475786
 20
2.5840214662
 11
5.4387475786
 21
2.6625214662
  0
LINE
  5
262
100
AcDbEntity
  8
0
100
AcDbLine
 62
7
  6
CONTINUOUS
 10
5.4387475786
 20
2.6920214662
 11
5.4387475786
 21
2.7705214662
  0
LINE
  5
263
100
AcDbEntity
  8
0
100
AcDbLine
 62
7
  6
CONTINUOUS
 10
5.4387475786
 20
2.8000214662
 11
5.4387475786
 21
2.8785214662
  0
LINE
  5
264
100
AcDbEntity
  8
0
100
AcDbLine
 62
7
  6
CONTINUOUS
 10
5.4387475786
 20
2.9080214662
 11
5.4387475786
 21
3.620381683
  0
LINE
  5
265
100
AcDbEntity
  8
0
100
AcDbLine
 62
7
  6
CONTINUOUS
 10
4.9926079893
 20
4.6249531267
 11
4.982264657
 21
4.6222714662
  0
LINE
  5
266
100
AcDbEntity
  8
0
100
AcDbLine
 62
7
  6
CONTINUOUS
 10
4.9822652346
 20
4.6222714662
 11
5.6009975458
 21
4.6222714662
  0
LINE
  5
267
100
AcDbEntity
  8
0
100
AcDbLine
 62
7
  6
CONTINUOUS
 10
5.6412475786
 20
4.6525214662
 11
4.9312475786
 21
4.6525214662
  0
LINE
  5
268
100
AcDbEntity
  8
0
100
AcDbLine
 62
7
  6
CONTINUOUS
 10
5.6412475786
 20
4.6725214662
 11
5.6186403253
 21
4.6725214662
  0
LINE
  5
269
100
AcDbEntity
  8
0
100
AcDbLine
 62
7
  6
CONTINUOUS
 10
5.3087475786
 20
4.6725214662
 11
5.2637475786
 21
4.6725214662
  0
LINE
  5
26A
100
AcDbEntity
  8
0
100
AcDbLine
 62
7
  6
CONTINUOUS
 10
4.9538548318
 20
4.6725214662
 11
4.9312475786
 21
4.6725214662
  0
LINE
  5
26B
100
AcDbEntity
  8
0
100
AcDbLine
 62
7
  6
CONTINUOUS
 10
4.9722091741
 20
4.6427030774
 11
4.9917997189
 21
4.6376243782
  0
LINE
  5
26C
100
AcDbEntity
  8
0
100
AcDbLine
 62
7
  6
CONTINUOUS
 10
5.4997475786
 20
3.6271271663
 11
5.4997475786
 21
3.2187064469
  0
LINE
  5
26D
100
AcDbEntity
  8
0
100
AcDbLine
 62
7
  6
CONTINUOUS
 10
5.4997475786
 20
3.1613185158
 11
5.4997475786
 21
3.0940891261
  0
LINE
  5
26E
100
AcDbEntity
  8
0
100
AcDbLine
 62
7
  6
CONTINUOUS
 10
5.4997475786
 20
3.0367236042
 11
5.4997475786
 21
2.9694718054
  0
LINE
  5
26F
100
AcDbEntity
  8
0
100
AcDbLine
 62
7
  6
CONTINUOUS
 10
5.4997475786
 20
2.9121062834
 11
5.4997475786
 21
2.8448544847
  0
LINE
  5
270
100
AcDbEntity
  8
0
100
AcDbLine
 62
7
  6
CONTINUOUS
 10
5.4997475786
 20
2.7874889627
 11
5.4997475786
 21
2.720237164
  0
LINE
  5
271
100
AcDbEntity
  8
0
100
AcDbLine
 62
7
  6
CONTINUOUS
 10
5.4997475786
 20
2.662871642
 11
5.4997475786
 21
2.5956198433
  0
LINE
  5
272
100
AcDbEntity
  8
0
100
AcDbLine
 62
7
  6
CONTINUOUS
 10
5.5787475786
 20
3.8270214662
 11
5.5787475786
 21
4.6222714662
  0
LINE
  5
273
100
AcDbEntity
  8
0
100
AcDbLine
 62
7
  6
CONTINUOUS
 10
5.5806475786
 20
4.6417839662
 11
5.5806475786
 21
4.6525214662
  0
LINE
  5
274
100
AcDbEntity
  8
0
100
AcDbLine
 62
7
  6
CONTINUOUS
 10
5.5806475786
 20
4.9575214662
 11
5.5806475786
 21
4.9648869692
  0
LINE
  5
275
100
AcDbEntity
  8
0
100
AcDbLine
 62
7
  6
CONTINUOUS
 10
5.5806475786
 20
4.9862839662
 11
5.5806475786
 21
4.9993369692
  0
LINE
  5
276
100
AcDbEntity
  8
0
100
AcDbLine
 62
7
  6
CONTINUOUS
 10
5.5806475786
 20
5.0207339662
 11
5.5806475786
 21
5.0337869692
  0
LINE
  5
277
100
AcDbEntity
  8
0
100
AcDbLine
 62
7
  6
CONTINUOUS
 10
5.5806475786
 20
5.0551839662
 11
5.5806475786
 21
5.0682369692
  0
LINE
  5
278
100
AcDbEntity
  8
0
100
AcDbLine
 62
7
  6
CONTINUOUS
 10
5.5806475786
 20
5.0896339662
 11
5.5806475786
 21
5.1026869692
  0
LINE
  5
279
100
AcDbEntity
  8
0
100
AcDbLine
 62
7
  6
CONTINUOUS
 10
5.5806475786
 20
5.1240839662
 11
5.5806475786
 21
5.1371369692
  0
LINE
  5
27A
100
AcDbEntity
  8
0
100
AcDbLine
 62
7
  6
CONTINUOUS
 10
5.5806475786
 20
5.1585339662
 11
5.5806475786
 21
5.1715869692
  0
LINE
  5
27B
100
AcDbEntity
  8
0
100
AcDbLine
 62
7
  6
CONTINUOUS
 10
5.5806475786
 20
5.1929839662
 11
5.5806475786
 21
5.2060369692
  0
LINE
  5
27C
100
AcDbEntity
  8
0
100
AcDbLine
 62
7
  6
CONTINUOUS
 10
5.5806475786
 20
5.2274339662
 11
5.5806475786
 21
5.2404869692
  0
LINE
  5
27D
100
AcDbEntity
  8
0
100
AcDbLine
 62
7
  6
CONTINUOUS
 10
5.5806475786
 20
5.2618839662
 11
5.5806475786
 21
5.2749369692
  0
LINE
  5
27E
100
AcDbEntity
  8
0
100
AcDbLine
 62
7
  6
CONTINUOUS
 10
5.5806475786
 20
5.2963339662
 11
5.5806475786
 21
5.3093869692
  0
LINE
  5
27F
100
AcDbEntity
  8
0
100
AcDbLine
 62
7
  6
CONTINUOUS
 10
5.5806475786
 20
5.3307839662
 11
5.5806475786
 21
5.3438369692
  0
LINE
  5
280
100
AcDbEntity
  8
0
100
AcDbLine
 62
7
  6
CONTINUOUS
 10
5.5806475786
 20
5.3652339662
 11
5.5806475786
 21
5.3782869692
  0
LINE
  5
281
100
AcDbEntity
  8
0
100
AcDbLine
 62
7
  6
CONTINUOUS
 10
5.5806475786
 20
5.3996839662
 11
5.5806475786
 21
5.4127369692
  0
LINE
  5
282
100
AcDbEntity
  8
0
100
AcDbLine
 62
7
  6
CONTINUOUS
 10
5.6009975786
 20
4.6222714662
 11
5.6009975786
 21
4.6365210984
  0
LINE
  5
283
100
AcDbEntity
  8
0
100
AcDbLine
 62
7
  6
CONTINUOUS
 10
5.6009975786
 20
4.9703468341
 11
5.6009975786
 21
4.9810210984
  0
LINE
  5
284
100
AcDbEntity
  8
0
100
AcDbLine
 62
7
  6
CONTINUOUS
 10
5.6009975786
 20
5.0047968341
 11
5.6009975786
 21
5.0154710984
  0
LINE
  5
285
100
AcDbEntity
  8
0
100
AcDbLine
 62
7
  6
CONTINUOUS
 10
5.6009975786
 20
5.0392468341
 11
5.6009975786
 21
5.0499210984
  0
LINE
  5
286
100
AcDbEntity
  8
0
100
AcDbLine
 62
7
  6
CONTINUOUS
 10
5.6009975786
 20
5.0736968341
 11
5.6009975786
 21
5.0843710984
  0
LINE
  5
287
100
AcDbEntity
  8
0
100
AcDbLine
 62
7
  6
CONTINUOUS
 10
5.6009975786
 20
5.1081468341
 11
5.6009975786
 21
5.1188210984
  0
LINE
  5
288
100
AcDbEntity
  8
0
100
AcDbLine
 62
7
  6
CONTINUOUS
 10
5.6009975786
 20
5.1425968341
 11
5.6009975786
 21
5.1532710984
  0
LINE
  5
289
100
AcDbEntity
  8
0
100
AcDbLine
 62
7
  6
CONTINUOUS
 10
5.6009975786
 20
5.1770468341
 11
5.6009975786
 21
5.1877210984
  0
LINE
  5
28A
100
AcDbEntity
  8
0
100
AcDbLine
 62
7
  6
CONTINUOUS
 10
5.6009975786
 20
5.2114968341
 11
5.6009975786
 21
5.2221710984
  0
LINE
  5
28B
100
AcDbEntity
  8
0
100
AcDbLine
 62
7
  6
CONTINUOUS
 10
5.6009975786
 20
5.2459468341
 11
5.6009975786
 21
5.2566210984
  0
LINE
  5
28C
100
AcDbEntity
  8
0
100
AcDbLine
 62
7
  6
CONTINUOUS
 10
5.6009975786
 20
5.2803968341
 11
5.6009975786
 21
5.2910710984
  0
LINE
  5
28D
100
AcDbEntity
  8
0
100
AcDbLine
 62
7
  6
CONTINUOUS
 10
5.6009975786
 20
5.3148468341
 11
5.6009975786
 21
5.3255210984
  0
LINE
  5
28E
100
AcDbEntity
  8
0
100
AcDbLine
 62
7
  6
CONTINUOUS
 10
5.6009975786
 20
5.3492968341
 11
5.6009975786
 21
5.3599710984
  0
LINE
  5
28F
100
AcDbEntity
  8
0
100
AcDbLine
 62
7
  6
CONTINUOUS
 10
5.6009975786
 20
5.3837468341
 11
5.6009975786
 21
5.3944210984
  0
LINE
  5
290
100
AcDbEntity
  8
0
100
AcDbLine
 62
7
  6
CONTINUOUS
 10
4.8862475786
 20
4.8275214662
 11
5.6862475786
 21
4.8275214662
  0
LINE
  5
291
100
AcDbEntity
  8
0
100
AcDbLine
 62
7
  6
CONTINUOUS
 10
5.6002859831
 20
4.6368898551
 11
5.5806475786
 21
4.6419809641
  0
LINE
  5
292
100
AcDbEntity
  8
0
100
AcDbLine
 62
7
  6
CONTINUOUS
 10
5.6186403253
 20
4.8275214662
 11
5.6186403253
 21
4.6725214662
  0
LINE
  5
293
100
AcDbEntity
  8
0
100
AcDbLine
 62
7
  6
CONTINUOUS
 10
5.6412475786
 20
4.8275214662
 11
5.6412475786
 21
4.6525214662
  0
LINE
  5
294
100
AcDbEntity
  8
0
100
AcDbLine
 62
7
  6
CONTINUOUS
 10
5.6949975786
 20
5.6920918082
 11
5.6949975786
 21
6.6100214662
  0
LINE
  5
295
100
AcDbEntity
  8
0
100
AcDbLine
 62
7
  6
CONTINUOUS
 10
5.7035956015
 20
5.6335214662
 11
5.7035956015
 21
5.6230841503
  0
LINE
  5
296
100
AcDbEntity
  8
0
100
AcDbLine
 62
7
  6
CONTINUOUS
 10
5.7262475786
 20
4.8675214662
 11
5.7262475786
 21
4.8925214662
  0
LINE
  5
297
100
AcDbEntity
  8
0
100
AcDbLine
 62
7
  6
CONTINUOUS
 10
5.7362475786
 20
4.8925214662
 11
5.7362475786
 21
4.9575214662
  0
LINE
  5
298
100
AcDbEntity
  8
0
100
AcDbLine
 62
7
  6
CONTINUOUS
 10
5.5798871677
 20
4.9646898057
 11
5.6002859831
 21
4.9699780774
  0
LINE
  5
299
100
AcDbEntity
  8
0
100
AcDbLine
 62
7
  6
CONTINUOUS
 10
5.5798871677
 20
4.9991398057
 11
5.6002859831
 21
5.0044280774
  0
LINE
  5
29A
100
AcDbEntity
  8
0
100
AcDbLine
 62
7
  6
CONTINUOUS
 10
5.5798871677
 20
5.0335898057
 11
5.6002859831
 21
5.0388780774
  0
LINE
  5
29B
100
AcDbEntity
  8
0
100
AcDbLine
 62
7
  6
CONTINUOUS
 10
5.5798871677
 20
5.0680398057
 11
5.6002859831
 21
5.0733280774
  0
LINE
  5
29C
100
AcDbEntity
  8
0
100
AcDbLine
 62
7
  6
CONTINUOUS
 10
4.8462475786
 20
4.8675214662
 11
5.7262475786
 21
4.8675214662
  0
LINE
  5
29D
100
AcDbEntity
  8
0
100
AcDbLine
 62
7
  6
CONTINUOUS
 10
5.7362475786
 20
4.8925214662
 11
4.8362475786
 21
4.8925214662
  0
LINE
  5
29E
100
AcDbEntity
  8
0
100
AcDbLine
 62
7
  6
CONTINUOUS
 10
5.7362475786
 20
4.9575214662
 11
4.8362475786
 21
4.9575214662
  0
LINE
  5
29F
100
AcDbEntity
  8
0
100
AcDbLine
 62
7
  6
CONTINUOUS
 10
4.9722091741
 20
4.9872030774
 11
4.9917997189
 21
4.9821243782
  0
LINE
  5
2A0
100
AcDbEntity
  8
0
100
AcDbLine
 62
7
  6
CONTINUOUS
 10
4.9722091741
 20
5.0216530774
 11
4.9917997189
 21
5.0165743782
  0
LINE
  5
2A1
100
AcDbEntity
  8
0
100
AcDbLine
 62
7
  6
CONTINUOUS
 10
4.9722091741
 20
5.0561030774
 11
4.9917997189
 21
5.0510243782
  0
LINE
  5
2A2
100
AcDbEntity
  8
0
100
AcDbLine
 62
7
  6
CONTINUOUS
 10
4.9722091741
 20
5.0905530774
 11
4.9917997189
 21
5.0854743782
  0
LINE
  5
2A3
100
AcDbEntity
  8
0
100
AcDbLine
 62
7
  6
CONTINUOUS
 10
5.5798871677
 20
5.1024898057
 11
5.6002859831
 21
5.1077780774
  0
LINE
  5
2A4
100
AcDbEntity
  8
0
100
AcDbLine
 62
7
  6
CONTINUOUS
 10
4.9926079893
 20
4.9694531267
 11
4.972209174
 21
4.9641648551
  0
LINE
  5
2A5
100
AcDbEntity
  8
0
100
AcDbLine
 62
7
  6
CONTINUOUS
 10
5.5798871677
 20
5.1369398057
 11
5.6002859831
 21
5.1422280774
  0
LINE
  5
2A6
100
AcDbEntity
  8
0
100
AcDbLine
 62
7
  6
CONTINUOUS
 10
4.9926079893
 20
5.0039031267
 11
4.972209174
 21
4.9986148551
  0
LINE
  5
2A7
100
AcDbEntity
  8
0
100
AcDbLine
 62
7
  6
CONTINUOUS
 10
5.5798871677
 20
5.1713898057
 11
5.6002859831
 21
5.1766780774
  0
LINE
  5
2A8
100
AcDbEntity
  8
0
100
AcDbLine
 62
7
  6
CONTINUOUS
 10
4.9926079893
 20
5.0383531267
 11
4.972209174
 21
5.0330648551
  0
LINE
  5
2A9
100
AcDbEntity
  8
0
100
AcDbLine
 62
7
  6
CONTINUOUS
 10
5.5798871677
 20
5.2058398057
 11
5.6002859831
 21
5.2111280774
  0
LINE
  5
2AA
100
AcDbEntity
  8
0
100
AcDbLine
 62
7
  6
CONTINUOUS
 10
4.9926079893
 20
5.0728031267
 11
4.972209174
 21
5.0675148551
  0
LINE
  5
2AB
100
AcDbEntity
  8
0
100
AcDbLine
 62
7
  6
CONTINUOUS
 10
5.5798871677
 20
5.2402898057
 11
5.6002859831
 21
5.2455780774
  0
LINE
  5
2AC
100
AcDbEntity
  8
0
100
AcDbLine
 62
7
  6
CONTINUOUS
 10
4.9722091741
 20
5.1250030774
 11
4.9917997189
 21
5.1199243782
  0
LINE
  5
2AD
100
AcDbEntity
  8
0
100
AcDbLine
 62
7
  6
CONTINUOUS
 10
5.6002859831
 20
4.9813898551
 11
5.5806475786
 21
4.9864809641
  0
LINE
  5
2AE
100
AcDbEntity
  8
0
100
AcDbLine
 62
7
  6
CONTINUOUS
 10
4.9722091741
 20
5.1594530774
 11
4.9917997189
 21
5.1543743782
  0
LINE
  5
2AF
100
AcDbEntity
  8
0
100
AcDbLine
 62
7
  6
CONTINUOUS
 10
5.6002859831
 20
5.0158398551
 11
5.5806475786
 21
5.0209309641
  0
LINE
  5
2B0
100
AcDbEntity
  8
0
100
AcDbLine
 62
7
  6
CONTINUOUS
 10
4.9722091741
 20
5.1939030774
 11
4.9917997189
 21
5.1888243782
  0
LINE
  5
2B1
100
AcDbEntity
  8
0
100
AcDbLine
 62
7
  6
CONTINUOUS
 10
5.6002859831
 20
5.0502898551
 11
5.5806475786
 21
5.0553809641
  0
LINE
  5
2B2
100
AcDbEntity
  8
0
100
AcDbLine
 62
7
  6
CONTINUOUS
 10
4.9722091741
 20
5.2283530774
 11
4.9917997189
 21
5.2232743782
  0
LINE
  5
2B3
100
AcDbEntity
  8
0
100
AcDbLine
 62
7
  6
CONTINUOUS
 10
5.6002859831
 20
5.0847398551
 11
5.5806475786
 21
5.0898309641
  0
LINE
  5
2B4
100
AcDbEntity
  8
0
100
AcDbLine
 62
7
  6
CONTINUOUS
 10
5.703399062
 20
5.6335214662
 11
5.6949975786
 21
5.6920918082
  0
LINE
  5
2B5
100
AcDbEntity
  8
0
100
AcDbLine
 62
7
  6
CONTINUOUS
 10
4.9926079893
 20
5.1072531267
 11
4.972209174
 21
5.1019648551
  0
LINE
  5
2B6
100
AcDbEntity
  8
0
100
AcDbLine
 62
7
  6
CONTINUOUS
 10
5.5798871677
 20
5.2747398057
 11
5.6002859831
 21
5.2800280774
  0
LINE
  5
2B7
100
AcDbEntity
  8
0
100
AcDbLine
 62
7
  6
CONTINUOUS
 10
4.9926079893
 20
5.1417031267
 11
4.972209174
 21
5.1364148551
  0
LINE
  5
2B8
100
AcDbEntity
  8
0
100
AcDbLine
 62
7
  6
CONTINUOUS
 10
5.5798871677
 20
5.3091898057
 11
5.6002859831
 21
5.3144780774
  0
LINE
  5
2B9
100
AcDbEntity
  8
0
100
AcDbLine
 62
7
  6
CONTINUOUS
 10
4.9926079893
 20
5.1761531267
 11
4.972209174
 21
5.1708648551
  0
LINE
  5
2BA
100
AcDbEntity
  8
0
100
AcDbLine
 62
7
  6
CONTINUOUS
 10
5.5798871677
 20
5.3436398057
 11
5.6002859831
 21
5.3489280774
  0
LINE
  5
2BB
100
AcDbEntity
  8
0
100
AcDbLine
 62
7
  6
CONTINUOUS
 10
4.9926079893
 20
5.2106031267
 11
4.972209174
 21
5.2053148551
  0
LINE
  5
2BC
100
AcDbEntity
  8
0
100
AcDbLine
 62
7
  6
CONTINUOUS
 10
5.5798871677
 20
5.3780898057
 11
5.6002859831
 21
5.3833780774
  0
LINE
  5
2BD
100
AcDbEntity
  8
0
100
AcDbLine
 62
7
  6
CONTINUOUS
 10
4.9926079893
 20
5.2450531267
 11
4.972209174
 21
5.2397648551
  0
LINE
  5
2BE
100
AcDbEntity
  8
0
100
AcDbLine
 62
7
  6
CONTINUOUS
 10
5.329167847
 20
5.2487585984
 11
5.2862475786
 21
5.2480085984
  0
LINE
  5
2BF
100
AcDbEntity
  8
0
100
AcDbLine
 62
7
  6
CONTINUOUS
 10
5.2862475786
 20
5.2717843341
 11
5.329167847
 21
5.2725343341
  0
LINE
  5
2C0
100
AcDbEntity
  8
0
100
AcDbLine
 62
7
  6
CONTINUOUS
 10
4.9722091741
 20
5.2628030774
 11
4.9917997189
 21
5.2577243782
  0
LINE
  5
2C1
100
AcDbEntity
  8
0
100
AcDbLine
 62
7
  6
CONTINUOUS
 10
5.6002859831
 20
5.1191898551
 11
5.5806475786
 21
5.1242809641
  0
LINE
  5
2C2
100
AcDbEntity
  8
0
100
AcDbLine
 62
7
  6
CONTINUOUS
 10
4.9722091741
 20
5.2972530774
 11
4.9917997189
 21
5.2921743782
  0
LINE
  5
2C3
100
AcDbEntity
  8
0
100
AcDbLine
 62
7
  6
CONTINUOUS
 10
5.6002859831
 20
5.1536398551
 11
5.5806475786
 21
5.1587309641
  0
LINE
  5
2C4
100
AcDbEntity
  8
0
100
AcDbLine
 62
7
  6
CONTINUOUS
 10
4.9722091741
 20
5.3317030774
 11
4.9917997189
 21
5.3266243782
  0
LINE
  5
2C5
100
AcDbEntity
  8
0
100
AcDbLine
 62
7
  6
CONTINUOUS
 10
5.6002859831
 20
5.1880898551
 11
5.5806475786
 21
5.1931809641
  0
LINE
  5
2C6
100
AcDbEntity
  8
0
100
AcDbLine
 62
7
  6
CONTINUOUS
 10
4.9722091741
 20
5.3661530774
 11
4.9917997189
 21
5.3610743782
  0
LINE
  5
2C7
100
AcDbEntity
  8
0
100
AcDbLine
 62
7
  6
CONTINUOUS
 10
5.6002859831
 20
5.2225398551
 11
5.5806475786
 21
5.2276309641
  0
LINE
  5
2C8
100
AcDbEntity
  8
0
100
AcDbLine
 62
7
  6
CONTINUOUS
 10
4.9722091741
 20
5.4006030774
 11
4.9917997189
 21
5.3955243782
  0
LINE
  5
2C9
100
AcDbEntity
  8
0
100
AcDbLine
 62
7
  6
CONTINUOUS
 10
5.5798871677
 20
5.4125398057
 11
5.5991030962
 21
5.4175214662
  0
LINE
  5
2CA
100
AcDbEntity
  8
0
100
AcDbLine
 62
7
  6
CONTINUOUS
 10
4.9926079893
 20
5.2795031267
 11
4.972209174
 21
5.2742148551
  0
LINE
  5
2CB
100
AcDbEntity
  8
0
100
AcDbLine
 62
7
  6
CONTINUOUS
 10
4.9926079893
 20
5.3139531267
 11
4.972209174
 21
5.3086648551
  0
LINE
  5
2CC
100
AcDbEntity
  8
0
100
AcDbLine
 62
7
  6
CONTINUOUS
 10
4.9926079893
 20
5.3484031267
 11
4.972209174
 21
5.3431148551
  0
LINE
  5
2CD
100
AcDbEntity
  8
0
100
AcDbLine
 62
7
  6
CONTINUOUS
 10
4.9926079893
 20
5.3828531267
 11
4.972209174
 21
5.3775648551
  0
LINE
  5
2CE
100
AcDbEntity
  8
0
100
AcDbLine
 62
7
  6
CONTINUOUS
 10
4.9933955153
 20
5.3830214662
 11
4.9926079893
 21
5.3828531267
  0
LINE
  5
2CF
100
AcDbEntity
  8
0
100
AcDbLine
 62
7
  6
CONTINUOUS
 10
4.9731525143
 20
5.3777585984
 11
4.972209174
 21
5.3775648551
  0
LINE
  5
2D0
100
AcDbEntity
  8
0
100
AcDbLine
 62
7
  6
CONTINUOUS
 10
4.7362475786
 20
5.4175214662
 11
5.8362475786
 21
5.4175214662
  0
LINE
  5
2D1
100
AcDbEntity
  8
0
100
AcDbLine
 62
7
  6
CONTINUOUS
 10
5.6002859831
 20
5.2569898551
 11
5.5806475786
 21
5.2620809641
  0
LINE
  5
2D2
100
AcDbEntity
  8
0
100
AcDbLine
 62
7
  6
CONTINUOUS
 10
5.6002859831
 20
5.2914398551
 11
5.5806475786
 21
5.2965309641
  0
LINE
  5
2D3
100
AcDbEntity
  8
0
100
AcDbLine
 62
7
  6
CONTINUOUS
 10
5.6002859831
 20
5.3258898551
 11
5.5806475786
 21
5.3309809641
  0
LINE
  5
2D4
100
AcDbEntity
  8
0
100
AcDbLine
 62
7
  6
CONTINUOUS
 10
5.6002859831
 20
5.3603398551
 11
5.5806475786
 21
5.3654309641
  0
LINE
  5
2D5
100
AcDbEntity
  8
0
100
AcDbLine
 62
7
  6
CONTINUOUS
 10
5.6002859831
 20
5.3947898551
 11
5.5806475786
 21
5.3998809641
  0
LINE
  5
2D6
100
AcDbEntity
  8
0
100
AcDbLine
 62
7
  6
CONTINUOUS
 10
4.9926079893
 20
5.4173031267
 11
4.972209174
 21
5.4120148551
  0
LINE
  5
2D7
100
AcDbEntity
  8
0
100
AcDbLine
 62
7
  6
CONTINUOUS
 10
4.9936826357
 20
5.4175214662
 11
4.9926079893
 21
5.4173031267
  0
LINE
  5
2D8
100
AcDbEntity
  8
0
100
AcDbLine
 62
7
  6
CONTINUOUS
 10
4.8112475786
 20
5.5143460499
 11
5.7612475786
 21
5.5143460499
  0
LINE
  5
2D9
100
AcDbEntity
  8
0
100
AcDbLine
 62
7
  6
CONTINUOUS
 10
4.8688995557
 20
5.6230841503
 11
5.7035956015
 21
5.6230841503
  0
LINE
  5
2DA
100
AcDbEntity
  8
0
100
AcDbLine
 62
7
  6
CONTINUOUS
 10
4.8688995557
 20
5.6335214662
 11
5.7035956015
 21
5.6335214662
  0
LINE
  5
2DB
100
AcDbEntity
  8
0
100
AcDbLine
 62
7
  6
CONTINUOUS
 10
5.6949975786
 20
5.6920918082
 11
4.8774975786
 21
5.6920918082
  0
LINE
  5
2DC
100
AcDbEntity
  8
0
100
AcDbLine
 62
7
  6
CONTINUOUS
 10
4.9286548458
 20
5.9700214662
 11
4.8774975786
 21
5.9700214662
  0
LINE
  5
2DD
100
AcDbEntity
  8
0
100
AcDbLine
 62
7
  6
CONTINUOUS
 10
5.2500187781
 20
6.0300214662
 11
5.2089467406
 21
6.0300214662
  0
LINE
  5
2DE
100
AcDbEntity
  8
0
100
AcDbLine
 62
7
  6
CONTINUOUS
 10
5.1655929187
 20
6.0300214662
 11
5.1587475786
 21
6.0300214662
  0
LINE
  5
2DF
100
AcDbEntity
  8
0
100
AcDbLine
 62
7
  6
CONTINUOUS
 10
5.2500187781
 20
6.0403618917
 11
5.2157920774
 21
6.0403618917
  0
LINE
  5
2E0
100
AcDbEntity
  8
0
100
AcDbLine
 62
7
  6
CONTINUOUS
 10
5.1337475786
 20
6.0675214662
 11
5.0362475786
 21
6.0675214662
  0
LINE
  5
2E1
100
AcDbEntity
  8
0
100
AcDbLine
 62
7
  6
CONTINUOUS
 10
4.9286548458
 20
6.0675214662
 11
4.8774975786
 21
6.0675214662
  0
LINE
  5
2E2
100
AcDbEntity
  8
0
100
AcDbLine
 62
7
  6
CONTINUOUS
 10
5.1952560603
 20
6.0679363602
 11
5.1655929187
 21
6.0679363602
  0
LINE
  5
2E3
100
AcDbEntity
  8
0
100
AcDbLine
 62
7
  6
CONTINUOUS
 10
5.1337475786
 20
6.0700214662
 11
5.0362475786
 21
6.0700214662
  0
LINE
  5
2E4
100
AcDbEntity
  8
0
100
AcDbLine
 62
7
  6
CONTINUOUS
 10
5.1655929187
 20
6.0782767845
 11
5.1952560603
 21
6.0782767845
  0
LINE
  5
2E5
100
AcDbEntity
  8
0
100
AcDbLine
 62
7
  6
CONTINUOUS
 10
5.1998196193
 20
6.1006810419
 11
5.1655929187
 21
6.1006810419
  0
LINE
  5
2E6
100
AcDbEntity
  8
0
100
AcDbLine
 62
7
  6
CONTINUOUS
 10
5.2157920774
 20
6.1110214662
 11
5.2089467406
 21
6.1110214662
  0
LINE
  5
2E7
100
AcDbEntity
  8
0
100
AcDbLine
 62
7
  6
CONTINUOUS
 10
5.1587475786
 20
6.1110214662
 11
5.1998196193
 21
6.1110214662
  0
LINE
  5
2E8
100
AcDbEntity
  8
0
100
AcDbLine
 62
7
  6
CONTINUOUS
 10
4.9286548458
 20
6.1670214662
 11
4.8774975786
 21
6.1670214662
  0
LINE
  5
2E9
100
AcDbEntity
  8
0
100
AcDbLine
 62
7
  6
CONTINUOUS
 10
4.9286548458
 20
6.2645214662
 11
4.8774975786
 21
6.2645214662
  0
LINE
  5
2EA
100
AcDbEntity
  8
0
100
AcDbLine
 62
7
  6
CONTINUOUS
 10
5.6949975786
 20
6.6100214662
 11
4.8774975786
 21
6.6100214662
  0
LINE
  5
2EB
100
AcDbEntity
  8
0
100
AcDbLine
 62
7
  6
CONTINUOUS
 10
5.5799975786
 20
6.7250214662
 11
4.9924975786
 21
6.7250214662
  0
ARC
  5
2EC
100
AcDbEntity
  8
0
100
AcDbCircle
 62
7
  6
CONTINUOUS
 10
5.2862475786
 20
3.8270214662
 40
0.2925
100
AcDbArc
 50
311.0443782716
 51
360.0
  0
ARC
  5
2ED
100
AcDbEntity
  8
0
100
AcDbCircle
 62
7
  6
CONTINUOUS
 10
5.2862475786
 20
3.8270214662
 40
0.2925
100
AcDbArc
 50
180.0
 51
228.9556217284
  0
ARC
  5
2EE
100
AcDbEntity
  8
0
100
AcDbCircle
 62
7
  6
CONTINUOUS
 10
5.6362939089
 20
5.5177490556
 40
0.125
100
AcDbArc
 50
358.4399843508
 51
57.424293173
  0
ARC
  5
2EF
100
AcDbEntity
  8
0
100
AcDbCircle
 62
7
  6
CONTINUOUS
 10
4.9362012482
 20
5.5177490556
 40
0.125
100
AcDbArc
 50
122.575706827
 51
181.5600156492
  0
ARC
  5
2F0
100
AcDbEntity
  8
0
100
AcDbCircle
 62
7
  6
CONTINUOUS
 10
5.5799975786
 20
6.6100214662
 40
0.115
100
AcDbArc
 50
0.0
 51
90.0
  0
ARC
  5
2F1
100
AcDbEntity
  8
0
100
AcDbCircle
 62
7
  6
CONTINUOUS
 10
4.9924975786
 20
6.6100214662
 40
0.115
100
AcDbArc
 50
90.0
 51
180.0
  0
ARC
  5
2F2
100
AcDbEntity
  8
0
100
AcDbCircle
 62
7
  6
CONTINUOUS
 10
5.7362475786
 20
5.4175214662
 40
0.1
100
AcDbArc
 50
0.0
 51
75.5224878141
  0
ARC
  5
2F3
100
AcDbEntity
  8
0
100
AcDbCircle
 62
7
  6
CONTINUOUS
 10
4.8362475786
 20
5.4175214662
 40
0.1
100
AcDbArc
 50
104.4775121859
 51
180.0
  0
ARC
  5
2F4
100
AcDbEntity
  8
0
100
AcDbCircle
 62
7
  6
CONTINUOUS
 10
4.8862475786
 20
4.8675214662
 40
0.04
100
AcDbArc
 50
180.0
 51
270.0
  0
ARC
  5
2F5
100
AcDbEntity
  8
0
100
AcDbCircle
 62
7
  6
CONTINUOUS
 10
5.6862475786
 20
4.8675214662
 40
0.04
100
AcDbArc
 50
270.0
 51
360.0
  0
ARC
  5
2F6
100
AcDbEntity
  8
0
100
AcDbCircle
 62
7
  6
CONTINUOUS
 10
5.4353645998
 20
2.3532714662
 40
0.0151329787
100
AcDbArc
 50
282.9176327574
 51
77.0823672426
  0
ARC
  5
2F7
100
AcDbEntity
  8
0
100
AcDbCircle
 62
7
  6
CONTINUOUS
 10
5.4353645998
 20
2.4612714662
 40
0.0151329787
100
AcDbArc
 50
282.9176327574
 51
77.0823672426
  0
ARC
  5
2F8
100
AcDbEntity
  8
0
100
AcDbCircle
 62
7
  6
CONTINUOUS
 10
5.4353645998
 20
2.5692714662
 40
0.0151329787
100
AcDbArc
 50
282.9176327574
 51
77.0823672426
  0
ARC
  5
2F9
100
AcDbEntity
  8
0
100
AcDbCircle
 62
7
  6
CONTINUOUS
 10
5.4353645998
 20
2.6772714662
 40
0.0151329787
100
AcDbArc
 50
282.9176327574
 51
77.0823672426
  0
ARC
  5
2FA
100
AcDbEntity
  8
0
100
AcDbCircle
 62
7
  6
CONTINUOUS
 10
5.4353645998
 20
2.7852714662
 40
0.0151329787
100
AcDbArc
 50
282.9176327574
 51
77.0823672426
  0
ARC
  5
2FB
100
AcDbEntity
  8
0
100
AcDbCircle
 62
7
  6
CONTINUOUS
 10
5.4353645998
 20
2.8932714662
 40
0.0151329787
100
AcDbArc
 50
282.9176327574
 51
77.0823672426
  0
ARC
  5
2FC
100
AcDbEntity
  8
0
100
AcDbCircle
 62
7
  6
CONTINUOUS
 10
5.1371305573
 20
2.3532714662
 40
0.0151329787
100
AcDbArc
 50
102.9176327574
 51
257.0823672426
  0
ARC
  5
2FD
100
AcDbEntity
  8
0
100
AcDbCircle
 62
7
  6
CONTINUOUS
 10
5.1371305573
 20
2.4612714662
 40
0.0151329787
100
AcDbArc
 50
102.9176327574
 51
257.0823672426
  0
ARC
  5
2FE
100
AcDbEntity
  8
0
100
AcDbCircle
 62
7
  6
CONTINUOUS
 10
5.1371305573
 20
2.5692714662
 40
0.0151329787
100
AcDbArc
 50
102.9176327574
 51
257.0823672426
  0
ARC
  5
2FF
100
AcDbEntity
  8
0
100
AcDbCircle
 62
7
  6
CONTINUOUS
 10
5.1371305573
 20
2.6772714662
 40
0.0151329787
100
AcDbArc
 50
102.9176327574
 51
257.0823672426
  0
ARC
  5
300
100
AcDbEntity
  8
0
100
AcDbCircle
 62
7
  6
CONTINUOUS
 10
5.1371305573
 20
2.7852714662
 40
0.0151329787
100
AcDbArc
 50
102.9176327574
 51
257.0823672426
  0
ARC
  5
301
100
AcDbEntity
  8
0
100
AcDbCircle
 62
7
  6
CONTINUOUS
 10
5.1371305573
 20
2.8932714662
 40
0.0151329787
100
AcDbArc
 50
102.9176327574
 51
257.0823672426
  0
ARC
  5
302
100
AcDbEntity
  8
0
100
AcDbCircle
 62
7
  6
CONTINUOUS
 10
5.578019857
 20
4.9719024101
 40
0.0074504007
100
AcDbArc
 50
282.9305469682
 51
284.5148428512
  0
LINE
  5
303
100
AcDbEntity
  8
0
100
AcDbLine
 62
7
  6
CONTINUOUS
 10
4.9714975873
 20
5.4009718341
 11
4.9722091735
 21
5.4006030773
  0
LINE
  5
304
100
AcDbEntity
  8
0
100
AcDbLine
 62
7
  6
CONTINUOUS
 10
4.97149769
 20
5.3665218341
 11
4.9722091951
 21
5.3661530773
  0
LINE
  5
305
100
AcDbEntity
  8
0
100
AcDbLine
 62
7
  6
CONTINUOUS
 10
4.97149769
 20
5.3320718341
 11
4.9722091951
 21
5.3317030773
  0
LINE
  5
306
100
AcDbEntity
  8
0
100
AcDbLine
 62
7
  6
CONTINUOUS
 10
4.97149769
 20
5.2976218341
 11
4.9722091951
 21
5.2972530773
  0
LINE
  5
307
100
AcDbEntity
  8
0
100
AcDbLine
 62
7
  6
CONTINUOUS
 10
4.9714976901
 20
5.2631718341
 11
4.9722091951
 21
5.2628030773
  0
LINE
  5
308
100
AcDbEntity
  8
0
100
AcDbLine
 62
7
  6
CONTINUOUS
 10
4.97149769
 20
5.2287218341
 11
4.9722091951
 21
5.2283530773
  0
LINE
  5
309
100
AcDbEntity
  8
0
100
AcDbLine
 62
7
  6
CONTINUOUS
 10
4.97149769
 20
5.1942718341
 11
4.9722091951
 21
5.1939030773
  0
LINE
  5
30A
100
AcDbEntity
  8
0
100
AcDbLine
 62
7
  6
CONTINUOUS
 10
4.97149769
 20
5.1598218341
 11
4.9722091951
 21
5.1594530773
  0
LINE
  5
30B
100
AcDbEntity
  8
0
100
AcDbLine
 62
7
  6
CONTINUOUS
 10
4.9714976901
 20
5.1253718341
 11
4.9722091951
 21
5.1250030773
  0
LINE
  5
30C
100
AcDbEntity
  8
0
100
AcDbLine
 62
7
  6
CONTINUOUS
 10
4.97149769
 20
5.0909218341
 11
4.9722091951
 21
5.0905530773
  0
LINE
  5
30D
100
AcDbEntity
  8
0
100
AcDbLine
 62
7
  6
CONTINUOUS
 10
4.97149769
 20
5.0564718341
 11
4.9722091951
 21
5.0561030773
  0
LINE
  5
30E
100
AcDbEntity
  8
0
100
AcDbLine
 62
7
  6
CONTINUOUS
 10
4.971497689
 20
5.0220218341
 11
4.9722091805
 21
5.0216530773
  0
LINE
  5
30F
100
AcDbEntity
  8
0
100
AcDbLine
 62
7
  6
CONTINUOUS
 10
4.97149769
 20
4.9875718341
 11
4.9722091951
 21
4.9872030773
  0
LINE
  5
310
100
AcDbEntity
  8
0
100
AcDbLine
 62
7
  6
CONTINUOUS
 10
4.9714976275
 20
4.643071834
 11
4.9722092008
 21
4.6427030774
  0
LINE
  5
311
100
AcDbEntity
  8
0
100
AcDbLine
 62
7
  6
CONTINUOUS
 10
5.6009974671
 20
5.3837468341
 11
5.600285962
 21
5.3833780773
  0
LINE
  5
312
100
AcDbEntity
  8
0
100
AcDbLine
 62
7
  6
CONTINUOUS
 10
5.6009974671
 20
5.3492968341
 11
5.600285962
 21
5.3489280773
  0
LINE
  5
313
100
AcDbEntity
  8
0
100
AcDbLine
 62
7
  6
CONTINUOUS
 10
5.6009974671
 20
5.3148468341
 11
5.600285962
 21
5.3144780773
  0
LINE
  5
314
100
AcDbEntity
  8
0
100
AcDbLine
 62
7
  6
CONTINUOUS
 10
5.600997485
 20
5.2803968341
 11
5.6002859179
 21
5.2800280773
  0
LINE
  5
315
100
AcDbEntity
  8
0
100
AcDbLine
 62
7
  6
CONTINUOUS
 10
5.6009974671
 20
5.2459468341
 11
5.600285962
 21
5.2455780773
  0
LINE
  5
316
100
AcDbEntity
  8
0
100
AcDbLine
 62
7
  6
CONTINUOUS
 10
5.6009974671
 20
5.2114968341
 11
5.600285962
 21
5.2111280773
  0
LINE
  5
317
100
AcDbEntity
  8
0
100
AcDbLine
 62
7
  6
CONTINUOUS
 10
5.6009974671
 20
5.1770468341
 11
5.600285962
 21
5.1766780773
  0
LINE
  5
318
100
AcDbEntity
  8
0
100
AcDbLine
 62
7
  6
CONTINUOUS
 10
5.6009975785
 20
5.1425968339
 11
5.6002859014
 21
5.1422280774
  0
LINE
  5
319
100
AcDbEntity
  8
0
100
AcDbLine
 62
7
  6
CONTINUOUS
 10
5.6009974671
 20
5.1081468341
 11
5.600285962
 21
5.1077780773
  0
LINE
  5
31A
100
AcDbEntity
  8
0
100
AcDbLine
 62
7
  6
CONTINUOUS
 10
5.6009974671
 20
5.0736968341
 11
5.600285962
 21
5.0733280773
  0
LINE
  5
31B
100
AcDbEntity
  8
0
100
AcDbLine
 62
7
  6
CONTINUOUS
 10
5.6009974671
 20
5.0392468341
 11
5.600285962
 21
5.0388780773
  0
LINE
  5
31C
100
AcDbEntity
  8
0
100
AcDbLine
 62
7
  6
CONTINUOUS
 10
5.600997467
 20
5.0047968341
 11
5.600285962
 21
5.0044280773
  0
LINE
  5
31D
100
AcDbEntity
  8
0
100
AcDbLine
 62
7
  6
CONTINUOUS
 10
5.6009974671
 20
4.9703468341
 11
5.600285962
 21
4.9699780773
  0
SPLINE
  5
31E
100
AcDbEntity
  8
0
100
AcDbSpline
 62
7
  6
CONTINUOUS
 70
0
 71
3
 72
33
 73
29
 74
0
 42
0.0000001
 43
0.0000001
 44
0.0000000001
 40
0.0
 40
0.0
 40
0.0
 40
0.0
 40
0.0203760966
 40
0.0416231976
 40
0.0640319847
 40
0.087830121
 40
0.1131804308
 40
0.1401881326
 40
0.1689217761
 40
0.1994203684
 40
0.2316982376
 40
0.2657433272
 40
0.3388379059
 40
0.4176930688
 40
0.5000000076
 40
0.5823069361
 40
0.6611620949
 40
0.7342566704
 40
0.7683017603
 40
0.8005796301
 40
0.8310782232
 40
0.8598118678
 40
0.88681957
 40
0.9121698796
 40
0.9359680158
 40
0.9583768026
 40
0.9796239035
 40
1.0
 40
1.0
 40
1.0
 40
1.0
 10
4.9286548458
 20
5.9700214662
 30
0.0
 10
4.9295128054
 20
5.9700214662
 30
0.0
 10
4.9312681603
 20
5.9701737973
 30
0.0
 10
4.9338938993
 20
5.9708255495
 30
0.0
 10
4.9365355524
 20
5.9718916664
 30
0.0
 10
4.9391734752
 20
5.9733616706
 30
0.0
 10
4.9417895318
 20
5.975226263
 30
0.0
 10
4.9443617935
 20
5.9774795729
 30
0.0
 10
4.9468662914
 20
5.9801154126
 30
0.0
 10
4.9492745545
 20
5.9831288707
 30
0.0
 10
4.9515552789
 20
5.9865134099
 30
0.0
 10
4.9544443708
 20
5.9916294551
 30
0.0
 10
4.9574735087
 20
5.9988887582
 30
0.0
 10
4.9598283117
 20
6.0085082984
 30
0.0
 10
4.9606583991
 20
6.0187714668
 30
0.0
 10
4.9598283115
 20
6.0290346349
 30
0.0
 10
4.9574735087
 20
6.0386541744
 30
0.0
 10
4.9544443709
 20
6.0459134772
 30
0.0
 10
4.951555279
 20
6.0510295224
 30
0.0
 10
4.9492745546
 20
6.0544140617
 30
0.0
 10
4.9468662914
 20
6.0574275198
 30
0.0
 10
4.9443617935
 20
6.0600633596
 30
0.0
 10
4.9417895317
 20
6.0623166696
 30
0.0
 10
4.9391734751
 20
6.0641812619
 30
0.0
 10
4.9365355523
 20
6.0656512661
 30
0.0
 10
4.9338938993
 20
6.066717383
 30
0.0
 10
4.9312681603
 20
6.0673691352
 30
0.0
 10
4.9295128054
 20
6.0675214662
 30
0.0
 10
4.9286548458
 20
6.0675214662
 30
0.0
  0
SPLINE
  5
31F
100
AcDbEntity
  8
0
100
AcDbSpline
 62
7
  6
CONTINUOUS
 70
0
 71
3
 72
33
 73
29
 74
0
 42
0.0000001
 43
0.0000001
 44
0.0000000001
 40
0.0
 40
0.0
 40
0.0
 40
0.0
 40
0.0203760966
 40
0.0416231976
 40
0.0640319847
 40
0.087830121
 40
0.1131804308
 40
0.1401881326
 40
0.1689217761
 40
0.1994203684
 40
0.2316982376
 40
0.2657433272
 40
0.3388379059
 40
0.4176930688
 40
0.5000000076
 40
0.5823069361
 40
0.6611620949
 40
0.7342566704
 40
0.7683017603
 40
0.8005796301
 40
0.8310782232
 40
0.8598118678
 40
0.88681957
 40
0.9121698796
 40
0.9359680158
 40
0.9583768026
 40
0.9796239035
 40
1.0
 40
1.0
 40
1.0
 40
1.0
 10
4.9286548458
 20
6.1670214662
 30
0.0
 10
4.9295128054
 20
6.1670214662
 30
0.0
 10
4.9312681603
 20
6.1671737973
 30
0.0
 10
4.9338938993
 20
6.1678255495
 30
0.0
 10
4.9365355524
 20
6.1688916664
 30
0.0
 10
4.9391734752
 20
6.1703616706
 30
0.0
 10
4.9417895318
 20
6.172226263
 30
0.0
 10
4.9443617935
 20
6.1744795729
 30
0.0
 10
4.9468662914
 20
6.1771154126
 30
0.0
 10
4.9492745545
 20
6.1801288707
 30
0.0
 10
4.9515552789
 20
6.1835134099
 30
0.0
 10
4.9544443708
 20
6.1886294551
 30
0.0
 10
4.9574735087
 20
6.1958887582
 30
0.0
 10
4.9598283117
 20
6.2055082984
 30
0.0
 10
4.9606583991
 20
6.2157714668
 30
0.0
 10
4.9598283115
 20
6.2260346349
 30
0.0
 10
4.9574735087
 20
6.2356541744
 30
0.0
 10
4.9544443709
 20
6.2429134772
 30
0.0
 10
4.951555279
 20
6.2480295224
 30
0.0
 10
4.9492745546
 20
6.2514140617
 30
0.0
 10
4.9468662914
 20
6.2544275198
 30
0.0
 10
4.9443617935
 20
6.2570633596
 30
0.0
 10
4.9417895317
 20
6.2593166696
 30
0.0
 10
4.9391734751
 20
6.2611812619
 30
0.0
 10
4.9365355523
 20
6.2626512661
 30
0.0
 10
4.9338938993
 20
6.263717383
 30
0.0
 10
4.9312681603
 20
6.2643691352
 30
0.0
 10
4.9295128054
 20
6.2645214662
 30
0.0
 10
4.9286548458
 20
6.2645214662
 30
0.0
  0
SPLINE
  5
320
100
AcDbEntity
  8
0
100
AcDbSpline
 62
7
  6
CONTINUOUS
 70
0
 71
3
 72
33
 73
29
 74
0
 42
0.0000001
 43
0.0000001
 44
0.0000000001
 40
0.0
 40
0.0
 40
0.0
 40
0.0
 40
0.0205845238
 40
0.0422892423
 40
0.065301002
 40
0.0897531953
 40
0.1157330971
 40
0.1432988274
 40
0.1724821179
 40
0.2032983142
 40
0.2357360546
 40
0.2697656565
 40
0.3422467857
 40
0.4196826318
 40
0.4999999478
 40
0.5803172749
 40
0.6577531338
 40
0.7302342756
 40
0.7642638857
 40
0.796701634
 40
0.827517837
 40
0.856701134
 40
0.8842668707
 40
0.9102467794
 40
0.9346989798
 40
0.9577107465
 40
0.9794154711
 40
1.0
 40
1.0
 40
1.0
 40
1.0
 10
4.9296718504
 20
6.1673709393
 30
0.0
 10
4.9304688114
 20
6.167542084
 30
0.0
 10
4.9320819204
 20
6.1680143692
 30
0.0
 10
4.934454812
 20
6.1690569338
 30
0.0
 10
4.9368241704
 20
6.1704420268
 30
0.0
 10
4.9391747551
 20
6.1721624093
 30
0.0
 10
4.9414896753
 20
6.1742132839
 30
0.0
 10
4.9437505024
 20
6.1765891893
 30
0.0
 10
4.945935597
 20
6.1792860284
 30
0.0
 10
4.9480217272
 20
6.1822978194
 30
0.0
 10
4.9499815949
 20
6.185618335
 30
0.0
 10
4.9524380264
 20
6.1905461119
 30
0.0
 10
4.9549818452
 20
6.1973995232
 30
0.0
 10
4.9569351063
 20
6.206335522
 30
0.0
 10
4.9576174353
 20
6.2157714547
 30
0.0
 10
4.9569351095
 20
6.2252073882
 30
0.0
 10
4.9549818512
 20
6.234143389
 30
0.0
 10
4.9524380342
 20
6.2409968024
 30
0.0
 10
4.9499816038
 20
6.2459245811
 30
0.0
 10
4.9480217368
 20
6.2492450982
 30
0.0
 10
4.9459356071
 20
6.2522568906
 30
0.0
 10
4.943750513
 20
6.254953731
 30
0.0
 10
4.9414896863
 20
6.257329638
 30
0.0
 10
4.9391747663
 20
6.2593805141
 30
0.0
 10
4.9368241818
 20
6.2611008982
 30
0.0
 10
4.9344548235
 20
6.2624859929
 30
0.0
 10
4.9320819318
 20
6.2635285591
 30
0.0
 10
4.9304688227
 20
6.2640008454
 30
0.0
 10
4.9296718616
 20
6.2641719908
 30
0.0
  0
SPLINE
  5
321
100
AcDbEntity
  8
0
100
AcDbSpline
 62
7
  6
CONTINUOUS
 70
0
 71
3
 72
33
 73
29
 74
0
 42
0.0000001
 43
0.0000001
 44
0.0000000001
 40
0.0
 40
0.0
 40
0.0
 40
0.0
 40
0.0205845238
 40
0.0422892423
 40
0.065301002
 40
0.0897531953
 40
0.1157330971
 40
0.1432988274
 40
0.1724821179
 40
0.2032983142
 40
0.2357360546
 40
0.2697656565
 40
0.3422467857
 40
0.4196826318
 40
0.4999999478
 40
0.5803172749
 40
0.6577531338
 40
0.7302342756
 40
0.7642638857
 40
0.796701634
 40
0.827517837
 40
0.856701134
 40
0.8842668707
 40
0.9102467794
 40
0.9346989798
 40
0.9577107465
 40
0.9794154711
 40
1.0
 40
1.0
 40
1.0
 40
1.0
 10
4.9296718504
 20
5.9703709393
 30
0.0
 10
4.9304688114
 20
5.970542084
 30
0.0
 10
4.9320819204
 20
5.9710143692
 30
0.0
 10
4.934454812
 20
5.9720569338
 30
0.0
 10
4.9368241704
 20
5.9734420268
 30
0.0
 10
4.9391747551
 20
5.9751624093
 30
0.0
 10
4.9414896753
 20
5.9772132839
 30
0.0
 10
4.9437505024
 20
5.9795891893
 30
0.0
 10
4.945935597
 20
5.9822860284
 30
0.0
 10
4.9480217272
 20
5.9852978194
 30
0.0
 10
4.9499815949
 20
5.988618335
 30
0.0
 10
4.9524380264
 20
5.9935461119
 30
0.0
 10
4.9549818452
 20
6.0003995232
 30
0.0
 10
4.9569351063
 20
6.009335522
 30
0.0
 10
4.9576174353
 20
6.0187714547
 30
0.0
 10
4.9569351095
 20
6.0282073882
 30
0.0
 10
4.9549818512
 20
6.037143389
 30
0.0
 10
4.9524380342
 20
6.0439968024
 30
0.0
 10
4.9499816038
 20
6.0489245811
 30
0.0
 10
4.9480217368
 20
6.0522450982
 30
0.0
 10
4.9459356071
 20
6.0552568906
 30
0.0
 10
4.943750513
 20
6.057953731
 30
0.0
 10
4.9414896863
 20
6.060329638
 30
0.0
 10
4.9391747663
 20
6.0623805141
 30
0.0
 10
4.9368241818
 20
6.0641008982
 30
0.0
 10
4.9344548235
 20
6.0654859929
 30
0.0
 10
4.9320819318
 20
6.0665285591
 30
0.0
 10
4.9304688227
 20
6.0670008454
 30
0.0
 10
4.9296718616
 20
6.0671719908
 30
0.0
  0
LINE
  5
322
100
AcDbEntity
  8
0
100
AcDbLine
 62
7
  6
CONTINUOUS
 10
5.600285962
 20
4.6368898551
 11
5.6009974671
 21
4.6365210984
  0
LINE
  5
323
100
AcDbEntity
  8
0
100
AcDbLine
 62
7
  6
CONTINUOUS
 10
5.600285962
 20
4.9813898551
 11
5.6009974671
 21
4.9810210984
  0
LINE
  5
324
100
AcDbEntity
  8
0
100
AcDbLine
 62
7
  6
CONTINUOUS
 10
4.9722091951
 20
4.9641648551
 11
4.97149769
 21
4.9637960984
  0
LINE
  5
325
100
AcDbEntity
  8
0
100
AcDbLine
 62
7
  6
CONTINUOUS
 10
5.600285962
 20
5.0158398551
 11
5.6009974671
 21
5.0154710984
  0
LINE
  5
326
100
AcDbEntity
  8
0
100
AcDbLine
 62
7
  6
CONTINUOUS
 10
5.600285962
 20
5.0502898551
 11
5.6009974671
 21
5.0499210984
  0
LINE
  5
327
100
AcDbEntity
  8
0
100
AcDbLine
 62
7
  6
CONTINUOUS
 10
5.600285962
 20
5.0847398551
 11
5.6009974671
 21
5.0843710984
  0
LINE
  5
328
100
AcDbEntity
  8
0
100
AcDbLine
 62
7
  6
CONTINUOUS
 10
5.6002859556
 20
5.1191898551
 11
5.6009975782
 21
5.1188210982
  0
LINE
  5
329
100
AcDbEntity
  8
0
100
AcDbLine
 62
7
  6
CONTINUOUS
 10
4.9722092133
 20
4.9986148552
 11
4.971497689
 21
4.9982460984
  0
LINE
  5
32A
100
AcDbEntity
  8
0
100
AcDbLine
 62
7
  6
CONTINUOUS
 10
4.9722091951
 20
5.0330648551
 11
4.97149769
 21
5.0326960984
  0
LINE
  5
32B
100
AcDbEntity
  8
0
100
AcDbLine
 62
7
  6
CONTINUOUS
 10
4.9722091951
 20
5.0675148551
 11
4.97149769
 21
5.0671460984
  0
LINE
  5
32C
100
AcDbEntity
  8
0
100
AcDbLine
 62
7
  6
CONTINUOUS
 10
4.9722091951
 20
5.1019648551
 11
4.97149769
 21
5.1015960984
  0
SPLINE
  5
32D
100
AcDbEntity
  8
0
100
AcDbSpline
 62
7
  6
CONTINUOUS
 70
0
 71
3
 72
30
 73
26
 74
0
 42
0.0000001
 43
0.0000001
 44
0.0000000001
 40
0.0
 40
0.0
 40
0.0
 40
0.0
 40
0.059405325
 40
0.1177172979
 40
0.1466165858
 40
0.1754103886
 40
0.2041263732
 40
0.2327927538
 40
0.2614407745
 40
0.2900848661
 40
0.3187381792
 40
0.3474273832
 40
0.3761808489
 40
0.4050205246
 40
0.4339983067
 40
0.4631687648
 40
0.5222576219
 40
0.5828381888
 40
0.6138485527
 40
0.645414506
 40
0.7103998608
 40
0.7781560981
 40
0.8489320264
 40
0.922863967
 40
1.0
 40
1.0
 40
1.0
 40
1.0
 10
5.4997525143
 20
2.618042991
 30
0.0
 10
5.501720726
 20
2.6155245177
 30
0.0
 10
5.5053435459
 20
2.6103078341
 30
0.0
 10
5.508984734
 20
2.6032803099
 30
0.0
 10
5.5112489783
 20
2.5974584607
 30
0.0
 10
5.5126077592
 20
2.5930073881
 30
0.0
 10
5.5136194572
 20
2.5884776097
 30
0.0
 10
5.5142697054
 20
2.5838895688
 30
0.0
 10
5.5145472489
 20
2.5792678412
 30
0.0
 10
5.5144532852
 20
2.5746394505
 30
0.0
 10
5.5139851248
 20
2.5700315686
 30
0.0
 10
5.5131492578
 20
2.5654702988
 30
0.0
 10
5.5119602299
 20
2.5609779589
 30
0.0
 10
5.5104288665
 20
2.5565743313
 30
0.0
 10
5.5085719301
 20
2.5522736168
 30
0.0
 10
5.5056743276
 20
2.546665696
 30
0.0
 10
5.5012957677
 20
2.5399328253
 30
0.0
 10
5.4960963074
 20
2.5336903595
 30
0.0
 10
5.4914750063
 20
2.5289381604
 30
0.0
 10
5.4864543112
 20
2.5242548072
 30
0.0
 10
5.4795820253
 20
2.5186746019
 30
0.0
 10
5.4705499598
 20
2.5124660803
 30
0.0
 10
5.4606906983
 20
2.5066631445
 30
0.0
 10
5.450039724
 20
2.5012600248
 30
0.0
 10
5.44259245
 20
2.4979919786
 30
0.0
 10
5.4387517229
 20
2.4964190217
 30
0.0
  0
SPLINE
  5
32E
100
AcDbEntity
  8
0
100
AcDbSpline
 62
7
  6
CONTINUOUS
 70
0
 71
3
 72
30
 73
26
 74
0
 42
0.0000001
 43
0.0000001
 44
0.0000000001
 40
0.0
 40
0.0
 40
0.0
 40
0.0
 40
0.059405325
 40
0.1177172979
 40
0.1466165858
 40
0.1754103886
 40
0.2041263732
 40
0.2327927538
 40
0.2614407745
 40
0.2900848661
 40
0.3187381792
 40
0.3474273832
 40
0.3761808489
 40
0.4050205246
 40
0.4339983067
 40
0.4631687648
 40
0.5222576219
 40
0.5828381888
 40
0.6138485527
 40
0.645414506
 40
0.7103998608
 40
0.7781560981
 40
0.8489320264
 40
0.922863967
 40
1.0
 40
1.0
 40
1.0
 40
1.0
 10
5.4997525143
 20
2.7426603117
 30
0.0
 10
5.501720726
 20
2.7401418384
 30
0.0
 10
5.5053435459
 20
2.7349251548
 30
0.0
 10
5.508984734
 20
2.7278976306
 30
0.0
 10
5.5112489783
 20
2.7220757814
 30
0.0
 10
5.5126077592
 20
2.7176247088
 30
0.0
 10
5.5136194572
 20
2.7130949304
 30
0.0
 10
5.5142697054
 20
2.7085068895
 30
0.0
 10
5.5145472489
 20
2.7038851619
 30
0.0
 10
5.5144532852
 20
2.6992567712
 30
0.0
 10
5.5139851248
 20
2.6946488893
 30
0.0
 10
5.5131492578
 20
2.6900876195
 30
0.0
 10
5.5119602299
 20
2.6855952796
 30
0.0
 10
5.5104288665
 20
2.681191652
 30
0.0
 10
5.5085719301
 20
2.6768909375
 30
0.0
 10
5.5056743276
 20
2.6712830167
 30
0.0
 10
5.5012957677
 20
2.664550146
 30
0.0
 10
5.4960963074
 20
2.6583076802
 30
0.0
 10
5.4914750063
 20
2.6535554812
 30
0.0
 10
5.4864543112
 20
2.6488721279
 30
0.0
 10
5.4795820253
 20
2.6432919227
 30
0.0
 10
5.4705499598
 20
2.637083401
 30
0.0
 10
5.4606906983
 20
2.6312804652
 30
0.0
 10
5.450039724
 20
2.6258773455
 30
0.0
 10
5.44259245
 20
2.6226092993
 30
0.0
 10
5.4387517229
 20
2.6210363424
 30
0.0
  0
SPLINE
  5
32F
100
AcDbEntity
  8
0
100
AcDbSpline
 62
7
  6
CONTINUOUS
 70
0
 71
3
 72
30
 73
26
 74
0
 42
0.0000001
 43
0.0000001
 44
0.0000000001
 40
0.0
 40
0.0
 40
0.0
 40
0.0
 40
0.059405325
 40
0.1177172979
 40
0.1466165858
 40
0.1754103886
 40
0.2041263732
 40
0.2327927538
 40
0.2614407745
 40
0.2900848661
 40
0.3187381792
 40
0.3474273832
 40
0.3761808489
 40
0.4050205246
 40
0.4339983067
 40
0.4631687648
 40
0.5222576219
 40
0.5828381888
 40
0.6138485527
 40
0.645414506
 40
0.7103998608
 40
0.7781560981
 40
0.8489320264
 40
0.922863967
 40
1.0
 40
1.0
 40
1.0
 40
1.0
 10
5.4997525143
 20
2.8672776324
 30
0.0
 10
5.501720726
 20
2.8647591591
 30
0.0
 10
5.5053435459
 20
2.8595424755
 30
0.0
 10
5.508984734
 20
2.8525149514
 30
0.0
 10
5.5112489783
 20
2.8466931022
 30
0.0
 10
5.5126077592
 20
2.8422420296
 30
0.0
 10
5.5136194572
 20
2.8377122512
 30
0.0
 10
5.5142697054
 20
2.8331242102
 30
0.0
 10
5.5145472489
 20
2.8285024826
 30
0.0
 10
5.5144532852
 20
2.8238740919
 30
0.0
 10
5.5139851248
 20
2.81926621
 30
0.0
 10
5.5131492578
 20
2.8147049403
 30
0.0
 10
5.5119602299
 20
2.8102126004
 30
0.0
 10
5.5104288665
 20
2.8058089728
 30
0.0
 10
5.5085719301
 20
2.8015082582
 30
0.0
 10
5.5056743276
 20
2.7959003374
 30
0.0
 10
5.5012957677
 20
2.7891674667
 30
0.0
 10
5.4960963074
 20
2.782925001
 30
0.0
 10
5.4914750063
 20
2.7781728019
 30
0.0
 10
5.4864543112
 20
2.7734894486
 30
0.0
 10
5.4795820253
 20
2.7679092434
 30
0.0
 10
5.4705499598
 20
2.7617007217
 30
0.0
 10
5.4606906983
 20
2.7558977859
 30
0.0
 10
5.450039724
 20
2.7504946662
 30
0.0
 10
5.44259245
 20
2.7472266201
 30
0.0
 10
5.4387517229
 20
2.7456536631
 30
0.0
  0
SPLINE
  5
330
100
AcDbEntity
  8
0
100
AcDbSpline
 62
7
  6
CONTINUOUS
 70
0
 71
3
 72
30
 73
26
 74
0
 42
0.0000001
 43
0.0000001
 44
0.0000000001
 40
0.0
 40
0.0
 40
0.0
 40
0.0
 40
0.059405325
 40
0.1177172979
 40
0.1466165858
 40
0.1754103886
 40
0.2041263732
 40
0.2327927538
 40
0.2614407745
 40
0.2900848661
 40
0.3187381792
 40
0.3474273832
 40
0.3761808489
 40
0.4050205246
 40
0.4339983067
 40
0.4631687648
 40
0.5222576219
 40
0.5828381888
 40
0.6138485527
 40
0.645414506
 40
0.7103998608
 40
0.7781560981
 40
0.8489320264
 40
0.922863967
 40
1.0
 40
1.0
 40
1.0
 40
1.0
 10
5.4997525143
 20
2.9918949531
 30
0.0
 10
5.501720726
 20
2.9893764798
 30
0.0
 10
5.5053435459
 20
2.9841597963
 30
0.0
 10
5.508984734
 20
2.9771322721
 30
0.0
 10
5.5112489783
 20
2.9713104229
 30
0.0
 10
5.5126077592
 20
2.9668593503
 30
0.0
 10
5.5136194572
 20
2.9623295719
 30
0.0
 10
5.5142697054
 20
2.957741531
 30
0.0
 10
5.5145472489
 20
2.9531198033
 30
0.0
 10
5.5144532852
 20
2.9484914127
 30
0.0
 10
5.5139851248
 20
2.9438835307
 30
0.0
 10
5.5131492578
 20
2.939322261
 30
0.0
 10
5.5119602299
 20
2.9348299211
 30
0.0
 10
5.5104288665
 20
2.9304262935
 30
0.0
 10
5.5085719301
 20
2.926125579
 30
0.0
 10
5.5056743276
 20
2.9205176582
 30
0.0
 10
5.5012957677
 20
2.9137847874
 30
0.0
 10
5.4960963074
 20
2.9075423217
 30
0.0
 10
5.4914750063
 20
2.9027901226
 30
0.0
 10
5.4864543112
 20
2.8981067693
 30
0.0
 10
5.4795820253
 20
2.8925265641
 30
0.0
 10
5.4705499598
 20
2.8863180424
 30
0.0
 10
5.4606906983
 20
2.8805151067
 30
0.0
 10
5.450039724
 20
2.8751119869
 30
0.0
 10
5.44259245
 20
2.8718439408
 30
0.0
 10
5.4387517229
 20
2.8702709838
 30
0.0
  0
SPLINE
  5
331
100
AcDbEntity
  8
0
100
AcDbSpline
 62
7
  6
CONTINUOUS
 70
0
 71
3
 72
30
 73
26
 74
0
 42
0.0000001
 43
0.0000001
 44
0.0000000001
 40
0.0
 40
0.0
 40
0.0
 40
0.0
 40
0.059405325
 40
0.1177172979
 40
0.1466165858
 40
0.1754103886
 40
0.2041263732
 40
0.2327927538
 40
0.2614407745
 40
0.2900848661
 40
0.3187381792
 40
0.3474273832
 40
0.3761808489
 40
0.4050205246
 40
0.4339983067
 40
0.4631687648
 40
0.5222576219
 40
0.5828381888
 40
0.6138485527
 40
0.645414506
 40
0.7103998608
 40
0.7781560981
 40
0.8489320264
 40
0.922863967
 40
1.0
 40
1.0
 40
1.0
 40
1.0
 10
5.4997525143
 20
3.1165122739
 30
0.0
 10
5.501720726
 20
3.1139938006
 30
0.0
 10
5.5053435459
 20
3.108777117
 30
0.0
 10
5.508984734
 20
3.1017495928
 30
0.0
 10
5.5112489783
 20
3.0959277436
 30
0.0
 10
5.5126077592
 20
3.091476671
 30
0.0
 10
5.5136194572
 20
3.0869468926
 30
0.0
 10
5.5142697054
 20
3.0823588517
 30
0.0
 10
5.5145472489
 20
3.077737124
 30
0.0
 10
5.5144532852
 20
3.0731087334
 30
0.0
 10
5.5139851248
 20
3.0685008514
 30
0.0
 10
5.5131492578
 20
3.0639395817
 30
0.0
 10
5.5119602299
 20
3.0594472418
 30
0.0
 10
5.5104288665
 20
3.0550436142
 30
0.0
 10
5.5085719301
 20
3.0507428997
 30
0.0
 10
5.5056743276
 20
3.0451349789
 30
0.0
 10
5.5012957677
 20
3.0384021081
 30
0.0
 10
5.4960963074
 20
3.0321596424
 30
0.0
 10
5.4914750063
 20
3.0274074433
 30
0.0
 10
5.4864543112
 20
3.02272409
 30
0.0
 10
5.4795820253
 20
3.0171438848
 30
0.0
 10
5.4705499598
 20
3.0109353631
 30
0.0
 10
5.4606906983
 20
3.0051324274
 30
0.0
 10
5.450039724
 20
2.9997293077
 30
0.0
 10
5.44259245
 20
2.9964612615
 30
0.0
 10
5.4387517229
 20
2.9948883045
 30
0.0
  0
SPLINE
  5
332
100
AcDbEntity
  8
0
100
AcDbSpline
 62
7
  6
CONTINUOUS
 70
0
 71
3
 72
26
 73
22
 74
0
 42
0.0000001
 43
0.0000001
 44
0.0000000001
 40
0.0
 40
0.0
 40
0.0
 40
0.0
 40
0.0771482092
 40
0.1510917526
 40
0.2218789761
 40
0.2896460536
 40
0.354640153
 40
0.3862092675
 40
0.4172239934
 40
0.4778110122
 40
0.5369135648
 40
0.5950302947
 40
0.6525988874
 40
0.6812907862
 40
0.7099528428
 40
0.7672095809
 40
0.8245618411
 40
0.8533598873
 40
0.8822639979
 40
0.9405859871
 40
1.0
 40
1.0
 40
1.0
 40
1.0
 10
5.1337420147
 20
3.1195062065
 30
0.0
 10
5.1299018796
 20
3.1210789525
 30
0.0
 10
5.1224557355
 20
3.1243465037
 30
0.0
 10
5.1118063714
 20
3.129748797
 30
0.0
 10
5.1019484238
 20
3.1355505804
 30
0.0
 10
5.0929177326
 20
3.1417580388
 30
0.0
 10
5.0860461454
 20
3.1473366881
 30
0.0
 10
5.0810262236
 20
3.1520190815
 30
0.0
 10
5.0764055108
 20
3.1567698982
 30
0.0
 10
5.0712053359
 20
3.163011115
 30
0.0
 10
5.0659770913
 20
3.1710490665
 30
0.0
 10
5.0619199267
 20
3.1795631866
 30
0.0
 10
5.059628533
 20
3.1870173882
 30
0.0
 10
5.0585117236
 20
3.1931031056
 30
0.0
 10
5.0578881888
 20
3.1992420222
 30
0.0
 10
5.0580367543
 20
3.2069830493
 30
0.0
 10
5.0594334823
 20
3.2146038986
 30
0.0
 10
5.0612401845
 20
3.220528047
 30
0.0
 10
5.0635028348
 20
3.226349861
 30
0.0
 10
5.0671410929
 20
3.2333774053
 30
0.0
 10
5.0707622414
 20
3.2385941641
 30
0.0
 10
5.0727295006
 20
3.241112721
 30
0.0
  0
SPLINE
  5
333
100
AcDbEntity
  8
0
100
AcDbSpline
 62
7
  6
CONTINUOUS
 70
0
 71
3
 72
29
 73
25
 74
0
 42
0.0000001
 43
0.0000001
 44
0.0000000001
 40
0.0
 40
0.0
 40
0.0
 40
0.0
 40
0.0771394863
 40
0.1510752571
 40
0.221855407
 40
0.2896161897
 40
0.3546061317
 40
0.3861738707
 40
0.4171864976
 40
0.4777707704
 40
0.5368644974
 40
0.5660355668
 40
0.5950127772
 40
0.6238560369
 40
0.6526103122
 40
0.6812988331
 40
0.7099546407
 40
0.7386003563
 40
0.7672479528
 40
0.8245898492
 40
0.8533824696
 40
0.8822823359
 40
0.9405952898
 40
1.0
 40
1.0
 40
1.0
 40
1.0
 10
5.1337465553
 20
2.4964177447
 30
0.0
 10
5.1299065265
 20
2.4979903574
 30
0.0
 10
5.1224605526
 20
2.5012576466
 30
0.0
 10
5.1118113433
 20
2.5066594789
 30
0.0
 10
5.1019534434
 20
2.5124608344
 30
0.0
 10
5.092922533
 20
2.5186677992
 30
0.0
 10
5.0860507032
 20
2.5242462301
 30
0.0
 10
5.0810303302
 20
2.5289282796
 30
0.0
 10
5.0764091929
 20
2.5336790628
 30
0.0
 10
5.0712091957
 20
2.5399193916
 30
0.0
 10
5.066830219
 20
2.5466503334
 30
0.0
 10
5.0639313609
 20
2.5522562376
 30
0.0
 10
5.0620734152
 20
2.5565555615
 30
0.0
 10
5.06054144
 20
2.5609580404
 30
0.0
 10
5.0593505637
 20
2.5654489499
 30
0.0
 10
5.0585128816
 20
2.5700089923
 30
0.0
 10
5.0580438981
 20
2.5746158056
 30
0.0
 10
5.0579472477
 20
2.5792435208
 30
0.0
 10
5.0583142592
 20
2.5854044785
 30
0.0
 10
5.0594310402
 20
2.5915082618
 30
0.0
 10
5.0612368308
 20
2.5974315094
 30
0.0
 10
5.0634983511
 20
2.6032533288
 30
0.0
 10
5.067135057
 20
2.6102809325
 30
0.0
 10
5.0707552381
 20
2.6154977835
 30
0.0
 10
5.0727219721
 20
2.6180164288
 30
0.0
  0
SPLINE
  5
334
100
AcDbEntity
  8
0
100
AcDbSpline
 62
7
  6
CONTINUOUS
 70
0
 71
3
 72
29
 73
25
 74
0
 42
0.0000001
 43
0.0000001
 44
0.0000000001
 40
0.0
 40
0.0
 40
0.0
 40
0.0
 40
0.0771394863
 40
0.1510752571
 40
0.221855407
 40
0.2896161897
 40
0.3546061317
 40
0.3861738707
 40
0.4171864976
 40
0.4777707704
 40
0.5368644974
 40
0.5660355668
 40
0.5950127772
 40
0.6238560369
 40
0.6526103122
 40
0.6812988331
 40
0.7099546407
 40
0.7386003563
 40
0.7672479528
 40
0.8245898492
 40
0.8533824696
 40
0.8822823359
 40
0.9405952898
 40
1.0
 40
1.0
 40
1.0
 40
1.0
 10
5.1337465553
 20
2.6210350654
 30
0.0
 10
5.1299065265
 20
2.6226076781
 30
0.0
 10
5.1224605526
 20
2.6258749673
 30
0.0
 10
5.1118113433
 20
2.6312767997
 30
0.0
 10
5.1019534434
 20
2.6370781551
 30
0.0
 10
5.092922533
 20
2.64328512
 30
0.0
 10
5.0860507032
 20
2.6488635508
 30
0.0
 10
5.0810303302
 20
2.6535456003
 30
0.0
 10
5.0764091929
 20
2.6582963835
 30
0.0
 10
5.0712091957
 20
2.6645367123
 30
0.0
 10
5.066830219
 20
2.6712676541
 30
0.0
 10
5.0639313609
 20
2.6768735583
 30
0.0
 10
5.0620734152
 20
2.6811728822
 30
0.0
 10
5.06054144
 20
2.6855753611
 30
0.0
 10
5.0593505637
 20
2.6900662706
 30
0.0
 10
5.0585128816
 20
2.694626313
 30
0.0
 10
5.0580438981
 20
2.6992331264
 30
0.0
 10
5.0579472477
 20
2.7038608415
 30
0.0
 10
5.0583142592
 20
2.7100217992
 30
0.0
 10
5.0594310402
 20
2.7161255825
 30
0.0
 10
5.0612368308
 20
2.7220488301
 30
0.0
 10
5.0634983511
 20
2.7278706495
 30
0.0
 10
5.067135057
 20
2.7348982533
 30
0.0
 10
5.0707552381
 20
2.7401151042
 30
0.0
 10
5.0727219721
 20
2.7426337495
 30
0.0
  0
SPLINE
  5
335
100
AcDbEntity
  8
0
100
AcDbSpline
 62
7
  6
CONTINUOUS
 70
0
 71
3
 72
29
 73
25
 74
0
 42
0.0000001
 43
0.0000001
 44
0.0000000001
 40
0.0
 40
0.0
 40
0.0
 40
0.0
 40
0.0771394863
 40
0.1510752571
 40
0.221855407
 40
0.2896161897
 40
0.3546061317
 40
0.3861738707
 40
0.4171864976
 40
0.4777707704
 40
0.5368644974
 40
0.5660355668
 40
0.5950127772
 40
0.6238560369
 40
0.6526103122
 40
0.6812988331
 40
0.7099546407
 40
0.7386003563
 40
0.7672479528
 40
0.8245898492
 40
0.8533824696
 40
0.8822823359
 40
0.9405952898
 40
1.0
 40
1.0
 40
1.0
 40
1.0
 10
5.1337465553
 20
2.7456523861
 30
0.0
 10
5.1299065265
 20
2.7472249989
 30
0.0
 10
5.1224605526
 20
2.750492288
 30
0.0
 10
5.1118113433
 20
2.7558941204
 30
0.0
 10
5.1019534434
 20
2.7616954759
 30
0.0
 10
5.092922533
 20
2.7679024407
 30
0.0
 10
5.0860507032
 20
2.7734808716
 30
0.0
 10
5.0810303302
 20
2.778162921
 30
0.0
 10
5.0764091929
 20
2.7829137042
 30
0.0
 10
5.0712091957
 20
2.789154033
 30
0.0
 10
5.066830219
 20
2.7958849748
 30
0.0
 10
5.0639313609
 20
2.801490879
 30
0.0
 10
5.0620734152
 20
2.8057902029
 30
0.0
 10
5.06054144
 20
2.8101926818
 30
0.0
 10
5.0593505637
 20
2.8146835913
 30
0.0
 10
5.0585128816
 20
2.8192436337
 30
0.0
 10
5.0580438981
 20
2.8238504471
 30
0.0
 10
5.0579472477
 20
2.8284781622
 30
0.0
 10
5.0583142592
 20
2.8346391199
 30
0.0
 10
5.0594310402
 20
2.8407429033
 30
0.0
 10
5.0612368308
 20
2.8466661508
 30
0.0
 10
5.0634983511
 20
2.8524879703
 30
0.0
 10
5.067135057
 20
2.859515574
 30
0.0
 10
5.0707552381
 20
2.8647324249
 30
0.0
 10
5.0727219721
 20
2.8672510702
 30
0.0
  0
SPLINE
  5
336
100
AcDbEntity
  8
0
100
AcDbSpline
 62
7
  6
CONTINUOUS
 70
0
 71
3
 72
29
 73
25
 74
0
 42
0.0000001
 43
0.0000001
 44
0.0000000001
 40
0.0
 40
0.0
 40
0.0
 40
0.0
 40
0.0771394863
 40
0.1510752571
 40
0.221855407
 40
0.2896161897
 40
0.3546061317
 40
0.3861738707
 40
0.4171864976
 40
0.4777707704
 40
0.5368644974
 40
0.5660355668
 40
0.5950127772
 40
0.6238560369
 40
0.6526103122
 40
0.6812988331
 40
0.7099546407
 40
0.7386003563
 40
0.7672479528
 40
0.8245898492
 40
0.8533824696
 40
0.8822823359
 40
0.9405952898
 40
1.0
 40
1.0
 40
1.0
 40
1.0
 10
5.1337465553
 20
2.8702697068
 30
0.0
 10
5.1299065265
 20
2.8718423196
 30
0.0
 10
5.1224605526
 20
2.8751096087
 30
0.0
 10
5.1118113433
 20
2.8805114411
 30
0.0
 10
5.1019534434
 20
2.8863127966
 30
0.0
 10
5.092922533
 20
2.8925197614
 30
0.0
 10
5.0860507032
 20
2.8980981923
 30
0.0
 10
5.0810303302
 20
2.9027802417
 30
0.0
 10
5.0764091929
 20
2.9075310249
 30
0.0
 10
5.0712091957
 20
2.9137713537
 30
0.0
 10
5.066830219
 20
2.9205022955
 30
0.0
 10
5.0639313609
 20
2.9261081997
 30
0.0
 10
5.0620734152
 20
2.9304075236
 30
0.0
 10
5.06054144
 20
2.9348100026
 30
0.0
 10
5.0593505637
 20
2.9393009121
 30
0.0
 10
5.0585128816
 20
2.9438609544
 30
0.0
 10
5.0580438981
 20
2.9484677678
 30
0.0
 10
5.0579472477
 20
2.9530954829
 30
0.0
 10
5.0583142592
 20
2.9592564406
 30
0.0
 10
5.0594310402
 20
2.965360224
 30
0.0
 10
5.0612368308
 20
2.9712834715
 30
0.0
 10
5.0634983511
 20
2.977105291
 30
0.0
 10
5.067135057
 20
2.9841328947
 30
0.0
 10
5.0707552381
 20
2.9893497456
 30
0.0
 10
5.0727219721
 20
2.9918683909
 30
0.0
  0
SPLINE
  5
337
100
AcDbEntity
  8
0
100
AcDbSpline
 62
7
  6
CONTINUOUS
 70
0
 71
3
 72
29
 73
25
 74
0
 42
0.0000001
 43
0.0000001
 44
0.0000000001
 40
0.0
 40
0.0
 40
0.0
 40
0.0
 40
0.0771394863
 40
0.1510752571
 40
0.221855407
 40
0.2896161897
 40
0.3546061317
 40
0.3861738707
 40
0.4171864976
 40
0.4777707704
 40
0.5368644974
 40
0.5660355668
 40
0.5950127772
 40
0.6238560369
 40
0.6526103122
 40
0.6812988331
 40
0.7099546407
 40
0.7386003563
 40
0.7672479528
 40
0.8245898492
 40
0.8533824696
 40
0.8822823359
 40
0.9405952898
 40
1.0
 40
1.0
 40
1.0
 40
1.0
 10
5.1337465553
 20
2.9948870275
 30
0.0
 10
5.1299065265
 20
2.9964596403
 30
0.0
 10
5.1224605526
 20
2.9997269294
 30
0.0
 10
5.1118113433
 20
3.0051287618
 30
0.0
 10
5.1019534434
 20
3.0109301173
 30
0.0
 10
5.092922533
 20
3.0171370821
 30
0.0
 10
5.0860507032
 20
3.022715513
 30
0.0
 10
5.0810303302
 20
3.0273975625
 30
0.0
 10
5.0764091929
 20
3.0321483456
 30
0.0
 10
5.0712091957
 20
3.0383886745
 30
0.0
 10
5.066830219
 20
3.0451196162
 30
0.0
 10
5.0639313609
 20
3.0507255204
 30
0.0
 10
5.0620734152
 20
3.0550248443
 30
0.0
 10
5.06054144
 20
3.0594273233
 30
0.0
 10
5.0593505637
 20
3.0639182328
 30
0.0
 10
5.0585128816
 20
3.0684782751
 30
0.0
 10
5.0580438981
 20
3.0730850885
 30
0.0
 10
5.0579472477
 20
3.0777128036
 30
0.0
 10
5.0583142592
 20
3.0838737614
 30
0.0
 10
5.0594310402
 20
3.0899775447
 30
0.0
 10
5.0612368308
 20
3.0959007922
 30
0.0
 10
5.0634983511
 20
3.1017226117
 30
0.0
 10
5.067135057
 20
3.1087502154
 30
0.0
 10
5.0707552381
 20
3.1139670663
 30
0.0
 10
5.0727219721
 20
3.1164857116
 30
0.0
  0
LINE
  5
338
100
AcDbEntity
  8
0
100
AcDbLine
 62
7
  6
CONTINUOUS
 10
5.600285962
 20
5.1536398551
 11
5.6009974671
 21
5.1532710984
  0
LINE
  5
339
100
AcDbEntity
  8
0
100
AcDbLine
 62
7
  6
CONTINUOUS
 10
5.600285962
 20
5.1880898551
 11
5.6009974671
 21
5.1877210984
  0
LINE
  5
33A
100
AcDbEntity
  8
0
100
AcDbLine
 62
7
  6
CONTINUOUS
 10
5.600285962
 20
5.2225398551
 11
5.6009974671
 21
5.2221710984
  0
LINE
  5
33B
100
AcDbEntity
  8
0
100
AcDbLine
 62
7
  6
CONTINUOUS
 10
4.9722091951
 20
5.1364148551
 11
4.97149769
 21
5.1360460984
  0
LINE
  5
33C
100
AcDbEntity
  8
0
100
AcDbLine
 62
7
  6
CONTINUOUS
 10
4.9722091951
 20
5.1708648551
 11
4.97149769
 21
5.1704960984
  0
LINE
  5
33D
100
AcDbEntity
  8
0
100
AcDbLine
 62
7
  6
CONTINUOUS
 10
4.9722091951
 20
5.2053148551
 11
4.97149769
 21
5.2049460984
  0
LINE
  5
33E
100
AcDbEntity
  8
0
100
AcDbLine
 62
7
  6
CONTINUOUS
 10
4.9722091951
 20
5.2397648551
 11
4.97149769
 21
5.2393960984
  0
LINE
  5
33F
100
AcDbEntity
  8
0
100
AcDbLine
 62
7
  6
CONTINUOUS
 10
4.9722092769
 20
5.4120148551
 11
4.9714976016
 21
5.4116460983
  0
LINE
  5
340
100
AcDbEntity
  8
0
100
AcDbLine
 62
7
  6
CONTINUOUS
 10
5.600285962
 20
5.3947898551
 11
5.6009974671
 21
5.3944210984
  0
LINE
  5
341
100
AcDbEntity
  8
0
100
AcDbLine
 62
7
  6
CONTINUOUS
 10
5.6002859829
 20
5.2569898551
 11
5.600997485
 21
5.2566210984
  0
LINE
  5
342
100
AcDbEntity
  8
0
100
AcDbLine
 62
7
  6
CONTINUOUS
 10
5.600285962
 20
5.2914398551
 11
5.6009974671
 21
5.2910710984
  0
LINE
  5
343
100
AcDbEntity
  8
0
100
AcDbLine
 62
7
  6
CONTINUOUS
 10
5.600285962
 20
5.3258898551
 11
5.6009974671
 21
5.3255210984
  0
LINE
  5
344
100
AcDbEntity
  8
0
100
AcDbLine
 62
7
  6
CONTINUOUS
 10
5.600285962
 20
5.3603398551
 11
5.6009974671
 21
5.3599710984
  0
LINE
  5
345
100
AcDbEntity
  8
0
100
AcDbLine
 62
7
  6
CONTINUOUS
 10
4.9722091951
 20
5.2742148551
 11
4.97149769
 21
5.2738460984
  0
LINE
  5
346
100
AcDbEntity
  8
0
100
AcDbLine
 62
7
  6
CONTINUOUS
 10
4.9722091951
 20
5.3086648551
 11
4.97149769
 21
5.3082960984
  0
LINE
  5
347
100
AcDbEntity
  8
0
100
AcDbLine
 62
7
  6
CONTINUOUS
 10
4.9722091951
 20
5.3431148551
 11
4.97149769
 21
5.3427460984
  0
LINE
  5
348
100
AcDbEntity
  8
0
100
AcDbLine
 62
7
  6
CONTINUOUS
 10
4.9722093417
 20
5.3775648551
 11
4.9714975873
 21
5.3771960984
  0
SPLINE
  5
349
100
AcDbEntity
  8
0
100
AcDbSpline
 62
7
  6
CONTINUOUS
 70
0
 71
3
 72
30
 73
26
 74
0
 42
0.0000001
 43
0.0000001
 44
0.0000000001
 40
0.0
 40
0.0
 40
0.0
 40
0.0
 40
0.0594010963
 40
0.1177087397
 40
0.1466087024
 40
0.1754040073
 40
0.2041193129
 40
0.2327863203
 40
0.2614360416
 40
0.2900814791
 40
0.3187354739
 40
0.3474253442
 40
0.3761807565
 40
0.4050225094
 40
0.4339994851
 40
0.4631701965
 40
0.5222606067
 40
0.5828393767
 40
0.6138489744
 40
0.6454139481
 40
0.7103982985
 40
0.7781552832
 40
0.8489318365
 40
0.9228640334
 40
1.0
 40
1.0
 40
1.0
 40
1.0
 10
5.4997690006
 20
3.2411086186
 30
0.0
 10
5.501735929
 20
3.2385901221
 30
0.0
 10
5.5053558456
 20
3.2333733351
 30
0.0
 10
5.5089945079
 20
3.2263464765
 30
0.0
 10
5.5112557853
 20
3.2205247257
 30
0.0
 10
5.5126128629
 20
3.2160739002
 30
0.0
 10
5.5136232639
 20
3.21154455
 30
0.0
 10
5.5142714246
 20
3.2069569115
 30
0.0
 10
5.5145473395
 20
3.2023356947
 30
0.0
 10
5.5144521168
 20
3.1977079198
 30
0.0
 10
5.5139826788
 20
3.1931008089
 30
0.0
 10
5.5131453811
 20
3.1885404222
 30
0.0
 10
5.5119552022
 20
3.18404896
 30
0.0
 10
5.5104232973
 20
3.1796461799
 30
0.0
 10
5.5085655516
 20
3.1753465842
 30
0.0
 10
5.5056670007
 20
3.1697403163
 30
0.0
 10
5.501288276
 20
3.1630092091
 30
0.0
 10
5.4960887324
 20
3.1567686825
 30
0.0
 10
5.4914678545
 20
3.1520179215
 30
0.0
 10
5.4864477672
 20
3.1473358504
 30
0.0
 10
5.4795763927
 20
3.1417570271
 30
0.0
 10
5.4705455602
 20
3.1355499801
 30
0.0
 10
5.4606877917
 20
3.1297481858
 30
0.0
 10
5.4500385191
 20
3.1243461138
 30
0.0
 10
5.442592508
 20
3.1210786169
 30
0.0
 10
5.4387524431
 20
3.1195059175
 30
0.0
  0
SPLINE
  5
34A
100
AcDbEntity
  8
0
100
AcDbSpline
 62
7
  6
CONTINUOUS
 70
0
 71
3
 72
39
 73
35
 74
0
 42
0.0000001
 43
0.0000001
 44
0.0000000001
 40
0.0
 40
0.0
 40
0.0
 40
0.0
 40
0.0002370941
 40
0.0003818743
 40
0.000551755
 40
0.0009790612
 40
0.0015349645
 40
0.0022260091
 40
0.0030554346
 40
0.0040250252
 40
0.0051358315
 40
0.0077833055
 40
0.0110007521
 40
0.0147890556
 40
0.0191476293
 40
0.0295683055
 40
0.0422463059
 40
0.0571589784
 40
0.0742766607
 40
0.0935672274
 40
0.1149913333
 40
0.138507154
 40
0.1640676769
 40
0.1916213738
 40
0.2211141119
 40
0.2856742595
 40
0.3572309961
 40
0.4352108423
 40
0.5189885967
 40
0.6078916293
 40
0.7012080827
 40
0.7981848251
 40
0.8980543519
 40
1.0
 40
1.0
 40
1.0
 40
1.0
 10
5.600997485
 20
5.2566210984
 30
0.0
 10
5.6009974931
 20
5.2565995936
 30
0.0
 10
5.6009844631
 20
5.2565649205
 30
0.0
 10
5.600952326
 20
5.2565265697
 30
0.0
 10
5.6009013342
 20
5.2564821868
 30
0.0
 10
5.6008105607
 20
5.2564289938
 30
0.0
 10
5.6006709737
 20
5.2563688433
 30
0.0
 10
5.6004924069
 20
5.2563084624
 30
0.0
 10
5.6002747857
 20
5.2562478095
 30
0.0
 10
5.6000179098
 20
5.256186978
 30
0.0
 10
5.5995978346
 20
5.2561005676
 30
0.0
 10
5.5989737929
 20
5.2559951564
 30
0.0
 10
5.5981065768
 20
5.2558740946
 30
0.0
 10
5.597082937
 20
5.2557526123
 30
0.0
 10
5.5954076798
 20
5.255579735
 30
0.0
 10
5.5929260056
 20
5.2553691279
 30
0.0
 10
5.5894867494
 20
5.2551272153
 30
0.0
 10
5.5854388403
 20
5.254884449
 30
0.0
 10
5.5807902901
 20
5.2546409201
 30
0.0
 10
5.5755504491
 20
5.2543969809
 30
0.0
 10
5.569729743
 20
5.2541526896
 30
0.0
 10
5.5633398978
 20
5.2539081723
 30
0.0
 10
5.5563937234
 20
5.2536634777
 30
0.0
 10
5.5489051277
 20
5.2534186267
 30
0.0
 10
5.5378803427
 20
5.2530817884
 30
0.0
 10
5.5228650291
 20
5.2526648454
 30
0.0
 10
5.5034521949
 20
5.2521774873
 30
0.0
 10
5.4822958044
 20
5.2516895395
 30
0.0
 10
5.4595657007
 20
5.2512011268
 30
0.0
 10
5.4354442473
 20
5.2507123845
 30
0.0
 10
5.4101253957
 20
5.2502234042
 30
0.0
 10
5.3838116907
 20
5.2497342351
 30
0.0
 10
5.3567151748
 20
5.2492449493
 30
0.0
 10
5.3384130606
 20
5.2489211669
 30
0.0
 10
5.329167847
 20
5.2487585984
 30
0.0
  0
SPLINE
  5
34B
100
AcDbEntity
  8
0
100
AcDbSpline
 62
7
  6
CONTINUOUS
 70
0
 71
3
 72
39
 73
35
 74
0
 42
0.0000001
 43
0.0000001
 44
0.0000000001
 40
0.0
 40
0.0
 40
0.0
 40
0.0
 40
0.000522443
 40
0.0007225193
 40
0.0009552567
 40
0.0015233136
 40
0.0022329777
 40
0.0030871452
 40
0.0040873247
 40
0.0052343691
 40
0.0079707117
 40
0.0112981435
 40
0.0152168847
 40
0.0197258015
 40
0.0305042131
 40
0.0436114798
 40
0.0590180463
 40
0.0766875226
 40
0.0965788924
 40
0.1186437664
 40
0.1428305587
 40
0.1690801068
 40
0.1973305283
 40
0.2275130044
 40
0.2595556403
 40
0.2933809986
 40
0.3660507836
 40
0.4448230863
 40
0.5289400226
 40
0.6175916474
 40
0.7099254491
 40
0.8050502783
 40
0.9020555645
 40
1.0
 40
1.0
 40
1.0
 40
1.0
 10
5.6009974671
 20
5.2221710984
 30
0.0
 10
5.6009974671
 20
5.2221162372
 30
0.0
 10
5.6009305283
 20
5.2220518412
 30
0.0
 10
5.6008472098
 20
5.222000633
 30
0.0
 10
5.600752914
 20
5.221952409
 30
0.0
 10
5.6006052869
 20
5.2218947651
 30
0.0
 10
5.6003911689
 20
5.2218285044
 30
0.0
 10
5.6001301919
 20
5.2217621654
 30
0.0
 10
5.5998220774
 20
5.2216955285
 30
0.0
 10
5.5993180297
 20
5.2216008691
 30
0.0
 10
5.5985695065
 20
5.2214854119
 30
0.0
 10
5.5975296112
 20
5.2213528236
 30
0.0
 10
5.5963023538
 20
5.2212197639
 30
0.0
 10
5.5942944079
 20
5.2210304198
 30
0.0
 10
5.5913214809
 20
5.2207997654
 30
0.0
 10
5.5872039009
 20
5.2205348128
 30
0.0
 10
5.5823614784
 20
5.2202689039
 30
0.0
 10
5.5768057967
 20
5.2200021746
 30
0.0
 10
5.5705502445
 20
5.219734984
 30
0.0
 10
5.5636097762
 20
5.2194674079
 30
0.0
 10
5.5560012022
 20
5.2191995961
 30
0.0
 10
5.5477427302
 20
5.2189315663
 30
0.0
 10
5.538854356
 20
5.2186634024
 30
0.0
 10
5.5293574021
 20
5.2183951079
 30
0.0
 10
5.5192748135
 20
5.2181267203
 30
0.0
 10
5.5047317315
 20
5.2177599429
 30
0.0
 10
5.4852822995
 20
5.2173050659
 30
0.0
 10
5.4605522638
 20
5.216770741
 30
0.0
 10
5.4341436372
 20
5.2162359642
 30
0.0
 10
5.4063106648
 20
5.215700834
 30
0.0
 10
5.3773215663
 20
5.2151654665
 30
0.0
 10
5.3474551178
 20
5.2146299266
 30
0.0
 10
5.3169994122
 20
5.214094287
 30
0.0
 10
5.2965310578
 20
5.2137377347
 30
0.0
 10
5.2862475786
 20
5.2135585984
 30
0.0
  0
SPLINE
  5
34C
100
AcDbEntity
  8
0
100
AcDbSpline
 62
7
  6
CONTINUOUS
 70
0
 71
3
 72
39
 73
35
 74
0
 42
0.0000001
 43
0.0000001
 44
0.0000000001
 40
0.0
 40
0.0
 40
0.0
 40
0.0
 40
0.000522443
 40
0.0007225193
 40
0.0009552567
 40
0.0015233136
 40
0.0022329777
 40
0.0030871452
 40
0.0040873247
 40
0.0052343691
 40
0.0079707117
 40
0.0112981435
 40
0.0152168847
 40
0.0197258015
 40
0.0305042131
 40
0.0436114798
 40
0.0590180463
 40
0.0766875226
 40
0.0965788924
 40
0.1186437664
 40
0.1428305587
 40
0.1690801068
 40
0.1973305283
 40
0.2275130044
 40
0.2595556403
 40
0.2933809986
 40
0.3660507836
 40
0.4448230863
 40
0.5289400226
 40
0.6175916474
 40
0.7099254491
 40
0.8050502783
 40
0.9020555645
 40
1.0
 40
1.0
 40
1.0
 40
1.0
 10
5.6009974671
 20
5.1877210984
 30
0.0
 10
5.6009974671
 20
5.1876662372
 30
0.0
 10
5.6009305283
 20
5.1876018412
 30
0.0
 10
5.6008472098
 20
5.187550633
 30
0.0
 10
5.600752914
 20
5.187502409
 30
0.0
 10
5.6006052869
 20
5.1874447651
 30
0.0
 10
5.6003911689
 20
5.1873785044
 30
0.0
 10
5.6001301919
 20
5.1873121654
 30
0.0
 10
5.5998220774
 20
5.1872455285
 30
0.0
 10
5.5993180297
 20
5.1871508691
 30
0.0
 10
5.5985695065
 20
5.1870354119
 30
0.0
 10
5.5975296112
 20
5.1869028236
 30
0.0
 10
5.5963023538
 20
5.1867697639
 30
0.0
 10
5.5942944079
 20
5.1865804198
 30
0.0
 10
5.5913214809
 20
5.1863497654
 30
0.0
 10
5.5872039009
 20
5.1860848128
 30
0.0
 10
5.5823614784
 20
5.1858189039
 30
0.0
 10
5.5768057967
 20
5.1855521746
 30
0.0
 10
5.5705502445
 20
5.185284984
 30
0.0
 10
5.5636097762
 20
5.1850174079
 30
0.0
 10
5.5560012022
 20
5.1847495961
 30
0.0
 10
5.5477427302
 20
5.1844815663
 30
0.0
 10
5.538854356
 20
5.1842134024
 30
0.0
 10
5.5293574021
 20
5.1839451079
 30
0.0
 10
5.5192748135
 20
5.1836767203
 30
0.0
 10
5.5047317315
 20
5.1833099429
 30
0.0
 10
5.4852822995
 20
5.1828550659
 30
0.0
 10
5.4605522638
 20
5.182320741
 30
0.0
 10
5.4341436372
 20
5.1817859642
 30
0.0
 10
5.4063106648
 20
5.181250834
 30
0.0
 10
5.3773215663
 20
5.1807154665
 30
0.0
 10
5.3474551178
 20
5.1801799266
 30
0.0
 10
5.3169994122
 20
5.179644287
 30
0.0
 10
5.2965310578
 20
5.1792877347
 30
0.0
 10
5.2862475786
 20
5.1791085984
 30
0.0
  0
SPLINE
  5
34D
100
AcDbEntity
  8
0
100
AcDbSpline
 62
7
  6
CONTINUOUS
 70
0
 71
3
 72
39
 73
35
 74
0
 42
0.0000001
 43
0.0000001
 44
0.0000000001
 40
0.0
 40
0.0
 40
0.0
 40
0.0
 40
0.000522443
 40
0.0007225193
 40
0.0009552567
 40
0.0015233136
 40
0.0022329777
 40
0.0030871452
 40
0.0040873247
 40
0.0052343691
 40
0.0079707117
 40
0.0112981435
 40
0.0152168847
 40
0.0197258015
 40
0.0305042131
 40
0.0436114798
 40
0.0590180463
 40
0.0766875226
 40
0.0965788924
 40
0.1186437664
 40
0.1428305587
 40
0.1690801068
 40
0.1973305283
 40
0.2275130044
 40
0.2595556403
 40
0.2933809986
 40
0.3660507836
 40
0.4448230863
 40
0.5289400226
 40
0.6175916474
 40
0.7099254491
 40
0.8050502783
 40
0.9020555645
 40
1.0
 40
1.0
 40
1.0
 40
1.0
 10
5.6009974671
 20
5.1532710984
 30
0.0
 10
5.6009974671
 20
5.1532162372
 30
0.0
 10
5.6009305283
 20
5.1531518412
 30
0.0
 10
5.6008472098
 20
5.153100633
 30
0.0
 10
5.600752914
 20
5.153052409
 30
0.0
 10
5.6006052869
 20
5.1529947651
 30
0.0
 10
5.6003911689
 20
5.1529285044
 30
0.0
 10
5.6001301919
 20
5.1528621654
 30
0.0
 10
5.5998220774
 20
5.1527955285
 30
0.0
 10
5.5993180297
 20
5.1527008691
 30
0.0
 10
5.5985695065
 20
5.1525854119
 30
0.0
 10
5.5975296112
 20
5.1524528236
 30
0.0
 10
5.5963023538
 20
5.1523197639
 30
0.0
 10
5.5942944079
 20
5.1521304198
 30
0.0
 10
5.5913214809
 20
5.1518997654
 30
0.0
 10
5.5872039009
 20
5.1516348128
 30
0.0
 10
5.5823614784
 20
5.1513689039
 30
0.0
 10
5.5768057967
 20
5.1511021746
 30
0.0
 10
5.5705502445
 20
5.150834984
 30
0.0
 10
5.5636097762
 20
5.1505674079
 30
0.0
 10
5.5560012022
 20
5.1502995961
 30
0.0
 10
5.5477427302
 20
5.1500315663
 30
0.0
 10
5.538854356
 20
5.1497634024
 30
0.0
 10
5.5293574021
 20
5.1494951079
 30
0.0
 10
5.5192748135
 20
5.1492267203
 30
0.0
 10
5.5047317315
 20
5.1488599429
 30
0.0
 10
5.4852822995
 20
5.1484050659
 30
0.0
 10
5.4605522638
 20
5.147870741
 30
0.0
 10
5.4341436372
 20
5.1473359642
 30
0.0
 10
5.4063106648
 20
5.146800834
 30
0.0
 10
5.3773215663
 20
5.1462654665
 30
0.0
 10
5.3474551178
 20
5.1457299266
 30
0.0
 10
5.3169994122
 20
5.145194287
 30
0.0
 10
5.2965310578
 20
5.1448377347
 30
0.0
 10
5.2862475786
 20
5.1446585984
 30
0.0
  0
SPLINE
  5
34E
100
AcDbEntity
  8
0
100
AcDbSpline
 62
7
  6
CONTINUOUS
 70
0
 71
3
 72
15
 73
11
 74
0
 42
0.0000001
 43
0.0000001
 44
0.0000000001
 40
0.0
 40
0.0
 40
0.0
 40
0.0
 40
0.2184797565
 40
0.4090474033
 40
0.571887543
 40
0.7073134491
 40
0.8158949812
 40
0.8604687428
 40
0.8988609118
 40
1.0
 40
1.0
 40
1.0
 40
1.0
 10
4.9933955153
 20
5.3962714662
 30
0.0
 10
4.9932744575
 20
5.3962494515
 30
0.0
 10
4.9930482132
 20
5.3962059449
 30
0.0
 10
4.9927336842
 20
5.3961363274
 30
0.0
 10
4.9924672158
 20
5.3960669919
 30
0.0
 10
4.9922485224
 20
5.3959977343
 30
0.0
 10
4.9920976943
 20
5.3959374751
 30
0.0
 10
4.9920013906
 20
5.3958871124
 30
0.0
 10
4.9919156879
 20
5.3958332844
 30
0.0
 10
4.9918477017
 20
5.3957659257
 30
0.0
 10
4.9918476307
 20
5.3957089663
 30
0.0
  0
SPLINE
  5
34F
100
AcDbEntity
  8
0
100
AcDbSpline
 62
7
  6
CONTINUOUS
 70
0
 71
3
 72
39
 73
35
 74
0
 42
0.0000001
 43
0.0000001
 44
0.0000000001
 40
0.0
 40
0.0
 40
0.0
 40
0.0
 40
0.0005224677
 40
0.0007225728
 40
0.0009553479
 40
0.0015235054
 40
0.0022332601
 40
0.0030874541
 40
0.0040876087
 40
0.0052345927
 40
0.0079707756
 40
0.0112981099
 40
0.0152168904
 40
0.0197257609
 40
0.0305040073
 40
0.0436113434
 40
0.0590177284
 40
0.0766872442
 40
0.0965785095
 40
0.1186433939
 40
0.1428301351
 40
0.169079624
 40
0.197330054
 40
0.2275124605
 40
0.2595551692
 40
0.293380491
 40
0.3660502426
 40
0.4448226252
 40
0.5289396223
 40
0.6175912644
 40
0.7099252065
 40
0.8050500242
 40
0.9020555653
 40
1.0
 40
1.0
 40
1.0
 40
1.0
 10
5.6009975782
 20
5.1188210982
 30
0.0
 10
5.6009975778
 20
5.1187662345
 30
0.0
 10
5.6009306179
 20
5.1187018427
 30
0.0
 10
5.6008472866
 20
5.1186506401
 30
0.0
 10
5.6007529697
 20
5.1186024178
 30
0.0
 10
5.6006053154
 20
5.1185447785
 30
0.0
 10
5.6003911726
 20
5.1184785209
 30
0.0
 10
5.6001301859
 20
5.1184121809
 30
0.0
 10
5.5998220777
 20
5.1183455435
 30
0.0
 10
5.5993180562
 20
5.118250883
 30
0.0
 10
5.5985695671
 20
5.118135422
 30
0.0
 10
5.5975296948
 20
5.118002831
 30
0.0
 10
5.5963024477
 20
5.117869775
 30
0.0
 10
5.5942945197
 20
5.1176804281
 30
0.0
 10
5.591321607
 20
5.1174497708
 30
0.0
 10
5.5872040545
 20
5.1171848258
 30
0.0
 10
5.5823616387
 20
5.1169189096
 30
0.0
 10
5.5768059811
 20
5.116652185
 30
0.0
 10
5.570550433
 20
5.1163849904
 30
0.0
 10
5.563609978
 20
5.116117416
 30
0.0
 10
5.5560014124
 20
5.1158496032
 30
0.0
 10
5.5477429488
 20
5.1155815728
 30
0.0
 10
5.5388545847
 20
5.1153134096
 30
0.0
 10
5.5293576269
 20
5.1150451133
 30
0.0
 10
5.519275039
 20
5.1147767268
 30
0.0
 10
5.5047319526
 20
5.1144099475
 30
0.0
 10
5.4852825141
 20
5.1139550708
 30
0.0
 10
5.4605524602
 20
5.1134207451
 30
0.0
 10
5.4341438095
 20
5.1128859675
 30
0.0
 10
5.4063108064
 20
5.1123508367
 30
0.0
 10
5.3773216843
 20
5.1118154687
 30
0.0
 10
5.3474551871
 20
5.1112799278
 30
0.0
 10
5.3169994475
 20
5.1107442876
 30
0.0
 10
5.2965310606
 20
5.1103877348
 30
0.0
 10
5.2862475786
 20
5.1102085984
 30
0.0
  0
SPLINE
  5
350
100
AcDbEntity
  8
0
100
AcDbSpline
 62
7
  6
CONTINUOUS
 70
0
 71
3
 72
25
 73
21
 74
0
 42
0.0000001
 43
0.0000001
 44
0.0000000001
 40
0.0
 40
0.0
 40
0.0
 40
0.0
 40
0.0030795795
 40
0.0066660308
 40
0.0153536067
 40
0.0260484922
 40
0.0387301404
 40
0.0533746831
 40
0.0699534874
 40
0.1087750526
 40
0.1548801229
 40
0.207893486
 40
0.267382633
 40
0.3328618129
 40
0.4037960509
 40
0.4796054122
 40
0.5596702754
 40
0.6433356219
 40
0.818707753
 40
1.0
 40
1.0
 40
1.0
 40
1.0
 10
5.5986127971
 20
5.4175214662
 30
0.0
 10
5.598295186
 20
5.4174764357
 30
0.0
 10
5.5976063815
 20
5.4173881584
 30
0.0
 10
5.5960166231
 20
5.4172130421
 30
0.0
 10
5.5936332945
 20
5.4170003812
 30
0.0
 10
5.5903021544
 20
5.4167565344
 30
0.0
 10
5.5863491567
 20
5.4165117181
 30
0.0
 10
5.5817823205
 20
5.4162660319
 30
0.0
 10
5.5744942301
 20
5.4159193076
 30
0.0
 10
5.5639291865
 20
5.415495548
 30
0.0
 10
5.5495687945
 20
5.4150069559
 30
0.0
 10
5.5330545124
 20
5.4145168019
 30
0.0
 10
5.5145213687
 20
5.4140253918
 30
0.0
 10
5.4941209084
 20
5.4135332071
 30
0.0
 10
5.472019999
 20
5.4130404507
 30
0.0
 10
5.4483994159
 20
5.4125472928
 30
0.0
 10
5.4234524193
 20
5.4120538253
 30
0.0
 10
5.3881358211
 20
5.4113850902
 30
0.0
 10
5.3422758544
 20
5.4105603169
 30
0.0
 10
5.3051291976
 20
5.4099132485
 30
0.0
 10
5.2862475786
 20
5.4095843341
 30
0.0
  0
SPLINE
  5
351
100
AcDbEntity
  8
0
100
AcDbSpline
 62
7
  6
CONTINUOUS
 70
0
 71
3
 72
23
 73
19
 74
0
 42
0.0000001
 43
0.0000001
 44
0.0000000001
 40
0.0
 40
0.0
 40
0.0
 40
0.0
 40
0.0216665118
 40
0.0437948284
 40
0.0897116347
 40
0.1382352329
 40
0.1896351682
 40
0.2440293451
 40
0.301419099
 40
0.3617190357
 40
0.424780655
 40
0.4904083172
 40
0.5583724427
 40
0.6284199454
 40
0.7002788473
 40
0.773661202
 40
0.8482767327
 40
1.0
 40
1.0
 40
1.0
 40
1.0
 10
5.4387475517
 20
3.6203816971
 30
0.0
 10
5.4387475745
 20
3.6221364028
 30
0.0
 10
5.4386140101
 20
3.6256844725
 30
0.0
 10
5.4378327873
 20
3.6329125529
 30
0.0
 10
5.4358914731
 20
3.6421777591
 30
0.0
 10
5.4322001406
 20
3.6534173361
 30
0.0
 10
5.4272130208
 20
3.6648933485
 30
0.0
 10
5.4210230964
 20
3.676581985
 30
0.0
 10
5.4137226528
 20
3.6884626495
 30
0.0
 10
5.4054042761
 20
3.700514883
 30
0.0
 10
5.3961608899
 20
3.7127193282
 30
0.0
 10
5.3860854337
 20
3.7250573754
 30
0.0
 10
5.3752709766
 20
3.7375115255
 30
0.0
 10
5.3638103885
 20
3.750065161
 30
0.0
 10
5.3517964465
 20
3.7627023228
 30
0.0
 10
5.3393216331
 20
3.7754081286
 30
0.0
 10
5.322101111
 20
3.7925160026
 30
0.0
 10
5.3089214582
 20
3.8052568037
 30
0.0
 10
5.3000622296
 20
3.8137714662
 30
0.0
  0
SPLINE
  5
352
100
AcDbEntity
  8
0
100
AcDbSpline
 62
7
  6
CONTINUOUS
 70
0
 71
3
 72
39
 73
35
 74
0
 42
0.0000001
 43
0.0000001
 44
0.0000000001
 40
0.0
 40
0.0
 40
0.0
 40
0.0
 40
0.000522443
 40
0.0007225193
 40
0.0009552567
 40
0.0015233136
 40
0.0022329777
 40
0.0030871452
 40
0.0040873247
 40
0.0052343691
 40
0.0079707117
 40
0.0112981435
 40
0.0152168847
 40
0.0197258015
 40
0.0305042131
 40
0.0436114798
 40
0.0590180463
 40
0.0766875226
 40
0.0965788924
 40
0.1186437664
 40
0.1428305587
 40
0.1690801068
 40
0.1973305283
 40
0.2275130044
 40
0.2595556403
 40
0.2933809986
 40
0.3660507836
 40
0.4448230863
 40
0.5289400226
 40
0.6175916474
 40
0.7099254491
 40
0.8050502783
 40
0.9020555645
 40
1.0
 40
1.0
 40
1.0
 40
1.0
 10
5.6009974671
 20
5.0843710984
 30
0.0
 10
5.6009974671
 20
5.0843162372
 30
0.0
 10
5.6009305283
 20
5.0842518412
 30
0.0
 10
5.6008472098
 20
5.084200633
 30
0.0
 10
5.600752914
 20
5.084152409
 30
0.0
 10
5.6006052869
 20
5.0840947651
 30
0.0
 10
5.6003911689
 20
5.0840285044
 30
0.0
 10
5.6001301919
 20
5.0839621654
 30
0.0
 10
5.5998220774
 20
5.0838955285
 30
0.0
 10
5.5993180297
 20
5.0838008691
 30
0.0
 10
5.5985695065
 20
5.0836854119
 30
0.0
 10
5.5975296112
 20
5.0835528236
 30
0.0
 10
5.5963023538
 20
5.0834197639
 30
0.0
 10
5.5942944079
 20
5.0832304198
 30
0.0
 10
5.5913214809
 20
5.0829997654
 30
0.0
 10
5.5872039009
 20
5.0827348128
 30
0.0
 10
5.5823614784
 20
5.0824689039
 30
0.0
 10
5.5768057967
 20
5.0822021746
 30
0.0
 10
5.5705502445
 20
5.081934984
 30
0.0
 10
5.5636097762
 20
5.0816674079
 30
0.0
 10
5.5560012022
 20
5.0813995961
 30
0.0
 10
5.5477427302
 20
5.0811315663
 30
0.0
 10
5.538854356
 20
5.0808634024
 30
0.0
 10
5.5293574021
 20
5.0805951079
 30
0.0
 10
5.5192748135
 20
5.0803267203
 30
0.0
 10
5.5047317315
 20
5.0799599429
 30
0.0
 10
5.4852822995
 20
5.0795050659
 30
0.0
 10
5.4605522638
 20
5.078970741
 30
0.0
 10
5.4341436372
 20
5.0784359642
 30
0.0
 10
5.4063106648
 20
5.077900834
 30
0.0
 10
5.3773215663
 20
5.0773654665
 30
0.0
 10
5.3474551178
 20
5.0768299266
 30
0.0
 10
5.3169994122
 20
5.076294287
 30
0.0
 10
5.2965310578
 20
5.0759377347
 30
0.0
 10
5.2862475786
 20
5.0757585984
 30
0.0
  0
SPLINE
  5
353
100
AcDbEntity
  8
0
100
AcDbSpline
 62
7
  6
CONTINUOUS
 70
0
 71
3
 72
39
 73
35
 74
0
 42
0.0000001
 43
0.0000001
 44
0.0000000001
 40
0.0
 40
0.0
 40
0.0
 40
0.0
 40
0.093478315
 40
0.1872588766
 40
0.2802719572
 40
0.3714615371
 40
0.4597895434
 40
0.5442515275
 40
0.6238869066
 40
0.6977900298
 40
0.7323267706
 40
0.7651207872
 40
0.7960794568
 40
0.8251139863
 40
0.8521428729
 40
0.8770884093
 40
0.8998810024
 40
0.9204549265
 40
0.9387534459
 40
0.9547240087
 40
0.96832361
 40
0.9795142601
 40
0.9841974928
 40
0.9882690454
 40
0.9917267195
 40
0.9945699183
 40
0.9957616387
 40
0.9968006787
 40
0.9976879085
 40
0.9984248565
 40
0.9990143719
 40
0.9992556233
 40
0.9994627422
 40
1.0
 40
1.0
 40
1.0
 40
1.0
 10
5.3263928591
 20
5.2672714662
 30
0.0
 10
5.3159611339
 20
5.2670753545
 30
0.0
 10
5.2950639002
 20
5.266685377
 30
0.0
 10
5.2637867982
 20
5.2661035406
 30
0.0
 10
5.2327651962
 20
5.2655217577
 30
0.0
 10
5.2023522861
 20
5.2649401115
 30
0.0
 10
5.1728939797
 20
5.2643586891
 30
0.0
 10
5.1447255463
 20
5.2637776187
 30
0.0
 10
5.1181674946
 20
5.2631970194
 30
0.0
 10
5.0971812947
 20
5.2627033183
 30
0.0
 10
5.0814225202
 20
5.2623051956
 30
0.0
 10
5.0704558362
 20
5.2620134547
 30
0.0
 10
5.0601035063
 20
5.2617218347
 30
0.0
 10
5.0503949178
 20
5.2614303274
 30
0.0
 10
5.0413578011
 20
5.261139002
 30
0.0
 10
5.0330177594
 20
5.2608478686
 30
0.0
 10
5.0253986519
 20
5.2605570414
 30
0.0
 10
5.0185220251
 20
5.2602665788
 30
0.0
 10
5.012407568
 20
5.2599766729
 30
0.0
 10
5.0070724754
 20
5.2596876065
 30
0.0
 10
5.0025320239
 20
5.2593996229
 30
0.0
 10
4.9992517237
 20
5.2591489321
 30
0.0
 10
4.9970350029
 20
5.2589431203
 30
0.0
 10
4.9956795415
 20
5.2587984867
 30
0.0
 10
4.9945307645
 20
5.2586543711
 30
0.0
 10
4.9937037622
 20
5.2585288584
 30
0.0
 10
4.9931468166
 20
5.2584259536
 30
0.0
 10
4.9928063522
 20
5.2583535149
 30
0.0
 10
4.9925179456
 20
5.2582814038
 30
0.0
 10
4.9922812809
 20
5.2582093796
 30
0.0
 10
4.9921180784
 20
5.2581467385
 30
0.0
 10
4.992013756
 20
5.2580942935
 30
0.0
 10
4.9919220526
 20
5.2580388604
 30
0.0
 10
4.9918476365
 20
5.2579689321
 30
0.0
 10
4.9918476664
 20
5.2579089662
 30
0.0
  0
SPLINE
  5
354
100
AcDbEntity
  8
0
100
AcDbSpline
 62
7
  6
CONTINUOUS
 70
0
 71
3
 72
30
 73
26
 74
0
 42
0.0000001
 43
0.0000001
 44
0.0000000001
 40
0.0
 40
0.0
 40
0.0
 40
0.0
 40
0.1798524129
 40
0.2693138792
 40
0.3572205214
 40
0.4426528832
 40
0.5247199403
 40
0.602564965
 40
0.6753757233
 40
0.7423924307
 40
0.802916228
 40
0.8563160388
 40
0.8801673865
 40
0.9020360387
 40
0.9218640133
 40
0.9396012465
 40
0.9552009301
 40
0.9686243534
 40
0.9798372097
 40
0.9846062345
 40
0.988813649
 40
0.9924572823
 40
0.9955356129
 40
0.9980490164
 40
1.0
 40
1.0
 40
1.0
 40
1.0
 10
5.3263928591
 20
5.2540214662
 30
0.0
 10
5.3063751781
 20
5.2536451429
 30
0.0
 10
5.2764002352
 20
5.2530895008
 30
0.0
 10
5.2366413262
 20
5.2523447918
 30
0.0
 10
5.2073916193
 20
5.2517873369
 30
0.0
 10
5.1789652093
 20
5.2512300548
 30
0.0
 10
5.1516590779
 20
5.2506730404
 30
0.0
 10
5.1257582836
 20
5.2501164118
 30
0.0
 10
5.1015332955
 20
5.2495603186
 30
0.0
 10
5.0792370335
 20
5.249005039
 30
0.0
 10
5.0591023109
 20
5.2484507964
 30
0.0
 10
5.0437725151
 20
5.2479742684
 30
0.0
 10
5.0327452352
 20
5.2475875754
 30
0.0
 10
5.0254537284
 20
5.2473088444
 30
0.0
 10
5.0188433746
 20
5.2470304346
 30
0.0
 10
5.0129315473
 20
5.2467524874
 30
0.0
 10
5.0077335134
 20
5.2464752139
 30
0.0
 10
5.0032629166
 20
5.2461988163
 30
0.0
 10
4.9999981811
 20
5.245958778
 30
0.0
 10
4.9977592553
 20
5.2457624871
 30
0.0
 10
4.9963612229
 20
5.2456236073
 30
0.0
 10
4.9951524194
 20
5.2454851316
 30
0.0
 10
4.9941334838
 20
5.245347304
 30
0.0
 10
4.9933049943
 20
5.2452103217
 30
0.0
 10
4.9928183166
 20
5.2451076312
 30
0.0
 10
4.992608083
 20
5.2450531268
 30
0.0
  0
SPLINE
  5
355
100
AcDbEntity
  8
0
100
AcDbSpline
 62
7
  6
CONTINUOUS
 70
0
 71
3
 72
44
 73
40
 74
0
 42
0.0000001
 43
0.0000001
 44
0.0000000001
 40
0.0
 40
0.0
 40
0.0
 40
0.0
 40
0.0929363953
 40
0.1863242347
 40
0.279082043
 40
0.3701344167
 40
0.4584264612
 40
0.5429350265
 40
0.6226809769
 40
0.6967404362
 40
0.7313666752
 40
0.7642556028
 40
0.795311413
 40
0.8244447316
 40
0.8515706925
 40
0.8766113835
 40
0.8994939204
 40
0.9201528156
 40
0.9385281371
 40
0.9545677611
 40
0.9682257577
 40
0.9741498487
 40
0.9794647265
 40
0.9841671939
 40
0.9882547957
 40
0.9917254211
 40
0.9932289136
 40
0.9945778415
 40
0.99577246
 40
0.9968132138
 40
0.9977008644
 40
0.9984367519
 40
0.9990233873
 40
0.9992623191
 40
0.9994663727
 40
0.9996374621
 40
0.9997788718
 40
0.9998964159
 40
1.0
 40
1.0
 40
1.0
 40
1.0
 10
5.3341173941
 20
4.6525214662
 30
0.0
 10
5.3228766319
 20
4.6523233495
 30
0.0
 10
5.3003404468
 20
4.651929441
 30
0.0
 10
5.2665850223
 20
4.6513422505
 30
0.0
 10
5.2330575412
 20
4.6507551072
 30
0.0
 10
5.2001465913
 20
4.6501680924
 30
0.0
 10
5.1682337099
 20
4.6495812994
 30
0.0
 10
5.1376887979
 20
4.6489948575
 30
0.0
 10
5.1088659247
 20
4.6484088864
 30
0.0
 10
5.0860767944
 20
4.6479106939
 30
0.0
 10
5.0689552333
 20
4.6475089308
 30
0.0
 10
5.0570347428
 20
4.6472144874
 30
0.0
 10
5.0457789413
 20
4.646920146
 30
0.0
 10
5.0352205342
 20
4.6466259418
 30
0.0
 10
5.0253900722
 20
4.6463318941
 30
0.0
 10
5.0163161229
 20
4.6460380709
 30
0.0
 10
5.0080249283
 20
4.6457445255
 30
0.0
 10
5.0005405817
 20
4.6454513728
 30
0.0
 10
4.9938846961
 20
4.6451587905
 30
0.0
 10
4.988076603
 20
4.6448669419
 30
0.0
 10
4.9837747674
 20
4.644614322
 30
0.0
 10
4.9807699901
 20
4.6444086545
 30
0.0
 10
4.978847118
 20
4.6442619911
 30
0.0
 10
4.9771470956
 20
4.6441156235
 30
0.0
 10
4.9756710826
 20
4.6439696036
 30
0.0
 10
4.9745821104
 20
4.6438431597
 30
0.0
 10
4.9738241431
 20
4.643740244
 30
0.0
 10
4.9733400775
 20
4.6436668817
 30
0.0
 10
4.9729126778
 20
4.6435936486
 30
0.0
 10
4.9725419752
 20
4.6435205747
 30
0.0
 10
4.972227908
 20
4.6434477668
 30
0.0
 10
4.971970472
 20
4.6433752582
 30
0.0
 10
4.9717922479
 20
4.6433117273
 30
0.0
 10
4.971679168
 20
4.643259287
 30
0.0
 10
4.9716143949
 20
4.6432227056
 30
0.0
 10
4.9715635491
 20
4.6431860821
 30
0.0
 10
4.9715264809
 20
4.6431491374
 30
0.0
 10
4.9715032015
 20
4.6431112887
 30
0.0
 10
4.9714976205
 20
4.6430843646
 30
0.0
 10
4.9714976275
 20
4.643071834
 30
0.0
  0
SPLINE
  5
356
100
AcDbEntity
  8
0
100
AcDbSpline
 62
7
  6
CONTINUOUS
 70
0
 71
3
 72
22
 73
18
 74
0
 42
0.0000001
 43
0.0000001
 44
0.0000000001
 40
0.0
 40
0.0
 40
0.0
 40
0.0
 40
0.1643395276
 40
0.2419594504
 40
0.3164721801
 40
0.3878605033
 40
0.4561387264
 40
0.5213498853
 40
0.5835790958
 40
0.6429507638
 40
0.6996377835
 40
0.753867553
 40
0.8059208406
 40
0.8561400493
 40
0.904921807
 40
0.9527134167
 40
1.0
 40
1.0
 40
1.0
 40
1.0
 10
5.438775733
 20
3.1555715155
 30
0.0
 10
5.4434302998
 20
3.1575799293
 30
0.0
 10
5.4501884039
 20
3.1607703951
 30
0.0
 10
5.4587431268
 20
3.1654781369
 30
0.0
 10
5.4646336033
 20
3.1690667048
 30
0.0
 10
5.4701068582
 20
3.172772002
 30
0.0
 10
5.475150633
 20
3.1765852703
 30
0.0
 10
5.4797527925
 20
3.1804984868
 30
0.0
 10
5.4839029414
 20
3.1845024497
 30
0.0
 10
5.4875911594
 20
3.1885885378
 30
0.0
 10
5.4908083177
 20
3.192747955
 30
0.0
 10
5.4935468934
 20
3.1969712188
 30
0.0
 10
5.495798877
 20
3.2012495306
 30
0.0
 10
5.4975584605
 20
3.2055726948
 30
0.0
 10
5.4988197968
 20
3.2099308476
 30
0.0
 10
5.4995782776
 20
3.2143122003
 30
0.0
 10
5.4997475655
 20
3.2172477951
 30
0.0
 10
5.4997475774
 20
3.2187064469
 30
0.0
  0
SPLINE
  5
357
100
AcDbEntity
  8
0
100
AcDbSpline
 62
7
  6
CONTINUOUS
 70
0
 71
3
 72
39
 73
35
 74
0
 42
0.0000001
 43
0.0000001
 44
0.0000000001
 40
0.0
 40
0.0
 40
0.0
 40
0.0
 40
0.000522443
 40
0.0007225193
 40
0.0009552567
 40
0.0015233136
 40
0.0022329777
 40
0.0030871452
 40
0.0040873247
 40
0.0052343691
 40
0.0079707117
 40
0.0112981435
 40
0.0152168847
 40
0.0197258015
 40
0.0305042131
 40
0.0436114798
 40
0.0590180463
 40
0.0766875226
 40
0.0965788924
 40
0.1186437664
 40
0.1428305587
 40
0.1690801068
 40
0.1973305283
 40
0.2275130044
 40
0.2595556403
 40
0.2933809986
 40
0.3660507836
 40
0.4448230863
 40
0.5289400226
 40
0.6175916474
 40
0.7099254491
 40
0.8050502783
 40
0.9020555645
 40
1.0
 40
1.0
 40
1.0
 40
1.0
 10
5.6009974671
 20
5.0499210984
 30
0.0
 10
5.6009974671
 20
5.0498662372
 30
0.0
 10
5.6009305283
 20
5.0498018412
 30
0.0
 10
5.6008472098
 20
5.049750633
 30
0.0
 10
5.600752914
 20
5.049702409
 30
0.0
 10
5.6006052869
 20
5.0496447651
 30
0.0
 10
5.6003911689
 20
5.0495785044
 30
0.0
 10
5.6001301919
 20
5.0495121654
 30
0.0
 10
5.5998220774
 20
5.0494455285
 30
0.0
 10
5.5993180297
 20
5.0493508691
 30
0.0
 10
5.5985695065
 20
5.0492354119
 30
0.0
 10
5.5975296112
 20
5.0491028236
 30
0.0
 10
5.5963023538
 20
5.0489697639
 30
0.0
 10
5.5942944079
 20
5.0487804198
 30
0.0
 10
5.5913214809
 20
5.0485497654
 30
0.0
 10
5.5872039009
 20
5.0482848128
 30
0.0
 10
5.5823614784
 20
5.0480189039
 30
0.0
 10
5.5768057967
 20
5.0477521746
 30
0.0
 10
5.5705502445
 20
5.047484984
 30
0.0
 10
5.5636097762
 20
5.0472174079
 30
0.0
 10
5.5560012022
 20
5.0469495961
 30
0.0
 10
5.5477427302
 20
5.0466815663
 30
0.0
 10
5.538854356
 20
5.0464134024
 30
0.0
 10
5.5293574021
 20
5.0461451079
 30
0.0
 10
5.5192748135
 20
5.0458767203
 30
0.0
 10
5.5047317315
 20
5.0455099429
 30
0.0
 10
5.4852822995
 20
5.0450550659
 30
0.0
 10
5.4605522638
 20
5.044520741
 30
0.0
 10
5.4341436372
 20
5.0439859642
 30
0.0
 10
5.4063106648
 20
5.043450834
 30
0.0
 10
5.3773215663
 20
5.0429154665
 30
0.0
 10
5.3474551178
 20
5.0423799266
 30
0.0
 10
5.3169994122
 20
5.041844287
 30
0.0
 10
5.2965310578
 20
5.0414877347
 30
0.0
 10
5.2862475786
 20
5.0413085984
 30
0.0
  0
SPLINE
  5
358
100
AcDbEntity
  8
0
100
AcDbSpline
 62
7
  6
CONTINUOUS
 70
0
 71
3
 72
63
 73
59
 74
0
 42
0.0000001
 43
0.0000001
 44
0.0000000001
 40
0.0
 40
0.0
 40
0.0
 40
0.0
 40
0.0001173584
 40
0.0001890694
 40
0.0002732359
 40
0.0004849649
 40
0.0007603709
 40
0.0011026622
 40
0.0015134544
 40
0.0019936474
 40
0.0025437792
 40
0.0038550305
 40
0.0054486627
 40
0.0073246413
 40
0.0094823952
 40
0.0146398621
 40
0.0209118998
 40
0.028284507
 40
0.0367420956
 40
0.046265088
 40
0.0568322008
 40
0.0684193217
 40
0.0809997472
 40
0.0945451395
 40
0.1090238522
 40
0.1406475399
 40
0.1755806042
 40
0.2135021177
 40
0.2540637456
 40
0.2968927953
 40
0.3415956353
 40
0.3877615193
 40
0.4349659937
 40
0.482775224
 40
0.5307496998
 40
0.5784484605
 40
0.6254331116
 40
0.671271758
 40
0.7155430709
 40
0.7578401445
 40
0.7977742332
 40
0.8349784899
 40
0.8691111453
 40
0.8998587855
 40
0.9269392978
 40
0.9390252648
 40
0.9501044617
 40
0.9601509913
 40
0.9691426752
 40
0.9770586048
 40
0.9838815008
 40
0.9895964325
 40
0.992034508
 40
0.9941916135
 40
0.996066934
 40
0.9976598774
 40
0.998970445
 40
1.0
 40
1.0
 40
1.0
 40
1.0
 10
5.5806475699
 20
4.9862839663
 30
0.0
 10
5.5806475782
 20
4.9862609442
 30
0.0
 10
5.5806335881
 20
4.9862238202
 30
0.0
 10
5.5805991213
 20
4.9861827862
 30
0.0
 10
5.5805444328
 20
4.9861352832
 30
0.0
 10
5.5804471226
 20
4.9860783589
 30
0.0
 10
5.5802975346
 20
4.9860139776
 30
0.0
 10
5.5801062187
 20
4.9859493477
 30
0.0
 10
5.5798730919
 20
4.9858844274
 30
0.0
 10
5.5795979296
 20
4.9858193167
 30
0.0
 10
5.5791479446
 20
4.9857268262
 30
0.0
 10
5.5784794485
 20
4.9856140014
 30
0.0
 10
5.5775505174
 20
4.9854844465
 30
0.0
 10
5.5764542236
 20
4.985354424
 30
0.0
 10
5.5746606672
 20
4.9851693973
 30
0.0
 10
5.5720046291
 20
4.9849440062
 30
0.0
 10
5.5683252735
 20
4.9846851214
 30
0.0
 10
5.5639972355
 20
4.9844252621
 30
0.0
 10
5.5590305301
 20
4.9841646528
 30
0.0
 10
5.5534364272
 20
4.9839035496
 30
0.0
 10
5.547227828
 20
4.9836421038
 30
0.0
 10
5.540418985
 20
4.9833804062
 30
0.0
 10
5.5330255094
 20
4.9831185082
 30
0.0
 10
5.5250644701
 20
4.9828564679
 30
0.0
 10
5.5133689712
 20
4.9824962305
 30
0.0
 10
5.4974785625
 20
4.9820503785
 30
0.0
 10
5.4769898027
 20
4.9815288786
 30
0.0
 10
5.4547471926
 20
4.9810067586
 30
0.0
 10
5.430955253
 20
4.9804841496
 30
0.0
 10
5.4058327339
 20
4.9799612038
 30
0.0
 10
5.379610613
 20
4.9794380126
 30
0.0
 10
5.3525300091
 20
4.9789146514
 30
0.0
 10
5.3248399197
 20
4.9783911783
 30
0.0
 10
5.2967949799
 20
4.9778676432
 30
0.0
 10
5.2686530602
 20
4.9773440915
 30
0.0
 10
5.2406729247
 20
4.9768205674
 30
0.0
 10
5.2131118449
 20
4.9762971172
 30
0.0
 10
5.1862232446
 20
4.9757737926
 30
0.0
 10
5.1602543762
 20
4.975250656
 30
0.0
 10
5.1354440365
 20
4.9747277839
 30
0.0
 10
5.1120203476
 20
4.9742052848
 30
0.0
 10
5.0901986748
 20
4.9736832923
 30
0.0
 10
5.0701796298
 20
4.9731620619
 30
0.0
 10
5.0521472619
 20
4.9726417933
 30
0.0
 10
5.0384395344
 20
4.9721943499
 30
0.0
 10
5.0285895705
 20
4.9718313468
 30
0.0
 10
5.0220797102
 20
4.9715697612
 30
0.0
 10
5.0161773728
 20
4.9713084669
 30
0.0
 10
5.0108962218
 20
4.9710475927
 30
0.0
 10
5.0062482675
 20
4.9707873325
 30
0.0
 10
5.0022442235
 20
4.9705278469
 30
0.0
 10
4.99931493
 20
4.970302618
 30
0.0
 10
4.9973007642
 20
4.9701185711
 30
0.0
 10
4.9960381271
 20
4.9699881898
 30
0.0
 10
4.9949422464
 20
4.969858159
 30
0.0
 10
4.9940136556
 20
4.969728692
 30
0.0
 10
4.9932528472
 20
4.9695999356
 30
0.0
 10
4.9928036054
 20
4.9695038195
 30
0.0
 10
4.9926081041
 20
4.9694531267
 30
0.0
  0
SPLINE
  5
359
100
AcDbEntity
  8
0
100
AcDbSpline
 62
7
  6
CONTINUOUS
 70
0
 71
3
 72
12
 73
8
 74
0
 42
0.0000001
 43
0.0000001
 44
0.0000000001
 40
0.0
 40
0.0
 40
0.0
 40
0.0
 40
0.2747016155
 40
0.5392983723
 40
0.784064576
 40
0.8961607147
 40
1.0
 40
1.0
 40
1.0
 40
1.0
 10
5.2862475786
 20
4.9617343341
 30
0.0
 10
5.2662175489
 20
4.9613854146
 30
0.0
 10
5.2268942882
 20
4.9607005204
 30
0.0
 10
5.1697244056
 20
4.9596679357
 30
0.0
 10
5.1244120112
 20
4.9587865669
 30
0.0
 10
5.0908222581
 20
4.9580680822
 30
0.0
 10
5.075078988
 20
4.9577048745
 30
0.0
 10
5.0675085582
 20
4.95752147
 30
0.0
  0
SPLINE
  5
35A
100
AcDbEntity
  8
0
100
AcDbSpline
 62
7
  6
CONTINUOUS
 70
0
 71
3
 72
30
 73
26
 74
0
 42
0.0000001
 43
0.0000001
 44
0.0000000001
 40
0.0
 40
0.0
 40
0.0
 40
0.0
 40
0.1871952891
 40
0.2787245429
 40
0.3677975178
 40
0.4536252481
 40
0.5354519319
 40
0.6125554157
 40
0.6842559474
 40
0.7499212196
 40
0.808972688
 40
0.8608903718
 40
0.8840291
 40
0.9052177563
 40
0.9244110524
 40
0.9415662239
 40
0.9566465394
 40
0.9696197103
 40
0.9804581077
 40
0.9850703884
 40
0.9891416199
 40
0.9926700471
 40
0.9956552527
 40
0.9980978098
 40
1.0
 40
1.0
 40
1.0
 40
1.0
 10
5.2862475786
 20
4.9724085984
 30
0.0
 10
5.2666449875
 20
4.9720671248
 30
0.0
 10
5.2374576945
 20
4.9715587984
 30
0.0
 10
5.1989432369
 20
4.9708698779
 30
0.0
 10
5.171043879
 20
4.970357172
 30
0.0
 10
5.1441608756
 20
4.9698446577
 30
0.0
 10
5.1185317072
 20
4.9693324123
 30
0.0
 10
5.0943824285
 20
4.96882054
 30
0.0
 10
5.07192618
 20
4.9683091739
 30
0.0
 10
5.0513610847
 20
4.9677985643
 30
0.0
 10
5.032868589
 20
4.9672889167
 30
0.0
 10
5.0188298308
 20
4.9668504417
 30
0.0
 10
5.0087560405
 20
4.9664946988
 30
0.0
 10
5.0021082387
 20
4.9662384402
 30
0.0
 10
4.9960876075
 20
4.9659825186
 30
0.0
 10
4.9907073444
 20
4.9657269786
 30
0.0
 10
4.9859793153
 20
4.9654720803
 30
0.0
 10
4.9819139257
 20
4.965217969
 30
0.0
 10
4.9789450649
 20
4.9649972764
 30
0.0
 10
4.9769084137
 20
4.9648168707
 30
0.0
 10
4.9756357658
 20
4.9646891984
 30
0.0
 10
4.9745344706
 20
4.9645618701
 30
0.0
 10
4.9736049416
 20
4.9644351341
 30
0.0
 10
4.9728475814
 20
4.964309164
 30
0.0
 10
4.972402046
 20
4.9642148363
 30
0.0
 10
4.9722091951
 20
4.9641648551
 30
0.0
  0
SPLINE
  5
35B
100
AcDbEntity
  8
0
100
AcDbSpline
 62
7
  6
CONTINUOUS
 70
0
 71
3
 72
30
 73
26
 74
0
 42
0.0000001
 43
0.0000001
 44
0.0000000001
 40
0.0
 40
0.0
 40
0.0
 40
0.0
 40
0.1871953471
 40
0.2787245375
 40
0.3677975422
 40
0.4536252761
 40
0.535451974
 40
0.6125554617
 40
0.6842559713
 40
0.7499212386
 40
0.8089727028
 40
0.8608904079
 40
0.8840291388
 40
0.9052178267
 40
0.9244110596
 40
0.9415663153
 40
0.956646547
 40
0.9696198089
 40
0.9804581444
 40
0.9850703886
 40
0.9891416699
 40
0.9926701574
 40
0.9956553264
 40
0.9980978224
 40
1.0
 40
1.0
 40
1.0
 40
1.0
 10
5.2862475786
 20
5.0068585984
 30
0.0
 10
5.2666449826
 20
5.0065171247
 30
0.0
 10
5.2374576918
 20
5.0060087983
 30
0.0
 10
5.1989432338
 20
5.0053198778
 30
0.0
 10
5.1710438806
 20
5.004807172
 30
0.0
 10
5.1441608737
 20
5.0042946577
 30
0.0
 10
5.1185317046
 20
5.0037824123
 30
0.0
 10
5.0943824276
 20
5.0032705401
 30
0.0
 10
5.0719261828
 20
5.0027591738
 30
0.0
 10
5.051361092
 20
5.0022485643
 30
0.0
 10
5.0328685961
 20
5.0017389165
 30
0.0
 10
5.0188298365
 20
5.001300442
 30
0.0
 10
5.0087560411
 20
5.0009446983
 30
0.0
 10
5.0021082426
 20
5.0006884413
 30
0.0
 10
4.9960876063
 20
5.0004325168
 30
0.0
 10
4.99070735
 20
5.0001769809
 30
0.0
 10
4.9859793118
 20
4.9999220778
 30
0.0
 10
4.9819139279
 20
4.999667971
 30
0.0
 10
4.9789450681
 20
4.999447277
 30
0.0
 10
4.9769084223
 20
4.9992668693
 30
0.0
 10
4.9756357667
 20
4.9991391978
 30
0.0
 10
4.9745344635
 20
4.9990118723
 30
0.0
 10
4.9736049386
 20
4.998885135
 30
0.0
 10
4.9728475904
 20
4.9987591633
 30
0.0
 10
4.9724020632
 20
4.9986648349
 30
0.0
 10
4.9722092133
 20
4.9986148552
 30
0.0
  0
SPLINE
  5
35C
100
AcDbEntity
  8
0
100
AcDbSpline
 62
7
  6
CONTINUOUS
 70
0
 71
3
 72
39
 73
35
 74
0
 42
0.0000001
 43
0.0000001
 44
0.0000000001
 40
0.0
 40
0.0
 40
0.0
 40
0.0
 40
0.0979444355
 40
0.1949497217
 40
0.2900745509
 40
0.3824083526
 40
0.4710599774
 40
0.5551769137
 40
0.6339492164
 40
0.7066190014
 40
0.7404443597
 40
0.7724869956
 40
0.8026694717
 40
0.8309198932
 40
0.8571694413
 40
0.8813562336
 40
0.9034211076
 40
0.9233124774
 40
0.9409819537
 40
0.9563885202
 40
0.9694957869
 40
0.9802741985
 40
0.9847831153
 40
0.9887018565
 40
0.9920292883
 40
0.9947656309
 40
0.9959126753
 40
0.9969128548
 40
0.9977670223
 40
0.9984766864
 40
0.9990447433
 40
0.9992774807
 40
0.999477557
 40
1.0
 40
1.0
 40
1.0
 40
1.0
 10
5.2862475786
 20
4.9961843341
 30
0.0
 10
5.2759640993
 20
4.9960051977
 30
0.0
 10
5.2554957449
 20
4.9956486455
 30
0.0
 10
5.2250400393
 20
4.9951130059
 30
0.0
 10
5.1951735908
 20
4.994577466
 30
0.0
 10
5.1661844923
 20
4.9940420985
 30
0.0
 10
5.1383515199
 20
4.9935069683
 30
0.0
 10
5.1119428933
 20
4.9929721915
 30
0.0
 10
5.0872128576
 20
4.9924378666
 30
0.0
 10
5.0677634256
 20
4.9919829896
 30
0.0
 10
5.0532203436
 20
4.9916162122
 30
0.0
 10
5.0431377551
 20
4.9913478246
 30
0.0
 10
5.0336408011
 20
4.9910795301
 30
0.0
 10
5.0247524269
 20
4.9908113662
 30
0.0
 10
5.0164939549
 20
4.9905433364
 30
0.0
 10
5.0088853809
 20
4.9902755246
 30
0.0
 10
5.0019449127
 20
4.9900079485
 30
0.0
 10
4.9956893604
 20
4.9897407579
 30
0.0
 10
4.9901336787
 20
4.9894740286
 30
0.0
 10
4.9852912562
 20
4.9892081196
 30
0.0
 10
4.9811736762
 20
4.9889431671
 30
0.0
 10
4.9782007493
 20
4.9887125127
 30
0.0
 10
4.9761928033
 20
4.9885231686
 30
0.0
 10
4.974965546
 20
4.9883901088
 30
0.0
 10
4.9739256507
 20
4.9882575205
 30
0.0
 10
4.9731771274
 20
4.9881420634
 30
0.0
 10
4.9726730797
 20
4.988047404
 30
0.0
 10
4.9723649652
 20
4.9879807671
 30
0.0
 10
4.9721039882
 20
4.9879144281
 30
0.0
 10
4.9718898702
 20
4.9878481674
 30
0.0
 10
4.9717422431
 20
4.9877905235
 30
0.0
 10
4.9716479474
 20
4.9877422994
 30
0.0
 10
4.9715646289
 20
4.9876910912
 30
0.0
 10
4.97149769
 20
4.9876266953
 30
0.0
 10
4.97149769
 20
4.9875718341
 30
0.0
  0
SPLINE
  5
35D
100
AcDbEntity
  8
0
100
AcDbSpline
 62
7
  6
CONTINUOUS
 70
0
 71
3
 72
39
 73
35
 74
0
 42
0.0000001
 43
0.0000001
 44
0.0000000001
 40
0.0
 40
0.0
 40
0.0
 40
0.0
 40
0.0979443522
 40
0.194949762
 40
0.290074521
 40
0.382408345
 40
0.4710599582
 40
0.5551769042
 40
0.6339492106
 40
0.706619004
 40
0.7404443214
 40
0.7724870048
 40
0.8026694309
 40
0.8309198828
 40
0.8571694139
 40
0.8813562006
 40
0.9034211042
 40
0.923312415
 40
0.9409819652
 40
0.9563884474
 40
0.9694958169
 40
0.9802741337
 40
0.9847830512
 40
0.9887018805
 40
0.9920293044
 40
0.9947655837
 40
0.9959126016
 40
0.996912772
 40
0.9977669576
 40
0.998476674
 40
0.9990447695
 40
0.9992775127
 40
0.9994775879
 40
1.0
 40
1.0
 40
1.0
 40
1.0
 10
5.2862475786
 20
5.0306343341
 30
0.0
 10
5.2759641079
 20
5.0304551979
 30
0.0
 10
5.2554957488
 20
5.0300986455
 30
0.0
 10
5.2250400457
 20
5.029563006
 30
0.0
 10
5.1951735886
 20
5.0290274659
 30
0.0
 10
5.1661844958
 20
5.0284920985
 30
0.0
 10
5.1383515207
 20
5.0279569683
 30
0.0
 10
5.1119428934
 20
5.0274221915
 30
0.0
 10
5.0872128549
 20
5.0268878664
 30
0.0
 10
5.0677634255
 20
5.0264329902
 30
0.0
 10
5.0532203416
 20
5.0260662116
 30
0.0
 10
5.0431377574
 20
5.0257978252
 30
0.0
 10
5.0336408004
 20
5.0255295296
 30
0.0
 10
5.0247524298
 20
5.0252613666
 30
0.0
 10
5.0164939568
 20
5.0249933364
 30
0.0
 10
5.008885382
 20
5.0247255241
 30
0.0
 10
5.0019449172
 20
5.0244579496
 30
0.0
 10
4.9956893603
 20
5.0241907562
 30
0.0
 10
4.9901336855
 20
5.023924031
 30
0.0
 10
4.9852912535
 20
5.0236581167
 30
0.0
 10
4.981173681
 20
5.0233931701
 30
0.0
 10
4.9782007534
 20
5.0231625123
 30
0.0
 10
4.9761928082
 20
5.0229731665
 30
0.0
 10
4.9749655418
 20
5.0228401108
 30
0.0
 10
4.9739256447
 20
5.0227075221
 30
0.0
 10
4.9731771321
 20
5.0225920635
 30
0.0
 10
4.972673095
 20
5.0224974036
 30
0.0
 10
4.9723649824
 20
5.0224307663
 30
0.0
 10
4.9721039991
 20
5.0223644261
 30
0.0
 10
4.9718898687
 20
5.0222981673
 30
0.0
 10
4.9717422301
 20
5.0222405249
 30
0.0
 10
4.9716479296
 20
5.0221922997
 30
0.0
 10
4.9715646134
 20
5.022141094
 30
0.0
 10
4.9714976796
 20
5.022076692
 30
0.0
 10
4.971497689
 20
5.0220218341
 30
0.0
  0
SPLINE
  5
35E
100
AcDbEntity
  8
0
100
AcDbSpline
 62
7
  6
CONTINUOUS
 70
0
 71
3
 72
39
 73
35
 74
0
 42
0.0000001
 43
0.0000001
 44
0.0000000001
 40
0.0
 40
0.0
 40
0.0
 40
0.0
 40
0.000522443
 40
0.0007225193
 40
0.0009552567
 40
0.0015233136
 40
0.0022329777
 40
0.0030871452
 40
0.0040873247
 40
0.0052343691
 40
0.0079707117
 40
0.0112981435
 40
0.0152168847
 40
0.0197258015
 40
0.0305042131
 40
0.0436114798
 40
0.0590180463
 40
0.0766875226
 40
0.0965788924
 40
0.1186437664
 40
0.1428305587
 40
0.1690801068
 40
0.1973305283
 40
0.2275130044
 40
0.2595556403
 40
0.2933809986
 40
0.3660507836
 40
0.4448230863
 40
0.5289400226
 40
0.6175916474
 40
0.7099254491
 40
0.8050502783
 40
0.9020555645
 40
1.0
 40
1.0
 40
1.0
 40
1.0
 10
5.6009974671
 20
5.0154710984
 30
0.0
 10
5.6009974671
 20
5.0154162372
 30
0.0
 10
5.6009305283
 20
5.0153518412
 30
0.0
 10
5.6008472098
 20
5.015300633
 30
0.0
 10
5.600752914
 20
5.015252409
 30
0.0
 10
5.6006052869
 20
5.0151947651
 30
0.0
 10
5.6003911689
 20
5.0151285044
 30
0.0
 10
5.6001301919
 20
5.0150621654
 30
0.0
 10
5.5998220774
 20
5.0149955285
 30
0.0
 10
5.5993180297
 20
5.0149008691
 30
0.0
 10
5.5985695065
 20
5.0147854119
 30
0.0
 10
5.5975296112
 20
5.0146528236
 30
0.0
 10
5.5963023538
 20
5.0145197639
 30
0.0
 10
5.5942944079
 20
5.0143304198
 30
0.0
 10
5.5913214809
 20
5.0140997654
 30
0.0
 10
5.5872039009
 20
5.0138348128
 30
0.0
 10
5.5823614784
 20
5.0135689039
 30
0.0
 10
5.5768057967
 20
5.0133021746
 30
0.0
 10
5.5705502445
 20
5.013034984
 30
0.0
 10
5.5636097762
 20
5.0127674079
 30
0.0
 10
5.5560012022
 20
5.0124995961
 30
0.0
 10
5.5477427302
 20
5.0122315663
 30
0.0
 10
5.538854356
 20
5.0119634024
 30
0.0
 10
5.5293574021
 20
5.0116951079
 30
0.0
 10
5.5192748135
 20
5.0114267203
 30
0.0
 10
5.5047317315
 20
5.0110599429
 30
0.0
 10
5.4852822995
 20
5.0106050659
 30
0.0
 10
5.4605522638
 20
5.010070741
 30
0.0
 10
5.4341436372
 20
5.0095359642
 30
0.0
 10
5.4063106648
 20
5.009000834
 30
0.0
 10
5.3773215663
 20
5.0084654665
 30
0.0
 10
5.3474551178
 20
5.0079299266
 30
0.0
 10
5.3169994122
 20
5.007394287
 30
0.0
 10
5.2965310578
 20
5.0070377347
 30
0.0
 10
5.2862475786
 20
5.0068585984
 30
0.0
  0
SPLINE
  5
35F
100
AcDbEntity
  8
0
100
AcDbSpline
 62
7
  6
CONTINUOUS
 70
0
 71
3
 72
30
 73
26
 74
0
 42
0.0000001
 43
0.0000001
 44
0.0000000001
 40
0.0
 40
0.0
 40
0.0
 40
0.0
 40
0.1871952891
 40
0.2787245429
 40
0.3677975178
 40
0.4536252481
 40
0.5354519319
 40
0.6125554157
 40
0.6842559474
 40
0.7499212196
 40
0.808972688
 40
0.8608903718
 40
0.8840291
 40
0.9052177563
 40
0.9244110524
 40
0.9415662239
 40
0.9566465394
 40
0.9696197103
 40
0.9804581077
 40
0.9850703884
 40
0.9891416199
 40
0.9926700471
 40
0.9956552527
 40
0.9980978098
 40
1.0
 40
1.0
 40
1.0
 40
1.0
 10
5.2862475786
 20
5.0413085984
 30
0.0
 10
5.2666449875
 20
5.0409671248
 30
0.0
 10
5.2374576945
 20
5.0404587984
 30
0.0
 10
5.1989432369
 20
5.0397698779
 30
0.0
 10
5.171043879
 20
5.039257172
 30
0.0
 10
5.1441608756
 20
5.0387446577
 30
0.0
 10
5.1185317072
 20
5.0382324123
 30
0.0
 10
5.0943824285
 20
5.03772054
 30
0.0
 10
5.07192618
 20
5.0372091739
 30
0.0
 10
5.0513610847
 20
5.0366985643
 30
0.0
 10
5.032868589
 20
5.0361889167
 30
0.0
 10
5.0188298308
 20
5.0357504417
 30
0.0
 10
5.0087560405
 20
5.0353946988
 30
0.0
 10
5.0021082387
 20
5.0351384402
 30
0.0
 10
4.9960876075
 20
5.0348825186
 30
0.0
 10
4.9907073444
 20
5.0346269786
 30
0.0
 10
4.9859793153
 20
5.0343720803
 30
0.0
 10
4.9819139257
 20
5.034117969
 30
0.0
 10
4.9789450649
 20
5.0338972764
 30
0.0
 10
4.9769084137
 20
5.0337168707
 30
0.0
 10
4.9756357658
 20
5.0335891984
 30
0.0
 10
4.9745344706
 20
5.0334618701
 30
0.0
 10
4.9736049416
 20
5.0333351341
 30
0.0
 10
4.9728475814
 20
5.033209164
 30
0.0
 10
4.972402046
 20
5.0331148363
 30
0.0
 10
4.9722091951
 20
5.0330648551
 30
0.0
  0
SPLINE
  5
360
100
AcDbEntity
  8
0
100
AcDbSpline
 62
7
  6
CONTINUOUS
 70
0
 71
3
 72
39
 73
35
 74
0
 42
0.0000001
 43
0.0000001
 44
0.0000000001
 40
0.0
 40
0.0
 40
0.0
 40
0.0
 40
0.0979444355
 40
0.1949497217
 40
0.2900745509
 40
0.3824083526
 40
0.4710599774
 40
0.5551769137
 40
0.6339492164
 40
0.7066190014
 40
0.7404443597
 40
0.7724869956
 40
0.8026694717
 40
0.8309198932
 40
0.8571694413
 40
0.8813562336
 40
0.9034211076
 40
0.9233124774
 40
0.9409819537
 40
0.9563885202
 40
0.9694957869
 40
0.9802741985
 40
0.9847831153
 40
0.9887018565
 40
0.9920292883
 40
0.9947656309
 40
0.9959126753
 40
0.9969128548
 40
0.9977670223
 40
0.9984766864
 40
0.9990447433
 40
0.9992774807
 40
0.999477557
 40
1.0
 40
1.0
 40
1.0
 40
1.0
 10
5.2862475786
 20
5.0650843341
 30
0.0
 10
5.2759640993
 20
5.0649051977
 30
0.0
 10
5.2554957449
 20
5.0645486455
 30
0.0
 10
5.2250400393
 20
5.0640130059
 30
0.0
 10
5.1951735908
 20
5.063477466
 30
0.0
 10
5.1661844923
 20
5.0629420985
 30
0.0
 10
5.1383515199
 20
5.0624069683
 30
0.0
 10
5.1119428933
 20
5.0618721915
 30
0.0
 10
5.0872128576
 20
5.0613378666
 30
0.0
 10
5.0677634256
 20
5.0608829896
 30
0.0
 10
5.0532203436
 20
5.0605162122
 30
0.0
 10
5.0431377551
 20
5.0602478246
 30
0.0
 10
5.0336408011
 20
5.0599795301
 30
0.0
 10
5.0247524269
 20
5.0597113662
 30
0.0
 10
5.0164939549
 20
5.0594433364
 30
0.0
 10
5.0088853809
 20
5.0591755246
 30
0.0
 10
5.0019449127
 20
5.0589079485
 30
0.0
 10
4.9956893604
 20
5.0586407579
 30
0.0
 10
4.9901336787
 20
5.0583740286
 30
0.0
 10
4.9852912562
 20
5.0581081196
 30
0.0
 10
4.9811736762
 20
5.0578431671
 30
0.0
 10
4.9782007493
 20
5.0576125127
 30
0.0
 10
4.9761928033
 20
5.0574231686
 30
0.0
 10
4.974965546
 20
5.0572901088
 30
0.0
 10
4.9739256507
 20
5.0571575205
 30
0.0
 10
4.9731771274
 20
5.0570420634
 30
0.0
 10
4.9726730797
 20
5.056947404
 30
0.0
 10
4.9723649652
 20
5.0568807671
 30
0.0
 10
4.9721039882
 20
5.0568144281
 30
0.0
 10
4.9718898702
 20
5.0567481674
 30
0.0
 10
4.9717422431
 20
5.0566905235
 30
0.0
 10
4.9716479474
 20
5.0566422994
 30
0.0
 10
4.9715646289
 20
5.0565910912
 30
0.0
 10
4.97149769
 20
5.0565266953
 30
0.0
 10
4.97149769
 20
5.0564718341
 30
0.0
  0
SPLINE
  5
361
100
AcDbEntity
  8
0
100
AcDbSpline
 62
7
  6
CONTINUOUS
 70
0
 71
3
 72
30
 73
26
 74
0
 42
0.0000001
 43
0.0000001
 44
0.0000000001
 40
0.0
 40
0.0
 40
0.0
 40
0.0
 40
0.1871952891
 40
0.2787245429
 40
0.3677975178
 40
0.4536252481
 40
0.5354519319
 40
0.6125554157
 40
0.6842559474
 40
0.7499212196
 40
0.808972688
 40
0.8608903718
 40
0.8840291
 40
0.9052177563
 40
0.9244110524
 40
0.9415662239
 40
0.9566465394
 40
0.9696197103
 40
0.9804581077
 40
0.9850703884
 40
0.9891416199
 40
0.9926700471
 40
0.9956552527
 40
0.9980978098
 40
1.0
 40
1.0
 40
1.0
 40
1.0
 10
5.2862475786
 20
5.0757585984
 30
0.0
 10
5.2666449875
 20
5.0754171248
 30
0.0
 10
5.2374576945
 20
5.0749087984
 30
0.0
 10
5.1989432369
 20
5.0742198778
 30
0.0
 10
5.171043879
 20
5.073707172
 30
0.0
 10
5.1441608756
 20
5.0731946577
 30
0.0
 10
5.1185317072
 20
5.0726824123
 30
0.0
 10
5.0943824285
 20
5.07217054
 30
0.0
 10
5.07192618
 20
5.0716591738
 30
0.0
 10
5.0513610847
 20
5.0711485643
 30
0.0
 10
5.032868589
 20
5.0706389167
 30
0.0
 10
5.0188298308
 20
5.0702004417
 30
0.0
 10
5.0087560405
 20
5.0698446988
 30
0.0
 10
5.0021082387
 20
5.0695884402
 30
0.0
 10
4.9960876075
 20
5.0693325186
 30
0.0
 10
4.9907073444
 20
5.0690769786
 30
0.0
 10
4.9859793153
 20
5.0688220803
 30
0.0
 10
4.9819139257
 20
5.068567969
 30
0.0
 10
4.9789450649
 20
5.0683472764
 30
0.0
 10
4.9769084137
 20
5.0681668707
 30
0.0
 10
4.9756357658
 20
5.0680391984
 30
0.0
 10
4.9745344706
 20
5.0679118701
 30
0.0
 10
4.9736049416
 20
5.0677851341
 30
0.0
 10
4.9728475814
 20
5.067659164
 30
0.0
 10
4.972402046
 20
5.0675648363
 30
0.0
 10
4.9722091951
 20
5.0675148551
 30
0.0
  0
SPLINE
  5
362
100
AcDbEntity
  8
0
100
AcDbSpline
 62
7
  6
CONTINUOUS
 70
0
 71
3
 72
39
 73
35
 74
0
 42
0.0000001
 43
0.0000001
 44
0.0000000001
 40
0.0
 40
0.0
 40
0.0
 40
0.0
 40
0.0979444355
 40
0.1949497217
 40
0.2900745509
 40
0.3824083526
 40
0.4710599774
 40
0.5551769137
 40
0.6339492164
 40
0.7066190014
 40
0.7404443597
 40
0.7724869956
 40
0.8026694717
 40
0.8309198932
 40
0.8571694413
 40
0.8813562336
 40
0.9034211076
 40
0.9233124774
 40
0.9409819537
 40
0.9563885202
 40
0.9694957869
 40
0.9802741985
 40
0.9847831153
 40
0.9887018565
 40
0.9920292883
 40
0.9947656309
 40
0.9959126753
 40
0.9969128548
 40
0.9977670223
 40
0.9984766864
 40
0.9990447433
 40
0.9992774807
 40
0.999477557
 40
1.0
 40
1.0
 40
1.0
 40
1.0
 10
5.2862475786
 20
5.0995343341
 30
0.0
 10
5.2759640993
 20
5.0993551977
 30
0.0
 10
5.2554957449
 20
5.0989986455
 30
0.0
 10
5.2250400393
 20
5.0984630059
 30
0.0
 10
5.1951735908
 20
5.097927466
 30
0.0
 10
5.1661844923
 20
5.0973920985
 30
0.0
 10
5.1383515199
 20
5.0968569683
 30
0.0
 10
5.1119428933
 20
5.0963221915
 30
0.0
 10
5.0872128576
 20
5.0957878666
 30
0.0
 10
5.0677634256
 20
5.0953329896
 30
0.0
 10
5.0532203436
 20
5.0949662122
 30
0.0
 10
5.0431377551
 20
5.0946978246
 30
0.0
 10
5.0336408011
 20
5.0944295301
 30
0.0
 10
5.0247524269
 20
5.0941613662
 30
0.0
 10
5.0164939549
 20
5.0938933364
 30
0.0
 10
5.0088853809
 20
5.0936255246
 30
0.0
 10
5.0019449127
 20
5.0933579485
 30
0.0
 10
4.9956893604
 20
5.0930907579
 30
0.0
 10
4.9901336787
 20
5.0928240286
 30
0.0
 10
4.9852912562
 20
5.0925581196
 30
0.0
 10
4.9811736762
 20
5.0922931671
 30
0.0
 10
4.9782007493
 20
5.0920625127
 30
0.0
 10
4.9761928033
 20
5.0918731686
 30
0.0
 10
4.974965546
 20
5.0917401088
 30
0.0
 10
4.9739256507
 20
5.0916075205
 30
0.0
 10
4.9731771274
 20
5.0914920634
 30
0.0
 10
4.9726730797
 20
5.091397404
 30
0.0
 10
4.9723649652
 20
5.0913307671
 30
0.0
 10
4.9721039882
 20
5.0912644281
 30
0.0
 10
4.9718898702
 20
5.0911981674
 30
0.0
 10
4.9717422431
 20
5.0911405235
 30
0.0
 10
4.9716479474
 20
5.0910922994
 30
0.0
 10
4.9715646289
 20
5.0910410912
 30
0.0
 10
4.97149769
 20
5.0909766953
 30
0.0
 10
4.97149769
 20
5.0909218341
 30
0.0
  0
SPLINE
  5
363
100
AcDbEntity
  8
0
100
AcDbSpline
 62
7
  6
CONTINUOUS
 70
0
 71
3
 72
30
 73
26
 74
0
 42
0.0000001
 43
0.0000001
 44
0.0000000001
 40
0.0
 40
0.0
 40
0.0
 40
0.0
 40
0.1871952891
 40
0.2787245429
 40
0.3677975178
 40
0.4536252481
 40
0.5354519319
 40
0.6125554157
 40
0.6842559474
 40
0.7499212196
 40
0.808972688
 40
0.8608903718
 40
0.8840291
 40
0.9052177563
 40
0.9244110524
 40
0.9415662239
 40
0.9566465394
 40
0.9696197103
 40
0.9804581077
 40
0.9850703884
 40
0.9891416199
 40
0.9926700471
 40
0.9956552527
 40
0.9980978098
 40
1.0
 40
1.0
 40
1.0
 40
1.0
 10
5.2862475786
 20
5.1102085984
 30
0.0
 10
5.2666449875
 20
5.1098671248
 30
0.0
 10
5.2374576945
 20
5.1093587984
 30
0.0
 10
5.1989432369
 20
5.1086698778
 30
0.0
 10
5.171043879
 20
5.108157172
 30
0.0
 10
5.1441608756
 20
5.1076446577
 30
0.0
 10
5.1185317072
 20
5.1071324123
 30
0.0
 10
5.0943824285
 20
5.10662054
 30
0.0
 10
5.07192618
 20
5.1061091738
 30
0.0
 10
5.0513610847
 20
5.1055985643
 30
0.0
 10
5.032868589
 20
5.1050889167
 30
0.0
 10
5.0188298308
 20
5.1046504417
 30
0.0
 10
5.0087560405
 20
5.1042946988
 30
0.0
 10
5.0021082387
 20
5.1040384402
 30
0.0
 10
4.9960876075
 20
5.1037825186
 30
0.0
 10
4.9907073444
 20
5.1035269786
 30
0.0
 10
4.9859793153
 20
5.1032720803
 30
0.0
 10
4.9819139257
 20
5.103017969
 30
0.0
 10
4.9789450649
 20
5.1027972764
 30
0.0
 10
4.9769084137
 20
5.1026168707
 30
0.0
 10
4.9756357658
 20
5.1024891984
 30
0.0
 10
4.9745344706
 20
5.1023618701
 30
0.0
 10
4.9736049416
 20
5.1022351341
 30
0.0
 10
4.9728475814
 20
5.102109164
 30
0.0
 10
4.972402046
 20
5.1020148363
 30
0.0
 10
4.9722091951
 20
5.1019648551
 30
0.0
  0
SPLINE
  5
364
100
AcDbEntity
  8
0
100
AcDbSpline
 62
7
  6
CONTINUOUS
 70
0
 71
3
 72
30
 73
26
 74
0
 42
0.0000001
 43
0.0000001
 44
0.0000000001
 40
0.0
 40
0.0
 40
0.0
 40
0.0
 40
0.1871952891
 40
0.2787245429
 40
0.3677975178
 40
0.4536252481
 40
0.5354519319
 40
0.6125554157
 40
0.6842559474
 40
0.7499212196
 40
0.808972688
 40
0.8608903718
 40
0.8840291
 40
0.9052177563
 40
0.9244110524
 40
0.9415662239
 40
0.9566465394
 40
0.9696197103
 40
0.9804581077
 40
0.9850703884
 40
0.9891416199
 40
0.9926700471
 40
0.9956552527
 40
0.9980978098
 40
1.0
 40
1.0
 40
1.0
 40
1.0
 10
5.2862475786
 20
5.1446585984
 30
0.0
 10
5.2666449875
 20
5.1443171248
 30
0.0
 10
5.2374576945
 20
5.1438087984
 30
0.0
 10
5.1989432369
 20
5.1431198778
 30
0.0
 10
5.171043879
 20
5.142607172
 30
0.0
 10
5.1441608756
 20
5.1420946577
 30
0.0
 10
5.1185317072
 20
5.1415824123
 30
0.0
 10
5.0943824285
 20
5.14107054
 30
0.0
 10
5.07192618
 20
5.1405591738
 30
0.0
 10
5.0513610847
 20
5.1400485643
 30
0.0
 10
5.032868589
 20
5.1395389167
 30
0.0
 10
5.0188298308
 20
5.1391004417
 30
0.0
 10
5.0087560405
 20
5.1387446988
 30
0.0
 10
5.0021082387
 20
5.1384884402
 30
0.0
 10
4.9960876075
 20
5.1382325186
 30
0.0
 10
4.9907073444
 20
5.1379769786
 30
0.0
 10
4.9859793153
 20
5.1377220803
 30
0.0
 10
4.9819139257
 20
5.137467969
 30
0.0
 10
4.9789450649
 20
5.1372472764
 30
0.0
 10
4.9769084137
 20
5.1370668707
 30
0.0
 10
4.9756357658
 20
5.1369391984
 30
0.0
 10
4.9745344706
 20
5.1368118701
 30
0.0
 10
4.9736049416
 20
5.1366851341
 30
0.0
 10
4.9728475814
 20
5.136559164
 30
0.0
 10
4.972402046
 20
5.1364648363
 30
0.0
 10
4.9722091951
 20
5.1364148551
 30
0.0
  0
SPLINE
  5
365
100
AcDbEntity
  8
0
100
AcDbSpline
 62
7
  6
CONTINUOUS
 70
0
 71
3
 72
39
 73
35
 74
0
 42
0.0000001
 43
0.0000001
 44
0.0000000001
 40
0.0
 40
0.0
 40
0.0
 40
0.0
 40
0.0979444339
 40
0.1949497171
 40
0.2900745495
 40
0.3824083537
 40
0.4710599801
 40
0.5551769169
 40
0.6339492164
 40
0.706618998
 40
0.7404443556
 40
0.7724869912
 40
0.8026694671
 40
0.8309198888
 40
0.8571694373
 40
0.8813562308
 40
0.9034211067
 40
0.9233124783
 40
0.9409819553
 40
0.9563885208
 40
0.9694957875
 40
0.9802741994
 40
0.9847831167
 40
0.9887018584
 40
0.99202929
 40
0.994765632
 40
0.995912676
 40
0.9969128553
 40
0.9977670226
 40
0.9984766866
 40
0.9990447435
 40
0.9992774809
 40
0.9994775572
 40
1.0
 40
1.0
 40
1.0
 40
1.0
 10
5.2862475786
 20
5.1339843341
 30
0.0
 10
5.2759640995
 20
5.1338051977
 30
0.0
 10
5.2554957456
 20
5.1334486455
 30
0.0
 10
5.2250400401
 20
5.1329130059
 30
0.0
 10
5.1951735913
 20
5.132377466
 30
0.0
 10
5.1661844921
 20
5.1318420985
 30
0.0
 10
5.1383515192
 20
5.1313069683
 30
0.0
 10
5.1119428927
 20
5.1307721915
 30
0.0
 10
5.0872128577
 20
5.1302378666
 30
0.0
 10
5.0677634264
 20
5.1297829896
 30
0.0
 10
5.0532203449
 20
5.1294162123
 30
0.0
 10
5.0431377565
 20
5.1291478246
 30
0.0
 10
5.0336408026
 20
5.1288795302
 30
0.0
 10
5.0247524283
 20
5.1286113662
 30
0.0
 10
5.0164939561
 20
5.1283433364
 30
0.0
 10
5.0088853818
 20
5.1280755246
 30
0.0
 10
5.001944913
 20
5.1278079485
 30
0.0
 10
4.9956893603
 20
5.1275407579
 30
0.0
 10
4.9901336785
 20
5.1272740286
 30
0.0
 10
4.985291256
 20
5.1270081196
 30
0.0
 10
4.981173676
 20
5.1267431671
 30
0.0
 10
4.978200749
 20
5.1265125127
 30
0.0
 10
4.9761928029
 20
5.1263231685
 30
0.0
 10
4.9749655455
 20
5.1261901088
 30
0.0
 10
4.9739256502
 20
5.1260575205
 30
0.0
 10
4.9731771271
 20
5.1259420633
 30
0.0
 10
4.9726730795
 20
5.125847404
 30
0.0
 10
4.9723649651
 20
5.1257807671
 30
0.0
 10
4.9721039881
 20
5.125714428
 30
0.0
 10
4.9718898702
 20
5.1256481674
 30
0.0
 10
4.9717422431
 20
5.1255905235
 30
0.0
 10
4.9716479474
 20
5.1255422994
 30
0.0
 10
4.9715646289
 20
5.1254910912
 30
0.0
 10
4.9714976901
 20
5.1254266952
 30
0.0
 10
4.9714976901
 20
5.1253718341
 30
0.0
  0
SPLINE
  5
366
100
AcDbEntity
  8
0
100
AcDbSpline
 62
7
  6
CONTINUOUS
 70
0
 71
3
 72
39
 73
35
 74
0
 42
0.0000001
 43
0.0000001
 44
0.0000000001
 40
0.0
 40
0.0
 40
0.0
 40
0.0
 40
0.0979444355
 40
0.1949497217
 40
0.2900745509
 40
0.3824083526
 40
0.4710599774
 40
0.5551769137
 40
0.6339492164
 40
0.7066190014
 40
0.7404443597
 40
0.7724869956
 40
0.8026694717
 40
0.8309198932
 40
0.8571694413
 40
0.8813562336
 40
0.9034211076
 40
0.9233124774
 40
0.9409819537
 40
0.9563885202
 40
0.9694957869
 40
0.9802741985
 40
0.9847831153
 40
0.9887018565
 40
0.9920292883
 40
0.9947656309
 40
0.9959126753
 40
0.9969128548
 40
0.9977670223
 40
0.9984766864
 40
0.9990447433
 40
0.9992774807
 40
0.999477557
 40
1.0
 40
1.0
 40
1.0
 40
1.0
 10
5.2862475786
 20
5.1684343341
 30
0.0
 10
5.2759640993
 20
5.1682551977
 30
0.0
 10
5.2554957449
 20
5.1678986455
 30
0.0
 10
5.2250400393
 20
5.1673630059
 30
0.0
 10
5.1951735908
 20
5.166827466
 30
0.0
 10
5.1661844923
 20
5.1662920985
 30
0.0
 10
5.1383515199
 20
5.1657569683
 30
0.0
 10
5.1119428933
 20
5.1652221915
 30
0.0
 10
5.0872128576
 20
5.1646878666
 30
0.0
 10
5.0677634256
 20
5.1642329896
 30
0.0
 10
5.0532203436
 20
5.1638662122
 30
0.0
 10
5.0431377551
 20
5.1635978246
 30
0.0
 10
5.0336408011
 20
5.1633295301
 30
0.0
 10
5.0247524269
 20
5.1630613662
 30
0.0
 10
5.0164939549
 20
5.1627933364
 30
0.0
 10
5.0088853809
 20
5.1625255246
 30
0.0
 10
5.0019449127
 20
5.1622579485
 30
0.0
 10
4.9956893604
 20
5.1619907579
 30
0.0
 10
4.9901336787
 20
5.1617240286
 30
0.0
 10
4.9852912562
 20
5.1614581196
 30
0.0
 10
4.9811736762
 20
5.1611931671
 30
0.0
 10
4.9782007493
 20
5.1609625127
 30
0.0
 10
4.9761928033
 20
5.1607731686
 30
0.0
 10
4.974965546
 20
5.1606401088
 30
0.0
 10
4.9739256507
 20
5.1605075205
 30
0.0
 10
4.9731771274
 20
5.1603920633
 30
0.0
 10
4.9726730797
 20
5.160297404
 30
0.0
 10
4.9723649652
 20
5.1602307671
 30
0.0
 10
4.9721039882
 20
5.1601644281
 30
0.0
 10
4.9718898702
 20
5.1600981674
 30
0.0
 10
4.9717422431
 20
5.1600405235
 30
0.0
 10
4.9716479474
 20
5.1599922994
 30
0.0
 10
4.9715646289
 20
5.1599410912
 30
0.0
 10
4.97149769
 20
5.1598766953
 30
0.0
 10
4.97149769
 20
5.1598218341
 30
0.0
  0
SPLINE
  5
367
100
AcDbEntity
  8
0
100
AcDbSpline
 62
7
  6
CONTINUOUS
 70
0
 71
3
 72
30
 73
26
 74
0
 42
0.0000001
 43
0.0000001
 44
0.0000000001
 40
0.0
 40
0.0
 40
0.0
 40
0.0
 40
0.1871952891
 40
0.2787245429
 40
0.3677975178
 40
0.4536252481
 40
0.5354519319
 40
0.6125554157
 40
0.6842559474
 40
0.7499212196
 40
0.808972688
 40
0.8608903718
 40
0.8840291
 40
0.9052177563
 40
0.9244110524
 40
0.9415662239
 40
0.9566465394
 40
0.9696197103
 40
0.9804581077
 40
0.9850703884
 40
0.9891416199
 40
0.9926700471
 40
0.9956552527
 40
0.9980978098
 40
1.0
 40
1.0
 40
1.0
 40
1.0
 10
5.2862475786
 20
5.1791085984
 30
0.0
 10
5.2666449875
 20
5.1787671248
 30
0.0
 10
5.2374576945
 20
5.1782587984
 30
0.0
 10
5.1989432369
 20
5.1775698778
 30
0.0
 10
5.171043879
 20
5.177057172
 30
0.0
 10
5.1441608756
 20
5.1765446577
 30
0.0
 10
5.1185317072
 20
5.1760324123
 30
0.0
 10
5.0943824285
 20
5.17552054
 30
0.0
 10
5.07192618
 20
5.1750091738
 30
0.0
 10
5.0513610847
 20
5.1744985643
 30
0.0
 10
5.032868589
 20
5.1739889167
 30
0.0
 10
5.0188298308
 20
5.1735504417
 30
0.0
 10
5.0087560405
 20
5.1731946988
 30
0.0
 10
5.0021082387
 20
5.1729384402
 30
0.0
 10
4.9960876075
 20
5.1726825186
 30
0.0
 10
4.9907073444
 20
5.1724269786
 30
0.0
 10
4.9859793153
 20
5.1721720803
 30
0.0
 10
4.9819139257
 20
5.171917969
 30
0.0
 10
4.9789450649
 20
5.1716972764
 30
0.0
 10
4.9769084137
 20
5.1715168707
 30
0.0
 10
4.9756357658
 20
5.1713891984
 30
0.0
 10
4.9745344706
 20
5.1712618701
 30
0.0
 10
4.9736049416
 20
5.1711351341
 30
0.0
 10
4.9728475814
 20
5.171009164
 30
0.0
 10
4.972402046
 20
5.1709148363
 30
0.0
 10
4.9722091951
 20
5.1708648551
 30
0.0
  0
SPLINE
  5
368
100
AcDbEntity
  8
0
100
AcDbSpline
 62
7
  6
CONTINUOUS
 70
0
 71
3
 72
39
 73
35
 74
0
 42
0.0000001
 43
0.0000001
 44
0.0000000001
 40
0.0
 40
0.0
 40
0.0
 40
0.0
 40
0.0979444355
 40
0.1949497217
 40
0.2900745509
 40
0.3824083526
 40
0.4710599774
 40
0.5551769137
 40
0.6339492164
 40
0.7066190014
 40
0.7404443597
 40
0.7724869956
 40
0.8026694717
 40
0.8309198932
 40
0.8571694413
 40
0.8813562336
 40
0.9034211076
 40
0.9233124774
 40
0.9409819537
 40
0.9563885202
 40
0.9694957869
 40
0.9802741985
 40
0.9847831153
 40
0.9887018565
 40
0.9920292883
 40
0.9947656309
 40
0.9959126753
 40
0.9969128548
 40
0.9977670223
 40
0.9984766864
 40
0.9990447433
 40
0.9992774807
 40
0.999477557
 40
1.0
 40
1.0
 40
1.0
 40
1.0
 10
5.2862475786
 20
5.2028843341
 30
0.0
 10
5.2759640993
 20
5.2027051977
 30
0.0
 10
5.2554957449
 20
5.2023486455
 30
0.0
 10
5.2250400393
 20
5.2018130059
 30
0.0
 10
5.1951735908
 20
5.201277466
 30
0.0
 10
5.1661844923
 20
5.2007420985
 30
0.0
 10
5.1383515199
 20
5.2002069683
 30
0.0
 10
5.1119428933
 20
5.1996721915
 30
0.0
 10
5.0872128576
 20
5.1991378666
 30
0.0
 10
5.0677634256
 20
5.1986829896
 30
0.0
 10
5.0532203436
 20
5.1983162122
 30
0.0
 10
5.0431377551
 20
5.1980478246
 30
0.0
 10
5.0336408011
 20
5.1977795301
 30
0.0
 10
5.0247524269
 20
5.1975113662
 30
0.0
 10
5.0164939549
 20
5.1972433364
 30
0.0
 10
5.0088853809
 20
5.1969755246
 30
0.0
 10
5.0019449127
 20
5.1967079485
 30
0.0
 10
4.9956893604
 20
5.1964407579
 30
0.0
 10
4.9901336787
 20
5.1961740286
 30
0.0
 10
4.9852912562
 20
5.1959081196
 30
0.0
 10
4.9811736762
 20
5.1956431671
 30
0.0
 10
4.9782007493
 20
5.1954125127
 30
0.0
 10
4.9761928033
 20
5.1952231686
 30
0.0
 10
4.974965546
 20
5.1950901088
 30
0.0
 10
4.9739256507
 20
5.1949575205
 30
0.0
 10
4.9731771274
 20
5.1948420633
 30
0.0
 10
4.9726730797
 20
5.194747404
 30
0.0
 10
4.9723649652
 20
5.1946807671
 30
0.0
 10
4.9721039882
 20
5.1946144281
 30
0.0
 10
4.9718898702
 20
5.1945481674
 30
0.0
 10
4.9717422431
 20
5.1944905235
 30
0.0
 10
4.9716479474
 20
5.1944422994
 30
0.0
 10
4.9715646289
 20
5.1943910912
 30
0.0
 10
4.97149769
 20
5.1943266953
 30
0.0
 10
4.97149769
 20
5.1942718341
 30
0.0
  0
SPLINE
  5
369
100
AcDbEntity
  8
0
100
AcDbSpline
 62
7
  6
CONTINUOUS
 70
0
 71
3
 72
30
 73
26
 74
0
 42
0.0000001
 43
0.0000001
 44
0.0000000001
 40
0.0
 40
0.0
 40
0.0
 40
0.0
 40
0.1871952891
 40
0.2787245429
 40
0.3677975178
 40
0.4536252481
 40
0.5354519319
 40
0.6125554157
 40
0.6842559474
 40
0.7499212196
 40
0.808972688
 40
0.8608903718
 40
0.8840291
 40
0.9052177563
 40
0.9244110524
 40
0.9415662239
 40
0.9566465394
 40
0.9696197103
 40
0.9804581077
 40
0.9850703884
 40
0.9891416199
 40
0.9926700471
 40
0.9956552527
 40
0.9980978098
 40
1.0
 40
1.0
 40
1.0
 40
1.0
 10
5.2862475786
 20
5.2135585984
 30
0.0
 10
5.2666449875
 20
5.2132171248
 30
0.0
 10
5.2374576945
 20
5.2127087984
 30
0.0
 10
5.1989432369
 20
5.2120198778
 30
0.0
 10
5.171043879
 20
5.211507172
 30
0.0
 10
5.1441608756
 20
5.2109946577
 30
0.0
 10
5.1185317072
 20
5.2104824123
 30
0.0
 10
5.0943824285
 20
5.20997054
 30
0.0
 10
5.07192618
 20
5.2094591738
 30
0.0
 10
5.0513610847
 20
5.2089485643
 30
0.0
 10
5.032868589
 20
5.2084389167
 30
0.0
 10
5.0188298308
 20
5.2080004417
 30
0.0
 10
5.0087560405
 20
5.2076446988
 30
0.0
 10
5.0021082387
 20
5.2073884402
 30
0.0
 10
4.9960876075
 20
5.2071325186
 30
0.0
 10
4.9907073444
 20
5.2068769786
 30
0.0
 10
4.9859793153
 20
5.2066220803
 30
0.0
 10
4.9819139257
 20
5.206367969
 30
0.0
 10
4.9789450649
 20
5.2061472764
 30
0.0
 10
4.9769084137
 20
5.2059668707
 30
0.0
 10
4.9756357658
 20
5.2058391984
 30
0.0
 10
4.9745344706
 20
5.2057118701
 30
0.0
 10
4.9736049416
 20
5.2055851341
 30
0.0
 10
4.9728475814
 20
5.205459164
 30
0.0
 10
4.972402046
 20
5.2053648363
 30
0.0
 10
4.9722091951
 20
5.2053148551
 30
0.0
  0
SPLINE
  5
36A
100
AcDbEntity
  8
0
100
AcDbSpline
 62
7
  6
CONTINUOUS
 70
0
 71
3
 72
39
 73
35
 74
0
 42
0.0000001
 43
0.0000001
 44
0.0000000001
 40
0.0
 40
0.0
 40
0.0
 40
0.0
 40
0.0979444355
 40
0.1949497217
 40
0.2900745509
 40
0.3824083526
 40
0.4710599774
 40
0.5551769137
 40
0.6339492164
 40
0.7066190014
 40
0.7404443597
 40
0.7724869956
 40
0.8026694717
 40
0.8309198932
 40
0.8571694413
 40
0.8813562336
 40
0.9034211076
 40
0.9233124774
 40
0.9409819537
 40
0.9563885202
 40
0.9694957869
 40
0.9802741985
 40
0.9847831153
 40
0.9887018565
 40
0.9920292883
 40
0.9947656309
 40
0.9959126753
 40
0.9969128548
 40
0.9977670223
 40
0.9984766864
 40
0.9990447433
 40
0.9992774807
 40
0.999477557
 40
1.0
 40
1.0
 40
1.0
 40
1.0
 10
5.2862475786
 20
5.2373343341
 30
0.0
 10
5.2759640993
 20
5.2371551977
 30
0.0
 10
5.2554957449
 20
5.2367986455
 30
0.0
 10
5.2250400393
 20
5.2362630059
 30
0.0
 10
5.1951735908
 20
5.235727466
 30
0.0
 10
5.1661844923
 20
5.2351920985
 30
0.0
 10
5.1383515199
 20
5.2346569683
 30
0.0
 10
5.1119428933
 20
5.2341221915
 30
0.0
 10
5.0872128576
 20
5.2335878666
 30
0.0
 10
5.0677634256
 20
5.2331329896
 30
0.0
 10
5.0532203436
 20
5.2327662122
 30
0.0
 10
5.0431377551
 20
5.2324978246
 30
0.0
 10
5.0336408011
 20
5.2322295301
 30
0.0
 10
5.0247524269
 20
5.2319613662
 30
0.0
 10
5.0164939549
 20
5.2316933364
 30
0.0
 10
5.0088853809
 20
5.2314255246
 30
0.0
 10
5.0019449127
 20
5.2311579485
 30
0.0
 10
4.9956893604
 20
5.2308907579
 30
0.0
 10
4.9901336787
 20
5.2306240286
 30
0.0
 10
4.9852912562
 20
5.2303581196
 30
0.0
 10
4.9811736762
 20
5.2300931671
 30
0.0
 10
4.9782007493
 20
5.2298625127
 30
0.0
 10
4.9761928033
 20
5.2296731686
 30
0.0
 10
4.974965546
 20
5.2295401088
 30
0.0
 10
4.9739256507
 20
5.2294075205
 30
0.0
 10
4.9731771274
 20
5.2292920634
 30
0.0
 10
4.9726730797
 20
5.229197404
 30
0.0
 10
4.9723649652
 20
5.2291307671
 30
0.0
 10
4.9721039882
 20
5.2290644281
 30
0.0
 10
4.9718898702
 20
5.2289981674
 30
0.0
 10
4.9717422431
 20
5.2289405235
 30
0.0
 10
4.9716479474
 20
5.2288922994
 30
0.0
 10
4.9715646289
 20
5.2288410912
 30
0.0
 10
4.97149769
 20
5.2287766953
 30
0.0
 10
4.97149769
 20
5.2287218341
 30
0.0
  0
SPLINE
  5
36B
100
AcDbEntity
  8
0
100
AcDbSpline
 62
7
  6
CONTINUOUS
 70
0
 71
3
 72
30
 73
26
 74
0
 42
0.0000001
 43
0.0000001
 44
0.0000000001
 40
0.0
 40
0.0
 40
0.0
 40
0.0
 40
0.1871952891
 40
0.2787245429
 40
0.3677975178
 40
0.4536252481
 40
0.5354519319
 40
0.6125554157
 40
0.6842559474
 40
0.7499212196
 40
0.808972688
 40
0.8608903718
 40
0.8840291
 40
0.9052177563
 40
0.9244110524
 40
0.9415662239
 40
0.9566465394
 40
0.9696197103
 40
0.9804581077
 40
0.9850703884
 40
0.9891416199
 40
0.9926700471
 40
0.9956552527
 40
0.9980978098
 40
1.0
 40
1.0
 40
1.0
 40
1.0
 10
5.2862475786
 20
5.2480085984
 30
0.0
 10
5.2666449875
 20
5.2476671248
 30
0.0
 10
5.2374576945
 20
5.2471587984
 30
0.0
 10
5.1989432369
 20
5.2464698778
 30
0.0
 10
5.171043879
 20
5.245957172
 30
0.0
 10
5.1441608756
 20
5.2454446577
 30
0.0
 10
5.1185317072
 20
5.2449324123
 30
0.0
 10
5.0943824285
 20
5.24442054
 30
0.0
 10
5.07192618
 20
5.2439091739
 30
0.0
 10
5.0513610847
 20
5.2433985643
 30
0.0
 10
5.032868589
 20
5.2428889167
 30
0.0
 10
5.0188298308
 20
5.2424504417
 30
0.0
 10
5.0087560405
 20
5.2420946988
 30
0.0
 10
5.0021082387
 20
5.2418384402
 30
0.0
 10
4.9960876075
 20
5.2415825186
 30
0.0
 10
4.9907073444
 20
5.2413269786
 30
0.0
 10
4.9859793153
 20
5.2410720803
 30
0.0
 10
4.9819139257
 20
5.240817969
 30
0.0
 10
4.9789450649
 20
5.2405972764
 30
0.0
 10
4.9769084137
 20
5.2404168707
 30
0.0
 10
4.9756357658
 20
5.2402891984
 30
0.0
 10
4.9745344706
 20
5.2401618701
 30
0.0
 10
4.9736049416
 20
5.2400351341
 30
0.0
 10
4.9728475814
 20
5.239909164
 30
0.0
 10
4.972402046
 20
5.2398148363
 30
0.0
 10
4.9722091951
 20
5.2397648551
 30
0.0
  0
SPLINE
  5
36C
100
AcDbEntity
  8
0
100
AcDbSpline
 62
7
  6
CONTINUOUS
 70
0
 71
3
 72
30
 73
26
 74
0
 42
0.0000001
 43
0.0000001
 44
0.0000000001
 40
0.0
 40
0.0
 40
0.0
 40
0.0
 40
0.1871952891
 40
0.2787245429
 40
0.3677975178
 40
0.4536252481
 40
0.5354519319
 40
0.6125554157
 40
0.6842559474
 40
0.7499212196
 40
0.808972688
 40
0.8608903718
 40
0.8840291
 40
0.9052177563
 40
0.9244110524
 40
0.9415662239
 40
0.9566465394
 40
0.9696197103
 40
0.9804581077
 40
0.9850703884
 40
0.9891416199
 40
0.9926700471
 40
0.9956552527
 40
0.9980978098
 40
1.0
 40
1.0
 40
1.0
 40
1.0
 10
5.2862475786
 20
5.2824585984
 30
0.0
 10
5.2666449875
 20
5.2821171248
 30
0.0
 10
5.2374576945
 20
5.2816087984
 30
0.0
 10
5.1989432369
 20
5.2809198778
 30
0.0
 10
5.171043879
 20
5.280407172
 30
0.0
 10
5.1441608756
 20
5.2798946577
 30
0.0
 10
5.1185317072
 20
5.2793824123
 30
0.0
 10
5.0943824285
 20
5.27887054
 30
0.0
 10
5.07192618
 20
5.2783591738
 30
0.0
 10
5.0513610847
 20
5.2778485643
 30
0.0
 10
5.032868589
 20
5.2773389167
 30
0.0
 10
5.0188298308
 20
5.2769004417
 30
0.0
 10
5.0087560405
 20
5.2765446988
 30
0.0
 10
5.0021082387
 20
5.2762884402
 30
0.0
 10
4.9960876075
 20
5.2760325186
 30
0.0
 10
4.9907073444
 20
5.2757769786
 30
0.0
 10
4.9859793153
 20
5.2755220803
 30
0.0
 10
4.9819139257
 20
5.275267969
 30
0.0
 10
4.9789450649
 20
5.2750472764
 30
0.0
 10
4.9769084137
 20
5.2748668707
 30
0.0
 10
4.9756357658
 20
5.2747391984
 30
0.0
 10
4.9745344706
 20
5.2746118701
 30
0.0
 10
4.9736049416
 20
5.2744851341
 30
0.0
 10
4.9728475814
 20
5.274359164
 30
0.0
 10
4.972402046
 20
5.2742648363
 30
0.0
 10
4.9722091951
 20
5.2742148551
 30
0.0
  0
SPLINE
  5
36D
100
AcDbEntity
  8
0
100
AcDbSpline
 62
7
  6
CONTINUOUS
 70
0
 71
3
 72
39
 73
35
 74
0
 42
0.0000001
 43
0.0000001
 44
0.0000000001
 40
0.0
 40
0.0
 40
0.0
 40
0.0
 40
0.0979444361
 40
0.1949497217
 40
0.2900745568
 40
0.3824083636
 40
0.4710599932
 40
0.555176932
 40
0.633949234
 40
0.7066190177
 40
0.7404443729
 40
0.7724870063
 40
0.8026694812
 40
0.8309199019
 40
0.8571694484
 40
0.8813562385
 40
0.9034211108
 40
0.9233124793
 40
0.940981955
 40
0.9563885218
 40
0.9694957884
 40
0.9802741996
 40
0.9847831161
 40
0.9887018569
 40
0.9920292886
 40
0.9947656314
 40
0.9959126758
 40
0.9969128553
 40
0.9977670227
 40
0.9984766865
 40
0.9990447432
 40
0.9992774807
 40
0.999477557
 40
1.0
 40
1.0
 40
1.0
 40
1.0
 10
5.2862475786
 20
5.2717843341
 30
0.0
 10
5.2759640993
 20
5.2716051977
 30
0.0
 10
5.2554957449
 20
5.2712486455
 30
0.0
 10
5.2250400386
 20
5.2707130059
 30
0.0
 10
5.1951735891
 20
5.2701774659
 30
0.0
 10
5.1661844889
 20
5.2696420984
 30
0.0
 10
5.1383515152
 20
5.2691069682
 30
0.0
 10
5.1119428879
 20
5.2685721914
 30
0.0
 10
5.0872128522
 20
5.2680378664
 30
0.0
 10
5.0677634207
 20
5.2675829895
 30
0.0
 10
5.0532203394
 20
5.2672162121
 30
0.0
 10
5.0431377516
 20
5.2669478245
 30
0.0
 10
5.0336407982
 20
5.26667953
 30
0.0
 10
5.0247524243
 20
5.2664113661
 30
0.0
 10
5.0164939528
 20
5.2661433363
 30
0.0
 10
5.0088853794
 20
5.2658755245
 30
0.0
 10
5.0019449117
 20
5.2656079485
 30
0.0
 10
4.9956893599
 20
5.2653407579
 30
0.0
 10
4.9901336783
 20
5.2650740285
 30
0.0
 10
4.9852912558
 20
5.2648081196
 30
0.0
 10
4.9811736758
 20
5.2645431671
 30
0.0
 10
4.978200749
 20
5.2643125127
 30
0.0
 10
4.9761928032
 20
5.2641231686
 30
0.0
 10
4.9749655459
 20
5.2639901088
 30
0.0
 10
4.9739256506
 20
5.2638575205
 30
0.0
 10
4.9731771274
 20
5.2637420634
 30
0.0
 10
4.9726730797
 20
5.263647404
 30
0.0
 10
4.9723649651
 20
5.2635807671
 30
0.0
 10
4.9721039882
 20
5.2635144281
 30
0.0
 10
4.9718898703
 20
5.2634481674
 30
0.0
 10
4.9717422432
 20
5.2633905235
 30
0.0
 10
4.9716479475
 20
5.2633422994
 30
0.0
 10
4.971564629
 20
5.2632910912
 30
0.0
 10
4.9714976901
 20
5.2632266953
 30
0.0
 10
4.9714976901
 20
5.2631718341
 30
0.0
  0
SPLINE
  5
36E
100
AcDbEntity
  8
0
100
AcDbSpline
 62
7
  6
CONTINUOUS
 70
0
 71
3
 72
39
 73
35
 74
0
 42
0.0000001
 43
0.0000001
 44
0.0000000001
 40
0.0
 40
0.0
 40
0.0
 40
0.0
 40
0.0979444355
 40
0.1949497217
 40
0.2900745509
 40
0.3824083526
 40
0.4710599774
 40
0.5551769137
 40
0.6339492164
 40
0.7066190014
 40
0.7404443597
 40
0.7724869956
 40
0.8026694717
 40
0.8309198932
 40
0.8571694413
 40
0.8813562336
 40
0.9034211076
 40
0.9233124774
 40
0.9409819537
 40
0.9563885202
 40
0.9694957869
 40
0.9802741985
 40
0.9847831153
 40
0.9887018565
 40
0.9920292883
 40
0.9947656309
 40
0.9959126753
 40
0.9969128548
 40
0.9977670223
 40
0.9984766864
 40
0.9990447433
 40
0.9992774807
 40
0.999477557
 40
1.0
 40
1.0
 40
1.0
 40
1.0
 10
5.2862475786
 20
5.3062343341
 30
0.0
 10
5.2759640993
 20
5.3060551977
 30
0.0
 10
5.2554957449
 20
5.3056986455
 30
0.0
 10
5.2250400393
 20
5.3051630059
 30
0.0
 10
5.1951735908
 20
5.304627466
 30
0.0
 10
5.1661844923
 20
5.3040920985
 30
0.0
 10
5.1383515199
 20
5.3035569683
 30
0.0
 10
5.1119428933
 20
5.3030221915
 30
0.0
 10
5.0872128576
 20
5.3024878666
 30
0.0
 10
5.0677634256
 20
5.3020329896
 30
0.0
 10
5.0532203436
 20
5.3016662122
 30
0.0
 10
5.0431377551
 20
5.3013978246
 30
0.0
 10
5.0336408011
 20
5.3011295301
 30
0.0
 10
5.0247524269
 20
5.3008613662
 30
0.0
 10
5.0164939549
 20
5.3005933364
 30
0.0
 10
5.0088853809
 20
5.3003255246
 30
0.0
 10
5.0019449127
 20
5.3000579485
 30
0.0
 10
4.9956893604
 20
5.2997907579
 30
0.0
 10
4.9901336787
 20
5.2995240286
 30
0.0
 10
4.9852912562
 20
5.2992581196
 30
0.0
 10
4.9811736762
 20
5.2989931671
 30
0.0
 10
4.9782007493
 20
5.2987625127
 30
0.0
 10
4.9761928033
 20
5.2985731686
 30
0.0
 10
4.974965546
 20
5.2984401088
 30
0.0
 10
4.9739256507
 20
5.2983075205
 30
0.0
 10
4.9731771274
 20
5.2981920634
 30
0.0
 10
4.9726730797
 20
5.298097404
 30
0.0
 10
4.9723649652
 20
5.2980307671
 30
0.0
 10
4.9721039882
 20
5.2979644281
 30
0.0
 10
4.9718898702
 20
5.2978981674
 30
0.0
 10
4.9717422431
 20
5.2978405235
 30
0.0
 10
4.9716479474
 20
5.2977922994
 30
0.0
 10
4.9715646289
 20
5.2977410912
 30
0.0
 10
4.97149769
 20
5.2976766953
 30
0.0
 10
4.97149769
 20
5.2976218341
 30
0.0
  0
SPLINE
  5
36F
100
AcDbEntity
  8
0
100
AcDbSpline
 62
7
  6
CONTINUOUS
 70
0
 71
3
 72
30
 73
26
 74
0
 42
0.0000001
 43
0.0000001
 44
0.0000000001
 40
0.0
 40
0.0
 40
0.0
 40
0.0
 40
0.1871952891
 40
0.2787245429
 40
0.3677975178
 40
0.4536252481
 40
0.5354519319
 40
0.6125554157
 40
0.6842559474
 40
0.7499212196
 40
0.808972688
 40
0.8608903718
 40
0.8840291
 40
0.9052177563
 40
0.9244110524
 40
0.9415662239
 40
0.9566465394
 40
0.9696197103
 40
0.9804581077
 40
0.9850703884
 40
0.9891416199
 40
0.9926700471
 40
0.9956552527
 40
0.9980978098
 40
1.0
 40
1.0
 40
1.0
 40
1.0
 10
5.2862475786
 20
5.3169085984
 30
0.0
 10
5.2666449875
 20
5.3165671248
 30
0.0
 10
5.2374576945
 20
5.3160587984
 30
0.0
 10
5.1989432369
 20
5.3153698778
 30
0.0
 10
5.171043879
 20
5.314857172
 30
0.0
 10
5.1441608756
 20
5.3143446577
 30
0.0
 10
5.1185317072
 20
5.3138324123
 30
0.0
 10
5.0943824285
 20
5.31332054
 30
0.0
 10
5.07192618
 20
5.3128091738
 30
0.0
 10
5.0513610847
 20
5.3122985643
 30
0.0
 10
5.032868589
 20
5.3117889167
 30
0.0
 10
5.0188298308
 20
5.3113504417
 30
0.0
 10
5.0087560405
 20
5.3109946988
 30
0.0
 10
5.0021082387
 20
5.3107384402
 30
0.0
 10
4.9960876075
 20
5.3104825186
 30
0.0
 10
4.9907073444
 20
5.3102269786
 30
0.0
 10
4.9859793153
 20
5.3099720803
 30
0.0
 10
4.9819139257
 20
5.309717969
 30
0.0
 10
4.9789450649
 20
5.3094972764
 30
0.0
 10
4.9769084137
 20
5.3093168707
 30
0.0
 10
4.9756357658
 20
5.3091891984
 30
0.0
 10
4.9745344706
 20
5.3090618701
 30
0.0
 10
4.9736049416
 20
5.3089351341
 30
0.0
 10
4.9728475814
 20
5.308809164
 30
0.0
 10
4.972402046
 20
5.3087148363
 30
0.0
 10
4.9722091951
 20
5.3086648551
 30
0.0
  0
SPLINE
  5
370
100
AcDbEntity
  8
0
100
AcDbSpline
 62
7
  6
CONTINUOUS
 70
0
 71
3
 72
39
 73
35
 74
0
 42
0.0000001
 43
0.0000001
 44
0.0000000001
 40
0.0
 40
0.0
 40
0.0
 40
0.0
 40
0.0979444355
 40
0.1949497217
 40
0.2900745509
 40
0.3824083526
 40
0.4710599774
 40
0.5551769137
 40
0.6339492164
 40
0.7066190014
 40
0.7404443597
 40
0.7724869956
 40
0.8026694717
 40
0.8309198932
 40
0.8571694413
 40
0.8813562336
 40
0.9034211076
 40
0.9233124774
 40
0.9409819537
 40
0.9563885202
 40
0.9694957869
 40
0.9802741985
 40
0.9847831153
 40
0.9887018565
 40
0.9920292883
 40
0.9947656309
 40
0.9959126753
 40
0.9969128548
 40
0.9977670223
 40
0.9984766864
 40
0.9990447433
 40
0.9992774807
 40
0.999477557
 40
1.0
 40
1.0
 40
1.0
 40
1.0
 10
5.2862475786
 20
5.3406843341
 30
0.0
 10
5.2759640993
 20
5.3405051977
 30
0.0
 10
5.2554957449
 20
5.3401486455
 30
0.0
 10
5.2250400393
 20
5.3396130059
 30
0.0
 10
5.1951735908
 20
5.339077466
 30
0.0
 10
5.1661844923
 20
5.3385420985
 30
0.0
 10
5.1383515199
 20
5.3380069683
 30
0.0
 10
5.1119428933
 20
5.3374721915
 30
0.0
 10
5.0872128576
 20
5.3369378666
 30
0.0
 10
5.0677634256
 20
5.3364829896
 30
0.0
 10
5.0532203436
 20
5.3361162122
 30
0.0
 10
5.0431377551
 20
5.3358478246
 30
0.0
 10
5.0336408011
 20
5.3355795301
 30
0.0
 10
5.0247524269
 20
5.3353113662
 30
0.0
 10
5.0164939549
 20
5.3350433364
 30
0.0
 10
5.0088853809
 20
5.3347755246
 30
0.0
 10
5.0019449127
 20
5.3345079485
 30
0.0
 10
4.9956893604
 20
5.3342407579
 30
0.0
 10
4.9901336787
 20
5.3339740286
 30
0.0
 10
4.9852912562
 20
5.3337081196
 30
0.0
 10
4.9811736762
 20
5.3334431671
 30
0.0
 10
4.9782007493
 20
5.3332125127
 30
0.0
 10
4.9761928033
 20
5.3330231686
 30
0.0
 10
4.974965546
 20
5.3328901088
 30
0.0
 10
4.9739256507
 20
5.3327575205
 30
0.0
 10
4.9731771274
 20
5.3326420634
 30
0.0
 10
4.9726730797
 20
5.332547404
 30
0.0
 10
4.9723649652
 20
5.3324807671
 30
0.0
 10
4.9721039882
 20
5.3324144281
 30
0.0
 10
4.9718898702
 20
5.3323481674
 30
0.0
 10
4.9717422431
 20
5.3322905235
 30
0.0
 10
4.9716479474
 20
5.3322422994
 30
0.0
 10
4.9715646289
 20
5.3321910912
 30
0.0
 10
4.97149769
 20
5.3321266953
 30
0.0
 10
4.97149769
 20
5.3320718341
 30
0.0
  0
SPLINE
  5
371
100
AcDbEntity
  8
0
100
AcDbSpline
 62
7
  6
CONTINUOUS
 70
0
 71
3
 72
30
 73
26
 74
0
 42
0.0000001
 43
0.0000001
 44
0.0000000001
 40
0.0
 40
0.0
 40
0.0
 40
0.0
 40
0.1871952891
 40
0.2787245429
 40
0.3677975178
 40
0.4536252481
 40
0.5354519319
 40
0.6125554157
 40
0.6842559474
 40
0.7499212196
 40
0.808972688
 40
0.8608903718
 40
0.8840291
 40
0.9052177563
 40
0.9244110524
 40
0.9415662239
 40
0.9566465394
 40
0.9696197103
 40
0.9804581077
 40
0.9850703884
 40
0.9891416199
 40
0.9926700471
 40
0.9956552527
 40
0.9980978098
 40
1.0
 40
1.0
 40
1.0
 40
1.0
 10
5.2862475786
 20
5.3513585984
 30
0.0
 10
5.2666449875
 20
5.3510171248
 30
0.0
 10
5.2374576945
 20
5.3505087984
 30
0.0
 10
5.1989432369
 20
5.3498198778
 30
0.0
 10
5.171043879
 20
5.349307172
 30
0.0
 10
5.1441608756
 20
5.3487946577
 30
0.0
 10
5.1185317072
 20
5.3482824123
 30
0.0
 10
5.0943824285
 20
5.34777054
 30
0.0
 10
5.07192618
 20
5.3472591738
 30
0.0
 10
5.0513610847
 20
5.3467485643
 30
0.0
 10
5.032868589
 20
5.3462389167
 30
0.0
 10
5.0188298308
 20
5.3458004417
 30
0.0
 10
5.0087560405
 20
5.3454446988
 30
0.0
 10
5.0021082387
 20
5.3451884402
 30
0.0
 10
4.9960876075
 20
5.3449325186
 30
0.0
 10
4.9907073444
 20
5.3446769786
 30
0.0
 10
4.9859793153
 20
5.3444220803
 30
0.0
 10
4.9819139257
 20
5.344167969
 30
0.0
 10
4.9789450649
 20
5.3439472764
 30
0.0
 10
4.9769084137
 20
5.3437668707
 30
0.0
 10
4.9756357658
 20
5.3436391984
 30
0.0
 10
4.9745344706
 20
5.3435118701
 30
0.0
 10
4.9736049416
 20
5.3433851341
 30
0.0
 10
4.9728475814
 20
5.343259164
 30
0.0
 10
4.972402046
 20
5.3431648363
 30
0.0
 10
4.9722091951
 20
5.3431148551
 30
0.0
  0
SPLINE
  5
372
100
AcDbEntity
  8
0
100
AcDbSpline
 62
7
  6
CONTINUOUS
 70
0
 71
3
 72
39
 73
35
 74
0
 42
0.0000001
 43
0.0000001
 44
0.0000000001
 40
0.0
 40
0.0
 40
0.0
 40
0.0
 40
0.0979444355
 40
0.1949497217
 40
0.2900745509
 40
0.3824083526
 40
0.4710599774
 40
0.5551769137
 40
0.6339492164
 40
0.7066190014
 40
0.7404443597
 40
0.7724869956
 40
0.8026694717
 40
0.8309198932
 40
0.8571694413
 40
0.8813562336
 40
0.9034211076
 40
0.9233124774
 40
0.9409819537
 40
0.9563885202
 40
0.9694957869
 40
0.9802741985
 40
0.9847831153
 40
0.9887018565
 40
0.9920292883
 40
0.9947656309
 40
0.9959126753
 40
0.9969128548
 40
0.9977670223
 40
0.9984766864
 40
0.9990447433
 40
0.9992774807
 40
0.999477557
 40
1.0
 40
1.0
 40
1.0
 40
1.0
 10
5.2862475786
 20
5.3751343341
 30
0.0
 10
5.2759640993
 20
5.3749551977
 30
0.0
 10
5.2554957449
 20
5.3745986455
 30
0.0
 10
5.2250400393
 20
5.3740630059
 30
0.0
 10
5.1951735908
 20
5.373527466
 30
0.0
 10
5.1661844923
 20
5.3729920985
 30
0.0
 10
5.1383515199
 20
5.3724569683
 30
0.0
 10
5.1119428933
 20
5.3719221915
 30
0.0
 10
5.0872128576
 20
5.3713878666
 30
0.0
 10
5.0677634256
 20
5.3709329896
 30
0.0
 10
5.0532203436
 20
5.3705662122
 30
0.0
 10
5.0431377551
 20
5.3702978246
 30
0.0
 10
5.0336408011
 20
5.3700295301
 30
0.0
 10
5.0247524269
 20
5.3697613662
 30
0.0
 10
5.0164939549
 20
5.3694933364
 30
0.0
 10
5.0088853809
 20
5.3692255246
 30
0.0
 10
5.0019449127
 20
5.3689579485
 30
0.0
 10
4.9956893604
 20
5.3686907579
 30
0.0
 10
4.9901336787
 20
5.3684240286
 30
0.0
 10
4.9852912562
 20
5.3681581196
 30
0.0
 10
4.9811736762
 20
5.3678931671
 30
0.0
 10
4.9782007493
 20
5.3676625127
 30
0.0
 10
4.9761928033
 20
5.3674731686
 30
0.0
 10
4.974965546
 20
5.3673401088
 30
0.0
 10
4.9739256507
 20
5.3672075205
 30
0.0
 10
4.9731771274
 20
5.3670920634
 30
0.0
 10
4.9726730797
 20
5.366997404
 30
0.0
 10
4.9723649652
 20
5.3669307671
 30
0.0
 10
4.9721039882
 20
5.3668644281
 30
0.0
 10
4.9718898702
 20
5.3667981674
 30
0.0
 10
4.9717422431
 20
5.3667405235
 30
0.0
 10
4.9716479474
 20
5.3666922994
 30
0.0
 10
4.9715646289
 20
5.3666410912
 30
0.0
 10
4.97149769
 20
5.3665766953
 30
0.0
 10
4.97149769
 20
5.3665218341
 30
0.0
  0
SPLINE
  5
373
100
AcDbEntity
  8
0
100
AcDbSpline
 62
7
  6
CONTINUOUS
 70
0
 71
3
 72
27
 73
23
 74
0
 42
0.0000001
 43
0.0000001
 44
0.0000000001
 40
0.0
 40
0.0
 40
0.0
 40
0.0
 40
0.183408033
 40
0.360655796
 40
0.4450972747
 40
0.5257951246
 40
0.6020702557
 40
0.6732813888
 40
0.7388297154
 40
0.7981643436
 40
0.8507870156
 40
0.8962562021
 40
0.916187155
 40
0.9341915414
 40
0.9502327911
 40
0.9642771059
 40
0.9762964324
 40
0.9862678688
 40
0.990479464
 40
0.9941727309
 40
0.9973464656
 40
1.0
 40
1.0
 40
1.0
 40
1.0
 10
5.2862475786
 20
5.3858085984
 30
0.0
 10
5.2671004545
 20
5.385475059
 30
0.0
 10
5.2294493161
 20
5.3848192033
 30
0.0
 10
5.1829832672
 20
5.3839827881
 30
0.0
 10
5.1472403265
 20
5.3833043289
 30
0.0
 10
5.1220386843
 20
5.3828039403
 30
0.0
 10
5.0982187298
 20
5.382303886
 30
0.0
 10
5.075980929
 20
5.3818042767
 30
0.0
 10
5.0555123882
 20
5.3813052731
 30
0.0
 10
5.0369853083
 20
5.3808072017
 30
0.0
 10
5.0205555475
 20
5.3803103037
 30
0.0
 10
5.0082399217
 20
5.3798813327
 30
0.0
 10
4.9995384543
 20
5.3795322501
 30
0.0
 10
4.9939081628
 20
5.379282365
 30
0.0
 10
4.9888931583
 20
5.3790329348
 30
0.0
 10
4.9845038869
 20
5.3787841794
 30
0.0
 10
4.9807495102
 20
5.3785362314
 30
0.0
 10
4.9780220209
 20
5.3783206693
 30
0.0
 10
4.9761638503
 20
5.3781440986
 30
0.0
 10
4.975013789
 20
5.3780195257
 30
0.0
 10
4.9740274623
 20
5.3778953757
 30
0.0
 10
4.9734256524
 20
5.3778050579
 30
0.0
 10
4.9731525143
 20
5.3777585984
 30
0.0
  0
SPLINE
  5
374
100
AcDbEntity
  8
0
100
AcDbSpline
 62
7
  6
CONTINUOUS
 70
0
 71
3
 72
27
 73
23
 74
0
 42
0.0000001
 43
0.0000001
 44
0.0000000001
 40
0.0
 40
0.0
 40
0.0
 40
0.0
 40
0.183408033
 40
0.360655796
 40
0.4450972747
 40
0.5257951246
 40
0.6020702557
 40
0.6732813888
 40
0.7388297154
 40
0.7981643436
 40
0.8507870156
 40
0.8962562021
 40
0.916187155
 40
0.9341915414
 40
0.9502327911
 40
0.9642771059
 40
0.9762964324
 40
0.9862678688
 40
0.990479464
 40
0.9941727309
 40
0.9973464656
 40
1.0
 40
1.0
 40
1.0
 40
1.0
 10
5.2862475786
 20
5.4095843341
 30
0.0
 10
5.2671004545
 20
5.4092507947
 30
0.0
 10
5.2294493161
 20
5.408594939
 30
0.0
 10
5.1829832672
 20
5.4077585238
 30
0.0
 10
5.1472403265
 20
5.4070800645
 30
0.0
 10
5.1220386843
 20
5.406579676
 30
0.0
 10
5.0982187298
 20
5.4060796217
 30
0.0
 10
5.075980929
 20
5.4055800124
 30
0.0
 10
5.0555123882
 20
5.4050810087
 30
0.0
 10
5.0369853083
 20
5.4045829374
 30
0.0
 10
5.0205555475
 20
5.4040860394
 30
0.0
 10
5.0082399217
 20
5.4036570684
 30
0.0
 10
4.9995384543
 20
5.4033079858
 30
0.0
 10
4.9939081628
 20
5.4030581006
 30
0.0
 10
4.9888931583
 20
5.4028086705
 30
0.0
 10
4.9845038869
 20
5.402559915
 30
0.0
 10
4.9807495102
 20
5.4023119671
 30
0.0
 10
4.9780220209
 20
5.402096405
 30
0.0
 10
4.9761638503
 20
5.4019198343
 30
0.0
 10
4.975013789
 20
5.4017952614
 30
0.0
 10
4.9740274623
 20
5.4016711114
 30
0.0
 10
4.9734256524
 20
5.4015807936
 30
0.0
 10
4.9731525143
 20
5.4015343341
 30
0.0
  0
SPLINE
  5
375
100
AcDbEntity
  8
0
100
AcDbSpline
 62
7
  6
CONTINUOUS
 70
0
 71
3
 72
15
 73
11
 74
0
 42
0.0000001
 43
0.0000001
 44
0.0000000001
 40
0.0
 40
0.0
 40
0.0
 40
0.0
 40
0.2200229032
 40
0.4118002867
 40
0.5754925315
 40
0.7113757823
 40
0.8199589793
 40
0.8643296214
 40
0.9023585972
 40
1.0
 40
1.0
 40
1.0
 40
1.0
 10
4.9731525143
 20
5.4015343341
 30
0.0
 10
4.9730231158
 20
5.401512324
 30
0.0
 10
4.972781312
 20
5.4014688341
 30
0.0
 10
4.9724450565
 20
5.401399225
 30
0.0
 10
4.9721602244
 20
5.4013299176
 30
0.0
 10
4.9719264648
 20
5.401260688
 30
0.0
 10
4.9717652389
 20
5.4012004835
 30
0.0
 10
4.9716620301
 20
5.401150036
 30
0.0
 10
4.9715719923
 20
5.4010970727
 30
0.0
 10
4.9714976367
 20
5.4010300831
 30
0.0
 10
4.9714975873
 20
5.4009718341
 30
0.0
  0
SPLINE
  5
376
100
AcDbEntity
  8
0
100
AcDbSpline
 62
7
  6
CONTINUOUS
 70
0
 71
3
 72
25
 73
21
 74
0
 42
0.0000001
 43
0.0000001
 44
0.0000000001
 40
0.0
 40
0.0
 40
0.0
 40
0.0
 40
0.2044268064
 40
0.391127414
 40
0.4769066562
 40
0.5571779494
 40
0.6316273518
 40
0.6999618988
 40
0.7619133622
 40
0.8172393374
 40
0.8657219606
 40
0.9071745281
 40
0.941435705
 40
0.9558290515
 40
0.9683784967
 40
0.9790749414
 40
0.9879114279
 40
0.9948840316
 40
0.9976730661
 40
1.0
 40
1.0
 40
1.0
 40
1.0
 10
5.1355656553
 20
5.4175214662
 30
0.0
 10
5.1244270807
 20
5.4173004629
 30
0.0
 10
5.1031160443
 20
5.4168639185
 30
0.0
 10
5.0771322613
 20
5.4162825198
 30
0.0
 10
5.0579139277
 20
5.415812029
 30
0.0
 10
5.044811735
 20
5.4154693717
 30
0.0
 10
5.0326605761
 20
5.4151269824
 30
0.0
 10
5.0215082219
 20
5.4147849088
 30
0.0
 10
5.0113985665
 20
5.4144432841
 30
0.0
 10
5.0023714543
 20
5.4141022744
 30
0.0
 10
4.994462324
 20
5.4137622442
 30
0.0
 10
4.9877023486
 20
5.4134234484
 30
0.0
 10
4.982800422
 20
5.4131287178
 30
0.0
 10
4.979473678
 20
5.4128869531
 30
0.0
 10
4.9774294669
 20
5.4127167033
 30
0.0
 10
4.9756891859
 20
5.4125472466
 30
0.0
 10
4.9742545004
 20
5.4123786367
 30
0.0
 10
4.9732513905
 20
5.4122311024
 30
0.0
 10
4.9726040089
 20
5.4121085598
 30
0.0
 10
4.9723320324
 20
5.4120466737
 30
0.0
 10
4.9722092769
 20
5.4120148551
 30
0.0
  0
SPLINE
  5
377
100
AcDbEntity
  8
0
100
AcDbSpline
 62
7
  6
CONTINUOUS
 70
0
 71
3
 72
15
 73
11
 74
0
 42
0.0000001
 43
0.0000001
 44
0.0000000001
 40
0.0
 40
0.0
 40
0.0
 40
0.0
 40
0.296838458
 40
0.4391305135
 40
0.5741813565
 40
0.6997651204
 40
0.8138123003
 40
0.9144415841
 40
0.9592029295
 40
1.0
 40
1.0
 40
1.0
 40
1.0
 10
5.2862475786
 20
4.6279085984
 30
0.0
 10
5.2595764603
 20
4.6274439924
 30
0.0
 10
5.2201203
 20
4.6267571988
 30
0.0
 10
5.1685305605
 20
4.6258129096
 30
0.0
 10
5.1323285719
 20
4.6251153405
 30
0.0
 10
5.0986652602
 20
4.6244189198
 30
0.0
 10
5.0680959054
 20
4.6237239965
 30
0.0
 10
5.0447893227
 20
4.6231262851
 30
0.0
 10
5.0280647591
 20
4.6226399792
 30
0.0
 10
5.0203800025
 20
4.6223950638
 30
0.0
 10
5.0167158884
 20
4.6222714662
 30
0.0
  0
SPLINE
  5
378
100
AcDbEntity
  8
0
100
AcDbSpline
 62
7
  6
CONTINUOUS
 70
0
 71
3
 72
30
 73
26
 74
0
 42
0.0000001
 43
0.0000001
 44
0.0000000001
 40
0.0
 40
0.0
 40
0.0
 40
0.0
 40
0.0019021903
 40
0.0043447474
 40
0.0073299531
 40
0.0108583803
 40
0.0149296119
 40
0.0195418926
 40
0.0303802901
 40
0.0433534611
 40
0.0584337767
 40
0.0755889483
 40
0.0947822444
 40
0.1159709008
 40
0.1391096289
 40
0.1910273129
 40
0.2500787813
 40
0.3157440534
 40
0.3874445851
 40
0.4645480688
 40
0.5463747526
 40
0.6322024828
 40
0.7212754575
 40
0.8128047112
 40
1.0
 40
1.0
 40
1.0
 40
1.0
 10
5.600285962
 20
4.9699780773
 30
0.0
 10
5.600093111
 20
4.9699280961
 30
0.0
 10
5.5996475756
 20
4.9698337685
 30
0.0
 10
5.5988902154
 20
4.9697077984
 30
0.0
 10
5.5979606864
 20
4.9695810623
 30
0.0
 10
5.5968593912
 20
4.9694537341
 30
0.0
 10
5.5955867433
 20
4.9693260617
 30
0.0
 10
5.593550092
 20
4.9691456561
 30
0.0
 10
5.5905812312
 20
4.9689249634
 30
0.0
 10
5.5865158416
 20
4.9686708522
 30
0.0
 10
5.5817878125
 20
4.9684159539
 30
0.0
 10
5.5764075494
 20
4.9681604139
 30
0.0
 10
5.5703869181
 20
4.9679044923
 30
0.0
 10
5.5637391163
 20
4.9676482336
 30
0.0
 10
5.5536653261
 20
4.9672924908
 30
0.0
 10
5.5396265678
 20
4.9668540158
 30
0.0
 10
5.5211340721
 20
4.9663443682
 30
0.0
 10
5.5005689769
 20
4.9658337586
 30
0.0
 10
5.4781127284
 20
4.9653223925
 30
0.0
 10
5.4539634497
 20
4.9648105202
 30
0.0
 10
5.4283342813
 20
4.9642982747
 30
0.0
 10
5.4014512779
 20
4.9637857605
 30
0.0
 10
5.3735519201
 20
4.9632730546
 30
0.0
 10
5.3350374625
 20
4.9625841341
 30
0.0
 10
5.3058501696
 20
4.9620758077
 30
0.0
 10
5.2862475786
 20
4.9617343341
 30
0.0
  0
SPLINE
  5
379
100
AcDbEntity
  8
0
100
AcDbSpline
 62
7
  6
CONTINUOUS
 70
0
 71
3
 72
27
 73
23
 74
0
 42
0.0000001
 43
0.0000001
 44
0.0000000001
 40
0.0
 40
0.0
 40
0.0
 40
0.0
 40
0.0023312187
 40
0.0051615168
 40
0.0084920714
 40
0.0123230404
 40
0.0214841764
 40
0.0326359597
 40
0.0457613314
 40
0.0608413499
 40
0.0778522834
 40
0.0967658892
 40
0.140178733
 40
0.1907963103
 40
0.2482873451
 40
0.3122754122
 40
0.3823398147
 40
0.4580195964
 40
0.5388174796
 40
0.6242024118
 40
0.8064586026
 40
1.0
 40
1.0
 40
1.0
 40
1.0
 10
5.5796870315
 20
4.9646409364
 30
0.0
 10
5.5795071579
 20
4.9645994325
 30
0.0
 10
5.5791062376
 20
4.9645191437
 30
0.0
 10
5.5784427143
 20
4.9644095309
 30
0.0
 10
5.577659125
 20
4.9642995021
 30
0.0
 10
5.5763760693
 20
4.9641429297
 30
0.0
 10
5.5744735613
 20
4.9639521835
 30
0.0
 10
5.5718347296
 20
4.963733134
 30
0.0
 10
5.5687258957
 20
4.9635132641
 30
0.0
 10
5.565152161
 20
4.9632927542
 30
0.0
 10
5.5611193368
 20
4.9630718311
 30
0.0
 10
5.554844528
 20
4.9627624573
 30
0.0
 10
5.5459089246
 20
4.9623825887
 30
0.0
 10
5.533918563
 20
4.9619431305
 30
0.0
 10
5.5202980104
 20
4.9615025884
 30
0.0
 10
5.5051368591
 20
4.9610611754
 30
0.0
 10
5.4885348773
 20
4.9606191955
 30
0.0
 10
5.4706013726
 20
4.9601767925
 30
0.0
 10
5.4514543615
 20
4.9597340656
 30
0.0
 10
5.4238694847
 20
4.9591302841
 30
0.0
 10
5.3873578889
 20
4.958385104
 30
0.0
 10
5.3576055085
 20
4.9578121531
 30
0.0
 10
5.3422825035
 20
4.9575214639
 30
0.0
  0
SPLINE
  5
37A
100
AcDbEntity
  8
0
100
AcDbSpline
 62
7
  6
CONTINUOUS
 70
0
 71
3
 72
30
 73
26
 74
0
 42
0.0000001
 43
0.0000001
 44
0.0000000001
 40
0.0
 40
0.0
 40
0.0
 40
0.0
 40
0.0019021899
 40
0.0043447467
 40
0.007329952
 40
0.0108583794
 40
0.0149296114
 40
0.0195418922
 40
0.0303802898
 40
0.0433534604
 40
0.0584337752
 40
0.0755889473
 40
0.0947822444
 40
0.1159709012
 40
0.1391096286
 40
0.191027311
 40
0.2500787768
 40
0.3157440434
 40
0.3874445748
 40
0.4645480568
 40
0.5463747434
 40
0.632202477
 40
0.7212754562
 40
0.8128047136
 40
1.0
 40
1.0
 40
1.0
 40
1.0
 10
5.600285962
 20
5.0044280773
 30
0.0
 10
5.6000931111
 20
5.0043780962
 30
0.0
 10
5.5996475758
 20
5.0042837685
 30
0.0
 10
5.5988902157
 20
5.0041577984
 30
0.0
 10
5.5979606867
 20
5.0040310624
 30
0.0
 10
5.5968593914
 20
5.0039037341
 30
0.0
 10
5.5955867435
 20
5.0037760618
 30
0.0
 10
5.5935500922
 20
5.0035956561
 30
0.0
 10
5.5905812314
 20
5.0033749634
 30
0.0
 10
5.5865158419
 20
5.0031208522
 30
0.0
 10
5.5817878128
 20
5.0028659539
 30
0.0
 10
5.5764075497
 20
5.0026104139
 30
0.0
 10
5.5703869182
 20
5.0023544923
 30
0.0
 10
5.5637391163
 20
5.0020982336
 30
0.0
 10
5.5536653263
 20
5.0017424908
 30
0.0
 10
5.5396265685
 20
5.0013040158
 30
0.0
 10
5.5211340739
 20
5.0007943682
 30
0.0
 10
5.5005689795
 20
5.0002837587
 30
0.0
 10
5.4781127318
 20
4.9997723926
 30
0.0
 10
5.453963453
 20
4.9992605203
 30
0.0
 10
5.4283342842
 20
4.9987482748
 30
0.0
 10
5.4014512797
 20
4.9982357605
 30
0.0
 10
5.3735519206
 20
4.9977230546
 30
0.0
 10
5.3350374624
 20
4.9970341341
 30
0.0
 10
5.3058501693
 20
4.9965258076
 30
0.0
 10
5.2862475786
 20
4.9961843341
 30
0.0
  0
LINE
  5
37B
100
AcDbEntity
  8
0
100
AcDbLine
 62
7
  6
CONTINUOUS
 10
5.5798870541
 20
4.9991398057
 11
5.5796475463
 21
4.9990819385
  0
SPLINE
  5
37C
100
AcDbEntity
  8
0
100
AcDbSpline
 62
7
  6
CONTINUOUS
 70
0
 71
3
 72
62
 73
58
 74
0
 42
0.0000001
 43
0.0000001
 44
0.0000000001
 40
0.0
 40
0.0
 40
0.0
 40
0.0
 40
0.0011489886
 40
0.0025779869
 40
0.0042876482
 40
0.0062776288
 40
0.0110956052
 40
0.0170242372
 40
0.0240506611
 40
0.0321599794
 40
0.0413340686
 40
0.0515520954
 40
0.0627914266
 40
0.0750259764
 40
0.1023686375
 40
0.133331098
 40
0.1676312052
 40
0.2049560929
 40
0.2449652527
 40
0.2872936623
 40
0.3315549261
 40
0.3773451358
 40
0.4242461648
 40
0.4718299228
 40
0.5196620304
 40
0.5673058218
 40
0.614326417
 40
0.6602945223
 40
0.7047904926
 40
0.7474082165
 40
0.7877587076
 40
0.8254737914
 40
0.8602093762
 40
0.8916485887
 40
0.9060411058
 40
0.9195048865
 40
0.9320086537
 40
0.943524552
 40
0.9540260726
 40
0.9634895925
 40
0.9718939496
 40
0.9792199416
 40
0.9854521498
 40
0.9905767415
 40
0.9927207624
 40
0.9945847997
 40
0.9961682731
 40
0.9974712002
 40
0.9980178714
 40
0.9984950687
 40
0.9989033277
 40
0.9992435459
 40
0.9995173355
 40
0.9997278989
 40
0.9998116461
 40
0.9998830389
 40
1.0
 40
1.0
 40
1.0
 40
1.0
 10
5.5796475463
 20
4.9990819385
 30
0.0
 10
5.5794277957
 20
4.9990322354
 30
0.0
 10
5.5789310906
 20
4.9989370134
 30
0.0
 10
5.578100173
 20
4.9988083122
 30
0.0
 10
5.5771027766
 20
4.9986789931
 30
0.0
 10
5.5754428053
 20
4.9984939813
 30
0.0
 10
5.5729552233
 20
4.9982693232
 30
0.0
 10
5.5694796329
 20
4.9980117094
 30
0.0
 10
5.5653572247
 20
4.9977530199
 30
0.0
 10
5.5605974261
 20
4.9974934605
 30
0.0
 10
5.5552110072
 20
4.9972333842
 30
0.0
 10
5.5492102195
 20
4.9969729127
 30
0.0
 10
5.5426088175
 20
4.9967121713
 30
0.0
 10
5.5326509143
 20
4.996350687
 30
0.0
 10
5.5188261539
 20
4.9959049089
 30
0.0
 10
5.500674881
 20
4.9953862855
 30
0.0
 10
5.4805655341
 20
4.9948667426
 30
0.0
 10
5.4586817318
 20
4.9943464702
 30
0.0
 10
5.4352232856
 20
4.9938257111
 30
0.0
 10
5.410404402
 20
4.9933045931
 30
0.0
 10
5.3844516992
 20
4.9927832201
 30
0.0
 10
5.3576021965
 20
4.992261667
 30
0.0
 10
5.3301010798
 20
4.9917399932
 30
0.0
 10
5.3021995048
 20
4.9912182496
 30
0.0
 10
5.2741522593
 20
4.9906964812
 30
0.0
 10
5.2462154612
 20
4.9901747316
 30
0.0
 10
5.2186442323
 20
4.9896530456
 30
0.0
 10
5.1916903593
 20
4.9891314726
 30
0.0
 10
5.1655999932
 20
4.9886100702
 30
0.0
 10
5.1406113894
 20
4.9880889133
 30
0.0
 10
5.116952723
 20
4.9875680925
 30
0.0
 10
5.0948400235
 20
4.9870477599
 30
0.0
 10
5.0744752131
 20
4.9865280455
 30
0.0
 10
5.0586832539
 20
4.9860837047
 30
0.0
 10
5.047061729
 20
4.9857246894
 30
0.0
 10
5.0391519589
 20
4.9854635501
 30
0.0
 10
5.0318065795
 20
4.9852025498
 30
0.0
 10
5.0250424467
 20
4.9849417541
 30
0.0
 10
5.0188749371
 20
4.9846812029
 30
0.0
 10
5.0133181389
 20
4.9844209998
 30
0.0
 10
5.0083847551
 20
4.9841612832
 30
0.0
 10
5.0040859199
 20
4.9839023173
 30
0.0
 10
5.0004315045
 20
4.9836443233
 30
0.0
 10
4.9977935313
 20
4.9834197017
 30
0.0
 10
4.9960122098
 20
4.9832353123
 30
0.0
 10
4.9949234041
 20
4.9831057376
 30
0.0
 10
4.9940008311
 20
4.982976626
 30
0.0
 10
4.9933369216
 20
4.9828641873
 30
0.0
 10
4.9928900262
 20
4.9827720164
 30
0.0
 10
4.9926167443
 20
4.9827071289
 30
0.0
 10
4.9923852082
 20
4.982642431
 30
0.0
 10
4.9921951956
 20
4.9825780206
 30
0.0
 10
4.9920466244
 20
4.9825138571
 30
0.0
 10
4.9919499861
 20
4.9824571233
 30
0.0
 10
4.9918956871
 20
4.9824097905
 30
0.0
 10
4.9918614528
 20
4.9823688776
 30
0.0
 10
4.9918475844
 20
4.9823319007
 30
0.0
 10
4.991847595
 20
4.9823089662
 30
0.0
  0
SPLINE
  5
37D
100
AcDbEntity
  8
0
100
AcDbSpline
 62
7
  6
CONTINUOUS
 70
0
 71
3
 72
22
 73
18
 74
0
 42
0.0000001
 43
0.0000001
 44
0.0000000001
 40
0.0
 40
0.0
 40
0.0
 40
0.0
 40
0.0472865833
 40
0.095078193
 40
0.1438599507
 40
0.1940791594
 40
0.246132447
 40
0.3003622165
 40
0.3570492362
 40
0.4164209042
 40
0.4786501147
 40
0.5438612736
 40
0.6121394967
 40
0.6835278199
 40
0.7580405496
 40
0.8356604724
 40
1.0
 40
1.0
 40
1.0
 40
1.0
 10
5.0727475797
 20
3.2187064469
 30
0.0
 10
5.0727475916
 20
3.2172477951
 30
0.0
 10
5.0729168795
 20
3.2143122003
 30
0.0
 10
5.0736753603
 20
3.2099308476
 30
0.0
 10
5.0749366966
 20
3.2055726948
 30
0.0
 10
5.0766962801
 20
3.2012495306
 30
0.0
 10
5.0789482637
 20
3.1969712188
 30
0.0
 10
5.0816868394
 20
3.192747955
 30
0.0
 10
5.0849039977
 20
3.1885885378
 30
0.0
 10
5.0885922157
 20
3.1845024497
 30
0.0
 10
5.0927423647
 20
3.1804984868
 30
0.0
 10
5.0973445242
 20
3.1765852703
 30
0.0
 10
5.102388299
 20
3.172772002
 30
0.0
 10
5.1078615538
 20
3.1690667048
 30
0.0
 10
5.1137520304
 20
3.1654781369
 30
0.0
 10
5.1223067532
 20
3.1607703951
 30
0.0
 10
5.1290648573
 20
3.1575799293
 30
0.0
 10
5.1337194241
 20
3.1555715155
 30
0.0
  0
SPLINE
  5
37E
100
AcDbEntity
  8
0
100
AcDbSpline
 62
7
  6
CONTINUOUS
 70
0
 71
3
 72
11
 73
7
 74
0
 42
0.0000001
 43
0.0000001
 44
0.0000000001
 40
0.0
 40
0.0
 40
0.0
 40
0.0
 40
0.2241428639
 40
0.465579693
 40
0.724318003
 40
1.0
 40
1.0
 40
1.0
 40
1.0
 10
5.4783157321
 20
3.6064176215
 30
0.0
 10
5.4757063041
 20
3.6041457948
 30
0.0
 10
5.4700356241
 20
3.5997102377
 30
0.0
 10
5.4606547978
 20
3.5936068429
 30
0.0
 10
5.450145614
 20
3.5878436257
 30
0.0
 10
5.4426613861
 20
3.5843599285
 30
0.0
 10
5.4387540463
 20
3.5826744685
 30
0.0
  0
SPLINE
  5
37F
100
AcDbEntity
  8
0
100
AcDbSpline
 62
7
  6
CONTINUOUS
 70
0
 71
3
 72
22
 73
18
 74
0
 42
0.0000001
 43
0.0000001
 44
0.0000000001
 40
0.0
 40
0.0
 40
0.0
 40
0.0
 40
0.0472858147
 40
0.0950767068
 40
0.1438576938
 40
0.1940763084
 40
0.2461291001
 40
0.3003586206
 40
0.3570456236
 40
0.4164170796
 40
0.4786463753
 40
0.5438576819
 40
0.6121363927
 40
0.6835254342
 40
0.7580384996
 40
0.8356589918
 40
1.0
 40
1.0
 40
1.0
 40
1.0
 10
5.0727475786
 20
2.5956198433
 30
0.0
 10
5.0727475786
 20
2.5941611221
 30
0.0
 10
5.0729168909
 20
2.591225384
 30
0.0
 10
5.0736754715
 20
2.5868438333
 30
0.0
 10
5.0749368796
 20
2.5824854658
 30
0.0
 10
5.0766966635
 20
2.5781621219
 30
0.0
 10
5.0789488392
 20
2.5738836109
 30
0.0
 10
5.0816876735
 20
2.5696601576
 30
0.0
 10
5.0849051515
 20
2.5655005836
 30
0.0
 10
5.0885936704
 20
2.5614142998
 30
0.0
 10
5.0927442171
 20
2.557410217
 30
0.0
 10
5.0973467791
 20
2.5534968464
 30
0.0
 10
5.1023910145
 20
2.5496834474
 30
0.0
 10
5.1078647709
 20
2.5459780554
 30
0.0
 10
5.1137557402
 20
2.5423893542
 30
0.0
 10
5.1223112209
 20
2.537681544
 30
0.0
 10
5.1290698848
 20
2.5344910011
 30
0.0
 10
5.1337248478
 20
2.5324825739
 30
0.0
  0
SPLINE
  5
380
100
AcDbEntity
  8
0
100
AcDbSpline
 62
7
  6
CONTINUOUS
 70
0
 71
3
 72
22
 73
18
 74
0
 42
0.0000001
 43
0.0000001
 44
0.0000000001
 40
0.0
 40
0.0
 40
0.0
 40
0.0
 40
0.0472858147
 40
0.0950767068
 40
0.1438576938
 40
0.1940763084
 40
0.2461291001
 40
0.3003586206
 40
0.3570456236
 40
0.4164170796
 40
0.4786463753
 40
0.5438576819
 40
0.6121363927
 40
0.6835254342
 40
0.7580384996
 40
0.8356589918
 40
1.0
 40
1.0
 40
1.0
 40
1.0
 10
5.4997475786
 20
2.720237164
 30
0.0
 10
5.4997475786
 20
2.7187784429
 30
0.0
 10
5.4995782662
 20
2.7158427047
 30
0.0
 10
5.4988196856
 20
2.711461154
 30
0.0
 10
5.4975582775
 20
2.7071027865
 30
0.0
 10
5.4957984936
 20
2.7027794426
 30
0.0
 10
5.4935463179
 20
2.6985009316
 30
0.0
 10
5.4908074836
 20
2.6942774783
 30
0.0
 10
5.4875900056
 20
2.6901179043
 30
0.0
 10
5.4839014867
 20
2.6860316205
 30
0.0
 10
5.4797509401
 20
2.6820275377
 30
0.0
 10
5.475148378
 20
2.6781141671
 30
0.0
 10
5.4701041426
 20
2.6743007682
 30
0.0
 10
5.4646303862
 20
2.6705953762
 30
0.0
 10
5.4587394169
 20
2.6670066749
 30
0.0
 10
5.4501839362
 20
2.6622988647
 30
0.0
 10
5.4434252723
 20
2.6591083218
 30
0.0
 10
5.4387703093
 20
2.6570998946
 30
0.0
  0
SPLINE
  5
381
100
AcDbEntity
  8
0
100
AcDbSpline
 62
7
  6
CONTINUOUS
 70
0
 71
3
 72
21
 73
17
 74
0
 42
0.0000001
 43
0.0000001
 44
0.0000000001
 40
0.0
 40
0.0
 40
0.0
 40
0.0
 40
0.0491308533
 40
0.0986831099
 40
0.1490643642
 40
0.2006574777
 40
0.2538085253
 40
0.308824849
 40
0.3659702947
 40
0.425463095
 40
0.4874834318
 40
0.5521704819
 40
0.6898818813
 40
0.7630699988
 40
0.839162751
 40
1.0
 40
1.0
 40
1.0
 40
1.0
 10
5.4997475786
 20
2.8448544847
 30
0.0
 10
5.4997475786
 20
2.8435490146
 30
0.0
 10
5.4996122465
 20
2.8409249217
 30
0.0
 10
5.499005424
 20
2.8370043871
 30
0.0
 10
5.4979959908
 20
2.833100016
 30
0.0
 10
5.4965862169
 20
2.8292204202
 30
0.0
 10
5.4947802639
 20
2.8253726985
 30
0.0
 10
5.4925818335
 20
2.8215642152
 30
0.0
 10
5.4899956339
 20
2.8178019381
 30
0.0
 10
5.4870273784
 20
2.8140922855
 30
0.0
 10
5.4836823864
 20
2.8104420637
 30
0.0
 10
5.4786234005
 20
2.8055614272
 30
0.0
 10
5.4729226885
 20
2.8009399988
 30
0.0
 10
5.4666755827
 20
2.7965639755
 30
0.0
 10
5.4597217326
 20
2.7921386362
 30
0.0
 10
5.4542025481
 20
2.789093186
 30
0.0
 10
5.4503925573
 20
2.7871571899
 30
0.0
  0
SPLINE
  5
382
100
AcDbEntity
  8
0
100
AcDbSpline
 62
7
  6
CONTINUOUS
 70
0
 71
3
 72
22
 73
18
 74
0
 42
0.0000001
 43
0.0000001
 44
0.0000000001
 40
0.0
 40
0.0
 40
0.0
 40
0.0
 40
0.0472858147
 40
0.0950767068
 40
0.1438576938
 40
0.1940763084
 40
0.2461291001
 40
0.3003586206
 40
0.3570456236
 40
0.4164170796
 40
0.4786463753
 40
0.5438576819
 40
0.6121363927
 40
0.6835254342
 40
0.7580384996
 40
0.8356589918
 40
1.0
 40
1.0
 40
1.0
 40
1.0
 10
5.4997475786
 20
3.0940891261
 30
0.0
 10
5.4997475786
 20
3.092630405
 30
0.0
 10
5.4995782662
 20
3.0896946669
 30
0.0
 10
5.4988196856
 20
3.0853131162
 30
0.0
 10
5.4975582775
 20
3.0809547486
 30
0.0
 10
5.4957984936
 20
3.0766314048
 30
0.0
 10
5.4935463179
 20
3.0723528938
 30
0.0
 10
5.4908074836
 20
3.0681294405
 30
0.0
 10
5.4875900056
 20
3.0639698665
 30
0.0
 10
5.4839014867
 20
3.0598835827
 30
0.0
 10
5.4797509401
 20
3.0558794998
 30
0.0
 10
5.475148378
 20
3.0519661292
 30
0.0
 10
5.4701041426
 20
3.0481527303
 30
0.0
 10
5.4646303862
 20
3.0444473383
 30
0.0
 10
5.4587394169
 20
3.0408586371
 30
0.0
 10
5.4501839362
 20
3.0361508268
 30
0.0
 10
5.4434252723
 20
3.032960284
 30
0.0
 10
5.4387703093
 20
3.0309518568
 30
0.0
  0
SPLINE
  5
383
100
AcDbEntity
  8
0
100
AcDbSpline
 62
7
  6
CONTINUOUS
 70
0
 71
3
 72
22
 73
18
 74
0
 42
0.0000001
 43
0.0000001
 44
0.0000000001
 40
0.0
 40
0.0
 40
0.0
 40
0.0
 40
0.0476181918
 40
0.0957256416
 40
0.1447928404
 40
0.1952554077
 40
0.2475007456
 40
0.3018655397
 40
0.3586278714
 40
0.4180136815
 40
0.4801987946
 40
0.5453100702
 40
0.6134375093
 40
0.6846303577
 40
0.7589073989
 40
0.8362604734
 40
1.0
 40
1.0
 40
1.0
 40
1.0
 10
5.4997475786
 20
2.9694718054
 30
0.0
 10
5.4997475786
 20
2.9680414851
 30
0.0
 10
5.4995848582
 20
2.965163587
 30
0.0
 10
5.4988557014
 20
2.9608674804
 30
0.0
 10
5.4976431206
 20
2.9565931165
 30
0.0
 10
5.4959510908
 20
2.9523516984
 30
0.0
 10
5.4937852561
 20
2.9481524693
 30
0.0
 10
5.4911508406
 20
2.9440051288
 30
0.0
 10
5.4880552517
 20
2.9399181066
 30
0.0
 10
5.4845056862
 20
2.9359001761
 30
0.0
 10
5.4805103089
 20
2.9319599765
 30
0.0
 10
5.4760785825
 20
2.928105409
 30
0.0
 10
5.4712200252
 20
2.924345279
 30
0.0
 10
5.4659458589
 20
2.9206873337
 30
0.0
 10
5.4602676297
 20
2.9171395296
 30
0.0
 10
5.45201819
 20
2.91247864
 30
0.0
 10
5.4454959141
 20
2.9093102412
 30
0.0
 10
5.4410018683
 20
2.9073119651
 30
0.0
  0
SPLINE
  5
384
100
AcDbEntity
  8
0
100
AcDbSpline
 62
7
  6
CONTINUOUS
 70
0
 71
3
 72
39
 73
35
 74
0
 42
0.0000001
 43
0.0000001
 44
0.0000000001
 40
0.0
 40
0.0
 40
0.0
 40
0.0
 40
0.000522443
 40
0.0007225193
 40
0.0009552567
 40
0.0015233136
 40
0.0022329777
 40
0.0030871452
 40
0.0040873247
 40
0.0052343691
 40
0.0079707117
 40
0.0112981435
 40
0.0152168847
 40
0.0197258015
 40
0.0305042131
 40
0.0436114798
 40
0.0590180463
 40
0.0766875226
 40
0.0965788924
 40
0.1186437664
 40
0.1428305587
 40
0.1690801068
 40
0.1973305283
 40
0.2275130044
 40
0.2595556403
 40
0.2933809986
 40
0.3660507836
 40
0.4448230863
 40
0.5289400226
 40
0.6175916474
 40
0.7099254491
 40
0.8050502783
 40
0.9020555645
 40
1.0
 40
1.0
 40
1.0
 40
1.0
 10
5.6009974671
 20
4.9810210984
 30
0.0
 10
5.6009974671
 20
4.9809662372
 30
0.0
 10
5.6009305283
 20
4.9809018412
 30
0.0
 10
5.6008472098
 20
4.980850633
 30
0.0
 10
5.600752914
 20
4.980802409
 30
0.0
 10
5.6006052869
 20
4.9807447651
 30
0.0
 10
5.6003911689
 20
4.9806785044
 30
0.0
 10
5.6001301919
 20
4.9806121654
 30
0.0
 10
5.5998220774
 20
4.9805455285
 30
0.0
 10
5.5993180297
 20
4.9804508691
 30
0.0
 10
5.5985695065
 20
4.9803354119
 30
0.0
 10
5.5975296112
 20
4.9802028236
 30
0.0
 10
5.5963023538
 20
4.9800697639
 30
0.0
 10
5.5942944079
 20
4.9798804198
 30
0.0
 10
5.5913214809
 20
4.9796497654
 30
0.0
 10
5.5872039009
 20
4.9793848128
 30
0.0
 10
5.5823614784
 20
4.9791189039
 30
0.0
 10
5.5768057967
 20
4.9788521746
 30
0.0
 10
5.5705502445
 20
4.978584984
 30
0.0
 10
5.5636097762
 20
4.9783174079
 30
0.0
 10
5.5560012022
 20
4.9780495961
 30
0.0
 10
5.5477427302
 20
4.9777815663
 30
0.0
 10
5.538854356
 20
4.9775134024
 30
0.0
 10
5.5293574021
 20
4.9772451079
 30
0.0
 10
5.5192748135
 20
4.9769767203
 30
0.0
 10
5.5047317315
 20
4.9766099429
 30
0.0
 10
5.4852822995
 20
4.9761550659
 30
0.0
 10
5.4605522638
 20
4.975620741
 30
0.0
 10
5.4341436372
 20
4.9750859642
 30
0.0
 10
5.4063106648
 20
4.974550834
 30
0.0
 10
5.3773215663
 20
4.9740154665
 30
0.0
 10
5.3474551178
 20
4.9734799266
 30
0.0
 10
5.3169994122
 20
4.972944287
 30
0.0
 10
5.2965310578
 20
4.9725877347
 30
0.0
 10
5.2862475786
 20
4.9724085984
 30
0.0
  0
SPLINE
  5
385
100
AcDbEntity
  8
0
100
AcDbSpline
 62
7
  6
CONTINUOUS
 70
0
 71
3
 72
63
 73
59
 74
0
 42
0.0000001
 43
0.0000001
 44
0.0000000001
 40
0.0
 40
0.0
 40
0.0
 40
0.0
 40
0.0001173489
 40
0.0001890299
 40
0.0002731513
 40
0.0004847724
 40
0.0007601022
 40
0.0011023963
 40
0.0015132542
 40
0.0019935446
 40
0.0025437731
 40
0.0038550829
 40
0.005448502
 40
0.0073243589
 40
0.0094822594
 40
0.0146398676
 40
0.0209116593
 40
0.0282845689
 40
0.0367418223
 40
0.0462650753
 40
0.0568320459
 40
0.068419205
 40
0.0809997309
 40
0.0945449067
 40
0.1090238731
 40
0.1406475273
 40
0.1755804664
 40
0.213501926
 40
0.2540635507
 40
0.2968926286
 40
0.3415955732
 40
0.3877614151
 40
0.4349658901
 40
0.4827750886
 40
0.5307495524
 40
0.5784483837
 40
0.6254329986
 40
0.6712716347
 40
0.7155428742
 40
0.7578399185
 40
0.7977740817
 40
0.834978397
 40
0.8691111389
 40
0.8998587574
 40
0.9269391294
 40
0.9390251886
 40
0.9501041836
 40
0.9601510027
 40
0.9691423639
 40
0.9770585793
 40
0.9838812845
 40
0.9895962765
 40
0.9920345315
 40
0.9941915334
 40
0.9960666556
 40
0.9976595695
 40
0.9989703605
 40
1.0
 40
1.0
 40
1.0
 40
1.0
 10
5.5806474632
 20
5.0207339663
 30
0.0
 10
5.5806474688
 20
5.0207109461
 30
0.0
 10
5.5806334978
 20
5.0206738294
 30
0.0
 10
5.5805990648
 20
5.0206327876
 30
0.0
 10
5.5805444261
 20
5.020585282
 30
0.0
 10
5.5804471706
 20
5.0205283502
 30
0.0
 10
5.580297621
 20
5.0204639682
 30
0.0
 10
5.5801063046
 20
5.0203993431
 30
0.0
 10
5.5798731431
 20
5.020334426
 30
0.0
 10
5.5795979279
 20
5.0202693176
 30
0.0
 10
5.579147891
 20
5.0201768338
 30
0.0
 10
5.578479406
 20
5.0200640139
 30
0.0
 10
5.5775505322
 20
5.01993444
 30
0.0
 10
5.5764542756
 20
5.0198044151
 30
0.0
 10
5.5746606845
 20
5.0196194054
 30
0.0
 10
5.5720046382
 20
5.0193940154
 30
0.0
 10
5.5683252452
 20
5.0191351055
 30
0.0
 10
5.5639972597
 20
5.0188752791
 30
0.0
 10
5.5590305111
 20
5.0186146382
 30
0.0
 10
5.5534364492
 20
5.0183535595
 30
0.0
 10
5.5472278196
 20
5.0180920992
 30
0.0
 10
5.5404189768
 20
5.0178304056
 30
0.0
 10
5.533025516
 20
5.0175685123
 30
0.0
 10
5.5250644495
 20
5.0173064619
 30
0.0
 10
5.5133689489
 20
5.0169462375
 30
0.0
 10
5.4974785209
 20
5.0165003767
 30
0.0
 10
5.4769898016
 20
5.0159788788
 30
0.0
 10
5.4547472262
 20
5.015456758
 30
0.0
 10
5.4309552909
 20
5.0149341491
 30
0.0
 10
5.4058327451
 20
5.0144112037
 30
0.0
 10
5.3796106049
 20
5.013888013
 30
0.0
 10
5.3525299872
 20
5.0133646516
 30
0.0
 10
5.3248399107
 20
5.0128411782
 30
0.0
 10
5.2967949779
 20
5.012317643
 30
0.0
 10
5.2686530514
 20
5.0117940913
 30
0.0
 10
5.2406729099
 20
5.0112705675
 30
0.0
 10
5.2131118239
 20
5.0107471174
 30
0.0
 10
5.1862232457
 20
5.0102237926
 30
0.0
 10
5.160254398
 20
5.0097006555
 30
0.0
 10
5.1354440626
 20
5.0091777833
 30
0.0
 10
5.1120203521
 20
5.0086552843
 30
0.0
 10
5.090198635
 20
5.0081332923
 30
0.0
 10
5.0701795647
 20
5.0076120617
 30
0.0
 10
5.0521472105
 20
5.0070917964
 30
0.0
 10
5.0384394963
 20
5.006644344
 30
0.0
 10
5.0285895805
 20
5.0062813527
 30
0.0
 10
5.0220796852
 20
5.00601975
 30
0.0
 10
5.0161773925
 20
5.0057584806
 30
0.0
 10
5.0108961931
 20
5.0054975781
 30
0.0
 10
5.0062482818
 20
5.0052373442
 30
0.0
 10
5.002244208
 20
5.0049778429
 30
0.0
 10
4.9993149055
 20
5.0047526065
 30
0.0
 10
4.9973007109
 20
5.0045685798
 30
0.0
 10
4.9960380983
 20
5.0044381937
 30
0.0
 10
4.9949422838
 20
5.0043081546
 30
0.0
 10
4.9940136955
 20
5.0041786774
 30
0.0
 10
4.9932528292
 20
5.0040499391
 30
0.0
 10
4.9928035238
 20
5.003953828
 30
0.0
 10
4.9926080075
 20
5.0039031267
 30
0.0
  0
SPLINE
  5
386
100
AcDbEntity
  8
0
100
AcDbSpline
 62
7
  6
CONTINUOUS
 70
0
 71
3
 72
63
 73
59
 74
0
 42
0.0000001
 43
0.0000001
 44
0.0000000001
 40
0.0
 40
0.0
 40
0.0
 40
0.0
 40
0.0001173802
 40
0.0001890939
 40
0.0002732505
 40
0.0004849245
 40
0.0007602468
 40
0.001102454
 40
0.0015131909
 40
0.0019933871
 40
0.0025436007
 40
0.003855063
 40
0.0054486598
 40
0.0073244618
 40
0.0094821264
 40
0.014639907
 40
0.0209116701
 40
0.0282844909
 40
0.03674198
 40
0.0462649231
 40
0.0568321803
 40
0.0684190753
 40
0.0809997865
 40
0.0945449378
 40
0.1090238214
 40
0.1406473998
 40
0.1755804043
 40
0.2135019338
 40
0.2540636523
 40
0.2968927286
 40
0.341595602
 40
0.387761441
 40
0.4349658851
 40
0.4827751248
 40
0.5307496158
 40
0.5784483902
 40
0.6254330152
 40
0.6712716161
 40
0.7155429189
 40
0.7578400436
 40
0.7977742149
 40
0.8349785175
 40
0.8691111109
 40
0.8998586773
 40
0.926939087
 40
0.939025311
 40
0.9501042387
 40
0.9601509925
 40
0.9691425591
 40
0.9770584824
 40
0.9838815209
 40
0.9895962142
 40
0.9920344559
 40
0.9941916896
 40
0.9960668919
 40
0.9976596396
 40
0.9989702701
 40
1.0
 40
1.0
 40
1.0
 40
1.0
 10
5.580647519
 20
5.0551839662
 30
0.0
 10
5.5806475054
 20
5.0551609398
 30
0.0
 10
5.5806334945
 20
5.0551238252
 30
0.0
 10
5.5805990275
 20
5.0550827884
 30
0.0
 10
5.580544354
 20
5.0550352871
 30
0.0
 10
5.58044708
 20
5.0549783594
 30
0.0
 10
5.5802975402
 20
5.0549139755
 30
0.0
 10
5.5801062709
 20
5.0548493438
 30
0.0
 10
5.5798731719
 20
5.0547844227
 30
0.0
 10
5.5795980036
 20
5.0547193117
 30
0.0
 10
5.5791479582
 20
5.0546268264
 30
0.0
 10
5.5784794089
 20
5.0545140154
 30
0.0
 10
5.5775504797
 20
5.0543844497
 30
0.0
 10
5.5764542463
 20
5.0542544199
 30
0.0
 10
5.5746606812
 20
5.0540693848
 30
0.0
 10
5.5720046501
 20
5.053844028
 30
0.0
 10
5.5683252479
 20
5.0535851043
 30
0.0
 10
5.5639972397
 20
5.0533252723
 30
0.0
 10
5.5590305226
 20
5.0530646496
 30
0.0
 10
5.5534364206
 20
5.0528035465
 30
0.0
 10
5.5472278469
 20
5.0525421104
 30
0.0
 10
5.5404189645
 20
5.0522803976
 30
0.0
 10
5.5330255241
 20
5.0520185163
 30
0.0
 10
5.5250644432
 20
5.0517564613
 30
0.0
 10
5.5133689794
 20
5.051396237
 30
0.0
 10
5.4974785711
 20
5.0509503759
 30
0.0
 10
5.4769898417
 20
5.0504288783
 30
0.0
 10
5.4547472231
 20
5.0499067581
 30
0.0
 10
5.4309552579
 20
5.0493841497
 30
0.0
 10
5.40583271
 20
5.0488612039
 30
0.0
 10
5.3796105868
 20
5.0483380128
 30
0.0
 10
5.3525299918
 20
5.0478146513
 30
0.0
 10
5.3248399161
 20
5.047291178
 30
0.0
 10
5.2967949782
 20
5.046767643
 30
0.0
 10
5.2686530517
 20
5.0462440915
 30
0.0
 10
5.2406729164
 20
5.0457205675
 30
0.0
 10
5.2131118487
 20
5.0451971172
 30
0.0
 10
5.1862232651
 20
5.0446737925
 30
0.0
 10
5.1602543983
 20
5.0441506554
 30
0.0
 10
5.135444035
 20
5.0436277837
 30
0.0
 10
5.1120203115
 20
5.043105285
 30
0.0
 10
5.0901986262
 20
5.0425832931
 30
0.0
 10
5.0701795994
 20
5.0420620613
 30
0.0
 10
5.0521472787
 20
5.0415417965
 30
0.0
 10
5.0384395361
 20
5.0410943401
 30
0.0
 10
5.0285895944
 20
5.040731356
 30
0.0
 10
5.0220796933
 20
5.0404697518
 30
0.0
 10
5.0161773873
 20
5.0402084731
 30
0.0
 10
5.0108962169
 20
5.0399475917
 30
0.0
 10
5.0062482595
 20
5.0396873261
 30
0.0
 10
5.0022442341
 20
5.0394278616
 30
0.0
 10
4.9993149292
 20
5.0392026036
 30
0.0
 10
4.9973007512
 20
5.0390185709
 30
0.0
 10
4.9960380785
 20
5.0388881979
 30
0.0
 10
4.9949422345
 20
5.038758165
 30
0.0
 10
4.9940136961
 20
5.0386286799
 30
0.0
 10
4.9932528792
 20
5.0384999266
 30
0.0
 10
4.992803588
 20
5.0384038195
 30
0.0
 10
4.9926080512
 20
5.0383531268
 30
0.0
  0
SPLINE
  5
387
100
AcDbEntity
  8
0
100
AcDbSpline
 62
7
  6
CONTINUOUS
 70
0
 71
3
 72
63
 73
59
 74
0
 42
0.0000001
 43
0.0000001
 44
0.0000000001
 40
0.0
 40
0.0
 40
0.0
 40
0.0
 40
0.0001173508
 40
0.0001890537
 40
0.0002732138
 40
0.0004849379
 40
0.0007603489
 40
0.001102652
 40
0.0015134586
 40
0.0019936646
 40
0.0025438034
 40
0.0038550334
 40
0.0054486337
 40
0.0073246281
 40
0.0094824121
 40
0.0146398503
 40
0.0209118964
 40
0.028284522
 40
0.0367420707
 40
0.0462651082
 40
0.0568321746
 40
0.0684193392
 40
0.080999734
 40
0.0945451272
 40
0.1090238525
 40
0.1406475685
 40
0.1755805942
 40
0.2135021157
 40
0.2540637295
 40
0.2968927567
 40
0.3415956477
 40
0.3877614838
 40
0.4349660127
 40
0.4827752042
 40
0.5307496889
 40
0.5784484711
 40
0.6254330979
 40
0.6712717836
 40
0.7155430638
 40
0.7578401346
 40
0.7977742278
 40
0.8349784816
 40
0.8691111591
 40
0.8998588124
 40
0.9269393121
 40
0.9390252583
 40
0.9501044712
 40
0.960151005
 40
0.9691426441
 40
0.9770586195
 40
0.9838814754
 40
0.9895964641
 40
0.992034532
 40
0.9941916055
 40
0.9960669047
 40
0.9976598724
 40
0.9989704636
 40
1.0
 40
1.0
 40
1.0
 40
1.0
 10
5.580647557
 20
5.0896339663
 30
0.0
 10
5.5806475687
 20
5.0896109457
 30
0.0
 10
5.5806335898
 20
5.0895738213
 30
0.0
 10
5.5805991311
 20
5.0895327855
 30
0.0
 10
5.5805444481
 20
5.0894852818
 30
0.0
 10
5.5804471387
 20
5.0894283577
 30
0.0
 10
5.580297548
 20
5.0893639772
 30
0.0
 10
5.5801062253
 20
5.0892993477
 30
0.0
 10
5.5798730905
 20
5.0892344278
 30
0.0
 10
5.5795979212
 20
5.0891693173
 30
0.0
 10
5.5791479362
 20
5.0890768282
 30
0.0
 10
5.5784794497
 20
5.0889640017
 30
0.0
 10
5.5775505262
 20
5.0888344447
 30
0.0
 10
5.5764542294
 20
5.0887044241
 30
0.0
 10
5.5746606694
 20
5.0885194
 30
0.0
 10
5.5720046297
 20
5.0882940043
 30
0.0
 10
5.5683252743
 20
5.0880351216
 30
0.0
 10
5.5639972388
 20
5.0877752635
 30
0.0
 10
5.5590305289
 20
5.0875146512
 30
0.0
 10
5.5534364339
 20
5.0872535517
 30
0.0
 10
5.5472278265
 20
5.0869921021
 30
0.0
 10
5.5404189899
 20
5.0867304075
 30
0.0
 10
5.5330255117
 20
5.0864685075
 30
0.0
 10
5.5250644756
 20
5.0862064681
 30
0.0
 10
5.5133689685
 20
5.0858462308
 30
0.0
 10
5.4974785593
 20
5.0854003788
 30
0.0
 10
5.4769897998
 20
5.0848788786
 30
0.0
 10
5.4547471984
 20
5.0843567588
 30
0.0
 10
5.4309552643
 20
5.0838341496
 30
0.0
 10
5.4058327423
 20
5.0833112038
 30
0.0
 10
5.379610625
 20
5.0827880128
 30
0.0
 10
5.3525300097
 20
5.0822646515
 30
0.0
 10
5.3248399265
 20
5.0817411785
 30
0.0
 10
5.2967949818
 20
5.0812176432
 30
0.0
 10
5.2686530636
 20
5.0806940915
 30
0.0
 10
5.2406729267
 20
5.0801705675
 30
0.0
 10
5.2131118396
 20
5.0796471172
 30
0.0
 10
5.1862232427
 20
5.0791237927
 30
0.0
 10
5.1602543734
 20
5.0786006559
 30
0.0
 10
5.1354440397
 20
5.0780777838
 30
0.0
 10
5.1120203509
 20
5.0775552847
 30
0.0
 10
5.0901986734
 20
5.0770332921
 30
0.0
 10
5.070179622
 20
5.0765120618
 30
0.0
 10
5.0521472496
 20
5.0759917932
 30
0.0
 10
5.0384395259
 20
5.0755443506
 30
0.0
 10
5.0285895655
 20
5.0751813461
 30
0.0
 10
5.0220797052
 20
5.0749197607
 30
0.0
 10
5.0161773726
 20
5.0746584681
 30
0.0
 10
5.0108962207
 20
5.0743975906
 30
0.0
 10
5.0062482737
 20
5.0741373354
 30
0.0
 10
5.0022442178
 20
5.0738778433
 30
0.0
 10
4.9993149221
 20
5.0736526191
 30
0.0
 10
4.9973007529
 20
5.0734685717
 30
0.0
 10
4.9960381279
 20
5.0733381898
 30
0.0
 10
4.9949422531
 20
5.0732081572
 30
0.0
 10
4.9940136569
 20
5.0730786917
 30
0.0
 10
4.9932528421
 20
5.0729499384
 30
0.0
 10
4.9928035996
 20
5.0728538203
 30
0.0
 10
4.9926081023
 20
5.0728031267
 30
0.0
  0
SPLINE
  5
388
100
AcDbEntity
  8
0
100
AcDbSpline
 62
7
  6
CONTINUOUS
 70
0
 71
3
 72
63
 73
59
 74
0
 42
0.0000001
 43
0.0000001
 44
0.0000000001
 40
0.0
 40
0.0
 40
0.0
 40
0.0
 40
0.0001173566
 40
0.0001890491
 40
0.0002731843
 40
0.0004848319
 40
0.0007601737
 40
0.001102467
 40
0.0015133276
 40
0.0019936223
 40
0.002543854
 40
0.0038551566
 40
0.0054485333
 40
0.0073242991
 40
0.0094821481
 40
0.0146397555
 40
0.0209114717
 40
0.0282843854
 40
0.0367415913
 40
0.0462647789
 40
0.0568317354
 40
0.0684188255
 40
0.0809993823
 40
0.0945444887
 40
0.1090234385
 40
0.1406470355
 40
0.1755799465
 40
0.2135013607
 40
0.2540630073
 40
0.2968920795
 40
0.3415950208
 40
0.3877608797
 40
0.4349653506
 40
0.4827745791
 40
0.5307490851
 40
0.578447917
 40
0.6254326061
 40
0.6712712299
 40
0.7155425402
 40
0.7578396292
 40
0.7977738264
 40
0.8349782268
 40
0.8691109592
 40
0.8998586226
 40
0.9269389982
 40
0.9390251128
 40
0.9501040881
 40
0.9601509642
 40
0.9691423163
 40
0.9770585205
 40
0.9838812625
 40
0.9895962197
 40
0.9920345098
 40
0.9941915394
 40
0.9960666441
 40
0.9976595304
 40
0.9989703181
 40
1.0
 40
1.0
 40
1.0
 40
1.0
 10
5.5806475789
 20
5.124083966
 30
0.0
 10
5.5806475776
 20
5.1240609443
 30
0.0
 10
5.5806335911
 20
5.1240238292
 30
0.0
 10
5.5805991439
 20
5.1239827916
 30
0.0
 10
5.5805444887
 20
5.1239352895
 30
0.0
 10
5.5804472195
 20
5.1238783623
 30
0.0
 10
5.5802976613
 20
5.1238139817
 30
0.0
 10
5.5801063419
 20
5.1237493568
 30
0.0
 10
5.5798731786
 20
5.1236844416
 30
0.0
 10
5.5795979612
 20
5.1236193338
 30
0.0
 10
5.579147924
 20
5.1235268505
 30
0.0
 10
5.5784794483
 20
5.1234140301
 30
0.0
 10
5.5775506025
 20
5.1232844544
 30
0.0
 10
5.576454383
 20
5.123154424
 30
0.0
 10
5.5746608199
 20
5.1229694134
 30
0.0
 10
5.5720047978
 20
5.1227440294
 30
0.0
 10
5.5683254188
 20
5.1224851149
 30
0.0
 10
5.5639974558
 20
5.1222252919
 30
0.0
 10
5.5590307278
 20
5.1219646487
 30
0.0
 10
5.5534366901
 20
5.1217035692
 30
0.0
 10
5.5472280886
 20
5.1214421113
 30
0.0
 10
5.540419255
 20
5.1211804146
 30
0.0
 10
5.5330258141
 20
5.1209185238
 30
0.0
 10
5.5250647573
 20
5.1206564706
 30
0.0
 10
5.5133692829
 20
5.1202962481
 30
0.0
 10
5.4974788725
 20
5.1198503857
 30
0.0
 10
5.4769901756
 20
5.1193288876
 30
0.0
 10
5.4547476068
 20
5.1188067664
 30
0.0
 10
5.4309556736
 20
5.1182841573
 30
0.0
 10
5.4058331213
 20
5.1177612115
 30
0.0
 10
5.3796109755
 20
5.1172380204
 30
0.0
 10
5.3525303516
 20
5.1167146585
 30
0.0
 10
5.3248402624
 20
5.1161911848
 30
0.0
 10
5.2967953119
 20
5.1156676492
 30
0.0
 10
5.2686533667
 20
5.1151440972
 30
0.0
 10
5.2406731979
 20
5.114620573
 30
0.0
 10
5.2131120954
 20
5.1140971225
 30
0.0
 10
5.1862234869
 20
5.1135737973
 30
0.0
 10
5.160254615
 20
5.1130506598
 30
0.0
 10
5.1354442463
 20
5.1125277874
 30
0.0
 10
5.1120205
 20
5.1120052877
 30
0.0
 10
5.0901987581
 20
5.1114832958
 30
0.0
 10
5.070179661
 20
5.1109620645
 30
0.0
 10
5.0521472963
 20
5.1104417992
 30
0.0
 10
5.0384395596
 20
5.1099943446
 30
0.0
 10
5.0285896345
 20
5.1096313561
 30
0.0
 10
5.0220797201
 20
5.1093697502
 30
0.0
 10
5.0161774209
 20
5.1091084828
 30
0.0
 10
5.0108962134
 20
5.1088475795
 30
0.0
 10
5.0062482983
 20
5.1085873437
 30
0.0
 10
5.0022442253
 20
5.1083278466
 30
0.0
 10
4.9993149155
 20
5.1081026046
 30
0.0
 10
4.9973007149
 20
5.1079185802
 30
0.0
 10
4.996038093
 20
5.1077881957
 30
0.0
 10
4.994942282
 20
5.1076581552
 30
0.0
 10
4.9940137031
 20
5.1075286771
 30
0.0
 10
4.9932528351
 20
5.1073999355
 30
0.0
 10
4.992803521
 20
5.1073038282
 30
0.0
 10
4.9926079962
 20
5.1072531267
 30
0.0
  0
SPLINE
  5
389
100
AcDbEntity
  8
0
100
AcDbSpline
 62
7
  6
CONTINUOUS
 70
0
 71
3
 72
23
 73
19
 74
0
 42
0.0000001
 43
0.0000001
 44
0.0000000001
 40
0.0
 40
0.0
 40
0.0
 40
0.0
 40
0.1517232674
 40
0.2263387982
 40
0.2997211529
 40
0.3715800547
 40
0.4416275573
 40
0.5095916829
 40
0.5752193454
 40
0.6382809644
 40
0.6985809009
 40
0.7559706552
 40
0.8103648321
 40
0.861764767
 40
0.9102883652
 40
0.9562051717
 40
0.9783334883
 40
1.0
 40
1.0
 40
1.0
 40
1.0
 10
5.2724329275
 20
3.8137714662
 30
0.0
 10
5.2635736989
 20
3.8052568037
 30
0.0
 10
5.2503940461
 20
3.7925160025
 30
0.0
 10
5.233173524
 20
3.7754081286
 30
0.0
 10
5.2206987106
 20
3.7627023228
 30
0.0
 10
5.2086847686
 20
3.750065161
 30
0.0
 10
5.1972241805
 20
3.7375115255
 30
0.0
 10
5.1864097234
 20
3.7250573754
 30
0.0
 10
5.1763342672
 20
3.7127193282
 30
0.0
 10
5.167090881
 20
3.7005148829
 30
0.0
 10
5.1587725043
 20
3.6884626495
 30
0.0
 10
5.1514720607
 20
3.676581985
 30
0.0
 10
5.1452821363
 20
3.6648933484
 30
0.0
 10
5.1402950165
 20
3.6534173361
 30
0.0
 10
5.1366036841
 20
3.6421777592
 30
0.0
 10
5.1346623698
 20
3.6329125529
 30
0.0
 10
5.133881147
 20
3.6256844725
 30
0.0
 10
5.1337475826
 20
3.6221364028
 30
0.0
 10
5.1337476054
 20
3.6203816971
 30
0.0
  0
SPLINE
  5
38A
100
AcDbEntity
  8
0
100
AcDbSpline
 62
7
  6
CONTINUOUS
 70
0
 71
3
 72
11
 73
7
 74
0
 42
0.0000001
 43
0.0000001
 44
0.0000000001
 40
0.0
 40
0.0
 40
0.0
 40
0.0
 40
0.2756819972
 40
0.5344203071
 40
0.7758571359
 40
1.0
 40
1.0
 40
1.0
 40
1.0
 10
5.1337411108
 20
3.5826744685
 30
0.0
 10
5.129833771
 20
3.5843599285
 30
0.0
 10
5.1223495431
 20
3.5878436257
 30
0.0
 10
5.1118403593
 20
3.5936068429
 30
0.0
 10
5.102459533
 20
3.5997102377
 30
0.0
 10
5.096788853
 20
3.6041457948
 30
0.0
 10
5.094179425
 20
3.6064176215
 30
0.0
  0
SPLINE
  5
38B
100
AcDbEntity
  8
0
100
AcDbSpline
 62
7
  6
CONTINUOUS
 70
0
 71
3
 72
30
 73
26
 74
0
 42
0.0000001
 43
0.0000001
 44
0.0000000001
 40
0.0
 40
0.0
 40
0.0
 40
0.0
 40
0.0019021903
 40
0.0043447474
 40
0.0073299531
 40
0.0108583803
 40
0.0149296119
 40
0.0195418926
 40
0.0303802901
 40
0.0433534611
 40
0.0584337767
 40
0.0755889483
 40
0.0947822444
 40
0.1159709008
 40
0.1391096289
 40
0.1910273129
 40
0.2500787813
 40
0.3157440534
 40
0.3874445851
 40
0.4645480688
 40
0.5463747526
 40
0.6322024828
 40
0.7212754575
 40
0.8128047112
 40
1.0
 40
1.0
 40
1.0
 40
1.0
 10
5.600285962
 20
5.0388780773
 30
0.0
 10
5.600093111
 20
5.0388280961
 30
0.0
 10
5.5996475756
 20
5.0387337685
 30
0.0
 10
5.5988902154
 20
5.0386077984
 30
0.0
 10
5.5979606864
 20
5.0384810623
 30
0.0
 10
5.5968593912
 20
5.0383537341
 30
0.0
 10
5.5955867433
 20
5.0382260617
 30
0.0
 10
5.593550092
 20
5.0380456561
 30
0.0
 10
5.5905812312
 20
5.0378249634
 30
0.0
 10
5.5865158416
 20
5.0375708522
 30
0.0
 10
5.5817878125
 20
5.0373159539
 30
0.0
 10
5.5764075494
 20
5.0370604139
 30
0.0
 10
5.5703869181
 20
5.0368044923
 30
0.0
 10
5.5637391163
 20
5.0365482336
 30
0.0
 10
5.5536653261
 20
5.0361924908
 30
0.0
 10
5.5396265678
 20
5.0357540158
 30
0.0
 10
5.5211340721
 20
5.0352443682
 30
0.0
 10
5.5005689769
 20
5.0347337586
 30
0.0
 10
5.4781127284
 20
5.0342223925
 30
0.0
 10
5.4539634497
 20
5.0337105202
 30
0.0
 10
5.4283342813
 20
5.0331982747
 30
0.0
 10
5.4014512779
 20
5.0326857605
 30
0.0
 10
5.3735519201
 20
5.0321730546
 30
0.0
 10
5.3350374625
 20
5.0314841341
 30
0.0
 10
5.3058501696
 20
5.0309758077
 30
0.0
 10
5.2862475786
 20
5.0306343341
 30
0.0
  0
LINE
  5
38C
100
AcDbEntity
  8
0
100
AcDbLine
 62
7
  6
CONTINUOUS
 10
5.5798871121
 20
5.0335898056
 11
5.5796055862
 21
5.0335225458
  0
SPLINE
  5
38D
100
AcDbEntity
  8
0
100
AcDbSpline
 62
7
  6
CONTINUOUS
 70
0
 71
3
 72
62
 73
58
 74
0
 42
0.0000001
 43
0.0000001
 44
0.0000000001
 40
0.0
 40
0.0
 40
0.0
 40
0.0
 40
0.0011685153
 40
0.002616593
 40
0.0043449046
 40
0.0063534573
 40
0.0112077711
 40
0.0171705876
 40
0.0242301903
 40
0.0323705284
 40
0.0415741565
 40
0.0518199562
 40
0.0630849549
 40
0.0753437508
 40
0.1027286325
 40
0.1337256522
 40
0.1680526347
 40
0.205396931
 40
0.2454182419
 40
0.2877516929
 40
0.3320113524
 40
0.3777936162
 40
0.424681087
 40
0.4722462596
 40
0.5200553455
 40
0.5676724835
 40
0.6146633145
 40
0.6605994686
 40
0.7050620543
 40
0.7476457026
 40
0.7879622418
 40
0.8256440536
 40
0.8603477436
 40
0.891757087
 40
0.906135845
 40
0.9195862079
 40
0.9320779272
 40
0.9435820758
 40
0.954073224
 40
0.9635270546
 40
0.9719227537
 40
0.9792414289
 40
0.9854669314
 40
0.9905865754
 40
0.9927282706
 40
0.9945901853
 40
0.9961720014
 40
0.997473814
 40
0.9980200093
 40
0.998496722
 40
0.9989045073
 40
0.9992442962
 40
0.9995177342
 40
0.9997280542
 40
0.9998117267
 40
0.9998830757
 40
1.0
 40
1.0
 40
1.0
 40
1.0
 10
5.5796055862
 20
5.0335225458
 30
0.0
 10
5.5793818962
 20
5.0334729894
 30
0.0
 10
5.5788775085
 20
5.0333779197
 30
0.0
 10
5.5780352957
 20
5.0332492235
 30
0.0
 10
5.5770268442
 20
5.0331199224
 30
0.0
 10
5.5753524634
 20
5.0329351114
 30
0.0
 10
5.5728475187
 20
5.032710603
 30
0.0
 10
5.5693517929
 20
5.0324530384
 30
0.0
 10
5.5652103522
 20
5.0321944906
 30
0.0
 10
5.5604324916
 20
5.0319350306
 30
0.0
 10
5.5550291222
 20
5.0316750924
 30
0.0
 10
5.5490124836
 20
5.031414758
 30
0.0
 10
5.5423963168
 20
5.0311541427
 30
0.0
 10
5.5324210573
 20
5.0307929195
 30
0.0
 10
5.5185774835
 20
5.0303474011
 30
0.0
 10
5.5004072006
 20
5.0298290482
 30
0.0
 10
5.4802834635
 20
5.0293097781
 30
0.0
 10
5.4583897967
 20
5.0287897856
 30
0.0
 10
5.434925884
 20
5.0282693095
 30
0.0
 10
5.4101057549
 20
5.0277484767
 30
0.0
 10
5.3841558312
 20
5.0272273902
 30
0.0
 10
5.3573128209
 20
5.0267061241
 30
0.0
 10
5.3298215744
 20
5.0261847387
 30
0.0
 10
5.3019328555
 20
5.0256632841
 30
0.0
 10
5.2739010447
 20
5.0251418054
 30
0.0
 10
5.2459818655
 20
5.0246203459
 30
0.0
 10
5.2184299797
 20
5.0240989498
 30
0.0
 10
5.1914967249
 20
5.0235776667
 30
0.0
 10
5.1654277594
 20
5.0230565546
 30
0.0
 10
5.140460868
 20
5.022535688
 30
0.0
 10
5.1168237946
 20
5.0220151582
 30
0.0
 10
5.0947321477
 20
5.0214951155
 30
0.0
 10
5.0743874614
 20
5.0209756935
 30
0.0
 10
5.0586114663
 20
5.020531589
 30
0.0
 10
5.0470019769
 20
5.0201727849
 30
0.0
 10
5.0391004773
 20
5.0199117764
 30
0.0
 10
5.0317629318
 20
5.0196509408
 30
0.0
 10
5.0250059947
 20
5.0193902728
 30
0.0
 10
5.0188451737
 20
5.0191298803
 30
0.0
 10
5.0132944137
 20
5.0188698201
 30
0.0
 10
5.008366424
 20
5.0186102376
 30
0.0
 10
5.0040723492
 20
5.0183514435
 30
0.0
 10
5.0004219244
 20
5.0180935522
 30
0.0
 10
4.9977868826
 20
5.0178690942
 30
0.0
 10
4.9960075352
 20
5.0176847981
 30
0.0
 10
4.9949200083
 20
5.0175552872
 30
0.0
 10
4.9939984647
 20
5.0174262382
 30
0.0
 10
4.9933352381
 20
5.0173138769
 30
0.0
 10
4.9928887804
 20
5.0172217627
 30
0.0
 10
4.9926158
 20
5.0171569113
 30
0.0
 10
4.9923845547
 20
5.0170922482
 30
0.0
 10
4.992194806
 20
5.0170278712
 30
0.0
 10
4.992046452
 20
5.0169637399
 30
0.0
 10
4.9919499605
 20
5.0169070332
 30
0.0
 10
4.9918957376
 20
5.0168597301
 30
0.0
 10
4.9918615363
 20
5.0168188349
 30
0.0
 10
4.9918476591
 20
5.0167818919
 30
0.0
 10
4.9918476456
 20
5.0167589663
 30
0.0
  0
SPLINE
  5
38E
100
AcDbEntity
  8
0
100
AcDbSpline
 62
7
  6
CONTINUOUS
 70
0
 71
3
 72
30
 73
26
 74
0
 42
0.0000001
 43
0.0000001
 44
0.0000000001
 40
0.0
 40
0.0
 40
0.0
 40
0.0
 40
0.0019021903
 40
0.0043447474
 40
0.0073299531
 40
0.0108583803
 40
0.0149296119
 40
0.0195418926
 40
0.0303802901
 40
0.0433534611
 40
0.0584337767
 40
0.0755889483
 40
0.0947822444
 40
0.1159709008
 40
0.1391096289
 40
0.1910273129
 40
0.2500787813
 40
0.3157440534
 40
0.3874445851
 40
0.4645480688
 40
0.5463747526
 40
0.6322024828
 40
0.7212754575
 40
0.8128047112
 40
1.0
 40
1.0
 40
1.0
 40
1.0
 10
5.600285962
 20
5.0733280773
 30
0.0
 10
5.600093111
 20
5.0732780961
 30
0.0
 10
5.5996475756
 20
5.0731837685
 30
0.0
 10
5.5988902154
 20
5.0730577984
 30
0.0
 10
5.5979606864
 20
5.0729310623
 30
0.0
 10
5.5968593912
 20
5.0728037341
 30
0.0
 10
5.5955867433
 20
5.0726760617
 30
0.0
 10
5.593550092
 20
5.0724956561
 30
0.0
 10
5.5905812312
 20
5.0722749634
 30
0.0
 10
5.5865158416
 20
5.0720208522
 30
0.0
 10
5.5817878125
 20
5.0717659539
 30
0.0
 10
5.5764075494
 20
5.0715104139
 30
0.0
 10
5.5703869181
 20
5.0712544923
 30
0.0
 10
5.5637391163
 20
5.0709982336
 30
0.0
 10
5.5536653261
 20
5.0706424908
 30
0.0
 10
5.5396265678
 20
5.0702040158
 30
0.0
 10
5.5211340721
 20
5.0696943682
 30
0.0
 10
5.5005689769
 20
5.0691837586
 30
0.0
 10
5.4781127284
 20
5.0686723925
 30
0.0
 10
5.4539634497
 20
5.0681605202
 30
0.0
 10
5.4283342813
 20
5.0676482747
 30
0.0
 10
5.4014512779
 20
5.0671357605
 30
0.0
 10
5.3735519201
 20
5.0666230546
 30
0.0
 10
5.3350374625
 20
5.0659341341
 30
0.0
 10
5.3058501696
 20
5.0654258077
 30
0.0
 10
5.2862475786
 20
5.0650843341
 30
0.0
  0
LINE
  5
38F
100
AcDbEntity
  8
0
100
AcDbLine
 62
7
  6
CONTINUOUS
 10
5.5798871453
 20
5.0680398058
 11
5.5795643978
 21
5.0679634884
  0
SPLINE
  5
390
100
AcDbEntity
  8
0
100
AcDbSpline
 62
7
  6
CONTINUOUS
 70
0
 71
3
 72
62
 73
58
 74
0
 42
0.0000001
 43
0.0000001
 44
0.0000000001
 40
0.0
 40
0.0
 40
0.0
 40
0.0
 40
0.001187238
 40
0.0026539676
 40
0.0044005441
 40
0.0064267733
 40
0.0113157709
 40
0.0173120004
 40
0.0244030233
 40
0.0325737366
 40
0.0418054399
 40
0.0520780926
 40
0.0633678846
 40
0.0756497559
 40
0.1030752804
 40
0.1341056223
 40
0.1684586995
 40
0.2058217374
 40
0.2458546475
 40
0.2881928507
 40
0.3324507979
 40
0.3782254773
 40
0.4250998961
 40
0.4726471636
 40
0.5204340931
 40
0.5680254176
 40
0.6149876724
 40
0.6608930892
 40
0.7053235589
 40
0.7478744153
 40
0.7881580422
 40
0.8258077192
 40
0.8604806729
 40
0.8918614199
 40
0.9062268917
 40
0.9196646025
 40
0.9321442454
 40
0.943637581
 40
0.9541182605
 40
0.9635631617
 40
0.9719503771
 40
0.9792618939
 40
0.985481248
 40
0.990595599
 40
0.9927353904
 40
0.99459552
 40
0.9961755931
 40
0.9974759574
 40
0.9980216202
 40
0.9984979534
 40
0.9989054649
 40
0.9992450257
 40
0.9995182312
 40
0.999728325
 40
0.9998118998
 40
0.9998831683
 40
1.0
 40
1.0
 40
1.0
 40
1.0
 10
5.5795643978
 20
5.0679634884
 30
0.0
 10
5.5793369386
 20
5.0679140598
 30
0.0
 10
5.5788251195
 20
5.0678191283
 30
0.0
 10
5.5779719328
 20
5.0676904572
 30
0.0
 10
5.5769527631
 20
5.0675611941
 30
0.0
 10
5.5752645578
 20
5.0673765414
 30
0.0
 10
5.5727429039
 20
5.06715217
 30
0.0
 10
5.5692278597
 20
5.0668947066
 30
0.0
 10
5.565068011
 20
5.066636235
 30
0.0
 10
5.5602728404
 20
5.0663769233
 30
0.0
 10
5.554853111
 20
5.0661170824
 30
0.0
 10
5.5488212535
 20
5.0658568966
 30
0.0
 10
5.5421908956
 20
5.0655964047
 30
0.0
 10
5.5321989786
 20
5.0652354222
 30
0.0
 10
5.5183373545
 20
5.0647901611
 30
0.0
 10
5.500148742
 20
5.0642720674
 30
0.0
 10
5.4800111124
 20
5.0637530626
 30
0.0
 10
5.4581079412
 20
5.0632333401
 30
0.0
 10
5.4346388227
 20
5.0627131362
 30
0.0
 10
5.4098175964
 20
5.0621925777
 30
0.0
 10
5.3838704186
 20
5.0616717672
 30
0.0
 10
5.3570337094
 20
5.0611507784
 30
0.0
 10
5.329551986
 20
5.0606296713
 30
0.0
 10
5.3016756761
 20
5.0601084957
 30
0.0
 10
5.2736587869
 20
5.0595872961
 30
0.0
 10
5.2457566139
 20
5.0590661158
 30
0.0
 10
5.2182233907
 20
5.0585449993
 30
0.0
 10
5.1913099899
 20
5.0580239963
 30
0.0
 10
5.1652616433
 20
5.0575031644
 30
0.0
 10
5.1403157184
 20
5.0569825784
 30
0.0
 10
5.1166995202
 20
5.0564623281
 30
0.0
 10
5.0946282349
 20
5.0559425645
 30
0.0
 10
5.0743029391
 20
5.0554234218
 30
0.0
 10
5.0585423118
 20
5.0549795536
 30
0.0
 10
5.0469443462
 20
5.0546209415
 30
0.0
 10
5.0390508657
 20
5.0543600778
 30
0.0
 10
5.0317208147
 20
5.0540993713
 30
0.0
 10
5.0249709013
 20
5.0538388631
 30
0.0
 10
5.018816446
 20
5.0535785874
 30
0.0
 10
5.0132715494
 20
5.0533186914
 30
0.0
 10
5.0083487315
 20
5.0530592313
 30
0.0
 10
5.0040592369
 20
5.0528005814
 30
0.0
 10
5.0004127195
 20
5.0525428449
 30
0.0
 10
4.9977804866
 20
5.052318474
 30
0.0
 10
4.9960030258
 20
5.0521343019
 30
0.0
 10
4.9949166412
 20
5.0520048667
 30
0.0
 10
4.9939961413
 20
5.0518758791
 30
0.0
 10
4.9933336954
 20
5.0517635698
 30
0.0
 10
4.9928877333
 20
5.0516715061
 30
0.0
 10
4.9926150038
 20
5.0516066917
 30
0.0
 10
4.9923839452
 20
5.0515420673
 30
0.0
 10
4.9921943496
 20
5.0514777313
 30
0.0
 10
4.9920461388
 20
5.0514136368
 30
0.0
 10
4.991949766
 20
5.0513569559
 30
0.0
 10
4.9918956357
 20
5.0513096752
 30
0.0
 10
4.9918615033
 20
5.0512687945
 30
0.0
 10
4.9918476839
 20
5.051231872
 30
0.0
 10
4.9918476905
 20
5.0512089662
 30
0.0
  0
SPLINE
  5
391
100
AcDbEntity
  8
0
100
AcDbSpline
 62
7
  6
CONTINUOUS
 70
0
 71
3
 72
22
 73
18
 74
0
 42
0.0000001
 43
0.0000001
 44
0.0000000001
 40
0.0
 40
0.0
 40
0.0
 40
0.0
 40
0.1643410082
 40
0.2419615004
 40
0.3164745658
 40
0.3878636073
 40
0.4561423181
 40
0.5213536247
 40
0.5835829204
 40
0.6429543764
 40
0.6996413794
 40
0.7538708999
 40
0.8059236916
 40
0.8561423062
 40
0.9049232932
 40
0.9527141853
 40
1.0
 40
1.0
 40
1.0
 40
1.0
 10
5.1337248478
 20
3.0309518568
 30
0.0
 10
5.1290698848
 20
3.032960284
 30
0.0
 10
5.1223112209
 20
3.0361508268
 30
0.0
 10
5.1137557402
 20
3.0408586371
 30
0.0
 10
5.1078647709
 20
3.0444473383
 30
0.0
 10
5.1023910145
 20
3.0481527303
 30
0.0
 10
5.0973467791
 20
3.0519661292
 30
0.0
 10
5.0927442171
 20
3.0558794998
 30
0.0
 10
5.0885936704
 20
3.0598835827
 30
0.0
 10
5.0849051515
 20
3.0639698665
 30
0.0
 10
5.0816876735
 20
3.0681294405
 30
0.0
 10
5.0789488392
 20
3.0723528938
 30
0.0
 10
5.0766966635
 20
3.0766314048
 30
0.0
 10
5.0749368796
 20
3.0809547486
 30
0.0
 10
5.0736754715
 20
3.0853131162
 30
0.0
 10
5.0729168909
 20
3.0896946669
 30
0.0
 10
5.0727475786
 20
3.092630405
 30
0.0
 10
5.0727475786
 20
3.0940891261
 30
0.0
  0
SPLINE
  5
392
100
AcDbEntity
  8
0
100
AcDbSpline
 62
7
  6
CONTINUOUS
 70
0
 71
3
 72
30
 73
26
 74
0
 42
0.0000001
 43
0.0000001
 44
0.0000000001
 40
0.0
 40
0.0
 40
0.0
 40
0.0
 40
0.0019021903
 40
0.0043447474
 40
0.0073299531
 40
0.0108583803
 40
0.0149296119
 40
0.0195418926
 40
0.0303802901
 40
0.0433534611
 40
0.0584337767
 40
0.0755889483
 40
0.0947822444
 40
0.1159709008
 40
0.1391096289
 40
0.1910273129
 40
0.2500787813
 40
0.3157440534
 40
0.3874445851
 40
0.4645480688
 40
0.5463747526
 40
0.6322024828
 40
0.7212754575
 40
0.8128047112
 40
1.0
 40
1.0
 40
1.0
 40
1.0
 10
5.600285962
 20
5.1077780773
 30
0.0
 10
5.600093111
 20
5.1077280961
 30
0.0
 10
5.5996475756
 20
5.1076337685
 30
0.0
 10
5.5988902154
 20
5.1075077984
 30
0.0
 10
5.5979606864
 20
5.1073810623
 30
0.0
 10
5.5968593912
 20
5.1072537341
 30
0.0
 10
5.5955867433
 20
5.1071260617
 30
0.0
 10
5.593550092
 20
5.1069456561
 30
0.0
 10
5.5905812312
 20
5.1067249634
 30
0.0
 10
5.5865158416
 20
5.1064708522
 30
0.0
 10
5.5817878125
 20
5.1062159539
 30
0.0
 10
5.5764075494
 20
5.1059604139
 30
0.0
 10
5.5703869181
 20
5.1057044923
 30
0.0
 10
5.5637391163
 20
5.1054482336
 30
0.0
 10
5.5536653261
 20
5.1050924908
 30
0.0
 10
5.5396265678
 20
5.1046540158
 30
0.0
 10
5.5211340721
 20
5.1041443682
 30
0.0
 10
5.5005689769
 20
5.1036337586
 30
0.0
 10
5.4781127284
 20
5.1031223925
 30
0.0
 10
5.4539634497
 20
5.1026105202
 30
0.0
 10
5.4283342813
 20
5.1020982747
 30
0.0
 10
5.4014512779
 20
5.1015857604
 30
0.0
 10
5.3735519201
 20
5.1010730546
 30
0.0
 10
5.3350374625
 20
5.1003841341
 30
0.0
 10
5.3058501696
 20
5.0998758077
 30
0.0
 10
5.2862475786
 20
5.0995343341
 30
0.0
  0
LINE
  5
393
100
AcDbEntity
  8
0
100
AcDbLine
 62
7
  6
CONTINUOUS
 10
5.579887052
 20
5.1024898057
 11
5.5795213144
 21
5.1024042368
  0
SPLINE
  5
394
100
AcDbEntity
  8
0
100
AcDbSpline
 62
7
  6
CONTINUOUS
 70
0
 71
3
 72
62
 73
58
 74
0
 42
0.0000001
 43
0.0000001
 44
0.0000000001
 40
0.0
 40
0.0
 40
0.0
 40
0.0
 40
0.0012060892
 40
0.0026915476
 40
0.004456825
 40
0.0065014649
 40
0.0114256175
 40
0.0174559211
 40
0.0245792572
 40
0.0327805095
 40
0.0420414038
 40
0.0523409497
 40
0.0636564112
 40
0.075961596
 40
0.10342877
 40
0.1344932136
 40
0.1688726931
 40
0.2062547167
 40
0.2462993573
 40
0.2886424147
 40
0.3328987743
 40
0.3786656983
 40
0.4255268521
 40
0.4730557789
 40
0.5208200813
 40
0.5683852032
 40
0.6153182832
 40
0.6611923883
 40
0.7055899921
 40
0.7481072886
 40
0.7883574863
 40
0.8259745036
 40
0.8606163057
 40
0.8919679023
 40
0.9063194518
 40
0.9197444571
 40
0.9322118638
 40
0.9436939029
 40
0.954164345
 40
0.9635995569
 40
0.9719786795
 40
0.9792825212
 40
0.9854958163
 40
0.9906048435
 40
0.9927423039
 40
0.9946006472
 40
0.9961793329
 40
0.9974783383
 40
0.9980233589
 40
0.9984991184
 40
0.9989061569
 40
0.9992453761
 40
0.999518392
 40
0.9997284081
 40
0.999811964
 40
0.999883216
 40
1.0
 40
1.0
 40
1.0
 40
1.0
 10
5.5795213144
 20
5.1024042368
 30
0.0
 10
5.579290063
 20
5.1023549461
 30
0.0
 10
5.5787707815
 20
5.1022601378
 30
0.0
 10
5.5779065019
 20
5.1021314838
 30
0.0
 10
5.5768763731
 20
5.1020022669
 30
0.0
 10
5.5751740238
 20
5.1018178182
 30
0.0
 10
5.5726353096
 20
5.101593536
 30
0.0
 10
5.5691005617
 20
5.1013361912
 30
0.0
 10
5.5649219827
 20
5.1010778178
 30
0.0
 10
5.5601090953
 20
5.100818619
 30
0.0
 10
5.5546727644
 20
5.1005589239
 30
0.0
 10
5.5486253122
 20
5.1002988479
 30
0.0
 10
5.5419805587
 20
5.1000385119
 30
0.0
 10
5.5319716027
 20
5.0996777524
 30
0.0
 10
5.5180915771
 20
5.0992327708
 30
0.0
 10
5.4998842845
 20
5.0987149375
 30
0.0
 10
5.4797325669
 20
5.0981962034
 30
0.0
 10
5.4578198278
 20
5.0976767556
 30
0.0
 10
5.4343454847
 20
5.0971568299
 30
0.0
 10
5.4095231694
 20
5.0966365521
 30
0.0
 10
5.3835788079
 20
5.0961160241
 30
0.0
 10
5.3567485345
 20
5.0955953189
 30
0.0
 10
5.3292765802
 20
5.0950744959
 30
0.0
 10
5.3014129849
 20
5.0945536046
 30
0.0
 10
5.2734113576
 20
5.0940326901
 30
0.0
 10
5.2455265622
 20
5.0935117954
 30
0.0
 10
5.2180123918
 20
5.0929909648
 30
0.0
 10
5.1911193041
 20
5.092470248
 30
0.0
 10
5.1650920658
 20
5.0919497019
 30
0.0
 10
5.1401675821
 20
5.0914294012
 30
0.0
 10
5.1165726854
 20
5.0909094367
 30
0.0
 10
5.094522114
 20
5.0903899598
 30
0.0
 10
5.0742165629
 20
5.0898711003
 30
0.0
 10
5.0584716654
 20
5.0894274831
 30
0.0
 10
5.0468855029
 20
5.0890690529
 30
0.0
 10
5.0390002316
 20
5.088808344
 30
0.0
 10
5.0316778334
 20
5.0885477758
 30
0.0
 10
5.0249350457
 20
5.0882874078
 30
0.0
 10
5.0187871715
 20
5.0880272898
 30
0.0
 10
5.0132481841
 20
5.0877675131
 30
0.0
 10
5.0083307238
 20
5.0875082275
 30
0.0
 10
5.0040458315
 20
5.0872496878
 30
0.0
 10
5.0004033221
 20
5.0869921172
 30
0.0
 10
4.9977739749
 20
5.0867678702
 30
0.0
 10
4.9959985005
 20
5.0865837827
 30
0.0
 10
4.9949132767
 20
5.0864544201
 30
0.0
 10
4.9939937316
 20
5.0863255229
 30
0.0
 10
4.9933320003
 20
5.0862132716
 30
0.0
 10
4.9928865792
 20
5.086121252
 30
0.0
 10
4.9926142037
 20
5.086056471
 30
0.0
 10
4.9923834372
 20
5.085991879
 30
0.0
 10
4.9921940555
 20
5.085927573
 30
0.0
 10
4.9920459737
 20
5.0858635128
 30
0.0
 10
4.9919496556
 20
5.0858068698
 30
0.0
 10
4.9918955359
 20
5.0857596194
 30
0.0
 10
4.9918614033
 20
5.0857187663
 30
0.0
 10
4.9918475771
 20
5.085681861
 30
0.0
 10
4.9918475835
 20
5.0856589662
 30
0.0
  0
SPLINE
  5
395
100
AcDbEntity
  8
0
100
AcDbSpline
 62
7
  6
CONTINUOUS
 70
0
 71
3
 72
39
 73
35
 74
0
 42
0.0000001
 43
0.0000001
 44
0.0000000001
 40
0.0
 40
0.0
 40
0.0
 40
0.0
 40
0.000522443
 40
0.0007225193
 40
0.0009552567
 40
0.0015233136
 40
0.0022329777
 40
0.0030871452
 40
0.0040873247
 40
0.0052343691
 40
0.0079707117
 40
0.0112981435
 40
0.0152168847
 40
0.0197258015
 40
0.0305042131
 40
0.0436114798
 40
0.0590180463
 40
0.0766875226
 40
0.0965788924
 40
0.1186437664
 40
0.1428305587
 40
0.1690801068
 40
0.1973305283
 40
0.2275130044
 40
0.2595556403
 40
0.2933809986
 40
0.3660507836
 40
0.4448230863
 40
0.5289400226
 40
0.6175916474
 40
0.7099254491
 40
0.8050502783
 40
0.9020555645
 40
1.0
 40
1.0
 40
1.0
 40
1.0
 10
5.6009974671
 20
4.6365210984
 30
0.0
 10
5.6009974671
 20
4.6364662372
 30
0.0
 10
5.6009305283
 20
4.6364018412
 30
0.0
 10
5.6008472098
 20
4.636350633
 30
0.0
 10
5.600752914
 20
4.636302409
 30
0.0
 10
5.6006052869
 20
4.6362447651
 30
0.0
 10
5.6003911689
 20
4.6361785044
 30
0.0
 10
5.6001301919
 20
4.6361121654
 30
0.0
 10
5.5998220774
 20
4.6360455285
 30
0.0
 10
5.5993180297
 20
4.6359508691
 30
0.0
 10
5.5985695065
 20
4.6358354119
 30
0.0
 10
5.5975296112
 20
4.6357028236
 30
0.0
 10
5.5963023538
 20
4.6355697639
 30
0.0
 10
5.5942944079
 20
4.6353804198
 30
0.0
 10
5.5913214809
 20
4.6351497654
 30
0.0
 10
5.5872039009
 20
4.6348848128
 30
0.0
 10
5.5823614784
 20
4.6346189039
 30
0.0
 10
5.5768057967
 20
4.6343521746
 30
0.0
 10
5.5705502445
 20
4.634084984
 30
0.0
 10
5.5636097762
 20
4.6338174079
 30
0.0
 10
5.5560012022
 20
4.6335495961
 30
0.0
 10
5.5477427302
 20
4.6332815663
 30
0.0
 10
5.538854356
 20
4.6330134024
 30
0.0
 10
5.5293574021
 20
4.6327451079
 30
0.0
 10
5.5192748135
 20
4.6324767203
 30
0.0
 10
5.5047317315
 20
4.6321099429
 30
0.0
 10
5.4852822995
 20
4.6316550659
 30
0.0
 10
5.4605522638
 20
4.631120741
 30
0.0
 10
5.4341436372
 20
4.6305859642
 30
0.0
 10
5.4063106648
 20
4.630050834
 30
0.0
 10
5.3773215663
 20
4.6295154665
 30
0.0
 10
5.3474551178
 20
4.6289799266
 30
0.0
 10
5.3169994122
 20
4.628444287
 30
0.0
 10
5.2965310578
 20
4.6280877347
 30
0.0
 10
5.2862475786
 20
4.6279085984
 30
0.0
  0
SPLINE
  5
396
100
AcDbEntity
  8
0
100
AcDbSpline
 62
7
  6
CONTINUOUS
 70
0
 71
3
 72
30
 73
26
 74
0
 42
0.0000001
 43
0.0000001
 44
0.0000000001
 40
0.0
 40
0.0
 40
0.0
 40
0.0
 40
0.0019022054
 40
0.0043446703
 40
0.0073297944
 40
0.0108582683
 40
0.014929548
 40
0.0195417896
 40
0.0303801551
 40
0.0433534696
 40
0.0584336943
 40
0.0755889786
 40
0.0947822032
 40
0.1159709178
 40
0.1391096681
 40
0.1910273938
 40
0.2500788602
 40
0.3157441457
 40
0.3874446309
 40
0.4645481179
 40
0.5463748064
 40
0.6322025241
 40
0.7212755237
 40
0.8128046813
 40
1.0
 40
1.0
 40
1.0
 40
1.0
 10
5.6002859014
 20
5.1422280774
 30
0.0
 10
5.6000930479
 20
5.1421780998
 30
0.0
 10
5.5996475213
 20
5.1420837717
 30
0.0
 10
5.5988901786
 20
5.1419577977
 30
0.0
 10
5.5979606637
 20
5.1418310577
 30
0.0
 10
5.596859367
 20
5.1417037316
 30
0.0
 10
5.5955867135
 20
5.1415760598
 30
0.0
 10
5.5935500653
 20
5.1413956518
 30
0.0
 10
5.5905811974
 20
5.1411749591
 30
0.0
 10
5.5865158061
 20
5.1409208535
 30
0.0
 10
5.5817877608
 20
5.1406659488
 30
0.0
 10
5.5764075037
 20
5.1404104139
 30
0.0
 10
5.5703868634
 20
5.1401544888
 30
0.0
 10
5.5637390618
 20
5.1398982324
 30
0.0
 10
5.5536652607
 20
5.1395424884
 30
0.0
 10
5.5396264987
 20
5.1391040142
 30
0.0
 10
5.5211340009
 20
5.1385943666
 30
0.0
 10
5.5005689133
 20
5.1380837572
 30
0.0
 10
5.4781126722
 20
5.1375723911
 30
0.0
 10
5.4539634021
 20
5.1370605191
 30
0.0
 10
5.4283342391
 20
5.1365482739
 30
0.0
 10
5.4014512391
 20
5.1360357597
 30
0.0
 10
5.3735518953
 20
5.1355230542
 30
0.0
 10
5.3350374494
 20
5.1348341339
 30
0.0
 10
5.3058501689
 20
5.1343258076
 30
0.0
 10
5.2862475786
 20
5.1339843341
 30
0.0
  0
LINE
  5
397
100
AcDbEntity
  8
0
100
AcDbLine
 62
7
  6
CONTINUOUS
 10
5.5798870892
 20
5.1369398057
 11
5.5794773792
 21
5.136844974
  0
SPLINE
  5
398
100
AcDbEntity
  8
0
100
AcDbSpline
 62
7
  6
CONTINUOUS
 70
0
 71
3
 72
62
 73
58
 74
0
 42
0.0000001
 43
0.0000001
 44
0.0000000001
 40
0.0
 40
0.0
 40
0.0
 40
0.0
 40
0.0012253258
 40
0.0027295398
 40
0.0045131333
 40
0.0065760177
 40
0.0115358961
 40
0.0175998141
 40
0.0247557781
 40
0.0329875213
 40
0.0422774163
 40
0.0526042389
 40
0.0639448983
 40
0.0762739191
 40
0.1037825413
 40
0.1348808695
 40
0.1692867541
 40
0.2066877756
 40
0.2467443253
 40
0.2890923238
 40
0.3333470036
 40
0.3791061516
 40
0.4259539119
 40
0.4734645715
 40
0.5212062815
 40
0.5687451333
 40
0.6156490495
 40
0.6614917134
 40
0.7058565637
 40
0.7483404315
 40
0.788557247
 40
0.8261416457
 40
0.8607520748
 40
0.8920743658
 40
0.9064124833
 40
0.9198242897
 40
0.9322798518
 40
0.9437503803
 40
0.954210592
 40
0.9636363838
 40
0.972006935
 40
0.9793036519
 40
0.9855103276
 40
0.9906144946
 40
0.9927497225
 40
0.9946059792
 40
0.9961829855
 40
0.9974808754
 40
0.9980254539
 40
0.9985007723
 40
0.9989073664
 40
0.9992461707
 40
0.9995188348
 40
0.9997285943
 40
0.9998120655
 40
0.9998832629
 40
1.0
 40
1.0
 40
1.0
 40
1.0
 10
5.5794773792
 20
5.136844974
 30
0.0
 10
5.5792422641
 20
5.1367958169
 30
0.0
 10
5.5787154396
 20
5.1367011541
 30
0.0
 10
5.57784007
 20
5.1365725085
 30
0.0
 10
5.576799094
 20
5.1364433109
 30
0.0
 10
5.5750826045
 20
5.1362590545
 30
0.0
 10
5.5725268429
 20
5.1360349243
 30
0.0
 10
5.5689723223
 20
5.1357776327
 30
0.0
 10
5.564775058
 20
5.1355194001
 30
0.0
 10
5.5599444508
 20
5.1352603003
 30
0.0
 10
5.554491502
 20
5.1350007411
 30
0.0
 10
5.5484285212
 20
5.134740802
 30
0.0
 10
5.5417693013
 20
5.1344805901
 30
0.0
 10
5.5317433539
 20
5.134120088
 30
0.0
 10
5.5178449332
 20
5.133675362
 30
0.0
 10
5.4996190748
 20
5.1331577961
 30
0.0
 10
5.4794533446
 20
5.1326393315
 30
0.0
 10
5.4575310374
 20
5.1321201599
 30
0.0
 10
5.434051455
 20
5.1316005137
 30
0.0
 10
5.4092280582
 20
5.1310805173
 30
0.0
 10
5.3832865608
 20
5.1305602718
 30
0.0
 10
5.3564628142
 20
5.13003985
 30
0.0
 10
5.329000688
 20
5.1295193113
 30
0.0
 10
5.3011498556
 20
5.1289987054
 30
0.0
 10
5.2731635265
 20
5.1284780767
 30
0.0
 10
5.2452961567
 20
5.1279574681
 30
0.0
 10
5.2178011185
 20
5.1274369237
 30
0.0
 10
5.1909283867
 20
5.1269164928
 30
0.0
 10
5.1649222744
 20
5.1263962331
 30
0.0
 10
5.1400192131
 20
5.1258762192
 30
0.0
 10
5.1164456108
 20
5.1253565415
 30
0.0
 10
5.0944158129
 20
5.1248373507
 30
0.0
 10
5.074130103
 20
5.1243187798
 30
0.0
 10
5.0584009374
 20
5.1238753943
 30
0.0
 10
5.0468266255
 20
5.1235171744
 30
0.0
 10
5.0389495
 20
5.1232565936
 30
0.0
 10
5.0316348269
 20
5.1229961874
 30
0.0
 10
5.0248991392
 20
5.1227359482
 30
0.0
 10
5.0187578435
 20
5.1224759816
 30
0.0
 10
5.0132248119
 20
5.1222163522
 30
0.0
 10
5.0083126526
 20
5.121957192
 30
0.0
 10
5.0040324607
 20
5.1216988278
 30
0.0
 10
5.0003938805
 20
5.1214413567
 30
0.0
 10
4.9977674201
 20
5.121217267
 30
0.0
 10
4.9959938818
 20
5.1210332764
 30
0.0
 10
4.9949099187
 20
5.1209039772
 30
0.0
 10
4.9939914035
 20
5.120775139
 30
0.0
 10
4.9933303557
 20
5.120662961
 30
0.0
 10
4.9928853581
 20
5.120571
 30
0.0
 10
4.992613263
 20
5.1205062566
 30
0.0
 10
4.9923827703
 20
5.1204416993
 30
0.0
 10
4.9921936441
 20
5.1203774268
 30
0.0
 10
4.9920457797
 20
5.1203133989
 30
0.0
 10
4.9919496139
 20
5.1202567823
 30
0.0
 10
4.9918955805
 20
5.1202095603
 30
0.0
 10
4.9918614921
 20
5.1201687226
 30
0.0
 10
4.9918476734
 20
5.1201318501
 30
0.0
 10
4.991847661
 20
5.1201089663
 30
0.0
  0
SPLINE
  5
399
100
AcDbEntity
  8
0
100
AcDbSpline
 62
7
  6
CONTINUOUS
 70
0
 71
3
 72
22
 73
18
 74
0
 42
0.0000001
 43
0.0000001
 44
0.0000000001
 40
0.0
 40
0.0
 40
0.0
 40
0.0
 40
0.1643410082
 40
0.2419615004
 40
0.3164745658
 40
0.3878636073
 40
0.4561423181
 40
0.5213536247
 40
0.5835829204
 40
0.6429543764
 40
0.6996413794
 40
0.7538708999
 40
0.8059236916
 40
0.8561423062
 40
0.9049232932
 40
0.9527141853
 40
1.0
 40
1.0
 40
1.0
 40
1.0
 10
5.4387703093
 20
2.5324825739
 30
0.0
 10
5.4434252723
 20
2.5344910011
 30
0.0
 10
5.4501839362
 20
2.537681544
 30
0.0
 10
5.4587394169
 20
2.5423893542
 30
0.0
 10
5.4646303862
 20
2.5459780554
 30
0.0
 10
5.4701041426
 20
2.5496834474
 30
0.0
 10
5.475148378
 20
2.5534968464
 30
0.0
 10
5.4797509401
 20
2.557410217
 30
0.0
 10
5.4839014867
 20
2.5614142998
 30
0.0
 10
5.4875900056
 20
2.5655005836
 30
0.0
 10
5.4908074836
 20
2.5696601576
 30
0.0
 10
5.4935463179
 20
2.5738836109
 30
0.0
 10
5.4957984936
 20
2.5781621219
 30
0.0
 10
5.4975582775
 20
2.5824854658
 30
0.0
 10
5.4988196856
 20
2.5868438333
 30
0.0
 10
5.4995782662
 20
2.591225384
 30
0.0
 10
5.4997475786
 20
2.5941611221
 30
0.0
 10
5.4997475786
 20
2.5956198433
 30
0.0
  0
SPLINE
  5
39A
100
AcDbEntity
  8
0
100
AcDbSpline
 62
7
  6
CONTINUOUS
 70
0
 71
3
 72
22
 73
18
 74
0
 42
0.0000001
 43
0.0000001
 44
0.0000000001
 40
0.0
 40
0.0
 40
0.0
 40
0.0
 40
0.1637395266
 40
0.2410926011
 40
0.3153696423
 40
0.3865624907
 40
0.4546899298
 40
0.5198012054
 40
0.5819863185
 40
0.6413721286
 40
0.6981344603
 40
0.7524992544
 40
0.8047445923
 40
0.8552071596
 40
0.9042743584
 40
0.9523818082
 40
1.0
 40
1.0
 40
1.0
 40
1.0
 10
5.1314932888
 20
2.9073119651
 30
0.0
 10
5.1269992431
 20
2.9093102412
 30
0.0
 10
5.1204769671
 20
2.91247864
 30
0.0
 10
5.1122275275
 20
2.9171395296
 30
0.0
 10
5.1065492982
 20
2.9206873337
 30
0.0
 10
5.101275132
 20
2.924345279
 30
0.0
 10
5.0964165747
 20
2.928105409
 30
0.0
 10
5.0919848482
 20
2.9319599765
 30
0.0
 10
5.0879894709
 20
2.9359001761
 30
0.0
 10
5.0844399054
 20
2.9399181066
 30
0.0
 10
5.0813443165
 20
2.9440051288
 30
0.0
 10
5.078709901
 20
2.9481524693
 30
0.0
 10
5.0765440663
 20
2.9523516984
 30
0.0
 10
5.0748520365
 20
2.9565931165
 30
0.0
 10
5.0736394557
 20
2.9608674804
 30
0.0
 10
5.0729102989
 20
2.965163587
 30
0.0
 10
5.0727475786
 20
2.9680414851
 30
0.0
 10
5.0727475786
 20
2.9694718054
 30
0.0
  0
SPLINE
  5
39B
100
AcDbEntity
  8
0
100
AcDbSpline
 62
7
  6
CONTINUOUS
 70
0
 71
3
 72
21
 73
17
 74
0
 42
0.0000001
 43
0.0000001
 44
0.0000000001
 40
0.0
 40
0.0
 40
0.0
 40
0.0
 40
0.160837249
 40
0.2369300012
 40
0.3101181187
 40
0.4478295181
 40
0.5125165682
 40
0.574536905
 40
0.6340297053
 40
0.691175151
 40
0.7461914747
 40
0.7993425223
 40
0.8509356358
 40
0.9013168901
 40
0.9508691467
 40
1.0
 40
1.0
 40
1.0
 40
1.0
 10
5.1221025998
 20
2.7871571899
 30
0.0
 10
5.118292609
 20
2.789093186
 30
0.0
 10
5.1127734246
 20
2.7921386362
 30
0.0
 10
5.1058195744
 20
2.7965639755
 30
0.0
 10
5.0995724686
 20
2.8009399988
 30
0.0
 10
5.0938717566
 20
2.8055614272
 30
0.0
 10
5.0888127707
 20
2.8104420637
 30
0.0
 10
5.0854677787
 20
2.8140922855
 30
0.0
 10
5.0824995232
 20
2.8178019381
 30
0.0
 10
5.0799133236
 20
2.8215642152
 30
0.0
 10
5.0777148933
 20
2.8253726985
 30
0.0
 10
5.0759089402
 20
2.8292204202
 30
0.0
 10
5.0744991663
 20
2.833100016
 30
0.0
 10
5.0734897331
 20
2.8370043871
 30
0.0
 10
5.0728829107
 20
2.8409249217
 30
0.0
 10
5.0727475786
 20
2.8435490146
 30
0.0
 10
5.0727475786
 20
2.8448544847
 30
0.0
  0
SPLINE
  5
39C
100
AcDbEntity
  8
0
100
AcDbSpline
 62
7
  6
CONTINUOUS
 70
0
 71
3
 72
22
 73
18
 74
0
 42
0.0000001
 43
0.0000001
 44
0.0000000001
 40
0.0
 40
0.0
 40
0.0
 40
0.0
 40
0.1643410082
 40
0.2419615004
 40
0.3164745658
 40
0.3878636073
 40
0.4561423181
 40
0.5213536247
 40
0.5835829204
 40
0.6429543764
 40
0.6996413794
 40
0.7538708999
 40
0.8059236916
 40
0.8561423062
 40
0.9049232932
 40
0.9527141853
 40
1.0
 40
1.0
 40
1.0
 40
1.0
 10
5.1337248478
 20
2.6570998946
 30
0.0
 10
5.1290698848
 20
2.6591083218
 30
0.0
 10
5.1223112209
 20
2.6622988647
 30
0.0
 10
5.1137557402
 20
2.6670066749
 30
0.0
 10
5.1078647709
 20
2.6705953762
 30
0.0
 10
5.1023910145
 20
2.6743007682
 30
0.0
 10
5.0973467791
 20
2.6781141671
 30
0.0
 10
5.0927442171
 20
2.6820275377
 30
0.0
 10
5.0885936704
 20
2.6860316205
 30
0.0
 10
5.0849051515
 20
2.6901179043
 30
0.0
 10
5.0816876735
 20
2.6942774783
 30
0.0
 10
5.0789488392
 20
2.6985009316
 30
0.0
 10
5.0766966635
 20
2.7027794426
 30
0.0
 10
5.0749368796
 20
2.7071027865
 30
0.0
 10
5.0736754715
 20
2.711461154
 30
0.0
 10
5.0729168909
 20
2.7158427047
 30
0.0
 10
5.0727475786
 20
2.7187784429
 30
0.0
 10
5.0727475786
 20
2.720237164
 30
0.0
  0
SPLINE
  5
39D
100
AcDbEntity
  8
0
100
AcDbSpline
 62
7
  6
CONTINUOUS
 70
0
 71
3
 72
63
 73
59
 74
0
 42
0.0000001
 43
0.0000001
 44
0.0000000001
 40
0.0
 40
0.0
 40
0.0
 40
0.0
 40
0.0001173814
 40
0.0001890984
 40
0.0002732599
 40
0.0004849467
 40
0.0007602819
 40
0.0011024973
 40
0.0015132331
 40
0.0019934143
 40
0.0025436028
 40
0.0038550559
 40
0.0054486779
 40
0.0073245055
 40
0.0094821618
 40
0.0146399068
 40
0.0209117144
 40
0.0282844784
 40
0.0367420093
 40
0.0462649214
 40
0.0568322
 40
0.0684191084
 40
0.0809997797
 40
0.0945449611
 40
0.1090238074
 40
0.1406474078
 40
0.1755804001
 40
0.2135019779
 40
0.2540636488
 40
0.296892738
 40
0.3415956066
 40
0.3877614173
 40
0.4349659154
 40
0.4827751068
 40
0.5307496393
 40
0.578448392
 40
0.6254330184
 40
0.6712716442
 40
0.7155429378
 40
0.7578400788
 40
0.7977742389
 40
0.8349785127
 40
0.8691111204
 40
0.8998586845
 40
0.9269391122
 40
0.9390253218
 40
0.9501042922
 40
0.9601509872
 40
0.969142597
 40
0.9770584925
 40
0.9838815597
 40
0.9895962549
 40
0.9920344648
 40
0.9941916919
 40
0.9960669333
 40
0.9976596841
 40
0.9989702896
 40
1.0
 40
1.0
 40
1.0
 40
1.0
 10
5.5806475366
 20
5.1585339662
 30
0.0
 10
5.5806475232
 20
5.1585109396
 30
0.0
 10
5.5806335099
 20
5.1584738243
 30
0.0
 10
5.5805990392
 20
5.1584327883
 30
0.0
 10
5.5805443601
 20
5.1583852871
 30
0.0
 10
5.580447079
 20
5.15832836
 30
0.0
 10
5.5802975318
 20
5.1582639764
 30
0.0
 10
5.5801062585
 20
5.1581993449
 30
0.0
 10
5.579873161
 20
5.1581344239
 30
0.0
 10
5.5795980012
 20
5.1580693125
 30
0.0
 10
5.5791479662
 20
5.1579768242
 30
0.0
 10
5.5784794184
 20
5.1578640147
 30
0.0
 10
5.5775504808
 20
5.1577344501
 30
0.0
 10
5.5764542389
 20
5.1576044214
 30
0.0
 10
5.5746606777
 20
5.1574193849
 30
0.0
 10
5.5720046467
 20
5.1571940256
 30
0.0
 10
5.5683252535
 20
5.1569351075
 30
0.0
 10
5.5639972399
 20
5.1566752697
 30
0.0
 10
5.5590305316
 20
5.1564146518
 30
0.0
 10
5.5534364235
 20
5.1561535455
 30
0.0
 10
5.547227849
 20
5.1558921107
 30
0.0
 10
5.5404189677
 20
5.1556303983
 30
0.0
 10
5.5330255268
 20
5.1553685155
 30
0.0
 10
5.5250644551
 20
5.1551064627
 30
0.0
 10
5.5133689886
 20
5.154746236
 30
0.0
 10
5.4974785858
 20
5.1543003763
 30
0.0
 10
5.4769898453
 20
5.1537788785
 30
0.0
 10
5.4547472292
 20
5.1532567586
 30
0.0
 10
5.4309552616
 20
5.1527341498
 30
0.0
 10
5.4058327217
 20
5.1522112042
 30
0.0
 10
5.3796106027
 20
5.151688013
 30
0.0
 10
5.352530004
 20
5.1511646515
 30
0.0
 10
5.324839933
 20
5.1506411782
 30
0.0
 10
5.2967949861
 20
5.1501176432
 30
0.0
 10
5.2686530655
 20
5.1495940918
 30
0.0
 10
5.2406729263
 20
5.1490705677
 30
0.0
 10
5.213111858
 20
5.1485471173
 30
0.0
 10
5.1862232714
 20
5.1480237926
 30
0.0
 10
5.1602543985
 20
5.1475006555
 30
0.0
 10
5.1354440363
 20
5.1469777839
 30
0.0
 10
5.1120203177
 20
5.1464552851
 30
0.0
 10
5.0901986377
 20
5.1459332931
 30
0.0
 10
5.0701796145
 20
5.1454120614
 30
0.0
 10
5.052147288
 20
5.1448917963
 30
0.0
 10
5.0384395453
 20
5.1444443415
 30
0.0
 10
5.0285895947
 20
5.1440813546
 30
0.0
 10
5.0220796995
 20
5.1438197538
 30
0.0
 10
5.0161773884
 20
5.1435584713
 30
0.0
 10
5.0108962265
 20
5.143297594
 30
0.0
 10
5.0062482606
 20
5.1430373248
 30
0.0
 10
5.0022442347
 20
5.1427778616
 30
0.0
 10
4.9993149299
 20
5.1425526055
 30
0.0
 10
4.9973007592
 20
5.1423685708
 30
0.0
 10
4.9960380866
 20
5.1422381964
 30
0.0
 10
4.9949422352
 20
5.142108167
 30
0.0
 10
4.9940136933
 20
5.1419786818
 30
0.0
 10
4.9932528849
 20
5.1418499271
 30
0.0
 10
4.9928036028
 20
5.1417538189
 30
0.0
 10
4.9926080699
 20
5.1417031268
 30
0.0
  0
SPLINE
  5
39E
100
AcDbEntity
  8
0
100
AcDbSpline
 62
7
  6
CONTINUOUS
 70
0
 71
3
 72
63
 73
59
 74
0
 42
0.0000001
 43
0.0000001
 44
0.0000000001
 40
0.0
 40
0.0
 40
0.0
 40
0.0
 40
0.0001173463
 40
0.000189041
 40
0.0002731933
 40
0.0004849102
 40
0.000760325
 40
0.0011026398
 40
0.0015134621
 40
0.0019936832
 40
0.0025438324
 40
0.003855051
 40
0.0054486069
 40
0.0073246043
 40
0.009482414
 40
0.0146398407
 40
0.0209118927
 40
0.0282845586
 40
0.0367420523
 40
0.0462651235
 40
0.0568321456
 40
0.0684193609
 40
0.0809997504
 40
0.0945451277
 40
0.1090238651
 40
0.1406476045
 40
0.1755806135
 40
0.2135021171
 40
0.2540637387
 40
0.2968927546
 40
0.3415956561
 40
0.3877615122
 40
0.4349660102
 40
0.4827752234
 40
0.5307496854
 40
0.5784484653
 40
0.6254331235
 40
0.6712717582
 40
0.7155430785
 40
0.7578400945
 40
0.7977742116
 40
0.8349784758
 40
0.8691111473
 40
0.8998588389
 40
0.9269393067
 40
0.9390252372
 40
0.9501044533
 40
0.9601510142
 40
0.9691426058
 40
0.9770586287
 40
0.983881438
 40
0.9895964712
 40
0.9920345417
 40
0.9941915877
 40
0.996066864
 40
0.9976598477
 40
0.9989704755
 40
1.0
 40
1.0
 40
1.0
 40
1.0
 10
5.5806475436
 20
5.1929839663
 30
0.0
 10
5.5806475567
 20
5.1929609466
 30
0.0
 10
5.5806335844
 20
5.1929238234
 30
0.0
 10
5.5805991346
 20
5.1928827849
 30
0.0
 10
5.5805444583
 20
5.1928352802
 30
0.0
 10
5.5804471509
 20
5.1927783563
 30
0.0
 10
5.5802975582
 20
5.1927139765
 30
0.0
 10
5.5801062289
 20
5.1926493474
 30
0.0
 10
5.5798730854
 20
5.1925844277
 30
0.0
 10
5.5795979078
 20
5.1925193173
 30
0.0
 10
5.5791479198
 20
5.1924268292
 30
0.0
 10
5.5784794424
 20
5.1923140023
 30
0.0
 10
5.5775505298
 20
5.1921844417
 30
0.0
 10
5.5764542359
 20
5.1920544233
 30
0.0
 10
5.5746606721
 20
5.1918694018
 30
0.0
 10
5.5720046287
 20
5.1916440035
 30
0.0
 10
5.5683252664
 20
5.1913851208
 30
0.0
 10
5.5639972325
 20
5.191125265
 30
0.0
 10
5.559030519
 20
5.1908646486
 30
0.0
 10
5.5534364366
 20
5.1906035536
 30
0.0
 10
5.5472278215
 20
5.1903421004
 30
0.0
 10
5.5404189844
 20
5.1900804083
 30
0.0
 10
5.5330255004
 20
5.1898185068
 30
0.0
 10
5.525064466
 20
5.1895564675
 30
0.0
 10
5.5133689549
 20
5.1891962311
 30
0.0
 10
5.4974785418
 20
5.1887503786
 30
0.0
 10
5.4769897843
 20
5.1882288783
 30
0.0
 10
5.454747188
 20
5.1877067585
 30
0.0
 10
5.4309552578
 20
5.1871841492
 30
0.0
 10
5.4058327341
 20
5.1866612035
 30
0.0
 10
5.3796106128
 20
5.1861380125
 30
0.0
 10
5.3525299972
 20
5.1856146514
 30
0.0
 10
5.3248399117
 20
5.1850911782
 30
0.0
 10
5.2967949729
 20
5.1845676431
 30
0.0
 10
5.268653055
 20
5.1840440914
 30
0.0
 10
5.2406729166
 20
5.1835205673
 30
0.0
 10
5.2131118335
 20
5.1829971172
 30
0.0
 10
5.1862232322
 20
5.1824737927
 30
0.0
 10
5.1602543755
 20
5.1819506558
 30
0.0
 10
5.1354440398
 20
5.1814277837
 30
0.0
 10
5.1120203548
 20
5.1809052844
 30
0.0
 10
5.0901986715
 20
5.1803832922
 30
0.0
 10
5.0701796115
 20
5.1798620616
 30
0.0
 10
5.0521472388
 20
5.1793417934
 30
0.0
 10
5.0384395168
 20
5.1788943509
 30
0.0
 10
5.028589565
 20
5.178531346
 30
0.0
 10
5.0220797018
 20
5.1782697597
 30
0.0
 10
5.0161773723
 20
5.1780084697
 30
0.0
 10
5.0108962153
 20
5.177747588
 30
0.0
 10
5.0062482771
 20
5.1774873382
 30
0.0
 10
5.0022442126
 20
5.1772278406
 30
0.0
 10
4.9993149165
 20
5.1770026196
 30
0.0
 10
4.9973007434
 20
5.1768185725
 30
0.0
 10
4.9960381279
 20
5.1766881897
 30
0.0
 10
4.99494226
 20
5.1765581557
 30
0.0
 10
4.9940136581
 20
5.1764286897
 30
0.0
 10
4.9932528344
 20
5.1762999411
 30
0.0
 10
4.9928035872
 20
5.1762038211
 30
0.0
 10
4.9926080925
 20
5.1761531267
 30
0.0
  0
SPLINE
  5
39F
100
AcDbEntity
  8
0
100
AcDbSpline
 62
7
  6
CONTINUOUS
 70
0
 71
3
 72
63
 73
59
 74
0
 42
0.0000001
 43
0.0000001
 44
0.0000000001
 40
0.0
 40
0.0
 40
0.0
 40
0.0
 40
0.0001173574
 40
0.0001890451
 40
0.0002731716
 40
0.0004847909
 40
0.0007600928
 40
0.0011023417
 40
0.0015131802
 40
0.001993476
 40
0.0025437266
 40
0.0038550968
 40
0.0054485399
 40
0.0073243222
 40
0.0094821835
 40
0.0146398816
 40
0.020911589
 40
0.0282845606
 40
0.03674182
 40
0.0462650265
 40
0.0568320625
 40
0.068419128
 40
0.0809997451
 40
0.0945448473
 40
0.1090238584
 40
0.140647473
 40
0.1755804019
 40
0.2135018757
 40
0.2540635045
 40
0.2968926409
 40
0.3415955324
 40
0.3877613924
 40
0.4349658504
 40
0.4827750279
 40
0.5307495489
 40
0.5784483133
 40
0.6254329766
 40
0.671271556
 40
0.7155428168
 40
0.7578398855
 40
0.7977740459
 40
0.8349784019
 40
0.8691111022
 40
0.8998586816
 40
0.9269390415
 40
0.9390251951
 40
0.9501041077
 40
0.9601509815
 40
0.9691423269
 40
0.9770585109
 40
0.9838812917
 40
0.9895961859
 40
0.9920344871
 40
0.9941915479
 40
0.996066639
 40
0.9976594977
 40
0.9989702774
 40
1.0
 40
1.0
 40
1.0
 40
1.0
 10
5.5806474618
 20
5.2274339662
 30
0.0
 10
5.580647461
 20
5.2274109444
 30
0.0
 10
5.5806334798
 20
5.2273738292
 30
0.0
 10
5.5805990401
 20
5.2273327883
 30
0.0
 10
5.5805443976
 20
5.2272852843
 30
0.0
 10
5.5804471477
 20
5.2272283535
 30
0.0
 10
5.580297615
 20
5.2271639694
 30
0.0
 10
5.5801063191
 20
5.22709934
 30
0.0
 10
5.579873169
 20
5.2270344246
 30
0.0
 10
5.5795979521
 20
5.2269693168
 30
0.0
 10
5.5791478974
 20
5.2268768337
 30
0.0
 10
5.5784793909
 20
5.226764016
 30
0.0
 10
5.5775505149
 20
5.2266344437
 30
0.0
 10
5.5764542769
 20
5.2265044125
 30
0.0
 10
5.5746606906
 20
5.2263194014
 30
0.0
 10
5.57200465
 20
5.226094022
 30
0.0
 10
5.5683252445
 20
5.2258351009
 30
0.0
 10
5.5639972618
 20
5.2255752813
 30
0.0
 10
5.559030509
 20
5.2253146385
 30
0.0
 10
5.5534364423
 20
5.2250535573
 30
0.0
 10
5.5472278271
 20
5.2247921024
 30
0.0
 10
5.5404189721
 20
5.2245304026
 30
0.0
 10
5.533025526
 20
5.2242685151
 30
0.0
 10
5.5250644474
 20
5.22400646
 30
0.0
 10
5.51336896
 20
5.2236462394
 30
0.0
 10
5.4974785331
 20
5.223200376
 30
0.0
 10
5.4769898206
 20
5.2226788789
 30
0.0
 10
5.4547472434
 20
5.2221567579
 30
0.0
 10
5.430955293
 20
5.2216341493
 30
0.0
 10
5.4058327451
 20
5.2211112041
 30
0.0
 10
5.3796106002
 20
5.220588013
 30
0.0
 10
5.3525299925
 20
5.2200646517
 30
0.0
 10
5.3248399198
 20
5.2195411783
 30
0.0
 10
5.296794983
 20
5.219017643
 30
0.0
 10
5.2686530624
 20
5.2184940915
 30
0.0
 10
5.2406729131
 20
5.2179705677
 30
0.0
 10
5.2131118417
 20
5.2174471176
 30
0.0
 10
5.1862232608
 20
5.2169237928
 30
0.0
 10
5.1602544152
 20
5.2164006556
 30
0.0
 10
5.1354440712
 20
5.2158777836
 30
0.0
 10
5.1120203483
 20
5.2153552844
 30
0.0
 10
5.0901986318
 20
5.214833293
 30
0.0
 10
5.0701795693
 20
5.2143120619
 30
0.0
 10
5.0521472332
 20
5.2137917974
 30
0.0
 10
5.0384395105
 20
5.213344341
 30
0.0
 10
5.0285895945
 20
5.2129813559
 30
0.0
 10
5.0220796862
 20
5.212719748
 30
0.0
 10
5.0161774019
 20
5.2124584822
 30
0.0
 10
5.0108962009
 20
5.2121975794
 30
0.0
 10
5.0062482844
 20
5.2119373406
 30
0.0
 10
5.0022442204
 20
5.2116778491
 30
0.0
 10
4.9993149139
 20
5.2114526028
 30
0.0
 10
4.9973007176
 20
5.2112685794
 30
0.0
 10
4.9960380899
 20
5.2111381977
 30
0.0
 10
4.9949422812
 20
5.211008156
 30
0.0
 10
4.9940137123
 20
5.2108786768
 30
0.0
 10
4.993252844
 20
5.2107499322
 30
0.0
 10
4.992803523
 20
5.2106538273
 30
0.0
 10
4.9926079897
 20
5.2106031267
 30
0.0
  0
SPLINE
  5
3A0
100
AcDbEntity
  8
0
100
AcDbSpline
 62
7
  6
CONTINUOUS
 70
0
 71
3
 72
63
 73
59
 74
0
 42
0.0000001
 43
0.0000001
 44
0.0000000001
 40
0.0
 40
0.0
 40
0.0
 40
0.0
 40
0.0001173818
 40
0.0001891014
 40
0.0002732674
 40
0.0004849671
 40
0.0007603165
 40
0.0011025428
 40
0.0015132815
 40
0.001993453
 40
0.0025436159
 40
0.0038550455
 40
0.005448688
 40
0.0073245447
 40
0.0094822028
 40
0.0146399025
 40
0.0209117669
 40
0.0282844705
 40
0.0367420381
 40
0.0462649266
 40
0.0568322144
 40
0.0684191587
 40
0.0809997781
 40
0.0945450009
 40
0.1090237939
 40
0.1406474303
 40
0.175580435
 40
0.2135020264
 40
0.2540636862
 40
0.296892756
 40
0.3415956307
 40
0.387761435
 40
0.4349659457
 40
0.4827751495
 40
0.5307496592
 40
0.578448428
 40
0.6254330434
 40
0.671271683
 40
0.7155430036
 40
0.7578401131
 40
0.7977742769
 40
0.8349785079
 40
0.8691111328
 40
0.8998587283
 40
0.9269391763
 40
0.9390253239
 40
0.9501043956
 40
0.960151001
 40
0.9691426803
 40
0.9770585321
 40
0.9838815893
 40
0.9895963433
 40
0.9920344956
 40
0.9941916946
 40
0.9960670009
 40
0.9976597894
 40
0.998970348
 40
1.0
 40
1.0
 40
1.0
 40
1.0
 10
5.5806475516
 20
4.6417839662
 30
0.0
 10
5.5806475393
 20
4.6417609395
 30
0.0
 10
5.5806335245
 20
4.6417238233
 30
0.0
 10
5.5805990509
 20
4.641682788
 30
0.0
 10
5.5805443665
 20
4.6416352868
 30
0.0
 10
5.580447078
 20
4.6415783604
 30
0.0
 10
5.5802975227
 20
4.641513977
 30
0.0
 10
5.5801062435
 20
4.6414493456
 30
0.0
 10
5.5798731453
 20
4.6413844246
 30
0.0
 10
5.579597992
 20
4.6413193133
 30
0.0
 10
5.5791479694
 20
4.641226822
 30
0.0
 10
5.5784794271
 20
4.6411140129
 30
0.0
 10
5.5775504842
 20
4.6409844501
 30
0.0
 10
5.576454232
 20
4.6408544226
 30
0.0
 10
5.5746606737
 20
4.640669386
 30
0.0
 10
5.5720046406
 20
4.6404440222
 30
0.0
 10
5.5683252567
 20
4.640185111
 30
0.0
 10
5.5639972371
 20
4.6399252668
 30
0.0
 10
5.559030538
 20
4.6396646537
 30
0.0
 10
5.5534364259
 20
4.6394035449
 30
0.0
 10
5.5472278474
 20
4.6391421105
 30
0.0
 10
5.5404189677
 20
4.6388803994
 30
0.0
 10
5.5330255221
 20
4.638618514
 30
0.0
 10
5.5250644631
 20
4.6383564642
 30
0.0
 10
5.5133689925
 20
4.6379962345
 30
0.0
 10
5.4974785912
 20
4.6375503768
 30
0.0
 10
5.4769898393
 20
4.6370288786
 30
0.0
 10
5.454747221
 20
4.6365067588
 30
0.0
 10
5.4309552577
 20
4.6359841498
 30
0.0
 10
5.4058327235
 20
4.6354612042
 30
0.0
 10
5.3796106095
 20
4.634938013
 30
0.0
 10
5.3525300093
 20
4.6344146515
 30
0.0
 10
5.3248399357
 20
4.6338911783
 30
0.0
 10
5.2967949895
 20
4.6333676433
 30
0.0
 10
5.2686530688
 20
4.6328440918
 30
0.0
 10
5.2406729341
 20
4.6323205677
 30
0.0
 10
5.2131118632
 20
4.6317971174
 30
0.0
 10
5.1862232717
 20
4.6312737927
 30
0.0
 10
5.1602543981
 20
4.6307506558
 30
0.0
 10
5.1354440369
 20
4.6302277842
 30
0.0
 10
5.1120203331
 20
4.6297052853
 30
0.0
 10
5.0901986582
 20
4.6291832931
 30
0.0
 10
5.0701796346
 20
4.6286620616
 30
0.0
 10
5.0521472953
 20
4.6281417955
 30
0.0
 10
5.038439555
 20
4.6276943446
 30
0.0
 10
5.0285895933
 20
4.6273313517
 30
0.0
 10
5.022079708
 20
4.6270697575
 30
0.0
 10
5.0161773815
 20
4.6268084681
 30
0.0
 10
5.0108962319
 20
4.6265475966
 30
0.0
 10
5.0062482632
 20
4.6262873249
 30
0.0
 10
5.0022442368
 20
4.6260278585
 30
0.0
 10
4.9993149332
 20
4.6258026099
 30
0.0
 10
4.9973007683
 20
4.6256185705
 30
0.0
 10
4.9960381002
 20
4.6254881929
 30
0.0
 10
4.9949422337
 20
4.6253581676
 30
0.0
 10
4.9940136802
 20
4.6252286862
 30
0.0
 10
4.9932528856
 20
4.6250999289
 30
0.0
 10
4.9928036252
 20
4.6250038182
 30
0.0
 10
4.9926081039
 20
4.6249531268
 30
0.0
  0
SPLINE
  5
3A1
100
AcDbEntity
  8
0
100
AcDbSpline
 62
7
  6
CONTINUOUS
 70
0
 71
3
 72
30
 73
26
 74
0
 42
0.0000001
 43
0.0000001
 44
0.0000000001
 40
0.0
 40
0.0
 40
0.0
 40
0.0
 40
0.0019021903
 40
0.0043447474
 40
0.0073299531
 40
0.0108583803
 40
0.0149296119
 40
0.0195418926
 40
0.0303802901
 40
0.0433534611
 40
0.0584337767
 40
0.0755889483
 40
0.0947822444
 40
0.1159709008
 40
0.1391096289
 40
0.1910273129
 40
0.2500787813
 40
0.3157440534
 40
0.3874445851
 40
0.4645480688
 40
0.5463747526
 40
0.6322024828
 40
0.7212754575
 40
0.8128047112
 40
1.0
 40
1.0
 40
1.0
 40
1.0
 10
5.600285962
 20
5.1766780773
 30
0.0
 10
5.600093111
 20
5.1766280961
 30
0.0
 10
5.5996475756
 20
5.1765337685
 30
0.0
 10
5.5988902154
 20
5.1764077984
 30
0.0
 10
5.5979606864
 20
5.1762810623
 30
0.0
 10
5.5968593912
 20
5.1761537341
 30
0.0
 10
5.5955867433
 20
5.1760260617
 30
0.0
 10
5.593550092
 20
5.1758456561
 30
0.0
 10
5.5905812312
 20
5.1756249634
 30
0.0
 10
5.5865158416
 20
5.1753708522
 30
0.0
 10
5.5817878125
 20
5.1751159539
 30
0.0
 10
5.5764075494
 20
5.1748604139
 30
0.0
 10
5.5703869181
 20
5.1746044923
 30
0.0
 10
5.5637391163
 20
5.1743482336
 30
0.0
 10
5.5536653261
 20
5.1739924908
 30
0.0
 10
5.5396265678
 20
5.1735540158
 30
0.0
 10
5.5211340721
 20
5.1730443682
 30
0.0
 10
5.5005689769
 20
5.1725337586
 30
0.0
 10
5.4781127284
 20
5.1720223925
 30
0.0
 10
5.4539634497
 20
5.1715105202
 30
0.0
 10
5.4283342813
 20
5.1709982747
 30
0.0
 10
5.4014512779
 20
5.1704857604
 30
0.0
 10
5.3735519201
 20
5.1699730546
 30
0.0
 10
5.3350374625
 20
5.1692841341
 30
0.0
 10
5.3058501696
 20
5.1687758077
 30
0.0
 10
5.2862475786
 20
5.1684343341
 30
0.0
  0
LINE
  5
3A2
100
AcDbEntity
  8
0
100
AcDbLine
 62
7
  6
CONTINUOUS
 10
5.5798871309
 20
5.1713898058
 11
5.5794334312
 21
5.1712858387
  0
SPLINE
  5
3A3
100
AcDbEntity
  8
0
100
AcDbSpline
 62
7
  6
CONTINUOUS
 70
0
 71
3
 72
62
 73
58
 74
0
 42
0.0000001
 43
0.0000001
 44
0.0000000001
 40
0.0
 40
0.0
 40
0.0
 40
0.0
 40
0.0012441788
 40
0.002767175
 40
0.0045691594
 40
0.0066498317
 40
0.0116445647
 40
0.0177420355
 40
0.0249295348
 40
0.0331917706
 40
0.0425098711
 40
0.0528636591
 40
0.0642292106
 40
0.0765813463
 40
0.1041307425
 40
0.1352625148
 40
0.169694492
 40
0.2071143338
 40
0.2471824173
 40
0.2895351442
 40
0.3337880874
 40
0.3795395265
 40
0.4263742182
 40
0.4738668283
 40
0.5215862794
 40
0.5690992426
 40
0.6159744161
 40
0.6617862823
 40
0.706118871
 40
0.7485698032
 40
0.7887536262
 40
0.8263057286
 40
0.8608853962
 40
0.8921789924
 40
0.9065036981
 40
0.9199028912
 40
0.9323463185
 40
0.943806038
 40
0.9542557301
 40
0.9636725082
 40
0.9720346229
 40
0.9793240954
 40
0.985524693
 40
0.9906234804
 40
0.9927567711
 40
0.9946112933
 40
0.9961865817
 40
0.9974829989
 40
0.9980270138
 40
0.9985019219
 40
0.9989082358
 40
0.9992468301
 40
0.9995192969
 40
0.9997288546
 40
0.9998122349
 40
0.9998833553
 40
1.0
 40
1.0
 40
1.0
 40
1.0
 10
5.5794334312
 20
5.1712858387
 30
0.0
 10
5.5791945364
 20
5.1712367995
 30
0.0
 10
5.5786602454
 20
5.1711422723
 30
0.0
 10
5.5777738426
 20
5.1710136595
 30
0.0
 10
5.5767220898
 20
5.1708845058
 30
0.0
 10
5.5749917142
 20
5.1707004077
 30
0.0
 10
5.5724191821
 20
5.1704764155
 30
0.0
 10
5.5688452865
 20
5.1702192272
 30
0.0
 10
5.5646295695
 20
5.1699610738
 30
0.0
 10
5.5597816117
 20
5.1697021244
 30
0.0
 10
5.5543122651
 20
5.1694426651
 30
0.0
 10
5.5482340335
 20
5.1691828748
 30
0.0
 10
5.5415606106
 20
5.1689227882
 30
0.0
 10
5.5315180066
 20
5.1685625272
 30
0.0
 10
5.5176015505
 20
5.1681180616
 30
0.0
 10
5.4993574057
 20
5.1676007572
 30
0.0
 10
5.4791778432
 20
5.1670825604
 30
0.0
 10
5.4572461349
 20
5.1665636614
 30
0.0
 10
5.4337614593
 20
5.1660442895
 30
0.0
 10
5.4089371026
 20
5.1655245699
 30
0.0
 10
5.3829985033
 20
5.1650046026
 30
0.0
 10
5.3561812114
 20
5.1644844605
 30
0.0
 10
5.3287287866
 20
5.1639642026
 30
0.0
 10
5.3008905379
 20
5.1634438777
 30
0.0
 10
5.272919316
 20
5.1629235305
 30
0.0
 10
5.2450691408
 20
5.1624032034
 30
0.0
 10
5.2175929428
 20
5.1618829409
 30
0.0
 10
5.1907402533
 20
5.1613627924
 30
0.0
 10
5.1647549392
 20
5.1608428153
 30
0.0
 10
5.1398730224
 20
5.160323084
 30
0.0
 10
5.1163204703
 20
5.1598036882
 30
0.0
 10
5.094311179
 20
5.1592847788
 30
0.0
 10
5.0740450004
 20
5.1587664889
 30
0.0
 10
5.0583313171
 20
5.1583233444
 30
0.0
 10
5.0467686138
 20
5.1579653145
 30
0.0
 10
5.0388995685
 20
5.1577048829
 30
0.0
 10
5.0315924235
 20
5.1574446038
 30
0.0
 10
5.024863808
 20
5.1571845272
 30
0.0
 10
5.0187289292
 20
5.1569246798
 30
0.0
 10
5.0132018014
 20
5.1566652118
 30
0.0
 10
5.008294858
 20
5.1564061818
 30
0.0
 10
5.0040192585
 20
5.1561479536
 30
0.0
 10
5.0003846201
 20
5.1558906478
 30
0.0
 10
4.9977609895
 20
5.1556666432
 30
0.0
 10
4.9959893593
 20
5.1554827733
 30
0.0
 10
4.9949065342
 20
5.1553535548
 30
0.0
 10
4.9939890561
 20
5.1552247795
 30
0.0
 10
4.9933287978
 20
5.1551126539
 30
0.0
 10
4.9928843152
 20
5.1550207419
 30
0.0
 10
4.9926124865
 20
5.1549560336
 30
0.0
 10
4.9923821855
 20
5.1548915148
 30
0.0
 10
4.992193204
 20
5.1548272826
 30
0.0
 10
4.9920454657
 20
5.1547632951
 30
0.0
 10
4.9919494034
 20
5.1547067051
 30
0.0
 10
4.9918954542
 20
5.1546595053
 30
0.0
 10
4.9918614307
 20
5.1546186832
 30
0.0
 10
4.9918476683
 20
5.1545818301
 30
0.0
 10
4.9918476774
 20
5.1545589662
 30
0.0
  0
SPLINE
  5
3A4
100
AcDbEntity
  8
0
100
AcDbSpline
 62
7
  6
CONTINUOUS
 70
0
 71
3
 72
50
 73
46
 74
0
 42
0.0000001
 43
0.0000001
 44
0.0000000001
 40
0.0
 40
0.0
 40
0.0
 40
0.0
 40
0.0009936716
 40
0.0022504922
 40
0.0037715941
 40
0.0055573134
 40
0.0076074068
 40
0.0099209932
 40
0.0153342763
 40
0.021787621
 40
0.0292676508
 40
0.0377588509
 40
0.0472436375
 40
0.0577013443
 40
0.0691103139
 40
0.0946812279
 40
0.1237376603
 40
0.1560305791
 40
0.1912829933
 40
0.2291922374
 40
0.2694328814
 40
0.311659459
 40
0.3555093874
 40
0.4006061459
 40
0.4929835066
 40
0.5856248914
 40
0.6753547195
 40
0.7181597161
 40
0.759097111
 40
0.7978153876
 40
0.8339821807
 40
0.8672871101
 40
0.8974442808
 40
0.9241951327
 40
0.9473105844
 40
0.9574422736
 40
0.9665934113
 40
0.9747451869
 40
0.9818798205
 40
0.9879832042
 40
0.9930433048
 40
0.9951789993
 40
0.9970506805
 40
0.9986577693
 40
1.0
 40
1.0
 40
1.0
 40
1.0
 10
5.5798871197
 20
5.4125398056
 30
0.0
 10
5.5796989734
 20
5.4124910289
 30
0.0
 10
5.5792683271
 20
5.4123982687
 30
0.0
 10
5.5785410979
 20
5.4122737095
 30
0.0
 10
5.5776571517
 20
5.4121484778
 30
0.0
 10
5.576616844
 20
5.4120227423
 30
0.0
 10
5.5754205812
 20
5.4118966965
 30
0.0
 10
5.5735164188
 20
5.4117188958
 30
0.0
 10
5.5707511416
 20
5.4115011687
 30
0.0
 10
5.5669751302
 20
5.4112503084
 30
0.0
 10
5.5625959695
 20
5.4109987058
 30
0.0
 10
5.5576230367
 20
5.4107465013
 30
0.0
 10
5.5520670112
 20
5.4104939388
 30
0.0
 10
5.5459397436
 20
5.4102410522
 30
0.0
 10
5.5366673875
 20
5.4098901395
 30
0.0
 10
5.523757615
 20
5.4094575005
 30
0.0
 10
5.5067630831
 20
5.4089545294
 30
0.0
 10
5.487874096
 20
5.4084506299
 30
0.0
 10
5.4672529267
 20
5.4079459984
 30
0.0
 10
5.4450767334
 20
5.407440875
 30
0.0
 10
5.421536044
 20
5.4069353873
 30
0.0
 10
5.3968330853
 20
5.4064296391
 30
0.0
 10
5.371180065
 20
5.405923696
 30
0.0
 10
5.3357188885
 20
5.405243507
 30
0.0
 10
5.2907152127
 20
5.4044042388
 30
0.0
 10
5.236982605
 20
5.4034047738
 30
0.0
 10
5.1929453411
 20
5.4025601963
 30
0.0
 10
5.159020407
 20
5.4018749949
 30
0.0
 10
5.1350719499
 20
5.4013694013
 30
0.0
 10
5.1124222474
 20
5.4008641447
 30
0.0
 10
5.0912658679
 20
5.4003593375
 30
0.0
 10
5.0717845711
 20
5.3998551445
 30
0.0
 10
5.0541457102
 20
5.3993518961
 30
0.0
 10
5.0385008212
 20
5.398849837
 30
0.0
 10
5.0267729004
 20
5.3984164095
 30
0.0
 10
5.0184871131
 20
5.3980636792
 30
0.0
 10
5.0131267168
 20
5.3978111855
 30
0.0
 10
5.0083532542
 20
5.3975591692
 30
0.0
 10
5.0041768266
 20
5.3973078236
 30
0.0
 10
5.0006063609
 20
5.3970573121
 30
0.0
 10
4.9980139625
 20
5.3968394831
 30
0.0
 10
4.9962492875
 20
5.3966610277
 30
0.0
 10
4.9951582598
 20
5.3965351632
 30
0.0
 10
4.9942235777
 20
5.3964097327
 30
0.0
 10
4.9936538244
 20
5.3963184405
 30
0.0
 10
4.9933955153
 20
5.3962714662
 30
0.0
  0
SPLINE
  5
3A5
100
AcDbEntity
  8
0
100
AcDbSpline
 62
7
  6
CONTINUOUS
 70
0
 71
3
 72
30
 73
26
 74
0
 42
0.0000001
 43
0.0000001
 44
0.0000000001
 40
0.0
 40
0.0
 40
0.0
 40
0.0
 40
0.0019021903
 40
0.0043447474
 40
0.0073299531
 40
0.0108583803
 40
0.0149296119
 40
0.0195418926
 40
0.0303802901
 40
0.0433534611
 40
0.0584337767
 40
0.0755889483
 40
0.0947822444
 40
0.1159709008
 40
0.1391096289
 40
0.1910273129
 40
0.2500787813
 40
0.3157440534
 40
0.3874445851
 40
0.4645480688
 40
0.5463747526
 40
0.6322024828
 40
0.7212754575
 40
0.8128047112
 40
1.0
 40
1.0
 40
1.0
 40
1.0
 10
5.600285962
 20
5.2111280773
 30
0.0
 10
5.600093111
 20
5.2110780961
 30
0.0
 10
5.5996475756
 20
5.2109837685
 30
0.0
 10
5.5988902154
 20
5.2108577984
 30
0.0
 10
5.5979606864
 20
5.2107310623
 30
0.0
 10
5.5968593912
 20
5.2106037341
 30
0.0
 10
5.5955867433
 20
5.2104760617
 30
0.0
 10
5.593550092
 20
5.2102956561
 30
0.0
 10
5.5905812312
 20
5.2100749634
 30
0.0
 10
5.5865158416
 20
5.2098208522
 30
0.0
 10
5.5817878125
 20
5.2095659539
 30
0.0
 10
5.5764075494
 20
5.2093104139
 30
0.0
 10
5.5703869181
 20
5.2090544923
 30
0.0
 10
5.5637391163
 20
5.2087982336
 30
0.0
 10
5.5536653261
 20
5.2084424908
 30
0.0
 10
5.5396265678
 20
5.2080040158
 30
0.0
 10
5.5211340721
 20
5.2074943682
 30
0.0
 10
5.5005689769
 20
5.2069837586
 30
0.0
 10
5.4781127284
 20
5.2064723925
 30
0.0
 10
5.4539634497
 20
5.2059605202
 30
0.0
 10
5.4283342813
 20
5.2054482747
 30
0.0
 10
5.4014512779
 20
5.2049357604
 30
0.0
 10
5.3735519201
 20
5.2044230546
 30
0.0
 10
5.3350374625
 20
5.2037341341
 30
0.0
 10
5.3058501696
 20
5.2032258077
 30
0.0
 10
5.2862475786
 20
5.2028843341
 30
0.0
  0
LINE
  5
3A6
100
AcDbEntity
  8
0
100
AcDbLine
 62
7
  6
CONTINUOUS
 10
5.579887048
 20
5.2058398057
 11
5.5793868594
 21
5.2057263876
  0
SPLINE
  5
3A7
100
AcDbEntity
  8
0
100
AcDbSpline
 62
7
  6
CONTINUOUS
 70
0
 71
3
 72
62
 73
58
 74
0
 42
0.0000001
 43
0.0000001
 44
0.0000000001
 40
0.0
 40
0.0
 40
0.0
 40
0.0
 40
0.0012634088
 40
0.0028054886
 40
0.0046265135
 40
0.006725927
 40
0.0117564569
 40
0.0178886128
 40
0.025109012
 40
0.03340231
 40
0.0427500903
 40
0.0531312273
 40
0.0645228874
 40
0.0768987587
 40
0.1044904708
 40
0.1356568821
 40
0.1701157001
 40
0.2075547595
 40
0.2476347757
 40
0.2899923869
 40
0.3342436544
 40
0.3799872267
 40
0.426808309
 40
0.4742823063
 40
0.5219786953
 40
0.5694649799
 40
0.6163105327
 40
0.6620904653
 40
0.7063896967
 40
0.748806486
 40
0.7889563379
 40
0.8264752906
 40
0.8610232495
 40
0.8922872391
 40
0.9065978262
 40
0.9199840372
 40
0.9324150806
 40
0.9438632557
 40
0.954302624
 40
0.9637095377
 40
0.9720634175
 40
0.9793451143
 40
0.9855394778
 40
0.9906329508
 40
0.9927638548
 40
0.9946165025
 40
0.996190393
 40
0.9974854891
 40
0.9980288632
 40
0.9985031868
 40
0.9989090046
 40
0.9992472226
 40
0.9995194605
 40
0.9997289235
 40
0.9998122852
 40
0.9998833934
 40
1.0
 40
1.0
 40
1.0
 40
1.0
 10
5.5793868594
 20
5.2057263876
 30
0.0
 10
5.5791441121
 20
5.2056774781
 30
0.0
 10
5.5786022293
 20
5.2055830739
 30
0.0
 10
5.5777045401
 20
5.2054544834
 30
0.0
 10
5.5766416418
 20
5.20532538
 30
0.0
 10
5.5748968855
 20
5.2051414858
 30
0.0
 10
5.5723070067
 20
5.2049175895
 30
0.0
 10
5.5687130781
 20
5.2046605229
 30
0.0
 10
5.5644783272
 20
5.2044024726
 30
0.0
 10
5.5596123764
 20
5.2041436389
 30
0.0
 10
5.5541261807
 20
5.2038843292
 30
0.0
 10
5.5480321265
 20
5.2036246522
 30
0.0
 10
5.541344096
 20
5.2033647243
 30
0.0
 10
5.5312842211
 20
5.2030046912
 30
0.0
 10
5.5173491359
 20
5.2025605104
 30
0.0
 10
5.4990861059
 20
5.2020434726
 30
0.0
 10
5.4788923451
 20
5.2015255526
 30
0.0
 10
5.4569510325
 20
5.2010069343
 30
0.0
 10
5.4334611833
 20
5.2004878469
 30
0.0
 10
5.4086358574
 20
5.199968414
 30
0.0
 10
5.3827002605
 20
5.1994487355
 30
0.0
 10
5.3558896675
 20
5.1989288831
 30
0.0
 10
5.3284473132
 20
5.1984089152
 30
0.0
 10
5.3006221448
 20
5.1978888811
 30
0.0
 10
5.2726665761
 20
5.197368825
 30
0.0
 10
5.244834202
 20
5.1968487897
 30
0.0
 10
5.2173775142
 20
5.1963288196
 30
0.0
 10
5.1905455937
 20
5.1958089632
 30
0.0
 10
5.1645818653
 20
5.195289278
 30
0.0
 10
5.1397218446
 20
5.1947698384
 30
0.0
 10
5.1161910408
 20
5.1942507344
 30
0.0
 10
5.0942028963
 20
5.1937321181
 30
0.0
 10
5.0739568685
 20
5.1932141178
 30
0.0
 10
5.0582592385
 20
5.1927712279
 30
0.0
 10
5.0467085835
 20
5.1924133863
 30
0.0
 10
5.0388479123
 20
5.1921531097
 30
0.0
 10
5.0315485917
 20
5.1918929763
 30
0.0
 10
5.0248272333
 20
5.1916330381
 30
0.0
 10
5.0186990687
 20
5.1913733555
 30
0.0
 10
5.0131779596
 20
5.1911140077
 30
0.0
 10
5.0082764825
 20
5.1908551546
 30
0.0
 10
5.0040055901
 20
5.1905970449
 30
0.0
 10
5.0003750326
 20
5.1903398985
 30
0.0
 10
4.9977543448
 20
5.1901160288
 30
0.0
 10
4.9959847371
 20
5.1899322444
 30
0.0
 10
4.9949031096
 20
5.1898030953
 30
0.0
 10
4.9939866034
 20
5.1896744119
 30
0.0
 10
4.9933270565
 20
5.1895623505
 30
0.0
 10
4.9928831117
 20
5.1894704831
 30
0.0
 10
4.9926116448
 20
5.1894058094
 30
0.0
 10
4.9923816509
 20
5.1893413241
 30
0.0
 10
4.9921929041
 20
5.1892771232
 30
0.0
 10
4.9920453161
 20
5.189213167
 30
0.0
 10
4.9919493226
 20
5.1891566152
 30
0.0
 10
4.9918953861
 20
5.1891094475
 30
0.0
 10
4.9918613589
 20
5.1890686533
 30
0.0
 10
4.9918475774
 20
5.1890318209
 30
0.0
 10
4.9918475787
 20
5.1890089662
 30
0.0
  0
SPLINE
  5
3A8
100
AcDbEntity
  8
0
100
AcDbSpline
 62
7
  6
CONTINUOUS
 70
0
 71
3
 72
61
 73
57
 74
0
 42
0.0000001
 43
0.0000001
 44
0.0000000001
 40
0.0
 40
0.0
 40
0.0
 40
0.0
 40
0.0001162361
 40
0.0001870274
 40
0.0002699629
 40
0.0004782435
 40
0.0007488856
 40
0.0010851387
 40
0.0014886506
 40
0.0019602956
 40
0.0025005731
 40
0.0037880397
 40
0.0053523179
 40
0.0071936924
 40
0.0093119497
 40
0.0143751141
 40
0.0205321561
 40
0.0277708977
 40
0.0360750272
 40
0.0454268963
 40
0.0558052693
 40
0.0671871697
 40
0.0795471811
 40
0.0928572727
 40
0.1070880464
 40
0.1381804149
 40
0.1725446476
 40
0.209871513
 40
0.2498249053
 40
0.2920450315
 40
0.3361515363
 40
0.3817470902
 40
0.4284209773
 40
0.4757527174
 40
0.5233159004
 40
0.5706820603
 40
0.6174243625
 40
0.6631217976
 40
0.7073626378
 40
0.7497484154
 40
0.7898973792
 40
0.82744787
 40
0.8620618231
 40
0.8934275397
 40
0.9212629762
 40
0.9453180249
 40
0.9558593365
 40
0.9653772238
 40
0.973851099
 40
0.9812617144
 40
0.987593402
 40
0.9928331843
 40
0.9950401736
 40
0.9969706729
 40
0.998624048
 40
1.0
 40
1.0
 40
1.0
 40
1.0
 10
5.580647464
 20
5.3996839662
 30
0.0
 10
5.580647462
 20
5.3996611955
 30
0.0
 10
5.5806338086
 20
5.3996245093
 30
0.0
 10
5.5806000272
 20
5.3995838243
 30
0.0
 10
5.580546502
 20
5.3995368171
 30
0.0
 10
5.5804511984
 20
5.3994804402
 30
0.0
 10
5.5803046212
 20
5.3994166883
 30
0.0
 10
5.580117122
 20
5.3993526957
 30
0.0
 10
5.5798886048
 20
5.3992884262
 30
0.0
 10
5.5796188569
 20
5.3992239675
 30
0.0
 10
5.5791777597
 20
5.3991324114
 30
0.0
 10
5.5785225292
 20
5.3990207211
 30
0.0
 10
5.5776120719
 20
5.3988924432
 30
0.0
 10
5.5765375559
 20
5.3987637105
 30
0.0
 10
5.574779454
 20
5.3985805461
 30
0.0
 10
5.5721757997
 20
5.398357418
 30
0.0
 10
5.5685687176
 20
5.3981010815
 30
0.0
 10
5.5643254225
 20
5.3978438584
 30
0.0
 10
5.5594553319
 20
5.3975858208
 30
0.0
 10
5.553969448
 20
5.3973273474
 30
0.0
 10
5.5478800491
 20
5.3970685064
 30
0.0
 10
5.5412008824
 20
5.3968094205
 30
0.0
 10
5.533947003
 20
5.396550151
 30
0.0
 10
5.5261347051
 20
5.3962907141
 30
0.0
 10
5.5146539632
 20
5.3959340494
 30
0.0
 10
5.4990493892
 20
5.3954925827
 30
0.0
 10
5.4789206726
 20
5.3949762805
 30
0.0
 10
5.4570555706
 20
5.3944593593
 30
0.0
 10
5.43365111
 20
5.3939419536
 30
0.0
 10
5.4089182176
 20
5.3934242124
 30
0.0
 10
5.3830797985
 20
5.3929062253
 30
0.0
 10
5.3563687209
 20
5.3923880662
 30
0.0
 10
5.3290257052
 20
5.3918697921
 30
0.0
 10
5.3012971635
 20
5.3913514519
 30
0.0
 10
5.2734329824
 20
5.3908330891
 30
0.0
 10
5.2456842919
 20
5.3903147458
 30
0.0
 10
5.2183011652
 20
5.3897964649
 30
0.0
 10
5.1915303991
 20
5.3892782945
 30
0.0
 10
5.1656132386
 20
5.3887602912
 30
0.0
 10
5.1407832457
 20
5.388242526
 30
0.0
 10
5.117264186
 20
5.3877250909
 30
0.0
 10
5.0952680084
 20
5.3872081192
 30
0.0
 10
5.0749929669
 20
5.386691778
 30
0.0
 10
5.0566217484
 20
5.3861764107
 30
0.0
 10
5.0403198953
 20
5.3856622739
 30
0.0
 10
5.0280974541
 20
5.3852184198
 30
0.0
 10
5.0194629885
 20
5.3848571453
 30
0.0
 10
5.0138793087
 20
5.3845985606
 30
0.0
 10
5.0089096397
 20
5.3843404664
 30
0.0
 10
5.0045650411
 20
5.3840830858
 30
0.0
 10
5.0008552408
 20
5.3838265699
 30
0.0
 10
4.9981651028
 20
5.3836034671
 30
0.0
 10
4.9963371743
 20
5.3834205892
 30
0.0
 10
4.9952100305
 20
5.3832917141
 30
0.0
 10
4.9942468649
 20
5.3831633023
 30
0.0
 10
4.9936607153
 20
5.3830696937
 30
0.0
 10
4.9933955153
 20
5.3830214662
 30
0.0
  0
SPLINE
  5
3A9
100
AcDbEntity
  8
0
100
AcDbSpline
 62
7
  6
CONTINUOUS
 70
0
 71
3
 72
30
 73
26
 74
0
 42
0.0000001
 43
0.0000001
 44
0.0000000001
 40
0.0
 40
0.0
 40
0.0
 40
0.0
 40
0.0019021903
 40
0.0043447474
 40
0.0073299531
 40
0.0108583803
 40
0.0149296119
 40
0.0195418926
 40
0.0303802901
 40
0.0433534611
 40
0.0584337767
 40
0.0755889483
 40
0.0947822444
 40
0.1159709008
 40
0.1391096289
 40
0.1910273129
 40
0.2500787813
 40
0.3157440534
 40
0.3874445851
 40
0.4645480688
 40
0.5463747526
 40
0.6322024828
 40
0.7212754575
 40
0.8128047112
 40
1.0
 40
1.0
 40
1.0
 40
1.0
 10
5.600285962
 20
5.2455780773
 30
0.0
 10
5.600093111
 20
5.2455280961
 30
0.0
 10
5.5996475756
 20
5.2454337685
 30
0.0
 10
5.5988902154
 20
5.2453077984
 30
0.0
 10
5.5979606864
 20
5.2451810623
 30
0.0
 10
5.5968593912
 20
5.2450537341
 30
0.0
 10
5.5955867433
 20
5.2449260617
 30
0.0
 10
5.593550092
 20
5.2447456561
 30
0.0
 10
5.5905812312
 20
5.2445249634
 30
0.0
 10
5.5865158416
 20
5.2442708522
 30
0.0
 10
5.5817878125
 20
5.2440159539
 30
0.0
 10
5.5764075494
 20
5.2437604139
 30
0.0
 10
5.5703869181
 20
5.2435044923
 30
0.0
 10
5.5637391163
 20
5.2432482336
 30
0.0
 10
5.5536653261
 20
5.2428924908
 30
0.0
 10
5.5396265678
 20
5.2424540158
 30
0.0
 10
5.5211340721
 20
5.2419443682
 30
0.0
 10
5.5005689769
 20
5.2414337586
 30
0.0
 10
5.4781127284
 20
5.2409223925
 30
0.0
 10
5.4539634497
 20
5.2404105202
 30
0.0
 10
5.4283342813
 20
5.2398982747
 30
0.0
 10
5.4014512779
 20
5.2393857604
 30
0.0
 10
5.3735519201
 20
5.2388730546
 30
0.0
 10
5.3350374625
 20
5.2381841341
 30
0.0
 10
5.3058501696
 20
5.2376758077
 30
0.0
 10
5.2862475786
 20
5.2373343341
 30
0.0
  0
SPLINE
  5
3AA
100
AcDbEntity
  8
0
100
AcDbSpline
 62
7
  6
CONTINUOUS
 70
0
 71
3
 72
63
 73
59
 74
0
 42
0.0000001
 43
0.0000001
 44
0.0000000001
 40
0.0
 40
0.0
 40
0.0
 40
0.0
 40
0.0010297647
 40
0.0023404664
 40
0.0039332397
 40
0.0058083523
 40
0.0079655452
 40
0.0104038361
 40
0.0161185814
 40
0.0229415359
 40
0.0308575776
 40
0.0398490195
 40
0.0498958568
 40
0.060974722
 40
0.073060976
 40
0.1001413524
 40
0.1308889021
 40
0.1650215298
 40
0.2022258731
 40
0.2421600508
 40
0.284457165
 40
0.3287284392
 40
0.3745670305
 40
0.4215516727
 40
0.469250427
 40
0.5172249646
 40
0.5650341461
 40
0.6122386163
 40
0.658404446
 40
0.703107325
 40
0.7459364482
 40
0.7864981255
 40
0.8244196494
 40
0.8593525873
 40
0.8909761714
 40
0.9054551519
 40
0.9190002313
 40
0.9315809467
 40
0.9431678713
 40
0.9537350537
 40
0.9632581074
 40
0.971715482
 40
0.9790884134
 40
0.9853600982
 40
0.990517898
 40
0.9926756276
 40
0.9945513884
 40
0.9961449172
 40
0.9974563656
 40
0.9980066174
 40
0.9984868708
 40
0.9988976338
 40
0.9992398373
 40
0.9995151372
 40
0.9997267815
 40
0.9998109244
 40
0.9998826275
 40
1.0
 40
1.0
 40
1.0
 40
1.0
 10
5.5798871417
 20
5.2402898056
 30
0.0
 10
5.5796915985
 20
5.2402391107
 30
0.0
 10
5.5792422854
 20
5.2401430051
 30
0.0
 10
5.578481442
 20
5.2400142547
 30
0.0
 10
5.5775529019
 20
5.2398847717
 30
0.0
 10
5.5764570795
 20
5.2397547311
 30
0.0
 10
5.5751944227
 20
5.2396243586
 30
0.0
 10
5.5731802323
 20
5.2394403306
 30
0.0
 10
5.5702509238
 20
5.2392150742
 30
0.0
 10
5.5662468819
 20
5.2389556009
 30
0.0
 10
5.5615989414
 20
5.2386953463
 30
0.0
 10
5.5563177563
 20
5.2384344539
 30
0.0
 10
5.55041547
 20
5.2381731839
 30
0.0
 10
5.5439055589
 20
5.2379115746
 30
0.0
 10
5.5340556296
 20
5.2375485939
 30
0.0
 10
5.5203478906
 20
5.2371011348
 30
0.0
 10
5.5023155722
 20
5.236580871
 30
0.0
 10
5.4822965333
 20
5.2360596389
 30
0.0
 10
5.4604748313
 20
5.2355376477
 30
0.0
 10
5.4370510998
 20
5.2350151488
 30
0.0
 10
5.412240742
 20
5.234492277
 30
0.0
 10
5.3862718839
 20
5.2339691398
 30
0.0
 10
5.3593833035
 20
5.233445815
 30
0.0
 10
5.3318222373
 20
5.2329223647
 30
0.0
 10
5.3038420923
 20
5.2323988407
 30
0.0
 10
5.275700171
 20
5.2318752894
 30
0.0
 10
5.2476552293
 20
5.2313517542
 30
0.0
 10
5.2199651608
 20
5.2308282809
 30
0.0
 10
5.1928845604
 20
5.2303049194
 30
0.0
 10
5.1666624279
 20
5.2297817283
 30
0.0
 10
5.1415398768
 20
5.2292587828
 30
0.0
 10
5.1177479108
 20
5.2287361744
 30
0.0
 10
5.0955053136
 20
5.2282140539
 30
0.0
 10
5.0750165966
 20
5.2276925568
 30
0.0
 10
5.0591261807
 20
5.227246693
 30
0.0
 10
5.0474307104
 20
5.226886473
 30
0.0
 10
5.0394696235
 20
5.2266244151
 30
0.0
 10
5.0320761904
 20
5.2263625342
 30
0.0
 10
5.0252673157
 20
5.2261008244
 30
0.0
 10
5.0190587292
 20
5.2258393815
 30
0.0
 10
5.013464642
 20
5.2255782883
 30
0.0
 10
5.0084979043
 20
5.2253176541
 30
0.0
 10
5.0041699115
 20
5.225057833
 30
0.0
 10
5.0004904994
 20
5.224798903
 30
0.0
 10
4.9978344674
 20
5.2245735429
 30
0.0
 10
4.9960408929
 20
5.2243885165
 30
0.0
 10
4.9949446685
 20
5.2242584841
 30
0.0
 10
4.994015764
 20
5.2241289154
 30
0.0
 10
4.993347224
 20
5.2240161016
 30
0.0
 10
4.9928971618
 20
5.2239236184
 30
0.0
 10
4.9926219681
 20
5.2238585115
 30
0.0
 10
4.9923888527
 20
5.2237935909
 30
0.0
 10
4.9921975833
 20
5.223728959
 30
0.0
 10
4.9920480554
 20
5.223664575
 30
0.0
 10
4.9919507966
 20
5.223607646
 30
0.0
 10
4.9918961378
 20
5.2235601439
 30
0.0
 10
4.9918616821
 20
5.2235191051
 30
0.0
 10
4.991847682
 20
5.2234819911
 30
0.0
 10
4.9918476717
 20
5.2234589663
 30
0.0
  0
SPLINE
  5
3AB
100
AcDbEntity
  8
0
100
AcDbSpline
 62
7
  6
CONTINUOUS
 70
0
 71
3
 72
51
 73
47
 74
0
 42
0.0000001
 43
0.0000001
 44
0.0000000001
 40
0.0
 40
0.0
 40
0.0
 40
0.0
 40
0.0211965548
 40
0.045562562
 40
0.0729276622
 40
0.1030998272
 40
0.135867214
 40
0.1709999348
 40
0.2473600945
 40
0.330038552
 40
0.4167166059
 40
0.5049628027
 40
0.5489002968
 40
0.5923018579
 40
0.6348627089
 40
0.6762839344
 40
0.7162743735
 40
0.7545532214
 40
0.7908517639
 40
0.8249150808
 40
0.8565038457
 40
0.8853964237
 40
0.9113903444
 40
0.9232425132
 40
0.9343034689
 40
0.9445535018
 40
0.9539753073
 40
0.962552048
 40
0.9702689473
 40
0.9771131377
 40
0.9830724253
 40
0.9881375555
 40
0.9903323601
 40
0.9923007601
 40
0.9940421732
 40
0.9955564277
 40
0.9968435984
 40
0.9979041891
 40
0.9983499434
 40
0.9987397203
 40
0.9990740783
 40
0.9993539786
 40
0.9995810879
 40
0.9997585725
 40
0.9998931552
 40
1.0
 40
1.0
 40
1.0
 40
1.0
 10
5.5502744018
 20
4.6525214648
 30
0.0
 10
5.5463296906
 20
4.6523553922
 30
0.0
 10
5.5378490902
 20
4.652030157
 30
0.0
 10
5.5242726973
 20
4.6515755364
 30
0.0
 10
5.5090236494
 20
4.6511199227
 30
0.0
 10
5.4922091052
 20
4.6506635769
 30
0.0
 10
5.4739472415
 20
4.6502066997
 30
0.0
 10
5.4470837149
 20
4.6495795189
 30
0.0
 10
5.4109243327
 20
4.6488074954
 30
0.0
 10
5.3651645209
 20
4.6479023956
 30
0.0
 10
5.3171903531
 20
4.6469961505
 30
0.0
 10
5.2764307915
 20
4.6462394985
 30
0.0
 10
5.2437308833
 20
4.6456277925
 30
0.0
 10
5.2195392348
 20
4.6451696953
 30
0.0
 10
5.1958163665
 20
4.6447116649
 30
0.0
 10
5.1727289947
 20
4.6442537312
 30
0.0
 10
5.1504393749
 20
4.6437959285
 30
0.0
 10
5.1291041439
 20
4.6433383018
 30
0.0
 10
5.1088731968
 20
4.6428809136
 30
0.0
 10
5.0898887164
 20
4.6424238404
 30
0.0
 10
5.0722841327
 20
4.6419672091
 30
0.0
 10
5.0561831395
 20
4.6415111292
 30
0.0
 10
5.0437580694
 20
4.6411207448
 30
0.0
 10
5.0346537848
 20
4.6408053599
 30
0.0
 10
5.0284808455
 20
4.6405762748
 30
0.0
 10
5.0227609305
 20
4.6403473122
 30
0.0
 10
5.0175041333
 20
4.640118531
 30
0.0
 10
5.0127196488
 20
4.6398899685
 30
0.0
 10
5.0084158753
 20
4.6396616904
 30
0.0
 10
5.0046003741
 20
4.6394338897
 30
0.0
 10
5.001279777
 20
4.6392066127
 30
0.0
 10
4.9988252555
 20
4.6390098437
 30
0.0
 10
4.9971137819
 20
4.6388496593
 30
0.0
 10
4.9960198664
 20
4.638735478
 30
0.0
 10
4.9950534628
 20
4.6386214955
 30
0.0
 10
4.9942148907
 20
4.6385078273
 30
0.0
 10
4.9935044367
 20
4.6383945353
 30
0.0
 10
4.9929933501
 20
4.6382959018
 30
0.0
 10
4.9926494852
 20
4.6382150869
 30
0.0
 10
4.992439094
 20
4.6381581426
 30
0.0
 10
4.9922608161
 20
4.6381013543
 30
0.0
 10
4.9921145573
 20
4.6380447327
 30
0.0
 10
4.9919998991
 20
4.6379883435
 30
0.0
 10
4.9919164412
 20
4.6379317585
 30
0.0
 10
4.9918622976
 20
4.6378738996
 30
0.0
 10
4.991847698
 20
4.6378288679
 30
0.0
 10
4.9918476928
 20
4.6378089663
 30
0.0
  0
SPLINE
  5
3AC
100
AcDbEntity
  8
0
100
AcDbSpline
 62
7
  6
CONTINUOUS
 70
0
 71
3
 72
39
 73
35
 74
0
 42
0.0000001
 43
0.0000001
 44
0.0000000001
 40
0.0
 40
0.0
 40
0.0
 40
0.0
 40
0.000522443
 40
0.0007225193
 40
0.0009552567
 40
0.0015233136
 40
0.0022329777
 40
0.0030871452
 40
0.0040873247
 40
0.0052343691
 40
0.0079707117
 40
0.0112981435
 40
0.0152168847
 40
0.0197258015
 40
0.0305042131
 40
0.0436114798
 40
0.0590180463
 40
0.0766875226
 40
0.0965788924
 40
0.1186437664
 40
0.1428305587
 40
0.1690801068
 40
0.1973305283
 40
0.2275130044
 40
0.2595556403
 40
0.2933809986
 40
0.3660507836
 40
0.4448230863
 40
0.5289400226
 40
0.6175916474
 40
0.7099254491
 40
0.8050502783
 40
0.9020555645
 40
1.0
 40
1.0
 40
1.0
 40
1.0
 10
5.6009974671
 20
5.3944210984
 30
0.0
 10
5.6009974671
 20
5.3943662372
 30
0.0
 10
5.6009305283
 20
5.3943018412
 30
0.0
 10
5.6008472098
 20
5.394250633
 30
0.0
 10
5.600752914
 20
5.394202409
 30
0.0
 10
5.6006052869
 20
5.3941447651
 30
0.0
 10
5.6003911689
 20
5.3940785044
 30
0.0
 10
5.6001301919
 20
5.3940121654
 30
0.0
 10
5.5998220774
 20
5.3939455285
 30
0.0
 10
5.5993180297
 20
5.3938508691
 30
0.0
 10
5.5985695065
 20
5.3937354119
 30
0.0
 10
5.5975296112
 20
5.3936028236
 30
0.0
 10
5.5963023538
 20
5.3934697639
 30
0.0
 10
5.5942944079
 20
5.3932804198
 30
0.0
 10
5.5913214809
 20
5.3930497654
 30
0.0
 10
5.5872039009
 20
5.3927848128
 30
0.0
 10
5.5823614784
 20
5.3925189039
 30
0.0
 10
5.5768057967
 20
5.3922521746
 30
0.0
 10
5.5705502445
 20
5.391984984
 30
0.0
 10
5.5636097762
 20
5.3917174079
 30
0.0
 10
5.5560012022
 20
5.3914495961
 30
0.0
 10
5.5477427302
 20
5.3911815663
 30
0.0
 10
5.538854356
 20
5.3909134024
 30
0.0
 10
5.5293574021
 20
5.3906451079
 30
0.0
 10
5.5192748135
 20
5.3903767203
 30
0.0
 10
5.5047317315
 20
5.3900099429
 30
0.0
 10
5.4852822995
 20
5.3895550659
 30
0.0
 10
5.4605522638
 20
5.389020741
 30
0.0
 10
5.4341436372
 20
5.3884859642
 30
0.0
 10
5.4063106648
 20
5.387950834
 30
0.0
 10
5.3773215663
 20
5.3874154665
 30
0.0
 10
5.3474551178
 20
5.3868799266
 30
0.0
 10
5.3169994122
 20
5.386344287
 30
0.0
 10
5.2965310578
 20
5.3859877347
 30
0.0
 10
5.2862475786
 20
5.3858085984
 30
0.0
  0
SPLINE
  5
3AD
100
AcDbEntity
  8
0
100
AcDbSpline
 62
7
  6
CONTINUOUS
 70
0
 71
3
 72
63
 73
59
 74
0
 42
0.0000001
 43
0.0000001
 44
0.0000000001
 40
0.0
 40
0.0
 40
0.0
 40
0.0
 40
0.0010295306
 40
0.0023402558
 40
0.0039332392
 40
0.0058084528
 40
0.0079654522
 40
0.0104035708
 40
0.0161186432
 40
0.0229413605
 40
0.0308575048
 40
0.0398489971
 40
0.049895654
 40
0.0609747933
 40
0.0730607246
 40
0.1001411822
 40
0.1308888463
 40
0.1650215741
 40
0.2022258583
 40
0.2421599744
 40
0.2844570212
 40
0.328728264
 40
0.3745669376
 40
0.4215515675
 40
0.469250375
 40
0.5172248452
 40
0.5650340345
 40
0.6122385384
 40
0.6584043927
 40
0.7031073159
 40
0.7459363574
 40
0.7864979554
 40
0.8244194353
 40
0.859352421
 40
0.8909761167
 40
0.9054549556
 40
0.9190002855
 40
0.9315806879
 40
0.9431679223
 40
0.953734867
 40
0.9632580545
 40
0.9717154351
 40
0.9790881921
 40
0.9853601561
 40
0.9905176176
 40
0.9926754894
 40
0.9945514713
 40
0.9961449365
 40
0.9974561689
 40
0.9980063487
 40
0.998486603
 40
0.9988974513
 40
0.9992397755
 40
0.9995151747
 40
0.9997268473
 40
0.9998109771
 40
0.9998826585
 40
1.0
 40
1.0
 40
1.0
 40
1.0
 10
5.5798870961
 20
5.3780898058
 30
0.0
 10
5.5796916009
 20
5.3780391087
 30
0.0
 10
5.5792423331
 20
5.3779429867
 30
0.0
 10
5.5784814871
 20
5.3778142493
 30
0.0
 10
5.5775528792
 20
5.377684778
 30
0.0
 10
5.5764570331
 20
5.377554742
 30
0.0
 10
5.5751944299
 20
5.3774243566
 30
0.0
 10
5.5731802482
 20
5.3772403154
 30
0.0
 10
5.570250953
 20
5.3770150947
 30
0.0
 10
5.5662468755
 20
5.3767555889
 30
0.0
 10
5.5615989503
 20
5.3764953501
 30
0.0
 10
5.5563177706
 20
5.3762344579
 30
0.0
 10
5.5504154564
 20
5.3759731761
 30
0.0
 10
5.5439055893
 20
5.3757115847
 30
0.0
 10
5.5340556542
 20
5.3753485829
 30
0.0
 10
5.5203479392
 20
5.3749011382
 30
0.0
 10
5.5023155625
 20
5.3743808707
 30
0.0
 10
5.4822964926
 20
5.3738596404
 30
0.0
 10
5.4604747941
 20
5.373337648
 30
0.0
 10
5.437051099
 20
5.3728151489
 30
0.0
 10
5.4122407721
 20
5.3722922767
 30
0.0
 10
5.3862719165
 20
5.3717691396
 30
0.0
 10
5.3593833279
 20
5.3712458152
 30
0.0
 10
5.3318222369
 20
5.370722365
 30
0.0
 10
5.3038420965
 20
5.3701988411
 30
0.0
 10
5.2757001758
 20
5.3696752893
 30
0.0
 10
5.2476552385
 20
5.3691517541
 30
0.0
 10
5.2199651563
 20
5.3686282808
 30
0.0
 10
5.1928845352
 20
5.3681049196
 30
0.0
 10
5.1666624045
 20
5.3675817288
 30
0.0
 10
5.1415398758
 20
5.3670587831
 30
0.0
 10
5.1177479494
 20
5.366536174
 30
0.0
 10
5.0955053666
 20
5.3660140537
 30
0.0
 10
5.0750166265
 20
5.3654925544
 30
0.0
 10
5.0591262064
 20
5.365046699
 30
0.0
 10
5.047430693
 20
5.3646864665
 30
0.0
 10
5.0394696454
 20
5.3644244242
 30
0.0
 10
5.0320761642
 20
5.3641625235
 30
0.0
 10
5.0252673359
 20
5.3639008346
 30
0.0
 10
5.0190587095
 20
5.3636393746
 30
0.0
 10
5.0134646411
 20
5.3633782889
 30
0.0
 10
5.0084979097
 20
5.3631176613
 30
0.0
 10
5.0041698966
 20
5.3628578167
 30
0.0
 10
5.0004905273
 20
5.3625989265
 30
0.0
 10
4.9978344822
 20
5.3623735274
 30
0.0
 10
4.9960409019
 20
5.3621885108
 30
0.0
 10
4.9949446163
 20
5.3620584947
 30
0.0
 10
4.9940157233
 20
5.3619289246
 30
0.0
 10
4.9933472549
 20
5.3618161002
 30
0.0
 10
4.9928972508
 20
5.3617236144
 30
0.0
 10
4.992622055
 20
5.3616585046
 30
0.0
 10
4.9923888972
 20
5.3615935861
 30
0.0
 10
4.9921975633
 20
5.3615289582
 30
0.0
 10
4.99204798
 20
5.3614645814
 30
0.0
 10
4.9919506917
 20
5.3614076545
 30
0.0
 10
4.9918960392
 20
5.3613601463
 30
0.0
 10
4.9918616046
 20
5.3613191052
 30
0.0
 10
4.9918476405
 20
5.3612819849
 30
0.0
 10
4.9918476537
 20
5.3612589662
 30
0.0
  0
SPLINE
  5
3AE
100
AcDbEntity
  8
0
100
AcDbSpline
 62
7
  6
CONTINUOUS
 70
0
 71
3
 72
30
 73
26
 74
0
 42
0.0000001
 43
0.0000001
 44
0.0000000001
 40
0.0
 40
0.0
 40
0.0
 40
0.0
 40
0.0019021903
 40
0.0043447474
 40
0.0073299531
 40
0.0108583803
 40
0.0149296119
 40
0.0195418926
 40
0.0303802901
 40
0.0433534611
 40
0.0584337767
 40
0.0755889483
 40
0.0947822444
 40
0.1159709008
 40
0.1391096289
 40
0.1910273129
 40
0.2500787813
 40
0.3157440534
 40
0.3874445851
 40
0.4645480688
 40
0.5463747526
 40
0.6322024828
 40
0.7212754575
 40
0.8128047112
 40
1.0
 40
1.0
 40
1.0
 40
1.0
 10
5.600285962
 20
5.3833780773
 30
0.0
 10
5.600093111
 20
5.3833280961
 30
0.0
 10
5.5996475756
 20
5.3832337685
 30
0.0
 10
5.5988902154
 20
5.3831077984
 30
0.0
 10
5.5979606864
 20
5.3829810623
 30
0.0
 10
5.5968593912
 20
5.3828537341
 30
0.0
 10
5.5955867433
 20
5.3827260617
 30
0.0
 10
5.593550092
 20
5.3825456561
 30
0.0
 10
5.5905812312
 20
5.3823249634
 30
0.0
 10
5.5865158416
 20
5.3820708522
 30
0.0
 10
5.5817878125
 20
5.3818159539
 30
0.0
 10
5.5764075494
 20
5.3815604139
 30
0.0
 10
5.5703869181
 20
5.3813044923
 30
0.0
 10
5.5637391163
 20
5.3810482336
 30
0.0
 10
5.5536653261
 20
5.3806924908
 30
0.0
 10
5.5396265678
 20
5.3802540158
 30
0.0
 10
5.5211340721
 20
5.3797443682
 30
0.0
 10
5.5005689769
 20
5.3792337586
 30
0.0
 10
5.4781127284
 20
5.3787223925
 30
0.0
 10
5.4539634497
 20
5.3782105202
 30
0.0
 10
5.4283342813
 20
5.3776982747
 30
0.0
 10
5.4014512779
 20
5.3771857604
 30
0.0
 10
5.3735519201
 20
5.3766730546
 30
0.0
 10
5.3350374625
 20
5.3759841341
 30
0.0
 10
5.3058501696
 20
5.3754758077
 30
0.0
 10
5.2862475786
 20
5.3751343341
 30
0.0
  0
SPLINE
  5
3AF
100
AcDbEntity
  8
0
100
AcDbSpline
 62
7
  6
CONTINUOUS
 70
0
 71
3
 72
63
 73
59
 74
0
 42
0.0000001
 43
0.0000001
 44
0.0000000001
 40
0.0
 40
0.0
 40
0.0
 40
0.0
 40
0.0010297599
 40
0.0023404857
 40
0.0039332789
 40
0.0058083734
 40
0.0079655351
 40
0.0104038432
 40
0.0161186333
 40
0.0229415278
 40
0.0308576051
 40
0.039849003
 40
0.049895878
 40
0.0609747492
 40
0.0730609778
 40
0.1001413327
 40
0.1308889013
 40
0.1650215356
 40
0.2022258935
 40
0.2421600758
 40
0.2844571613
 40
0.3287284408
 40
0.3745670252
 40
0.4215516495
 40
0.4692504476
 40
0.5172249296
 40
0.5650341538
 40
0.612238594
 40
0.6584044303
 40
0.7031073431
 40
0.7459364304
 40
0.7864981488
 40
0.8244196184
 40
0.8593525688
 40
0.8909761613
 40
0.9054551555
 40
0.9190002277
 40
0.9315809339
 40
0.9431678972
 40
0.9537350334
 40
0.9632581352
 40
0.9717154661
 40
0.9790884303
 40
0.9853601042
 40
0.9905178873
 40
0.9926756593
 40
0.9945514152
 40
0.9961449146
 40
0.9974563439
 40
0.9980066004
 40
0.9984868736
 40
0.9988976578
 40
0.9992398674
 40
0.9995151624
 40
0.9997267961
 40
0.9998109334
 40
0.9998826316
 40
1.0
 40
1.0
 40
1.0
 40
1.0
 10
5.5798871562
 20
5.3436398057
 30
0.0
 10
5.5796916143
 20
5.3435891093
 30
0.0
 10
5.5792422971
 20
5.3434930042
 30
0.0
 10
5.5784814456
 20
5.3433642556
 30
0.0
 10
5.5775529001
 20
5.3432347739
 30
0.0
 10
5.5764570837
 20
5.3431047321
 30
0.0
 10
5.5751944335
 20
5.3429743575
 30
0.0
 10
5.5731802368
 20
5.3427903314
 30
0.0
 10
5.5702509277
 20
5.3425650769
 30
0.0
 10
5.5662468821
 20
5.3423055982
 30
0.0
 10
5.5615989546
 20
5.342045349
 30
0.0
 10
5.5563177639
 20
5.3417844527
 30
0.0
 10
5.5504154774
 20
5.3415231851
 30
0.0
 10
5.5439055627
 20
5.3412615748
 30
0.0
 10
5.5340556412
 20
5.3408985938
 30
0.0
 10
5.5203479075
 20
5.340451135
 30
0.0
 10
5.502315588
 20
5.339930871
 30
0.0
 10
5.4822965409
 20
5.3394096392
 30
0.0
 10
5.4604748334
 20
5.3388876481
 30
0.0
 10
5.4370511033
 20
5.338365149
 30
0.0
 10
5.4122407488
 20
5.3378422771
 30
0.0
 10
5.3862718961
 20
5.33731914
 30
0.0
 10
5.3593833191
 20
5.3367958152
 30
0.0
 10
5.3318222487
 20
5.3362723649
 30
0.0
 10
5.3038421091
 20
5.3357488411
 30
0.0
 10
5.2757001813
 20
5.3352252896
 30
0.0
 10
5.2476552475
 20
5.3347017545
 30
0.0
 10
5.2199651747
 20
5.3341782811
 30
0.0
 10
5.1928845718
 20
5.3336549196
 30
0.0
 10
5.1666624379
 20
5.3331317287
 30
0.0
 10
5.1415398787
 20
5.332608783
 30
0.0
 10
5.1177479219
 20
5.3320861748
 30
0.0
 10
5.0955053245
 20
5.3315640539
 30
0.0
 10
5.0750166137
 20
5.3310425569
 30
0.0
 10
5.0591261907
 20
5.3305966928
 30
0.0
 10
5.0474307173
 20
5.3302364735
 30
0.0
 10
5.0394696308
 20
5.3299744155
 30
0.0
 10
5.0320761932
 20
5.3297125333
 30
0.0
 10
5.0252673215
 20
5.3294508261
 30
0.0
 10
5.0190587272
 20
5.3291893796
 30
0.0
 10
5.0134646479
 20
5.3289282906
 30
0.0
 10
5.008497903
 20
5.3286676526
 30
0.0
 10
5.0041699142
 20
5.3284078338
 30
0.0
 10
5.0004905009
 20
5.3281489043
 30
0.0
 10
4.9978344665
 20
5.3279235393
 30
0.0
 10
4.9960408874
 20
5.3277385182
 30
0.0
 10
4.9949446613
 20
5.3276084853
 30
0.0
 10
4.9940157675
 20
5.3274789156
 30
0.0
 10
4.9933472364
 20
5.3273661008
 30
0.0
 10
4.9928971732
 20
5.3272736176
 30
0.0
 10
4.9926219701
 20
5.3272085113
 30
0.0
 10
4.9923888446
 20
5.3271435923
 30
0.0
 10
4.9921975706
 20
5.3270789604
 30
0.0
 10
4.9920480447
 20
5.3270145762
 30
0.0
 10
4.9919507908
 20
5.3269576466
 30
0.0
 10
4.9918961378
 20
5.326910144
 30
0.0
 10
4.9918616872
 20
5.3268691044
 30
0.0
 10
4.9918476927
 20
5.3268319903
 30
0.0
 10
4.9918476848
 20
5.3268089663
 30
0.0
  0
SPLINE
  5
3B0
100
AcDbEntity
  8
0
100
AcDbSpline
 62
7
  6
CONTINUOUS
 70
0
 71
3
 72
30
 73
26
 74
0
 42
0.0000001
 43
0.0000001
 44
0.0000000001
 40
0.0
 40
0.0
 40
0.0
 40
0.0
 40
0.0019021903
 40
0.0043447474
 40
0.0073299531
 40
0.0108583803
 40
0.0149296119
 40
0.0195418926
 40
0.0303802901
 40
0.0433534611
 40
0.0584337767
 40
0.0755889483
 40
0.0947822444
 40
0.1159709008
 40
0.1391096289
 40
0.1910273129
 40
0.2500787813
 40
0.3157440534
 40
0.3874445851
 40
0.4645480688
 40
0.5463747526
 40
0.6322024828
 40
0.7212754575
 40
0.8128047112
 40
1.0
 40
1.0
 40
1.0
 40
1.0
 10
5.600285962
 20
5.3489280773
 30
0.0
 10
5.600093111
 20
5.3488780961
 30
0.0
 10
5.5996475756
 20
5.3487837685
 30
0.0
 10
5.5988902154
 20
5.3486577984
 30
0.0
 10
5.5979606864
 20
5.3485310623
 30
0.0
 10
5.5968593912
 20
5.3484037341
 30
0.0
 10
5.5955867433
 20
5.3482760617
 30
0.0
 10
5.593550092
 20
5.3480956561
 30
0.0
 10
5.5905812312
 20
5.3478749634
 30
0.0
 10
5.5865158416
 20
5.3476208522
 30
0.0
 10
5.5817878125
 20
5.3473659539
 30
0.0
 10
5.5764075494
 20
5.3471104139
 30
0.0
 10
5.5703869181
 20
5.3468544923
 30
0.0
 10
5.5637391163
 20
5.3465982336
 30
0.0
 10
5.5536653261
 20
5.3462424908
 30
0.0
 10
5.5396265678
 20
5.3458040158
 30
0.0
 10
5.5211340721
 20
5.3452943682
 30
0.0
 10
5.5005689769
 20
5.3447837586
 30
0.0
 10
5.4781127284
 20
5.3442723925
 30
0.0
 10
5.4539634497
 20
5.3437605202
 30
0.0
 10
5.4283342813
 20
5.3432482747
 30
0.0
 10
5.4014512779
 20
5.3427357604
 30
0.0
 10
5.3735519201
 20
5.3422230546
 30
0.0
 10
5.3350374625
 20
5.3415341341
 30
0.0
 10
5.3058501696
 20
5.3410258077
 30
0.0
 10
5.2862475786
 20
5.3406843341
 30
0.0
  0
SPLINE
  5
3B1
100
AcDbEntity
  8
0
100
AcDbSpline
 62
7
  6
CONTINUOUS
 70
0
 71
3
 72
63
 73
59
 74
0
 42
0.0000001
 43
0.0000001
 44
0.0000000001
 40
0.0
 40
0.0
 40
0.0
 40
0.0
 40
0.001029616
 40
0.002340166
 40
0.0039330086
 40
0.0058083353
 40
0.007965505
 40
0.0104036228
 40
0.0161184338
 40
0.0229414429
 40
0.0308572978
 40
0.0398490044
 40
0.049895566
 40
0.0609746949
 40
0.073060766
 40
0.1001412488
 40
0.1308888567
 40
0.1650214848
 40
0.2022257336
 40
0.2421598372
 40
0.2844569637
 40
0.3287282648
 40
0.3745669271
 40
0.4215515512
 40
0.4692503111
 40
0.5172248207
 40
0.565034018
 40
0.6122385387
 40
0.6584043553
 40
0.7031072214
 40
0.7459362726
 40
0.7864979163
 40
0.8244194766
 40
0.8593525219
 40
0.8909761846
 40
0.9054549099
 40
0.9190002303
 40
0.9315807545
 40
0.9431677735
 40
0.9537349967
 40
0.9632579073
 40
0.971715528
 40
0.9790881484
 40
0.9853601112
 40
0.9905176866
 40
0.9926753792
 40
0.9945513031
 40
0.9961449675
 40
0.9974563111
 40
0.9980064438
 40
0.9984866158
 40
0.9988973753
 40
0.9992396325
 40
0.9995150131
 40
0.9997267344
 40
0.9998109051
 40
0.999882625
 40
1.0
 40
1.0
 40
1.0
 40
1.0
 10
5.5798870514
 20
5.3091898057
 30
0.0
 10
5.5796915375
 20
5.3091391139
 30
0.0
 10
5.5792422863
 20
5.3090430017
 30
0.0
 10
5.5784814898
 20
5.3089142435
 30
0.0
 10
5.5775529225
 20
5.3087847674
 30
0.0
 10
5.5764570471
 20
5.3086547414
 30
0.0
 10
5.5751943877
 20
5.3085243622
 30
0.0
 10
5.5731802244
 20
5.3083403196
 30
0.0
 10
5.5702509251
 20
5.3081150778
 30
0.0
 10
5.5662468965
 20
5.3078556058
 30
0.0
 10
5.5615989309
 20
5.3075953362
 30
0.0
 10
5.5563177837
 20
5.307334466
 30
0.0
 10
5.5504154491
 20
5.307073173
 30
0.0
 10
5.5439055757
 20
5.3068115831
 30
0.0
 10
5.5340556107
 20
5.3064485857
 30
0.0
 10
5.5203478754
 20
5.3060011382
 30
0.0
 10
5.5023155254
 20
5.3054808708
 30
0.0
 10
5.4822964943
 20
5.3049596399
 30
0.0
 10
5.4604748262
 20
5.3044376475
 30
0.0
 10
5.4370511263
 20
5.3039151483
 30
0.0
 10
5.4122407763
 20
5.3033922767
 30
0.0
 10
5.3862718975
 20
5.3028691398
 30
0.0
 10
5.3593833025
 20
5.3023458152
 30
0.0
 10
5.3318222259
 20
5.3018223649
 30
0.0
 10
5.30384209
 20
5.3012988408
 30
0.0
 10
5.275700171
 20
5.3007752892
 30
0.0
 10
5.2476552229
 20
5.3002517541
 30
0.0
 10
5.219965145
 20
5.299728281
 30
0.0
 10
5.1928845409
 20
5.2992049196
 30
0.0
 10
5.1666624286
 20
5.2986817284
 30
0.0
 10
5.1415399017
 20
5.2981587827
 30
0.0
 10
5.1177479502
 20
5.2976361736
 30
0.0
 10
5.0955053323
 20
5.2971140539
 30
0.0
 10
5.0750165725
 20
5.2965925547
 30
0.0
 10
5.0591261705
 20
5.2961467006
 30
0.0
 10
5.0474306884
 20
5.295786466
 30
0.0
 10
5.0394696417
 20
5.2955244214
 30
0.0
 10
5.0320761809
 20
5.2952625299
 30
0.0
 10
5.0252673173
 20
5.2950008245
 30
0.0
 10
5.0190587324
 20
5.2947393866
 30
0.0
 10
5.013464618
 20
5.2944782774
 30
0.0
 10
5.0084979199
 20
5.2942176698
 30
0.0
 10
5.0041698875
 20
5.2939578149
 30
0.0
 10
5.0004905237
 20
5.2936989187
 30
0.0
 10
4.9978344899
 20
5.2934735416
 30
0.0
 10
4.9960409356
 20
5.2932885085
 30
0.0
 10
4.9949446588
 20
5.2931584829
 30
0.0
 10
4.9940157143
 20
5.2930289257
 30
0.0
 10
4.9933471918
 20
5.2929161101
 30
0.0
 10
4.9928971927
 20
5.292823617
 30
0.0
 10
4.9926220412
 20
5.2927585061
 30
0.0
 10
4.9923889323
 20
5.2926935854
 30
0.0
 10
4.9921976358
 20
5.2926289546
 30
0.0
 10
4.9920480624
 20
5.2925645721
 30
0.0
 10
4.99195076
 20
5.2925076469
 30
0.0
 10
4.991896069
 20
5.2924601451
 30
0.0
 10
4.9918615945
 20
5.2924191111
 30
0.0
 10
4.9918475846
 20
5.2923819916
 30
0.0
 10
4.9918475804
 20
5.2923589663
 30
0.0
  0
SPLINE
  5
3B2
100
AcDbEntity
  8
0
100
AcDbSpline
 62
7
  6
CONTINUOUS
 70
0
 71
3
 72
30
 73
26
 74
0
 42
0.0000001
 43
0.0000001
 44
0.0000000001
 40
0.0
 40
0.0
 40
0.0
 40
0.0
 40
0.0019021903
 40
0.0043447474
 40
0.0073299531
 40
0.0108583803
 40
0.0149296119
 40
0.0195418926
 40
0.0303802901
 40
0.0433534611
 40
0.0584337767
 40
0.0755889483
 40
0.0947822444
 40
0.1159709008
 40
0.1391096289
 40
0.1910273129
 40
0.2500787813
 40
0.3157440534
 40
0.3874445851
 40
0.4645480688
 40
0.5463747526
 40
0.6322024828
 40
0.7212754575
 40
0.8128047112
 40
1.0
 40
1.0
 40
1.0
 40
1.0
 10
5.600285962
 20
5.3144780773
 30
0.0
 10
5.600093111
 20
5.3144280961
 30
0.0
 10
5.5996475756
 20
5.3143337685
 30
0.0
 10
5.5988902154
 20
5.3142077984
 30
0.0
 10
5.5979606864
 20
5.3140810623
 30
0.0
 10
5.5968593912
 20
5.3139537341
 30
0.0
 10
5.5955867433
 20
5.3138260617
 30
0.0
 10
5.593550092
 20
5.3136456561
 30
0.0
 10
5.5905812312
 20
5.3134249634
 30
0.0
 10
5.5865158416
 20
5.3131708522
 30
0.0
 10
5.5817878125
 20
5.3129159539
 30
0.0
 10
5.5764075494
 20
5.3126604139
 30
0.0
 10
5.5703869181
 20
5.3124044923
 30
0.0
 10
5.5637391163
 20
5.3121482336
 30
0.0
 10
5.5536653261
 20
5.3117924908
 30
0.0
 10
5.5396265678
 20
5.3113540158
 30
0.0
 10
5.5211340721
 20
5.3108443682
 30
0.0
 10
5.5005689769
 20
5.3103337586
 30
0.0
 10
5.4781127284
 20
5.3098223925
 30
0.0
 10
5.4539634497
 20
5.3093105202
 30
0.0
 10
5.4283342813
 20
5.3087982747
 30
0.0
 10
5.4014512779
 20
5.3082857604
 30
0.0
 10
5.3735519201
 20
5.3077730546
 30
0.0
 10
5.3350374625
 20
5.3070841341
 30
0.0
 10
5.3058501696
 20
5.3065758077
 30
0.0
 10
5.2862475786
 20
5.3062343341
 30
0.0
  0
SPLINE
  5
3B3
100
AcDbEntity
  8
0
100
AcDbSpline
 62
7
  6
CONTINUOUS
 70
0
 71
3
 72
29
 73
25
 74
0
 42
0.0000001
 43
0.0000001
 44
0.0000000001
 40
0.0
 40
0.0
 40
0.0
 40
0.0
 40
0.0020874097
 40
0.0046882776
 40
0.0078046598
 40
0.0114368417
 40
0.0202461932
 40
0.0311079936
 40
0.0440045684
 40
0.0589143318
 40
0.0758124153
 40
0.0946676256
 40
0.1154474355
 40
0.1381143867
 40
0.188942373
 40
0.2467854969
 40
0.3112265955
 40
0.381799595
 40
0.4579938288
 40
0.5392576872
 40
0.6250035456
 40
0.7146116076
 40
0.8074276186
 40
1.0
 40
1.0
 40
1.0
 40
1.0
 10
5.5798871123
 20
5.2747398058
 30
0.0
 10
5.5797162687
 20
5.2746955012
 30
0.0
 10
5.5793287971
 20
5.2746106428
 30
0.0
 10
5.5786788441
 20
5.2744960523
 30
0.0
 10
5.5778966717
 20
5.274380898
 30
0.0
 10
5.5765915275
 20
5.2742160483
 30
0.0
 10
5.5746311322
 20
5.2740159345
 30
0.0
 10
5.5718869638
 20
5.2737865356
 30
0.0
 10
5.5686255415
 20
5.2735561812
 30
0.0
 10
5.5648527275
 20
5.273325021
 30
0.0
 10
5.5605752962
 20
5.2730934212
 30
0.0
 10
5.5558009168
 20
5.2728614514
 30
0.0
 10
5.5505382609
 20
5.272629236
 30
0.0
 10
5.5425736381
 20
5.2723069297
 30
0.0
 10
5.5314757892
 20
5.2719094467
 30
0.0
 10
5.5168460547
 20
5.2714474404
 30
0.0
 10
5.5005461198
 20
5.2709846032
 30
0.0
 10
5.4826940153
 20
5.2705211021
 30
0.0
 10
5.4634190821
 20
5.2700571502
 30
0.0
 10
5.4428609142
 20
5.2695928584
 30
0.0
 10
5.4211683123
 20
5.2691283193
 30
0.0
 10
5.3984987425
 20
5.2686635955
 30
0.0
 10
5.3667982141
 20
5.268036081
 30
0.0
 10
5.3426723813
 20
5.2675775139
 30
0.0
 10
5.3263928591
 20
5.2672714662
 30
0.0
  0
SPLINE
  5
3B4
100
AcDbEntity
  8
0
100
AcDbSpline
 62
7
  6
CONTINUOUS
 70
0
 71
3
 72
29
 73
25
 74
0
 42
0.0000001
 43
0.0000001
 44
0.0000000001
 40
0.0
 40
0.0
 40
0.0
 40
0.0
 40
0.0019769102
 40
0.0044705896
 40
0.0074834886
 40
0.0110165057
 40
0.019640527
 40
0.0303314888
 40
0.0430737895
 40
0.0578454207
 40
0.0746201249
 40
0.093369081
 40
0.1140573391
 40
0.1366484759
 40
0.1873708931
 40
0.2451685075
 40
0.3096207382
 40
0.3802580792
 40
0.456566169
 40
0.5379890999
 40
0.6239334774
 40
0.7137739673
 40
0.806850758
 40
1.0
 40
1.0
 40
1.0
 40
1.0
 10
5.6002859179
 20
5.2800280773
 30
0.0
 10
5.6001128743
 20
5.2799832301
 30
0.0
 10
5.5997174574
 20
5.2798978249
 30
0.0
 10
5.5990505006
 20
5.2797830297
 30
0.0
 10
5.5982411941
 20
5.2796676058
 30
0.0
 10
5.5968794458
 20
5.2795019224
 30
0.0
 10
5.5948229636
 20
5.2793011808
 30
0.0
 10
5.5919332832
 20
5.2790711272
 30
0.0
 10
5.5884862903
 20
5.278840123
 30
0.0
 10
5.5844882058
 20
5.2786082571
 30
0.0
 10
5.5799462024
 20
5.2783758962
 30
0.0
 10
5.5748685923
 20
5.2781431952
 30
0.0
 10
5.569264552
 20
5.2779102028
 30
0.0
 10
5.5607706528
 20
5.2775866868
 30
0.0
 10
5.5489216802
 20
5.2771877994
 30
0.0
 10
5.5332876341
 20
5.2767242938
 30
0.0
 10
5.5158521141
 20
5.2762599323
 30
0.0
 10
5.4967422818
 20
5.2757948894
 30
0.0
 10
5.47609748
 20
5.275329387
 30
0.0
 10
5.4540682314
 20
5.2748635395
 30
0.0
 10
5.4308150732
 20
5.2743974395
 30
0.0
 10
5.4065079259
 20
5.2739311494
 30
0.0
 10
5.3725082165
 20
5.2733014779
 30
0.0
 10
5.3466305252
 20
5.2728413991
 30
0.0
 10
5.329167847
 20
5.2725343341
 30
0.0
  0
SPLINE
  5
3B5
100
AcDbEntity
  8
0
100
AcDbSpline
 62
7
  6
CONTINUOUS
 70
0
 71
3
 72
39
 73
35
 74
0
 42
0.0000001
 43
0.0000001
 44
0.0000000001
 40
0.0
 40
0.0
 40
0.0
 40
0.0
 40
0.000522443
 40
0.0007225193
 40
0.0009552567
 40
0.0015233136
 40
0.0022329777
 40
0.0030871452
 40
0.0040873247
 40
0.0052343691
 40
0.0079707117
 40
0.0112981435
 40
0.0152168847
 40
0.0197258015
 40
0.0305042131
 40
0.0436114798
 40
0.0590180463
 40
0.0766875226
 40
0.0965788924
 40
0.1186437664
 40
0.1428305587
 40
0.1690801068
 40
0.1973305283
 40
0.2275130044
 40
0.2595556403
 40
0.2933809986
 40
0.3660507836
 40
0.4448230863
 40
0.5289400226
 40
0.6175916474
 40
0.7099254491
 40
0.8050502783
 40
0.9020555645
 40
1.0
 40
1.0
 40
1.0
 40
1.0
 10
5.6009974671
 20
5.3599710984
 30
0.0
 10
5.6009974671
 20
5.3599162372
 30
0.0
 10
5.6009305283
 20
5.3598518412
 30
0.0
 10
5.6008472098
 20
5.359800633
 30
0.0
 10
5.600752914
 20
5.359752409
 30
0.0
 10
5.6006052869
 20
5.3596947651
 30
0.0
 10
5.6003911689
 20
5.3596285044
 30
0.0
 10
5.6001301919
 20
5.3595621654
 30
0.0
 10
5.5998220774
 20
5.3594955285
 30
0.0
 10
5.5993180297
 20
5.3594008691
 30
0.0
 10
5.5985695065
 20
5.3592854119
 30
0.0
 10
5.5975296112
 20
5.3591528236
 30
0.0
 10
5.5963023538
 20
5.3590197639
 30
0.0
 10
5.5942944079
 20
5.3588304198
 30
0.0
 10
5.5913214809
 20
5.3585997654
 30
0.0
 10
5.5872039009
 20
5.3583348128
 30
0.0
 10
5.5823614784
 20
5.3580689039
 30
0.0
 10
5.5768057967
 20
5.3578021746
 30
0.0
 10
5.5705502445
 20
5.357534984
 30
0.0
 10
5.5636097762
 20
5.3572674079
 30
0.0
 10
5.5560012022
 20
5.3569995961
 30
0.0
 10
5.5477427302
 20
5.3567315663
 30
0.0
 10
5.538854356
 20
5.3564634024
 30
0.0
 10
5.5293574021
 20
5.3561951079
 30
0.0
 10
5.5192748135
 20
5.3559267203
 30
0.0
 10
5.5047317315
 20
5.3555599429
 30
0.0
 10
5.4852822995
 20
5.3551050659
 30
0.0
 10
5.4605522638
 20
5.354570741
 30
0.0
 10
5.4341436372
 20
5.3540359642
 30
0.0
 10
5.4063106648
 20
5.353500834
 30
0.0
 10
5.3773215663
 20
5.3529654665
 30
0.0
 10
5.3474551178
 20
5.3524299266
 30
0.0
 10
5.3169994122
 20
5.351894287
 30
0.0
 10
5.2965310578
 20
5.3515377347
 30
0.0
 10
5.2862475786
 20
5.3513585984
 30
0.0
  0
SPLINE
  5
3B6
100
AcDbEntity
  8
0
100
AcDbSpline
 62
7
  6
CONTINUOUS
 70
0
 71
3
 72
39
 73
35
 74
0
 42
0.0000001
 43
0.0000001
 44
0.0000000001
 40
0.0
 40
0.0
 40
0.0
 40
0.0
 40
0.000522443
 40
0.0007225193
 40
0.0009552567
 40
0.0015233136
 40
0.0022329777
 40
0.0030871452
 40
0.0040873247
 40
0.0052343691
 40
0.0079707117
 40
0.0112981435
 40
0.0152168847
 40
0.0197258015
 40
0.0305042131
 40
0.0436114798
 40
0.0590180463
 40
0.0766875226
 40
0.0965788924
 40
0.1186437664
 40
0.1428305587
 40
0.1690801068
 40
0.1973305283
 40
0.2275130044
 40
0.2595556403
 40
0.2933809986
 40
0.3660507836
 40
0.4448230863
 40
0.5289400226
 40
0.6175916474
 40
0.7099254491
 40
0.8050502783
 40
0.9020555645
 40
1.0
 40
1.0
 40
1.0
 40
1.0
 10
5.6009974671
 20
5.3255210984
 30
0.0
 10
5.6009974671
 20
5.3254662372
 30
0.0
 10
5.6009305283
 20
5.3254018412
 30
0.0
 10
5.6008472098
 20
5.325350633
 30
0.0
 10
5.600752914
 20
5.325302409
 30
0.0
 10
5.6006052869
 20
5.3252447651
 30
0.0
 10
5.6003911689
 20
5.3251785044
 30
0.0
 10
5.6001301919
 20
5.3251121654
 30
0.0
 10
5.5998220774
 20
5.3250455285
 30
0.0
 10
5.5993180297
 20
5.3249508691
 30
0.0
 10
5.5985695065
 20
5.3248354119
 30
0.0
 10
5.5975296112
 20
5.3247028236
 30
0.0
 10
5.5963023538
 20
5.3245697639
 30
0.0
 10
5.5942944079
 20
5.3243804198
 30
0.0
 10
5.5913214809
 20
5.3241497654
 30
0.0
 10
5.5872039009
 20
5.3238848128
 30
0.0
 10
5.5823614784
 20
5.3236189039
 30
0.0
 10
5.5768057967
 20
5.3233521746
 30
0.0
 10
5.5705502445
 20
5.323084984
 30
0.0
 10
5.5636097762
 20
5.3228174079
 30
0.0
 10
5.5560012022
 20
5.3225495961
 30
0.0
 10
5.5477427302
 20
5.3222815663
 30
0.0
 10
5.538854356
 20
5.3220134024
 30
0.0
 10
5.5293574021
 20
5.3217451079
 30
0.0
 10
5.5192748135
 20
5.3214767203
 30
0.0
 10
5.5047317315
 20
5.3211099429
 30
0.0
 10
5.4852822995
 20
5.3206550659
 30
0.0
 10
5.4605522638
 20
5.320120741
 30
0.0
 10
5.4341436372
 20
5.3195859642
 30
0.0
 10
5.4063106648
 20
5.319050834
 30
0.0
 10
5.3773215663
 20
5.3185154665
 30
0.0
 10
5.3474551178
 20
5.3179799266
 30
0.0
 10
5.3169994122
 20
5.317444287
 30
0.0
 10
5.2965310578
 20
5.3170877347
 30
0.0
 10
5.2862475786
 20
5.3169085984
 30
0.0
  0
SPLINE
  5
3B7
100
AcDbEntity
  8
0
100
AcDbSpline
 62
7
  6
CONTINUOUS
 70
0
 71
3
 72
39
 73
35
 74
0
 42
0.0000001
 43
0.0000001
 44
0.0000000001
 40
0.0
 40
0.0
 40
0.0
 40
0.0
 40
0.000522443
 40
0.0007225193
 40
0.0009552567
 40
0.0015233136
 40
0.0022329777
 40
0.0030871452
 40
0.0040873247
 40
0.0052343691
 40
0.0079707117
 40
0.0112981435
 40
0.0152168847
 40
0.0197258015
 40
0.0305042131
 40
0.0436114798
 40
0.0590180463
 40
0.0766875226
 40
0.0965788924
 40
0.1186437664
 40
0.1428305587
 40
0.1690801068
 40
0.1973305283
 40
0.2275130044
 40
0.2595556403
 40
0.2933809986
 40
0.3660507836
 40
0.4448230863
 40
0.5289400226
 40
0.6175916474
 40
0.7099254491
 40
0.8050502783
 40
0.9020555645
 40
1.0
 40
1.0
 40
1.0
 40
1.0
 10
5.6009974671
 20
5.2910710984
 30
0.0
 10
5.6009974671
 20
5.2910162372
 30
0.0
 10
5.6009305283
 20
5.2909518412
 30
0.0
 10
5.6008472098
 20
5.290900633
 30
0.0
 10
5.600752914
 20
5.290852409
 30
0.0
 10
5.6006052869
 20
5.2907947651
 30
0.0
 10
5.6003911689
 20
5.2907285044
 30
0.0
 10
5.6001301919
 20
5.2906621654
 30
0.0
 10
5.5998220774
 20
5.2905955285
 30
0.0
 10
5.5993180297
 20
5.2905008691
 30
0.0
 10
5.5985695065
 20
5.2903854119
 30
0.0
 10
5.5975296112
 20
5.2902528236
 30
0.0
 10
5.5963023538
 20
5.2901197639
 30
0.0
 10
5.5942944079
 20
5.2899304198
 30
0.0
 10
5.5913214809
 20
5.2896997654
 30
0.0
 10
5.5872039009
 20
5.2894348128
 30
0.0
 10
5.5823614784
 20
5.2891689039
 30
0.0
 10
5.5768057967
 20
5.2889021746
 30
0.0
 10
5.5705502445
 20
5.288634984
 30
0.0
 10
5.5636097762
 20
5.2883674079
 30
0.0
 10
5.5560012022
 20
5.2880995961
 30
0.0
 10
5.5477427302
 20
5.2878315663
 30
0.0
 10
5.538854356
 20
5.2875634024
 30
0.0
 10
5.5293574021
 20
5.2872951079
 30
0.0
 10
5.5192748135
 20
5.2870267203
 30
0.0
 10
5.5047317315
 20
5.2866599429
 30
0.0
 10
5.4852822995
 20
5.2862050659
 30
0.0
 10
5.4605522638
 20
5.285670741
 30
0.0
 10
5.4341436372
 20
5.2851359642
 30
0.0
 10
5.4063106648
 20
5.284600834
 30
0.0
 10
5.3773215663
 20
5.2840654665
 30
0.0
 10
5.3474551178
 20
5.2835299266
 30
0.0
 10
5.3169994122
 20
5.282994287
 30
0.0
 10
5.2965310578
 20
5.2826377347
 30
0.0
 10
5.2862475786
 20
5.2824585984
 30
0.0
  0
SPLINE
  5
3B8
100
AcDbEntity
  8
0
100
AcDbSpline
 62
7
  6
CONTINUOUS
 70
0
 71
3
 72
63
 73
59
 74
0
 42
0.0000001
 43
0.0000001
 44
0.0000000001
 40
0.0
 40
0.0
 40
0.0
 40
0.0
 40
0.0001173806
 40
0.0001891017
 40
0.0002732711
 40
0.0004849822
 40
0.0007603459
 40
0.0011025851
 40
0.0015133309
 40
0.0019934994
 40
0.0025436448
 40
0.0038550405
 40
0.0054486951
 40
0.0073245792
 40
0.0094822478
 40
0.0146398999
 40
0.0209118106
 40
0.0282844781
 40
0.0367420742
 40
0.0462649614
 40
0.0568322269
 40
0.0684191967
 40
0.080999789
 40
0.0945450591
 40
0.1090238193
 40
0.1406474441
 40
0.1755805034
 40
0.2135020447
 40
0.2540637314
 40
0.2968927865
 40
0.3415956369
 40
0.3877614931
 40
0.4349659418
 40
0.4827752049
 40
0.5307496727
 40
0.5784484504
 40
0.6254330799
 40
0.6712716953
 40
0.7155430357
 40
0.7578401356
 40
0.7977742779
 40
0.8349785266
 40
0.8691111322
 40
0.8998587296
 40
0.9269391894
 40
0.9390253116
 40
0.9501043782
 40
0.9601509937
 40
0.9691426859
 40
0.977058532
 40
0.9838815714
 40
0.9895963189
 40
0.9920344738
 40
0.9941916775
 40
0.9960669894
 40
0.997659784
 40
0.9989703475
 40
1.0
 40
1.0
 40
1.0
 40
1.0
 10
5.5806475642
 20
5.3652339662
 30
0.0
 10
5.5806475541
 20
5.3652109398
 30
0.0
 10
5.5806335396
 20
5.3651738224
 30
0.0
 10
5.5805990641
 20
5.3651327877
 30
0.0
 10
5.5805443756
 20
5.3650852864
 30
0.0
 10
5.5804470802
 20
5.3650283604
 30
0.0
 10
5.5802975166
 20
5.3649639772
 30
0.0
 10
5.5801062303
 20
5.364899346
 30
0.0
 10
5.5798731286
 20
5.364834425
 30
0.0
 10
5.579597978
 20
5.3647693138
 30
0.0
 10
5.5791479667
 20
5.3646768209
 30
0.0
 10
5.5784794324
 20
5.3645640099
 30
0.0
 10
5.577550488
 20
5.3644344495
 30
0.0
 10
5.5764542258
 20
5.364304423
 30
0.0
 10
5.5746606693
 20
5.3641193875
 30
0.0
 10
5.5720046346
 20
5.3638940187
 30
0.0
 10
5.5683252574
 20
5.3636351136
 30
0.0
 10
5.5639972305
 20
5.3633752644
 30
0.0
 10
5.5590305327
 20
5.3631146542
 30
0.0
 10
5.5534364195
 20
5.3628535447
 30
0.0
 10
5.5472278404
 20
5.3625921095
 30
0.0
 10
5.540418965
 20
5.3623304003
 30
0.0
 10
5.5330255103
 20
5.3620685126
 30
0.0
 10
5.5250644534
 20
5.3618064648
 30
0.0
 10
5.5133689818
 20
5.3614462331
 30
0.0
 10
5.4974785778
 20
5.3610003768
 30
0.0
 10
5.4769898265
 20
5.3604788784
 30
0.0
 10
5.4547472013
 20
5.3599567584
 30
0.0
 10
5.4309552444
 20
5.3594341496
 30
0.0
 10
5.4058327116
 20
5.3589112038
 30
0.0
 10
5.379610594
 20
5.3583880127
 30
0.0
 10
5.3525299995
 20
5.3578646512
 30
0.0
 10
5.3248399152
 20
5.357341178
 30
0.0
 10
5.2967949766
 20
5.3568176431
 30
0.0
 10
5.2686530496
 20
5.3562940914
 30
0.0
 10
5.2406729176
 20
5.3557705674
 30
0.0
 10
5.2131118458
 20
5.3552471171
 30
0.0
 10
5.1862232514
 20
5.3547237923
 30
0.0
 10
5.1602543794
 20
5.3542006555
 30
0.0
 10
5.1354440195
 20
5.3536777839
 30
0.0
 10
5.1120203174
 20
5.3531552849
 30
0.0
 10
5.0901986462
 20
5.3526332926
 30
0.0
 10
5.0701796217
 20
5.3521120614
 30
0.0
 10
5.0521472829
 20
5.3515917949
 30
0.0
 10
5.0384395443
 20
5.3511443445
 30
0.0
 10
5.0285895858
 20
5.3507813514
 30
0.0
 10
5.0220797043
 20
5.3505197574
 30
0.0
 10
5.016177374
 20
5.3502584675
 30
0.0
 10
5.0108962209
 20
5.349997596
 30
0.0
 10
5.0062482541
 20
5.3497373248
 30
0.0
 10
5.0022442334
 20
5.3494778585
 30
0.0
 10
4.9993149339
 20
5.3492526096
 30
0.0
 10
4.9973007689
 20
5.34906857
 30
0.0
 10
4.9960380982
 20
5.3489381921
 30
0.0
 10
4.9949422284
 20
5.3488081667
 30
0.0
 10
4.9940136716
 20
5.3486786855
 30
0.0
 10
4.9932528745
 20
5.3485499288
 30
0.0
 10
4.992803613
 20
5.3484538184
 30
0.0
 10
4.9926080916
 20
5.3484031268
 30
0.0
  0
SPLINE
  5
3B9
100
AcDbEntity
  8
0
100
AcDbSpline
 62
7
  6
CONTINUOUS
 70
0
 71
3
 72
63
 73
59
 74
0
 42
0.0000001
 43
0.0000001
 44
0.0000000001
 40
0.0
 40
0.0
 40
0.0
 40
0.0
 40
0.0001173623
 40
0.0001890543
 40
0.0002731849
 40
0.0004848079
 40
0.0007601027
 40
0.0011023288
 40
0.0015131447
 40
0.001993433
 40
0.0025436873
 40
0.0038550825
 40
0.0054485463
 40
0.0073243113
 40
0.0094821423
 40
0.0146398919
 40
0.020911574
 40
0.0282845419
 40
0.0367418178
 40
0.0462649938
 40
0.0568320869
 40
0.0684191042
 40
0.0809997486
 40
0.0945448213
 40
0.1090238481
 40
0.1406474618
 40
0.175580377
 40
0.2135018708
 40
0.2540635223
 40
0.2968926438
 40
0.3415955539
 40
0.3877613847
 40
0.4349658457
 40
0.482775044
 40
0.530749526
 40
0.5784483441
 40
0.6254329475
 40
0.6712715613
 40
0.715542818
 40
0.7578398821
 40
0.7977740865
 40
0.8349784062
 40
0.8691111171
 40
0.8998586657
 40
0.9269390263
 40
0.9390252292
 40
0.9501041116
 40
0.9601509856
 40
0.969142342
 40
0.9770584902
 40
0.983881322
 40
0.9895961676
 40
0.9920344761
 40
0.9941915788
 40
0.9960666643
 40
0.9976594932
 40
0.9989702531
 40
1.0
 40
1.0
 40
1.0
 40
1.0
 10
5.580647461
 20
5.3307839662
 30
0.0
 10
5.5806474569
 20
5.3307609434
 30
0.0
 10
5.58063347
 20
5.3307238288
 30
0.0
 10
5.580599026
 20
5.3306827883
 30
0.0
 10
5.5805443798
 20
5.3306352849
 30
0.0
 10
5.5804471299
 20
5.3305783545
 30
0.0
 10
5.5802976028
 20
5.3305139704
 30
0.0
 10
5.5801063185
 20
5.330449339
 30
0.0
 10
5.5798731793
 20
5.3303844229
 30
0.0
 10
5.5795979675
 20
5.3303193158
 30
0.0
 10
5.5791479086
 20
5.3302268329
 30
0.0
 10
5.578479392
 20
5.3301140165
 30
0.0
 10
5.5775505103
 20
5.3299844455
 30
0.0
 10
5.5764542778
 20
5.329854413
 30
0.0
 10
5.5746606911
 20
5.3296693984
 30
0.0
 10
5.5720046508
 20
5.3294440251
 30
0.0
 10
5.5683252413
 20
5.3291850991
 30
0.0
 10
5.5639972609
 20
5.328925281
 30
0.0
 10
5.5590305116
 20
5.3286646397
 30
0.0
 10
5.5534364367
 20
5.3284035557
 30
0.0
 10
5.5472278257
 20
5.328142104
 30
0.0
 10
5.5404189638
 20
5.3278804008
 30
0.0
 10
5.5330255276
 20
5.327618516
 30
0.0
 10
5.5250644465
 20
5.3273564594
 30
0.0
 10
5.5133689622
 20
5.3269962399
 30
0.0
 10
5.4974785353
 20
5.3265503756
 30
0.0
 10
5.4769898221
 20
5.3260288787
 30
0.0
 10
5.4547472396
 20
5.3255067577
 30
0.0
 10
5.4309552841
 20
5.3249841493
 30
0.0
 10
5.4058327314
 20
5.3244612039
 30
0.0
 10
5.3796105919
 20
5.323938013
 30
0.0
 10
5.3525299862
 20
5.3234146515
 30
0.0
 10
5.3248399149
 20
5.3228911781
 30
0.0
 10
5.2967949816
 20
5.322367643
 30
0.0
 10
5.2686530544
 20
5.3218440914
 30
0.0
 10
5.2406729145
 20
5.3213205677
 30
0.0
 10
5.213111838
 20
5.3207971174
 30
0.0
 10
5.1862232633
 20
5.3202737926
 30
0.0
 10
5.160254413
 20
5.3197506556
 30
0.0
 10
5.1354440624
 20
5.3192277834
 30
0.0
 10
5.1120203394
 20
5.3187052845
 30
0.0
 10
5.0901986196
 20
5.318183293
 30
0.0
 10
5.0701795685
 20
5.3176620617
 30
0.0
 10
5.0521472365
 20
5.3171417975
 30
0.0
 10
5.0384395103
 20
5.3166943396
 30
0.0
 10
5.0285895905
 20
5.3163313568
 30
0.0
 10
5.0220796786
 20
5.3160697474
 30
0.0
 10
5.0161773981
 20
5.3158084816
 30
0.0
 10
5.010896202
 20
5.3155475808
 30
0.0
 10
5.0062482806
 20
5.3152873379
 30
0.0
 10
5.0022442228
 20
5.3150278519
 30
0.0
 10
4.9993149148
 20
5.3148026016
 30
0.0
 10
4.9973007184
 20
5.3146185776
 30
0.0
 10
4.9960380818
 20
5.3144881992
 30
0.0
 10
4.9949422719
 20
5.314358157
 30
0.0
 10
4.9940137141
 20
5.3142286767
 30
0.0
 10
4.9932528511
 20
5.3140999302
 30
0.0
 10
4.9928035294
 20
5.3140038255
 30
0.0
 10
4.9926079907
 20
5.3139531267
 30
0.0
  0
SPLINE
  5
3BA
100
AcDbEntity
  8
0
100
AcDbSpline
 62
7
  6
CONTINUOUS
 70
0
 71
3
 72
63
 73
59
 74
0
 42
0.0000001
 43
0.0000001
 44
0.0000000001
 40
0.0
 40
0.0
 40
0.0
 40
0.0
 40
0.0001173432
 40
0.000189031
 40
0.0002731728
 40
0.000484875
 40
0.0007602873
 40
0.0011026094
 40
0.0015134449
 40
0.001993681
 40
0.0025438427
 40
0.0038550618
 40
0.0054485752
 40
0.0073245719
 40
0.0094824096
 40
0.01463984
 40
0.0209118629
 40
0.0282845667
 40
0.0367420148
 40
0.0462651394
 40
0.0568321166
 40
0.0684193417
 40
0.0809997278
 40
0.0945451017
 40
0.1090238859
 40
0.1406475843
 40
0.1755806047
 40
0.2135020871
 40
0.2540636852
 40
0.2968927439
 40
0.3415956042
 40
0.3877615133
 40
0.434965977
 40
0.4827751937
 40
0.5307496696
 40
0.578448432
 40
0.6254331143
 40
0.6712717369
 40
0.7155430368
 40
0.7578400633
 40
0.7977741656
 40
0.8349784491
 40
0.8691111399
 40
0.8998588153
 40
0.9269393007
 40
0.9390252137
 40
0.950104393
 40
0.9601509921
 40
0.9691425532
 40
0.9770586371
 40
0.9838813954
 40
0.9895964481
 40
0.9920345307
 40
0.9941915552
 40
0.9960668094
 40
0.9976598034
 40
0.9989704775
 40
1.0
 40
1.0
 40
1.0
 40
1.0
 10
5.5806475278
 20
5.2963339663
 30
0.0
 10
5.5806475414
 20
5.2963109472
 30
0.0
 10
5.5806335738
 20
5.2962738254
 30
0.0
 10
5.5805991318
 20
5.2962327854
 30
0.0
 10
5.5805444658
 20
5.2961852783
 30
0.0
 10
5.5804471638
 20
5.2961283547
 30
0.0
 10
5.580297573
 20
5.2960639757
 30
0.0
 10
5.5801062396
 20
5.2959993472
 30
0.0
 10
5.5798730888
 20
5.2959344279
 30
0.0
 10
5.579597903
 20
5.2958693177
 30
0.0
 10
5.5791479091
 20
5.2957768306
 30
0.0
 10
5.5784794376
 20
5.2956640043
 30
0.0
 10
5.577550534
 20
5.2955344394
 30
0.0
 10
5.5764542428
 20
5.2954044226
 30
0.0
 10
5.5746606728
 20
5.2952194034
 30
0.0
 10
5.5720046289
 20
5.294994004
 30
0.0
 10
5.5683252643
 20
5.2947351191
 30
0.0
 10
5.5639972372
 20
5.2944752675
 30
0.0
 10
5.559030515
 20
5.2942146463
 30
0.0
 10
5.5534364395
 20
5.2939535555
 30
0.0
 10
5.5472278209
 20
5.2936920991
 30
0.0
 10
5.5404189912
 20
5.2934304089
 30
0.0
 10
5.5330255065
 20
5.2931685072
 30
0.0
 10
5.5250644642
 20
5.292906467
 30
0.0
 10
5.5133689524
 20
5.292546232
 30
0.0
 10
5.4974785358
 20
5.2921003784
 30
0.0
 10
5.4769897879
 20
5.2915788786
 30
0.0
 10
5.4547471978
 20
5.2910567585
 30
0.0
 10
5.4309552676
 20
5.2905341494
 30
0.0
 10
5.4058327479
 20
5.2900112036
 30
0.0
 10
5.3796106155
 20
5.2894880126
 30
0.0
 10
5.352530004
 20
5.2889646516
 30
0.0
 10
5.3248399137
 20
5.2884411783
 30
0.0
 10
5.2967949778
 20
5.2879176431
 30
0.0
 10
5.2686530595
 20
5.2873940914
 30
0.0
 10
5.2406729167
 20
5.2868705673
 30
0.0
 10
5.2131118343
 20
5.2863471173
 30
0.0
 10
5.1862232343
 20
5.2858237928
 30
0.0
 10
5.1602543815
 20
5.2853006558
 30
0.0
 10
5.1354440503
 20
5.2847777837
 30
0.0
 10
5.112020362
 20
5.2842552845
 30
0.0
 10
5.0901986737
 20
5.2837332921
 30
0.0
 10
5.070179609
 20
5.2832120619
 30
0.0
 10
5.052147232
 20
5.2826917937
 30
0.0
 10
5.038439513
 20
5.2822443507
 30
0.0
 10
5.0285895682
 20
5.2818813467
 30
0.0
 10
5.0220797081
 20
5.2816197588
 30
0.0
 10
5.0161773842
 20
5.2813584718
 30
0.0
 10
5.0108962138
 20
5.2810975854
 30
0.0
 10
5.0062482793
 20
5.2808373409
 30
0.0
 10
5.0022442092
 20
5.280577839
 30
0.0
 10
4.9993149168
 20
5.2803526196
 30
0.0
 10
4.9973007415
 20
5.2801685741
 30
0.0
 10
4.9960381324
 20
5.28003819
 30
0.0
 10
4.9949422711
 20
5.2799081549
 30
0.0
 10
4.9940136627
 20
5.2797786868
 30
0.0
 10
4.9932528273
 20
5.2796499436
 30
0.0
 10
4.9928035714
 20
5.2795538222
 30
0.0
 10
4.9926080774
 20
5.2795031267
 30
0.0
  0
SPLINE
  5
3BB
100
AcDbEntity
  8
0
100
AcDbSpline
 62
7
  6
CONTINUOUS
 70
0
 71
3
 72
40
 73
36
 74
0
 42
0.0000001
 43
0.0000001
 44
0.0000000001
 40
0.0
 40
0.0
 40
0.0
 40
0.0
 40
0.0002520354
 40
0.0005771464
 40
0.0010129853
 40
0.0015753378
 40
0.0022713941
 40
0.0031048572
 40
0.0051913424
 40
0.0064467546
 40
0.0078442796
 40
0.0093841304
 40
0.0110663986
 40
0.0148581354
 40
0.019219055
 40
0.0241481401
 40
0.0296439788
 40
0.0423254238
 40
0.0572393604
 40
0.0743589083
 40
0.0936494933
 40
0.1150735805
 40
0.1385890812
 40
0.1641480462
 40
0.191700829
 40
0.2211912273
 40
0.2857467946
 40
0.3572974954
 40
0.435270016
 40
0.5190393664
 40
0.6079334417
 40
0.7012403685
 40
0.7982061103
 40
0.898066573
 40
1.0
 40
1.0
 40
1.0
 40
1.0
 10
5.5806475504
 20
5.2618839662
 30
0.0
 10
5.5806475387
 20
5.2618625813
 30
0.0
 10
5.5806303114
 20
5.2618136973
 30
0.0
 10
5.5805682889
 20
5.2617523209
 30
0.0
 10
5.5804731166
 20
5.2616920029
 30
0.0
 10
5.5803422203
 20
5.2616318631
 30
0.0
 10
5.5801752301
 20
5.2615713752
 30
0.0
 10
5.5798810474
 20
5.2614838096
 30
0.0
 10
5.5795353881
 20
5.2614047834
 30
0.0
 10
5.5791406997
 20
5.2613278362
 30
0.0
 10
5.5787902003
 20
5.2612667538
 30
0.0
 10
5.5784030244
 20
5.2612055729
 30
0.0
 10
5.5778140008
 20
5.2611205315
 30
0.0
 10
5.5769860966
 20
5.2610155216
 30
0.0
 10
5.5758828034
 20
5.2608936948
 30
0.0
 10
5.5746341688
 20
5.2607716557
 30
0.0
 10
5.5726810913
 20
5.2606004594
 30
0.0
 10
5.569881135
 20
5.2603901889
 30
0.0
 10
5.5660948781
 20
5.2601472805
 30
0.0
 10
5.5617468781
 20
5.2599038145
 30
0.0
 10
5.5568457747
 20
5.2596598429
 30
0.0
 10
5.5514013986
 20
5.2594155605
 30
0.0
 10
5.5454246869
 20
5.259171047
 30
0.0
 10
5.5389275745
 20
5.2589263393
 30
0.0
 10
5.5319231741
 20
5.2586815021
 30
0.0
 10
5.5216111917
 20
5.2583446513
 30
0.0
 10
5.5075667143
 20
5.2579277185
 30
0.0
 10
5.489408966
 20
5.2574403566
 30
0.0
 10
5.4696204357
 20
5.2569524089
 30
0.0
 10
5.4483599451
 20
5.2564639946
 30
0.0
 10
5.4257980386
 20
5.2559752527
 30
0.0
 10
5.4021161943
 20
5.2554862734
 30
0.0
 10
5.3775036823
 20
5.2549971019
 30
0.0
 10
5.3521590872
 20
5.2545078166
 30
0.0
 10
5.3350402329
 20
5.254184033
 30
0.0
 10
5.3263928591
 20
5.2540214662
 30
0.0
  0
ELLIPSE
  5
3BC
100
AcDbEntity
  8
0
100
AcDbEllipse
 62
7
  6
CONTINUOUS
 10
5.3431692954
 20
4.6725214662
 30
0.0
 11
0.0344217168
 21
0.0
 31
0.0
 40
0.5810285439
 41
-3.1415926536
 42
-1.5707963268
  0
ELLIPSE
  5
3BD
100
AcDbEntity
  8
0
100
AcDbEllipse
 62
7
  6
CONTINUOUS
 10
5.5837208241
 20
4.6725214662
 30
0.0
 11
0.0349195013
 21
0.0
 31
0.0
 40
0.5727458664
 41
-1.5707963268
 42
0.0
  0
ELLIPSE
  5
3BE
100
AcDbEntity
  8
0
100
AcDbEllipse
 62
7
  6
CONTINUOUS
 10
5.2293258617
 20
4.6725214662
 30
0.0
 11
0.0344217168
 21
0.0
 31
0.0
 40
0.5810285439
 41
-1.5707963268
 42
0.0
  0
ELLIPSE
  5
3BF
100
AcDbEntity
  8
0
100
AcDbEllipse
 62
7
  6
CONTINUOUS
 10
4.988774333
 20
4.6725214662
 30
0.0
 11
0.0349195013
 21
0.0
 31
0.0
 40
0.5727458664
 41
-3.1415926536
 42
-1.5707963268
  0
ENDSEC
  0
SECTION
  2
OBJECTS
  0
DICTIONARY
  5
C
100
AcDbDictionary
280
0
281
1
  3
ACAD_GROUP
350
D
  3
ACAD_MLINESTYLE
350
17
  3
ACAD_LAYOUT
350
1A
  3
ACAD_PLOTSETTINGS
350
19
  3
ACAD_PLOTSTYLENAME
350
E
  0
DICTIONARY
  5
D
102
{ACAD_REACTORS
330
C
102
}
100
AcDbDictionary
280
0
281
1
  0
ACDBDICTIONARYWDFLT
  5
E
102
{ACAD_REACTORS
330
C
102
}
100
AcDbDictionary
281
1
  3
Normal
350
F
100
AcDbDictionaryWithDefault
340
F
  0
DICTIONARY
  5
17
102
{ACAD_REACTORS
330
C
102
}
100
AcDbDictionary
280
0
281
1
  3
Standard
350
18
  0
DICTIONARY
  5
19
102
{ACAD_REACTORS
330
C
102
}
100
AcDbDictionary
281
1
  0
DICTIONARY
  5
1A
102
{ACAD_REACTORS
330
C
102
}
100
AcDbDictionary
281
1
  3
Model
350
3C0
  3
Layout1
350
3C1
  0
ACDBPLACEHOLDER
  5
F
102
{ACAD_REACTORS
330
E
102
}
  0
MLINESTYLE
  5
18
102
{ACAD_REACTORS
330
17
102
}
100
AcDbMlineStyle
  2
STANDARD
 70
0
  3

 62
256
 51
90.0
 52
90.0
 71
2
 49
0.5
 62
256
  6
BYLAYER
 49
-0.5
 62
256
  6
BYLAYER
  0
LAYOUT
  5
3C0
102
{ACAD_REACTORS
330
1A
102
}
100
AcDbPlotSettings
  1

  2
none_device
  4
ANSI_A_(11.00_x_8.50_Inches)
  6

 40
0.0
 41
0.0
 42
0.0
 43
0.0
 44
279.4
 45
215.9
 46
0.0
 47
0.0
 48
0.0
 49
0.0
140
0.0
141
0.0
142
1.0
143
1.0
 70
1024
 72
0
 73
0
 74
0
  7

 75
0
147
1.0
148
0.0
149
0.0
100
AcDbLayout
  1
Model
 70
0
 71
0
 10
0.0
 20
0.0
 11
11.0
 21
8.5
 12
0.0
 22
0.0
 32
0.0
 14
0.0
 24
0.0
 34
0.0
 15
0.0
 25
0.0
 35
0.0
146
0.0
 13
0.0
 23
0.0
 33
0.0
 16
1.0
 26
0.0
 36
0.0
 17
0.0
 27
1.0
 37
0.0
 76
0
330
202
345
0
346
0
  0
LAYOUT
  5
3C1
102
{ACAD_REACTORS
330
1A
102
}
100
AcDbPlotSettings
  1

  2
none_device
  4
ANSI_A_(11.00_x_8.50_Inches)
  6

 40
0.0
 41
0.0
 42
0.0
 43
0.0
 44
279.4
 45
215.9
 46
0.0
 47
0.0
 48
0.0
 49
0.0
140
0.0
141
0.0
142
1.0
143
1.0
 70
0
 72
0
 73
0
 74
0
  7

 75
0
147
1.0
148
0.0
149
0.0
100
AcDbLayout
  1
Layout1
 70
0
 71
1
 10
0.0
 20
0.0
 11
11.0
 21
8.5
 12
0.0
 22
0.0
 32
0.0
 14
0.0
 24
0.0
 34
0.0
 15
0.0
 25
0.0
 35
0.0
146
0.0
 13
0.0
 23
0.0
 33
0.0
 16
1.0
 26
0.0
 36
0.0
 17
0.0
 27
1.0
 37
0.0
 76
0
330
203
345
0
346
0
  0
ENDSEC
  0
EOF
