999
DXF file: E:\BT Custom\CADOUTPUT\_FRONT.dxf
999
Pro/ENGINEER 2018400 by Parametric Technology Corporation
  0
SECTION
  2
HEADER
  9
$ACADVER
  1
AC1018
  9
$DWGCODEPAGE
  3
ANSI_1252
  9
$EXTMAX
 10
22.0
 20
17.0
 30
0.0
  9
$EXTMIN
 10
0.0
 20
0.0
 30
0.0
  9
$LIMMIN
 10
0.0
 20
0.0
  9
$LIMMAX
 10
22.0
 20
17.0
  9
$VIEWCTR
 10
11.0
 20
8.5
  9
$VIEWSIZE
 40
17.0
  9
$CLAYER
  8
0
  9
$LTSCALE
 40
1.21
  9
$CELTYPE
  6
BYLAYER
  9
$DIMSCALE
 40
1.0
  9
$DIMASZ
 40
0.1
  9
$DIMEXO
 40
0.0625
  9
$DIMDLI
 40
0.836
  9
$DIMEXE
 40
0.125
  9
$DIMCEN
 40
0.198
  9
$DIMLFAC
 40
1.0
  9
$DIMBLK
  1
_FILLED
  9
$DIMALT
 70
1
  9
$DIMALTD
 70
2
  9
$DIMALTTD
 70
2
  9
$DIMALTF
 40
25.4
  9
$DIMTXT
 40
0.08
  9
$DIMTOL
 70
1
  9
$DIMLIM
 70
0
  9
$DIMTFAC
 40
1.0
  9
$DIMTP
 40
0.001
  9
$DIMTM
 40
0.001
  9
$DIMGAP
 40
0.09
  9
$DIMDSEP
 70
46
  9
$AUNITS
 70
0
  9
$PDMODE
 70
3
  9
$PDSIZE
 40
0.06
  9
$HANDSEED
  5
258
  9
$TILEMODE
 70
1
  9
$MEASUREMENT
 70
0
  9
$INSUNITS
 70
1
  0
ENDSEC
  0
SECTION
  2
CLASSES
  0
CLASS
  1
ACDBDICTIONARYWDFLT
  2
AcDbDictionaryWithDefault
  3
AutoCAD 2000
 90
0
 91
1
280
0
281
0
  0
CLASS
  1
ACDBPLACEHOLDER
  2
AcDbPlaceHolder
  3
AutoCAD 2000
 90
0
 91
1
280
0
281
0
  0
CLASS
  1
LAYOUT
  2
AcDbLayout
  3
AutoCAD 2000
 90
0
 91
0
280
0
281
0
  0
ENDSEC
  0
SECTION
  2
TABLES
  0
TABLE
  2
VPORT
  5
8
100
AcDbSymbolTable
 70
2
  0
VPORT
  5
1F4
100
AcDbSymbolTableRecord
100
AcDbViewportTableRecord
  2
*ACTIVE
 70
0
 10
0.0
 20
0.0
 11
1.0
 21
1.0
 12
11.0
 22
8.5
 13
0.0
 23
0.0
 14
1.0
 24
1.0
 15
0.0
 25
0.0
 16
0.0
 26
0.0
 36
1.0
 17
0.0
 27
0.0
 37
0.0
 40
17.0
 41
1.2941176471
 42
50.0
 43
0.0
 44
0.0
 50
0.0
 51
0.0
 71
0
 72
100
 73
1
 74
1
 75
0
 76
0
 77
0
 78
0
  0
ENDTAB
  0
TABLE
  2
LTYPE
  5
5
100
AcDbSymbolTable
 70
6
  0
LTYPE
  5
14
100
AcDbSymbolTableRecord
100
AcDbLinetypeTableRecord
  2
BYBLOCK
 70
0
  3

 72
65
 73
0
 40
0.0
  0
LTYPE
  5
15
100
AcDbSymbolTableRecord
100
AcDbLinetypeTableRecord
  2
BYLAYER
 70
0
  3

 72
65
 73
0
 40
0.0
  0
LTYPE
  5
16
100
AcDbSymbolTableRecord
100
AcDbLinetypeTableRecord
  2
CONTINUOUS
 70
64
  3
Solid line
 72
65
 73
0
 40
0.0
  0
LTYPE
  5
1F5
100
AcDbSymbolTableRecord
100
AcDbLinetypeTableRecord
  2
CENTER
 70
64
  3
____ _ ____ _ ____ _ ____ _ ____ _ ____ _ ____
 72
65
 73
4
 40
0.6
 49
0.375
 74
0
 49
-0.075
 74
0
 49
0.075
 74
0
 49
-0.075
 74
0
  0
LTYPE
  5
1F6
100
AcDbSymbolTableRecord
100
AcDbLinetypeTableRecord
  2
HIDDEN
 70
64
  3
- - - - - - - - - - - - - - - - - - - -
 72
65
 73
2
 40
0.2
 49
0.1
 74
0
 49
-0.1
 74
0
  0
LTYPE
  5
1F7
100
AcDbSymbolTableRecord
100
AcDbLinetypeTableRecord
  2
PHANTOM
 70
64
  3
_____ _ _ _____ _ _ _____ _ _ _____
 72
65
 73
6
 40
0.8
 49
0.45
 74
0
 49
-0.05
 74
0
 49
0.1
 74
0
 49
-0.05
 74
0
 49
0.1
 74
0
 49
-0.05
 74
0
  0
LTYPE
  5
1F8
100
AcDbSymbolTableRecord
100
AcDbLinetypeTableRecord
  2
DOT
 70
64
  3
. . . . . . . . . . . . . . . . . . . .
 72
65
 73
2
 40
0.2
 49
0.1
 74
0
 49
-0.1
 74
0
  0
LTYPE
  5
1F9
100
AcDbSymbolTableRecord
100
AcDbLinetypeTableRecord
  2
DASHED
 70
64
  3
- - - - - - - - - - - - - - - - - - - -
 72
65
 73
2
 40
0.2
 49
0.1
 74
0
 49
-0.1
 74
0
  0
ENDTAB
  0
TABLE
  2
LAYER
  5
2
100
AcDbSymbolTable
 70
36
  0
LAYER
  5
10
100
AcDbSymbolTableRecord
100
AcDbLayerTableRecord
  2
0
 70
0
 62
7
  6
CONTINUOUS
370
-3
390
F
  0
LAYER
  5
1FA
100
AcDbSymbolTableRecord
100
AcDbLayerTableRecord
  2
DEFAULT_1
 70
0
 62
7
  6
CENTER
370
-3
390
F
  0
LAYER
  5
1FB
100
AcDbSymbolTableRecord
100
AcDbLayerTableRecord
  2
DEFAULT_2
 70
0
 62
8
  6
HIDDEN
370
-3
390
F
  0
LAYER
  5
1FC
100
AcDbSymbolTableRecord
100
AcDbLayerTableRecord
  2
DEFAULT_3
 70
0
 62
7
  6
PHANTOM
370
-3
390
F
  0
LAYER
  5
1FD
100
AcDbSymbolTableRecord
100
AcDbLayerTableRecord
  2
ALL_FEATURES
 70
0
 62
7
  6
CONTINUOUS
370
-3
390
F
  0
LAYER
  5
1FE
100
AcDbSymbolTableRecord
100
AcDbLayerTableRecord
  2
AXES_FEATURES
 70
0
 62
7
  6
CONTINUOUS
370
-3
390
F
  0
LAYER
  5
1FF
100
AcDbSymbolTableRecord
100
AcDbLayerTableRecord
  2
DEFAULT_COORDINATE_SYSTEM
 70
0
 62
7
  6
CONTINUOUS
370
-3
390
F
  0
LAYER
  5
200
100
AcDbSymbolTableRecord
100
AcDbLayerTableRecord
  2
DEFAULT_DATUM_AXES
 70
0
 62
7
  6
CONTINUOUS
370
-3
390
F
  0
LAYER
  5
201
100
AcDbSymbolTableRecord
100
AcDbLayerTableRecord
  2
DEFAULT_DATUM_PLANES
 70
0
 62
7
  6
CONTINUOUS
370
-3
390
F
  0
LAYER
  5
202
100
AcDbSymbolTableRecord
100
AcDbLayerTableRecord
  2
DIMENSIONS
 70
0
 62
7
  6
CONTINUOUS
370
-3
390
F
  0
ENDTAB
  0
TABLE
  2
STYLE
  5
3
100
AcDbSymbolTable
 70
1
  0
STYLE
  5
11
100
AcDbSymbolTableRecord
100
AcDbTextStyleTableRecord
  2
STANDARD
 70
0
 40
0.0
 41
0.8
 50
0.0
 71
0
 42
0.2
  3
txt
  4

  0
STYLE
  5
203
100
AcDbSymbolTableRecord
100
AcDbTextStyleTableRecord
  2
TEXTSTYLE_1
 70
0
 40
0.0
 41
0.8
 50
0.0
 71
0
 42
0.2
  3
gdt
  4

  0
ENDTAB
  0
TABLE
  2
VIEW
  5
6
100
AcDbSymbolTable
 70
0
  0
ENDTAB
  0
TABLE
  2
UCS
  5
7
100
AcDbSymbolTable
 70
0
  0
ENDTAB
  0
TABLE
  2
APPID
  5
9
100
AcDbSymbolTable
 70
1
  0
APPID
  5
204
100
AcDbSymbolTableRecord
100
AcDbRegAppTableRecord
  2
ACAD
 70
0
  0
ENDTAB
  0
TABLE
  2
BLOCK_RECORD
  5
1
100
AcDbSymbolTable
 70
0
  0
BLOCK_RECORD
  5
205
100
AcDbSymbolTableRecord
100
AcDbBlockTableRecord
  2
*Model_Space
  0
BLOCK_RECORD
  5
206
100
AcDbSymbolTableRecord
100
AcDbBlockTableRecord
  2
*Paper_Space
  0
BLOCK_RECORD
  5
207
100
AcDbSymbolTableRecord
100
AcDbBlockTableRecord
  2
_FILLED
  0
ENDTAB
  0
TABLE
  2
DIMSTYLE
  5
A
100
AcDbSymbolTable
 70
1
100
AcDbDimStyleTable
 71
0
  0
DIMSTYLE
105
208
100
AcDbSymbolTableRecord
100
AcDbDimStyleTableRecord
  2
STANDARD
 70
0
  3

  4

 40
1.0
 41
0.1
 42
0.0625
 43
0.38
 44
0.125
 45
0.0
 46
0.0
 47
0.001
 48
0.001
140
0.08
141
0.09
142
0.0
143
25.4
144
1.0
145
0.0
146
1.0
147
0.09
 71
1.0
 72
0.0
 73
1
 74
1
 75
0
 76
0
 77
0
 78
4
 79
1
170
1
171
2
172
0
173
0
174
0
175
0
176
0
177
0
178
0
270
2
179
3
271
3
272
3
273
2
274
2
275
0
280
0
281
0
282
0
283
1
284
4
285
0
286
0
287
3
288
0
340
11
278
46
341
207
342
207
343
207
344
207
  0
ENDTAB
  0
ENDSEC
  0
SECTION
  2
BLOCKS
  0
BLOCK
  5
20
100
AcDbEntity
  8
0
100
AcDbBlockBegin
  2
*Model_Space
 70
0
 10
0.0
 20
0.0
 30
0.0
  3
*Model_Space
  1

  0
ENDBLK
  5
21
100
AcDbEntity
  8
0
100
AcDbBlockEnd
  0
BLOCK
  5
1C
100
AcDbEntity
  8
0
100
AcDbBlockBegin
  2
*Paper_Space
 70
0
 10
0.0
 20
0.0
 30
0.0
  3
*Paper_Space
  1

  0
ENDBLK
  5
1D
100
AcDbEntity
  8
0
100
AcDbBlockEnd
  0
BLOCK
  5
209
100
AcDbEntity
  8
0
100
AcDbBlockBegin
  2
_FILLED
 70
64
 10
0.0
 20
0.0
  3
_FILLED
  1

  0
SOLID
  5
20A
100
AcDbEntity
  8
0
  6
BYBLOCK
 62
0
100
AcDbTrace
 10
0.0
 20
0.0
 11
-1.0
 21
0.2
 12
-1.0
 22
-0.2
 13
-1.0
 23
-0.2
  0
ENDBLK
  5
20B
100
AcDbEntity
  8
0
  6
BYBLOCK
 62
0
100
AcDbBlockEnd
  0
ENDSEC
  0
SECTION
  2
ENTITIES
  0
LINE
  5
20C
100
AcDbEntity
  8
0
100
AcDbLine
 62
7
  6
CONTINUOUS
 10
9.8376923427
 20
8.0715399317
 11
12.0376923427
 21
8.0715399317
  0
LINE
  5
20D
100
AcDbEntity
  8
0
100
AcDbLine
 62
7
  6
CONTINUOUS
 10
9.9876923427
 20
8.265189099
 11
11.8876923427
 21
8.265189099
  0
LWPOLYLINE
  5
20E
100
AcDbEntity
  8
0
100
AcDbPolyline
 62
7
  6
CONTINUOUS
 90
12
 70
0
 10
10.627358808
 20
10.0125491306
 10
10.6221124478
 20
10.0084918742
 10
10.6166443633
 20
10.0043653058
 10
10.6113554705
 20
10.000464363
 10
10.6062736846
 20
9.9967969799
 10
10.6014112155
 20
9.9933601469
 10
10.5967763663
 20
9.9901489133
 10
10.5923745159
 20
9.9871571085
 10
10.5882091633
 20
9.9843780388
 10
10.584281336
 20
9.9818040626
 10
10.5811341604
 20
9.9797772955
 10
10.5805463086
 20
9.9794054693
  0
LINE
  5
20F
100
AcDbEntity
  8
0
100
AcDbLine
 62
7
  6
CONTINUOUS
 10
10.1251989594
 20
8.4965399317
 11
11.7501857261
 21
8.4965399317
  0
LINE
  5
210
100
AcDbEntity
  8
0
100
AcDbLine
 62
9
  6
CONTINUOUS
 10
10.1747305382
 20
8.5492605841
 11
11.7006541473
 21
8.5492605841
  0
LINE
  5
211
100
AcDbEntity
  8
0
100
AcDbLine
 62
7
  6
CONTINUOUS
 10
10.3326923427
 20
9.2426411703
 11
10.3326923427
 21
8.7365399317
  0
LINE
  5
212
100
AcDbEntity
  8
0
100
AcDbLine
 62
9
  6
CONTINUOUS
 10
11.5426923427
 20
8.7365399317
 11
10.3326923427
 21
8.7365399317
  0
LWPOLYLINE
  5
213
100
AcDbEntity
  8
0
100
AcDbPolyline
 62
7
  6
CONTINUOUS
 90
13
 70
0
 10
10.0478362873
 20
9.3336221192
 10
10.0416019028
 20
9.330859129
 10
10.0322223989
 20
9.3243112863
 10
10.0247614786
 20
9.3156371723
 10
10.0196135867
 20
9.3054083237
 10
10.0170420043
 20
9.2942809751
 10
10.0172839776
 20
9.2829078572
 10
10.0202719305
 20
9.2719554417
 10
10.0257035329
 20
9.2620715043
 10
10.0332571069
 20
9.2538671107
 10
10.042482297
 20
9.2477667155
 10
10.0527584562
 20
9.243969755
 10
10.0633514958
 20
9.2426411703
  0
LWPOLYLINE
  5
214
100
AcDbEntity
  8
0
100
AcDbPolyline
 62
7
  6
CONTINUOUS
 90
13
 70
0
 10
11.8120331897
 20
9.2426411703
 10
11.8226262293
 20
9.243969755
 10
11.8329023885
 20
9.2477667155
 10
11.8421275786
 20
9.2538671107
 10
11.8496811526
 20
9.2620715043
 10
11.855112755
 20
9.2719554417
 10
11.8581007079
 20
9.2829078572
 10
11.8583426812
 20
9.2942809751
 10
11.8557710988
 20
9.3054083237
 10
11.8506232068
 20
9.3156371723
 10
11.8431622866
 20
9.3243112863
 10
11.8337827827
 20
9.330859129
 10
11.8275483982
 20
9.3336221192
  0
LINE
  5
215
100
AcDbEntity
  8
0
100
AcDbLine
 62
9
  6
CONTINUOUS
 10
10.9376923427
 20
9.4625056484
 11
10.9376923427
 21
9.4036699721
  0
LINE
  5
216
100
AcDbEntity
  8
0
100
AcDbLine
 62
9
  6
CONTINUOUS
 10
10.9376923427
 20
9.3588036028
 11
10.9376923427
 21
9.2426411703
  0
LINE
  5
217
100
AcDbEntity
  8
0
100
AcDbLine
 62
9
  6
CONTINUOUS
 10
10.9376923427
 20
10.0620091329
 11
10.9376923427
 21
10.465255239
  0
LINE
  5
218
100
AcDbEntity
  8
0
100
AcDbLine
 62
7
  6
CONTINUOUS
 10
11.8120294283
 20
9.2426411703
 11
10.0633552572
 21
9.2426411703
  0
LINE
  5
219
100
AcDbEntity
  8
0
100
AcDbLine
 62
9
  6
CONTINUOUS
 10
11.8275492182
 20
9.3336218231
 11
10.0478354672
 21
9.3336218231
  0
LINE
  5
21A
100
AcDbEntity
  8
0
100
AcDbLine
 62
9
  6
CONTINUOUS
 10
11.8078919586
 20
9.3588036387
 11
10.0674927269
 21
9.3588036387
  0
LWPOLYLINE
  5
21B
100
AcDbEntity
  8
0
100
AcDbPolyline
 62
7
  6
CONTINUOUS
 90
24
 70
0
 10
11.2491753385
 20
9.9918157233
 10
11.2470758692
 20
10.029684834
 10
11.2448667125
 20
10.0643617886
 10
11.242605504
 20
10.0951970016
 10
11.2402994084
 20
10.1224725361
 10
11.2379397174
 20
10.1466423785
 10
11.235504787
 20
10.1682031682
 10
11.2329586631
 20
10.1876456425
 10
11.2302446727
 20
10.2054592374
 10
11.2272736925
 20
10.2221501334
 10
11.2239049657
 20
10.2382596219
 10
11.2198987568
 20
10.2544317463
 10
11.2148692619
 20
10.2713722254
 10
11.2082456614
 20
10.2897370893
 10
11.1994742807
 20
10.3095262663
 10
11.1880811815
 20
10.3303343946
 10
11.1736391222
 20
10.3517096683
 10
11.1541941499
 20
10.374821156
 10
11.1295007322
 20
10.3979286524
 10
11.0998137225
 20
10.4193257203
 10
11.0645810207
 20
10.4381992377
 10
11.0238835988
 20
10.4531291778
 10
10.9792869182
 20
10.4624675776
 10
10.9376923427
 20
10.465255239
  0
LINE
  5
21C
100
AcDbEntity
  8
0
100
AcDbLine
 62
7
  6
CONTINUOUS
 10
11.5426923427
 20
9.2426411703
 11
11.5426923427
 21
8.7365399317
  0
LINE
  5
21D
100
AcDbEntity
  8
0
100
AcDbLine
 62
9
  6
CONTINUOUS
 10
11.4832625974
 20
10.120631147
 11
11.2404550944
 21
10.120631147
  0
LINE
  5
21E
100
AcDbEntity
  8
0
100
AcDbLine
 62
9
  6
CONTINUOUS
 10
10.6349295192
 20
10.120631147
 11
10.3921220881
 21
10.120631147
  0
LWPOLYLINE
  5
21F
100
AcDbEntity
  8
0
100
AcDbPolyline
 62
7
  6
CONTINUOUS
 90
13
 70
0
 10
11.295042351
 20
9.9792778661
 10
11.2948685579
 20
9.9793864724
 10
11.2927066311
 20
9.9807665324
 10
11.2889581393
 20
9.9832041773
 10
11.2849567674
 20
9.9858520192
 10
11.2807241307
 20
9.9887037845
 10
11.2762644819
 20
9.9917649485
 10
11.2715822786
 20
9.9950414882
 10
11.2666837621
 20
9.9985388931
 10
11.2615784281
 20
10.0022611513
 10
11.2562799007
 20
10.0062100736
 10
11.25085023
 20
10.0103515132
 10
11.2480252317
 20
10.0125607386
  0
LINE
  5
220
100
AcDbEntity
  8
0
100
AcDbLine
 62
9
  6
CONTINUOUS
 10
11.481098626
 20
10.1525536805
 11
11.2372721348
 21
10.1525536805
  0
LINE
  5
221
100
AcDbEntity
  8
0
100
AcDbLine
 62
9
  6
CONTINUOUS
 10
10.6381126067
 20
10.1525536805
 11
10.3942860595
 21
10.1525536805
  0
LINE
  5
222
100
AcDbEntity
  8
0
100
AcDbLine
 62
9
  6
CONTINUOUS
 10
11.4344222509
 20
10.2669394831
 11
11.2161853082
 21
10.2669394831
  0
LINE
  5
223
100
AcDbEntity
  8
0
100
AcDbLine
 62
9
  6
CONTINUOUS
 10
10.4409624345
 20
10.2669394831
 11
10.6591996139
 21
10.2669394831
  0
LWPOLYLINE
  5
224
100
AcDbEntity
  8
0
100
AcDbPolyline
 62
7
  6
CONTINUOUS
 90
24
 70
0
 10
10.9376923427
 20
10.465255239
 10
10.8964907643
 20
10.4625201028
 10
10.8518419119
 20
10.4532269283
 10
10.8110934943
 20
10.4383298961
 10
10.7758180588
 20
10.4194805213
 10
10.7460868272
 20
10.3980958999
 10
10.7213403734
 20
10.3749799778
 10
10.7018425032
 20
10.3518390199
 10
10.6873589156
 20
10.3304256395
 10
10.6759372036
 20
10.3095807965
 10
10.6671496992
 20
10.2897638963
 10
10.6605196794
 20
10.2713852814
 10
10.6554876614
 20
10.2544381397
 10
10.6514792423
 20
10.2382574922
 10
10.6481090931
 20
10.2221402434
 10
10.6451375092
 20
10.2054439934
 10
10.6424235109
 20
10.1876278262
 10
10.6398776849
 20
10.1681849338
 10
10.6374432202
 20
10.1466257001
 10
10.6350840714
 20
10.122459231
 10
10.6327785223
 20
10.0951885913
 10
10.6305177953
 20
10.0643591477
 10
10.6283089901
 20
10.0296877193
 10
10.6262095244
 20
9.9918193168
  0
ARC
  5
225
100
AcDbEntity
  8
0
100
AcDbCircle
 62
9
  6
CONTINUOUS
 10
11.0271159245
 20
9.3496694738
 40
0.7508178891
100
AcDbArc
 50
68.7923637402
 51
73.1396785155
  0
ARC
  5
226
100
AcDbEntity
  8
0
100
AcDbCircle
 62
9
  6
CONTINUOUS
 10
10.7483671745
 20
9.5562537129
 40
0.5197117389
100
AcDbArc
 50
128.1034958428
 51
134.8672973112
  0
ARC
  5
227
100
AcDbEntity
  8
0
100
AcDbCircle
 62
9
  6
CONTINUOUS
 10
11.1345205809
 20
9.5643653753
 40
0.5086650602
100
AcDbArc
 50
45.0598705111
 51
51.8539011158
  0
ARC
  5
228
100
AcDbEntity
  8
0
100
AcDbCircle
 62
7
  6
CONTINUOUS
 10
10.237599682
 20
8.2719951104
 40
0.25
100
AcDbArc
 50
116.0802350496
 51
181.5600156492
  0
ARC
  5
229
100
AcDbEntity
  8
0
100
AcDbCircle
 62
7
  6
CONTINUOUS
 10
11.6377850035
 20
8.2719951104
 40
0.25
100
AcDbArc
 50
358.4399843508
 51
63.9197649504
  0
ARC
  5
22A
100
AcDbEntity
  8
0
100
AcDbCircle
 62
7
  6
CONTINUOUS
 10
10.0376923427
 20
8.0715399317
 40
0.2
100
AcDbArc
 50
104.4775121859
 51
180.0
  0
ARC
  5
22B
100
AcDbEntity
  8
0
100
AcDbCircle
 62
7
  6
CONTINUOUS
 10
11.8376923427
 20
8.0715399317
 40
0.2
100
AcDbArc
 50
0.0
 51
75.5224878141
  0
ARC
  5
22C
100
AcDbEntity
  8
0
100
AcDbCircle
 62
7
  6
CONTINUOUS
 10
11.7326923427
 20
8.7365399317
 40
0.19
100
AcDbArc
 50
180.0
 51
260.2922863827
  0
ARC
  5
22D
100
AcDbEntity
  8
0
100
AcDbCircle
 62
7
  6
CONTINUOUS
 10
10.1426923427
 20
8.7365399317
 40
0.19
100
AcDbArc
 50
279.7077136173
 51
360.0
  0
ARC
  5
22E
100
AcDbEntity
  8
0
100
AcDbCircle
 62
7
  6
CONTINUOUS
 10
11.4106923427
 20
10.1905399317
 40
0.08
100
AcDbArc
 50
331.6518392116
 51
72.7450637509
  0
ARC
  5
22F
100
AcDbEntity
  8
0
100
AcDbCircle
 62
7
  6
CONTINUOUS
 10
10.4646923427
 20
10.1905399317
 40
0.08
100
AcDbArc
 50
107.2549362491
 51
208.3481607884
  0
ARC
  5
230
100
AcDbEntity
  8
0
100
AcDbCircle
 62
7
  6
CONTINUOUS
 10
10.1848478631
 20
8.4901197375
 40
0.06
100
AcDbArc
 50
99.7077136173
 51
173.8574060993
  0
ARC
  5
231
100
AcDbEntity
  8
0
100
AcDbCircle
 62
7
  6
CONTINUOUS
 10
11.6905368224
 20
8.4901197375
 40
0.06
100
AcDbArc
 50
6.1425939007
 51
80.2922863827
  0
ARC
  5
232
100
AcDbEntity
  8
0
100
AcDbCircle
 62
7
  6
CONTINUOUS
 10
10.3678837032
 20
10.1383088364
 40
0.03
100
AcDbArc
 50
323.8957484899
 51
28.3481607884
  0
ARC
  5
233
100
AcDbEntity
  8
0
100
AcDbCircle
 62
7
  6
CONTINUOUS
 10
11.5075009822
 20
10.1383088364
 40
0.03
100
AcDbArc
 50
151.6518392116
 51
216.1042515101
  0
ARC
  5
234
100
AcDbEntity
  8
0
100
AcDbCircle
 62
7
  6
CONTINUOUS
 10
10.0376483556
 20
9.3618386233
 40
0.0299999434
100
AcDbArc
 50
289.8527687042
 51
354.1936139486
  0
ARC
  5
235
100
AcDbEntity
  8
0
100
AcDbCircle
 62
7
  6
CONTINUOUS
 10
11.8377363299
 20
9.3618386233
 40
0.0299999434
100
AcDbArc
 50
185.8063860514
 51
250.1472312958
  0
SPLINE
  5
236
100
AcDbEntity
  8
0
100
AcDbSpline
 62
7
  6
CONTINUOUS
 70
0
 71
3
 72
39
 73
35
 74
0
 42
0.0000001
 43
0.0000001
 44
0.0000000001
 40
0.0
 40
0.0
 40
0.0
 40
0.0
 40
0.0320192674
 40
0.0615852347
 40
0.090525155
 40
0.1194448666
 40
0.1478259213
 40
0.1749479661
 40
0.2003442248
 40
0.2245427913
 40
0.2483000553
 40
0.272059521
 40
0.2962640584
 40
0.3213665407
 40
0.3344157247
 40
0.3478954402
 40
0.3619100159
 40
0.3760717612
 40
0.3900052592
 40
0.403896437
 40
0.4319252867
 40
0.4606331664
 40
0.4902440393
 40
0.5208726887
 40
0.5525713471
 40
0.5853509581
 40
0.6191926773
 40
0.6540548847
 40
0.6898778606
 40
0.7265871482
 40
0.7640961242
 40
0.8411065994
 40
0.9200577348
 40
1.0
 40
1.0
 40
1.0
 40
1.0
 10
11.2760628184
 20
9.7186497263
 30
0.0
 10
11.281699542
 20
9.7229475559
 30
0.0
 10
11.2922724663
 20
9.7315786674
 30
0.0
 10
11.3067379762
 20
9.7454817286
 30
0.0
 10
11.3194425323
 20
9.7601199206
 30
0.0
 10
11.3305101212
 20
9.7757167974
 30
0.0
 10
11.3396648559
 20
9.7920546406
 30
0.0
 10
11.3465699028
 20
9.8086267154
 30
0.0
 10
11.3510907726
 20
9.8250479985
 30
0.0
 10
11.3532429675
 20
9.841195288
 30
0.0
 10
11.3531323848
 20
9.8571226558
 30
0.0
 10
11.3508091229
 20
9.8728800862
 30
0.0
 10
11.3463017877
 20
9.8884624305
 30
0.0
 10
11.3407948838
 20
9.9011609745
 30
0.0
 10
11.3353505086
 20
9.9112163135
 30
0.0
 10
11.3306391848
 20
9.918861374
 30
0.0
 10
11.3253869794
 20
9.92644602
 30
0.0
 10
11.3197040685
 20
9.9338403556
 30
0.0
 10
11.3136858431
 20
9.9409284496
 30
0.0
 10
11.305252818
 20
9.949976029
 30
0.0
 10
11.2938438674
 20
9.9606966084
 30
0.0
 10
11.2789077452
 20
9.9726533908
 30
0.0
 10
11.2626871696
 20
9.9838434402
 30
0.0
 10
11.2452160532
 20
9.9943083134
 30
0.0
 10
11.226545216
 20
10.0040624817
 30
0.0
 10
11.2067367692
 20
10.0131056746
 30
0.0
 10
11.185860926
 20
10.0214298467
 30
0.0
 10
11.163994566
 20
10.0290226406
 30
0.0
 10
11.1412204129
 20
10.0358694852
 30
0.0
 10
11.1176259257
 20
10.0419553137
 30
0.0
 10
11.0849114007
 20
10.0490963281
 30
0.0
 10
11.0425978393
 20
10.0559655606
 30
0.0
 10
10.9905754033
 20
10.0609084669
 30
0.0
 10
10.9553896473
 20
10.0620091331
 30
0.0
 10
10.9376923427
 20
10.0620091327
 30
0.0
  0
LINE
  5
237
100
AcDbEntity
  8
0
100
AcDbLine
 62
7
  6
CONTINUOUS
 10
11.2651827015
 20
9.6873612473
 11
11.2651745486
 21
9.6902709552
  0
SPLINE
  5
238
100
AcDbEntity
  8
0
100
AcDbSpline
 62
7
  6
CONTINUOUS
 70
0
 71
3
 72
12
 73
8
 74
0
 42
0.0000001
 43
0.0000001
 44
0.0000000001
 40
0.0
 40
0.0
 40
0.0
 40
0.0
 40
0.1430687261
 40
0.3450121974
 40
0.6227576189
 40
0.7980625627
 40
1.0
 40
1.0
 40
1.0
 40
1.0
 10
11.2651745486
 20
9.6902709552
 30
0.0
 10
11.2652517493
 20
9.6911467881
 30
0.0
 10
11.2655606314
 20
9.6932482881
 30
0.0
 10
11.2664586875
 20
9.696973065
 30
0.0
 10
11.2677207868
 20
9.7007998511
 30
0.0
 10
11.269167082
 20
9.7045566278
 30
0.0
 10
11.2700674373
 20
9.7066935291
 30
0.0
 10
11.2705649259
 20
9.7078304556
 30
0.0
  0
SPLINE
  5
239
100
AcDbEntity
  8
0
100
AcDbSpline
 62
7
  6
CONTINUOUS
 70
0
 71
3
 72
21
 73
17
 74
0
 42
0.0000001
 43
0.0000001
 44
0.0000000001
 40
0.0
 40
0.0
 40
0.0
 40
0.0
 40
0.227435907
 40
0.4287584359
 40
0.5189550598
 40
0.6018624784
 40
0.6772773699
 40
0.7450237208
 40
0.8049550399
 40
0.856956133
 40
0.9009439677
 40
0.9368680042
 40
0.9647094851
 40
0.9844804037
 40
0.9962214919
 40
1.0
 40
1.0
 40
1.0
 40
1.0
 10
11.2705649259
 20
9.7078304556
 30
0.0
 10
11.2710668866
 20
9.7089776021
 30
0.0
 10
11.2720456813
 20
9.7111261685
 30
0.0
 10
11.2733131602
 20
9.7136873833
 30
0.0
 10
11.2742743812
 20
9.7155110799
 30
0.0
 10
11.2749323932
 20
9.7167107893
 30
0.0
 10
11.2755490585
 20
9.7177919353
 30
0.0
 10
11.2761193738
 20
9.7187539104
 30
0.0
 10
11.2766378397
 20
9.7195959483
 30
0.0
 10
11.2771010368
 20
9.720320254
 30
0.0
 10
11.277500127
 20
9.7209226009
 30
0.0
 10
11.277842748
 20
9.7214194898
 30
0.0
 10
11.2780931294
 20
9.7217735598
 30
0.0
 10
11.2783240806
 20
9.7220825932
 30
0.0
 10
11.2783778536
 20
9.7221574843
 30
0.0
 10
11.278495448
 20
9.7223053931
 30
0.0
 10
11.2784823892
 20
9.7222891998
 30
0.0
  0
SPLINE
  5
23A
100
AcDbEntity
  8
0
100
AcDbSpline
 62
7
  6
CONTINUOUS
 70
0
 71
3
 72
40
 73
36
 74
0
 42
0.0000001
 43
0.0000001
 44
0.0000000001
 40
0.0
 40
0.0
 40
0.0
 40
0.0
 40
0.0795910084
 40
0.1585328201
 40
0.2361888821
 40
0.3119477218
 40
0.3852364832
 40
0.4555363027
 40
0.4894295562
 40
0.5224163316
 40
0.5544568959
 40
0.5855200838
 40
0.6155849156
 40
0.6446425753
 40
0.6726988029
 40
0.6997767292
 40
0.7259201301
 40
0.751196971
 40
0.7757029472
 40
0.7995645021
 40
0.822940542
 40
0.8460218897
 40
0.8690276878
 40
0.8805837843
 40
0.8923377056
 40
0.9044554551
 40
0.9170607178
 40
0.9303310347
 40
0.944549071
 40
0.9602386234
 40
0.978461464
 40
0.9882201007
 40
0.9951496002
 40
0.9985574387
 40
1.0
 40
1.0
 40
1.0
 40
1.0
 10
10.9376923427
 20
9.4625056486
 30
0.0
 10
10.9501499506
 20
9.4625056488
 30
0.0
 10
10.9749688415
 20
9.4631731173
 30
0.0
 10
11.0118330642
 20
9.4661738463
 30
0.0
 10
11.0478795457
 20
9.471151912
 30
0.0
 10
11.0827043403
 20
9.4780732862
 30
0.0
 10
11.1159097894
 20
9.4868909702
 30
0.0
 10
11.1422251357
 20
9.4958781827
 30
0.0
 10
11.1621015808
 20
9.5040128357
 30
0.0
 10
11.1761773331
 20
9.5104744998
 30
0.0
 10
11.1895549938
 20
9.5173597319
 30
0.0
 10
11.2021876099
 20
9.5246573401
 30
0.0
 10
11.2140282785
 20
9.5323551686
 30
0.0
 10
11.2250303021
 20
9.5404403542
 30
0.0
 10
11.2351470514
 20
9.548899207
 30
0.0
 10
11.2443318845
 20
9.5577171468
 30
0.0
 10
11.2525380326
 20
9.5668785579
 30
0.0
 10
11.2597184907
 20
9.5763665301
 30
0.0
 10
11.2658259505
 20
9.5861624743
 30
0.0
 10
11.2708129003
 20
9.5962453559
 30
0.0
 10
11.2746320083
 20
9.6065912866
 30
0.0
 10
11.2772371947
 20
9.6171709713
 30
0.0
 10
11.2783587563
 20
9.6261465779
 30
0.0
 10
11.2786113251
 20
9.6333951186
 30
0.0
 10
11.2784716833
 20
9.6389419798
 30
0.0
 10
11.2779884177
 20
9.6446341718
 30
0.0
 10
11.2771372461
 20
9.6505230821
 30
0.0
 10
11.2758818107
 20
9.6566751512
 30
0.0
 10
11.2741596112
 20
9.6632137643
 30
0.0
 10
11.2718500172
 20
9.6703880179
 30
0.0
 10
11.2694299002
 20
9.676783106
 30
0.0
 10
11.2673741706
 20
9.6818458479
 30
0.0
 10
11.2661837602
 20
9.684757366
 30
0.0
 10
11.2655088232
 20
9.6864732503
 30
0.0
 10
11.2652443363
 20
9.6871849585
 30
0.0
 10
11.265169428
 20
9.6873979606
 30
0.0
  0
LINE
  5
23B
100
AcDbEntity
  8
0
100
AcDbLine
 62
7
  6
CONTINUOUS
 10
11.265169428
 20
9.6873979606
 11
11.2651259909
 21
9.6875235707
  0
SPLINE
  5
23C
100
AcDbEntity
  8
0
100
AcDbSpline
 62
7
  6
CONTINUOUS
 70
0
 71
3
 72
24
 73
20
 74
0
 42
0.0000001
 43
0.0000001
 44
0.0000000001
 40
0.0
 40
0.0
 40
0.0
 40
0.0
 40
0.0028635592
 40
0.0031215561
 40
0.0031506176
 40
0.0031913922
 40
0.0041004636
 40
0.0100111484
 40
0.0228106275
 40
0.0449124061
 40
0.0801279457
 40
0.1346392296
 40
0.2144094031
 40
0.316751314
 40
0.4268167389
 40
0.5339781887
 40
0.63585337
 40
0.8252231084
 40
1.0
 40
1.0
 40
1.0
 40
1.0
 10
10.6102439856
 20
9.687474797
 30
0.0
 10
10.6102507539
 20
9.6874967779
 30
0.0
 10
10.6102595054
 20
9.6875248831
 30
0.0
 10
10.610265592
 20
9.687544046
 30
0.0
 10
10.6102667488
 20
9.6875476718
 30
0.0
 10
10.6102628065
 20
9.6875356652
 30
0.0
 10
10.6102507017
 20
9.6874999486
 30
0.0
 10
10.6101910017
 20
9.6873270133
 30
0.0
 10
10.6100854427
 20
9.687037652
 30
0.0
 10
10.6098835515
 20
9.6864994975
 30
0.0
 10
10.6095598532
 20
9.6856681962
 30
0.0
 10
10.6090530766
 20
9.6844014077
 30
0.0
 10
10.6083371989
 20
9.6826423671
 30
0.0
 10
10.6074507412
 20
9.6804689782
 30
0.0
 10
10.6064932118
 20
9.6780877289
 30
0.0
 10
10.6055587837
 20
9.6757010958
 30
0.0
 10
10.6044260871
 20
9.6727083305
 30
0.0
 10
10.6031665529
 20
9.6691831578
 30
0.0
 10
10.6022607842
 20
9.6664017067
 30
0.0
 10
10.6018466602
 20
9.6650604189
 30
0.0
  0
SPLINE
  5
23D
100
AcDbEntity
  8
0
100
AcDbSpline
 62
7
  6
CONTINUOUS
 70
0
 71
3
 72
22
 73
18
 74
0
 42
0.0000001
 43
0.0000001
 44
0.0000000001
 40
0.0
 40
0.0
 40
0.0
 40
0.0
 40
0.0083474184
 40
0.0157316147
 40
0.0252537169
 40
0.0369198581
 40
0.0507344095
 40
0.0848149786
 40
0.1274875728
 40
0.1787084354
 40
0.2383972881
 40
0.3064373018
 40
0.3826761125
 40
0.4669269425
 40
0.55897371
 40
0.7654453712
 40
1.0
 40
1.0
 40
1.0
 40
1.0
 10
10.5969134022
 20
9.7222755792
 30
0.0
 10
10.5968843306
 20
9.7223110272
 30
0.0
 10
10.5970176708
 20
9.7221422303
 30
0.0
 10
10.5970704482
 20
9.7220702276
 30
0.0
 10
10.5971747016
 20
9.7219310413
 30
0.0
 10
10.597284249
 20
9.7217805747
 30
0.0
 10
10.5974766106
 20
9.7215125965
 30
0.0
 10
10.5977598113
 20
9.7211057696
 30
0.0
 10
10.5981520014
 20
9.7205215993
 30
0.0
 10
10.5986097536
 20
9.7198133868
 30
0.0
 10
10.5991289611
 20
9.7189787646
 30
0.0
 10
10.5997040961
 20
9.718017443
 30
0.0
 10
10.6003297927
 20
9.7169293449
 30
0.0
 10
10.6010004163
 20
9.7157152316
 30
0.0
 10
10.6019852138
 20
9.7138578718
 30
0.0
 10
10.6032882772
 20
9.7112355203
 30
0.0
 10
10.604293877
 20
9.7090314401
 30
0.0
 10
10.6048105615
 20
9.7078514108
 30
0.0
  0
SPLINE
  5
23E
100
AcDbEntity
  8
0
100
AcDbSpline
 62
7
  6
CONTINUOUS
 70
0
 71
3
 72
16
 73
12
 74
0
 42
0.0000001
 43
0.0000001
 44
0.0000000001
 40
0.0
 40
0.0
 40
0.0
 40
0.0
 40
0.1402645513
 40
0.2669298556
 40
0.4770444147
 40
0.6404811215
 40
0.7666218754
 40
0.8618618954
 40
0.9306262514
 40
0.9759781602
 40
1.0
 40
1.0
 40
1.0
 40
1.0
 10
10.6048105615
 20
9.7078514108
 30
0.0
 10
10.6052114736
 20
9.7069357881
 30
0.0
 10
10.6059546678
 20
9.7051845359
 30
0.0
 10
10.607206948
 20
9.7020238862
 30
0.0
 10
10.6083931905
 20
9.6986601645
 30
0.0
 10
10.6093673371
 20
9.6952325118
 30
0.0
 10
10.6099346528
 20
9.6925471529
 30
0.0
 10
10.6102119459
 20
9.6904962581
 30
0.0
 10
10.6102975538
 20
9.6890051713
 30
0.0
 10
10.6102758392
 20
9.6880201294
 30
0.0
 10
10.610227881
 20
9.6875274466
 30
0.0
 10
10.6102015269
 20
9.687358304
 30
0.0
  0
SPLINE
  5
23F
100
AcDbEntity
  8
0
100
AcDbSpline
 62
7
  6
CONTINUOUS
 70
0
 71
3
 72
39
 73
35
 74
0
 42
0.0000001
 43
0.0000001
 44
0.0000000001
 40
0.0
 40
0.0
 40
0.0
 40
0.0
 40
0.0799425896
 40
0.1588939273
 40
0.2359045178
 40
0.2734135257
 40
0.3101228319
 40
0.3459458166
 40
0.3808080257
 40
0.4146497434
 40
0.4474293521
 40
0.4791280101
 40
0.509756663
 40
0.5393675424
 40
0.5680754262
 40
0.5961042691
 40
0.6099954028
 40
0.6239287547
 40
0.6380889716
 40
0.6521050474
 40
0.665584881
 40
0.6786340462
 40
0.7037365207
 40
0.7279410508
 40
0.751700505
 40
0.7754577502
 40
0.7996562877
 40
0.8250524609
 40
0.8521744502
 40
0.8805554999
 40
0.9094752403
 40
0.9384153405
 40
0.9679810626
 40
1.0
 40
1.0
 40
1.0
 40
1.0
 10
10.9376923427
 20
10.0620091326
 30
0.0
 10
10.9199950132
 20
10.0620091323
 30
0.0
 10
10.8848092339
 20
10.0609084651
 30
0.0
 10
10.8327867946
 20
10.0559655532
 30
0.0
 10
10.7904732694
 20
10.0490963242
 30
0.0
 10
10.7577587951
 20
10.0419553215
 30
0.0
 10
10.7341643572
 20
10.035869508
 30
0.0
 10
10.711390257
 20
10.0290226842
 30
0.0
 10
10.6895239507
 20
10.0214299168
 30
0.0
 10
10.6686481592
 20
10.0131057771
 30
0.0
 10
10.6488397598
 20
10.004062622
 30
0.0
 10
10.6301689629
 20
9.9943084968
 30
0.0
 10
10.6126978784
 20
9.9838436713
 30
0.0
 10
10.5964773262
 20
9.972653675
 30
0.0
 10
10.581541219
 20
9.9606969538
 30
0.0
 10
10.5701322814
 20
9.9499764369
 30
0.0
 10
10.5616992792
 20
9.9409289407
 30
0.0
 10
10.5556812887
 20
9.9338411792
 30
0.0
 10
10.5499983551
 20
9.9264469417
 30
0.0
 10
10.5447461227
 20
9.9188623189
 30
0.0
 10
10.5400345751
 20
9.9112170087
 30
0.0
 10
10.5345901574
 20
9.9011617038
 30
0.0
 10
10.5290831916
 20
9.888463236
 30
0.0
 10
10.524575759
 20
9.8728809714
 30
0.0
 10
10.5222523767
 20
9.8571236104
 30
0.0
 10
10.5221416562
 20
9.8411962993
 30
0.0
 10
10.5242936973
 20
9.8250490626
 30
0.0
 10
10.5288144016
 20
9.8086278197
 30
0.0
 10
10.5357192832
 20
9.7920557622
 30
0.0
 10
10.5448738663
 20
9.7757178985
 30
0.0
 10
10.5559413425
 20
9.7601209482
 30
0.0
 10
10.5686457676
 20
9.7454827202
 30
0.0
 10
10.5831110922
 20
9.7315796699
 30
0.0
 10
10.5936838372
 20
9.722948597
 30
0.0
 10
10.599320466
 20
9.7186507946
 30
0.0
  0
SPLINE
  5
240
100
AcDbEntity
  8
0
100
AcDbSpline
 62
7
  6
CONTINUOUS
 70
0
 71
3
 72
17
 73
13
 74
0
 42
0.0000001
 43
0.0000001
 44
0.0000000001
 40
0.0
 40
0.0
 40
0.0
 40
0.0
 40
0.1240287009
 40
0.2486807832
 40
0.373831941
 40
0.4992784966
 40
0.6247830016
 40
0.6874850113
 40
0.7501202212
 40
0.8126786241
 40
0.8751715634
 40
1.0
 40
1.0
 40
1.0
 40
1.0
 10
11.170075767
 20
10.3570969692
 30
0.0
 10
11.1811867044
 20
10.3539449627
 30
0.0
 10
11.2033330761
 20
10.3471580097
 30
0.0
 10
11.2362938177
 20
10.3359519195
 30
0.0
 10
11.2691563353
 20
10.3240722143
 30
0.0
 10
11.3019935052
 20
10.3118961539
 30
0.0
 10
11.3294055989
 20
10.3018142242
 30
0.0
 10
11.3514082142
 20
10.2939723723
 30
0.0
 10
11.3679454907
 20
10.2882573732
 30
0.0
 10
11.3845292574
 20
10.2827401955
 30
0.0
 10
11.4066714938
 20
10.2755881465
 30
0.0
 10
11.4233215434
 20
10.270387393
 30
0.0
 10
11.4344222509
 20
10.2669394831
 30
0.0
  0
SPLINE
  5
241
100
AcDbEntity
  8
0
100
AcDbSpline
 62
7
  6
CONTINUOUS
 70
0
 71
3
 72
24
 73
20
 74
0
 42
0.0000001
 43
0.0000001
 44
0.0000000001
 40
0.0
 40
0.0
 40
0.0
 40
0.0
 40
0.1249676098
 40
0.2501457486
 40
0.3128001313
 40
0.3754693737
 40
0.4381272637
 40
0.5007418095
 40
0.5632756905
 40
0.5944998042
 40
0.625687534
 40
0.6568329057
 40
0.6879329298
 40
0.7189945187
 40
0.7500288639
 40
0.8120750762
 40
0.8742401604
 40
0.9367695172
 40
1.0
 40
1.0
 40
1.0
 40
1.0
 10
11.4832625974
 20
10.120631147
 30
0.0
 10
11.503771624
 20
10.0925106347
 30
0.0
 10
11.542971152
 20
10.034850185
 30
0.0
 10
11.5875393729
 20
9.9599387321
 30
0.0
 10
11.6207180856
 20
9.8985575634
 30
0.0
 10
11.6444034588
 20
9.8518598128
 30
0.0
 10
11.6669138123
 20
9.8045977253
 30
0.0
 10
11.6882826118
 20
9.756850504
 30
0.0
 10
11.7051743114
 20
9.7167040238
 30
0.0
 10
11.7181527074
 20
9.6844153845
 30
0.0
 10
11.7276171387
 20
9.6601377088
 30
0.0
 10
11.7368226965
 20
9.6357977217
 30
0.0
 10
11.7457687555
 20
9.6113984741
 30
0.0
 10
11.7543927269
 20
9.5869158551
 30
0.0
 10
11.7653851067
 20
9.554133693
 30
0.0
 10
11.7780484717
 20
9.512779526
 30
0.0
 10
11.7910402763
 20
9.4623967419
 30
0.0
 10
11.8013607428
 20
9.4110568725
 30
0.0
 10
11.8061103471
 20
9.3763238542
 30
0.0
 10
11.8078919442
 20
9.3588037804
 30
0.0
  0
SPLINE
  5
242
100
AcDbEntity
  8
0
100
AcDbSpline
 62
7
  6
CONTINUOUS
 70
0
 71
3
 72
24
 73
20
 74
0
 42
0.0000001
 43
0.0000001
 44
0.0000000001
 40
0.0
 40
0.0
 40
0.0
 40
0.0
 40
0.1249676098
 40
0.2501457486
 40
0.3128001313
 40
0.3754693737
 40
0.4381272637
 40
0.5007418095
 40
0.5632756905
 40
0.5944998042
 40
0.625687534
 40
0.6568329057
 40
0.6879329298
 40
0.7189945187
 40
0.7500288639
 40
0.8120750762
 40
0.8742401604
 40
0.9367695172
 40
1.0
 40
1.0
 40
1.0
 40
1.0
 10
10.3921220881
 20
10.120631147
 30
0.0
 10
10.3716130614
 20
10.0925106347
 30
0.0
 10
10.3324135335
 20
10.034850185
 30
0.0
 10
10.2878453126
 20
9.9599387321
 30
0.0
 10
10.2546665999
 20
9.8985575634
 30
0.0
 10
10.2309812267
 20
9.8518598128
 30
0.0
 10
10.2084708731
 20
9.8045977253
 30
0.0
 10
10.1871020736
 20
9.756850504
 30
0.0
 10
10.1702103741
 20
9.7167040238
 30
0.0
 10
10.1572319781
 20
9.6844153845
 30
0.0
 10
10.1477675468
 20
9.6601377088
 30
0.0
 10
10.138561989
 20
9.6357977217
 30
0.0
 10
10.12961593
 20
9.6113984741
 30
0.0
 10
10.1209919585
 20
9.5869158551
 30
0.0
 10
10.1099995788
 20
9.554133693
 30
0.0
 10
10.0973362137
 20
9.512779526
 30
0.0
 10
10.0843444092
 20
9.4623967419
 30
0.0
 10
10.0740239426
 20
9.4110568725
 30
0.0
 10
10.0692743384
 20
9.3763238542
 30
0.0
 10
10.0674927413
 20
9.3588037804
 30
0.0
  0
SPLINE
  5
243
100
AcDbEntity
  8
0
100
AcDbSpline
 62
7
  6
CONTINUOUS
 70
0
 71
3
 72
17
 73
13
 74
0
 42
0.0000001
 43
0.0000001
 44
0.0000000001
 40
0.0
 40
0.0
 40
0.0
 40
0.0
 40
0.1240288123
 40
0.2486809717
 40
0.3738321593
 40
0.4992787
 40
0.6247831585
 40
0.6874851384
 40
0.7501203175
 40
0.8126786923
 40
0.8751716068
 40
1.0
 40
1.0
 40
1.0
 40
1.0
 10
10.7053006465
 20
10.3570946225
 30
0.0
 10
10.6941900738
 20
10.3539425946
 30
0.0
 10
10.6720444247
 20
10.3471556616
 30
0.0
 10
10.6390847339
 20
10.3359497483
 30
0.0
 10
10.6062232467
 20
10.3240703321
 30
0.0
 10
10.5733870939
 20
10.3118946373
 30
0.0
 10
10.5459758419
 20
10.3018130475
 30
0.0
 10
10.5239739023
 20
10.2939714707
 30
0.0
 10
10.5074371333
 20
10.2882566771
 30
0.0
 10
10.4908538784
 20
10.2827396899
 30
0.0
 10
10.468712328
 20
10.2755878763
 30
0.0
 10
10.4520627966
 20
10.2703872857
 30
0.0
 10
10.4409624345
 20
10.2669394831
 30
0.0
  0
SPLINE
  5
244
100
AcDbEntity
  8
0
100
AcDbSpline
 62
7
  6
CONTINUOUS
 70
0
 71
3
 72
30
 73
26
 74
0
 42
0.0000001
 43
0.0000001
 44
0.0000000001
 40
0.0
 40
0.0
 40
0.0
 40
0.0
 40
0.028020757
 40
0.0530565149
 40
0.0764757446
 40
0.0993455806
 40
0.1222028871
 40
0.1452483227
 40
0.168662461
 40
0.192600506
 40
0.2424916634
 40
0.2686657957
 40
0.2957247733
 40
0.3237036081
 40
0.352620601
 40
0.3824798533
 40
0.4132734622
 40
0.4775682354
 40
0.5452828714
 40
0.6160760001
 40
0.6895319576
 40
0.7651793587
 40
0.8425051562
 40
0.9209662526
 40
1.0
 40
1.0
 40
1.0
 40
1.0
 10
10.6018466602
 20
9.6650604189
 30
0.0
 10
10.6006186396
 20
9.6610830376
 30
0.0
 10
10.5986371672
 20
9.6534369611
 30
0.0
 10
10.5969986476
 20
9.6421722367
 30
0.0
 10
10.5966589862
 20
9.6315591781
 30
0.0
 10
10.5975021012
 20
9.621299909
 30
0.0
 10
10.5994696479
 20
9.6112536397
 30
0.0
 10
10.6025317523
 20
9.6014021452
 30
0.0
 10
10.6066512775
 20
9.5917703309
 30
0.0
 10
10.613593832
 20
9.5790811621
 30
0.0
 10
10.6224779263
 20
9.5670724758
 30
0.0
 10
10.6329150832
 20
9.5558480806
 30
0.0
 10
10.64173195
 20
9.5475981807
 30
0.0
 10
10.6513694323
 20
9.5396701704
 30
0.0
 10
10.6617897105
 20
9.5320745825
 30
0.0
 10
10.6729535047
 20
9.5248231883
 30
0.0
 10
10.6890081897
 20
9.515494798
 30
0.0
 10
10.7107459473
 20
9.5048175628
 30
0.0
 10
10.7387825548
 20
9.4937173015
 30
0.0
 10
10.7688267148
 20
9.4842110184
 30
0.0
 10
10.8005554793
 20
9.4763544777
 30
0.0
 10
10.8336421454
 20
9.4701938991
 30
0.0
 10
10.8677535716
 20
9.4657663899
 30
0.0
 10
10.90255025
 20
9.4630989244
 30
0.0
 10
10.9259514298
 20
9.4625056492
 30
0.0
 10
10.9376923427
 20
9.4625056488
 30
0.0
  0
SPLINE
  5
245
100
AcDbEntity
  8
0
100
AcDbSpline
 62
9
  6
CONTINUOUS
 70
0
 71
3
 72
23
 73
19
 74
0
 42
0.0000001
 43
0.0000001
 44
0.0000000001
 40
0.0
 40
0.0
 40
0.0
 40
0.0
 40
0.043187591
 40
0.0888746054
 40
0.1371970392
 40
0.1882909825
 40
0.2422928222
 40
0.2704268183
 40
0.2993240738
 40
0.3593025852
 40
0.4220027453
 40
0.4872021809
 40
0.5546900018
 40
0.6242717858
 40
0.6958000675
 40
0.7691904793
 40
0.8443814094
 40
1.0
 40
1.0
 40
1.0
 40
1.0
 10
11.3526699874
 20
9.841023916
 30
0.0
 10
11.3569804007
 20
9.8373911679
 30
0.0
 10
11.3658601537
 20
9.8299266682
 30
0.0
 10
11.3795773548
 20
9.8184148161
 30
0.0
 10
11.3940779521
 20
9.8062311023
 30
0.0
 10
11.4093866393
 20
9.7933220843
 30
0.0
 10
11.4226503234
 20
9.7820756507
 30
0.0
 10
11.4336787054
 20
9.7726729487
 30
0.0
 10
11.4452848503
 20
9.7627455503
 30
0.0
 10
11.4603244453
 20
9.7498911036
 30
0.0
 10
11.4790652782
 20
9.7340745061
 30
0.0
 10
11.4987412514
 20
9.7178480497
 30
0.0
 10
11.5193769601
 20
9.7013778582
 30
0.0
 10
11.5410020557
 20
9.6848307612
 30
0.0
 10
11.5636444474
 20
9.6683578739
 30
0.0
 10
11.587321726
 20
9.6520780327
 30
0.0
 10
11.6206841042
 20
9.6305427723
 30
0.0
 10
11.6467750384
 20
9.615419986
 30
0.0
 10
11.6646972841
 20
9.6058609
 30
0.0
  0
SPLINE
  5
246
100
AcDbEntity
  8
0
100
AcDbSpline
 62
7
  6
CONTINUOUS
 70
0
 71
3
 72
43
 73
39
 74
0
 42
0.0000001
 43
0.0000001
 44
0.0000000001
 40
0.0
 40
0.0
 40
0.0
 40
0.0
 40
0.0414356154
 40
0.082584543
 40
0.1230902612
 40
0.1626636207
 40
0.2010272952
 40
0.2379118081
 40
0.2730800627
 40
0.3063289512
 40
0.3375015029
 40
0.3664912739
 40
0.3932643198
 40
0.4178713655
 40
0.4404737519
 40
0.4613670846
 40
0.4713175707
 40
0.4810204345
 40
0.4905535243
 40
0.5000000002
 40
0.5094464761
 40
0.5189795659
 40
0.5286824297
 40
0.5386329158
 40
0.5595262485
 40
0.5821286349
 40
0.6067356805
 40
0.6335087264
 40
0.6624984973
 40
0.6936710489
 40
0.7269199375
 40
0.762088192
 40
0.7989727049
 40
0.8373363793
 40
0.8769097388
 40
0.917415457
 40
0.9585643846
 40
1.0
 40
1.0
 40
1.0
 40
1.0
 10
10.9376923433
 20
9.6622425682
 30
0.0
 10
10.931975118
 20
9.6622425682
 30
0.0
 10
10.9205785953
 20
9.6619882185
 30
0.0
 10
10.9036274021
 20
9.6608504944
 30
0.0
 10
10.8870010532
 20
9.6589639999
 30
0.0
 10
10.8708625235
 20
9.6563489378
 30
0.0
 10
10.8553636812
 20
9.6530308056
 30
0.0
 10
10.840652191
 20
9.6490403034
 30
0.0
 10
10.8268683077
 20
9.6444169277
 30
0.0
 10
10.8141430119
 20
9.6392027556
 30
0.0
 10
10.8025951291
 20
9.6334489668
 30
0.0
 10
10.7923335381
 20
9.6272056664
 30
0.0
 10
10.7834525988
 20
9.6205303231
 30
0.0
 10
10.7760359717
 20
9.6134765712
 30
0.0
 10
10.7701572971
 20
9.6061030946
 30
0.0
 10
10.7665372483
 20
9.5996292908
 30
0.0
 10
10.7645327248
 20
9.5943975603
 30
0.0
 10
10.7634726794
 20
9.5905050396
 30
0.0
 10
10.7628347851
 20
9.5865917686
 30
0.0
 10
10.7626214466
 20
9.5826677105
 30
0.0
 10
10.7628347851
 20
9.5787436523
 30
0.0
 10
10.7634726794
 20
9.5748303813
 30
0.0
 10
10.7645327248
 20
9.5709378606
 30
0.0
 10
10.7665372482
 20
9.5657061301
 30
0.0
 10
10.770157297
 20
9.5592323263
 30
0.0
 10
10.7760359716
 20
9.5518588496
 30
0.0
 10
10.7834525987
 20
9.5448050977
 30
0.0
 10
10.7923335379
 20
9.5381297544
 30
0.0
 10
10.8025951289
 20
9.531886454
 30
0.0
 10
10.8141430116
 20
9.5261326653
 30
0.0
 10
10.8268683075
 20
9.5209184931
 30
0.0
 10
10.8406521907
 20
9.5162951174
 30
0.0
 10
10.855363681
 20
9.5123046153
 30
0.0
 10
10.8708625232
 20
9.508986483
 30
0.0
 10
10.8870010529
 20
9.5063714209
 30
0.0
 10
10.9036274018
 20
9.5044849264
 30
0.0
 10
10.920578595
 20
9.5033472023
 30
0.0
 10
10.9319751177
 20
9.5030928525
 30
0.0
 10
10.937692343
 20
9.5030928525
 30
0.0
  0
SPLINE
  5
247
100
AcDbEntity
  8
0
100
AcDbSpline
 62
7
  6
CONTINUOUS
 70
0
 71
3
 72
43
 73
39
 74
0
 42
0.0000001
 43
0.0000001
 44
0.0000000001
 40
0.0
 40
0.0
 40
0.0
 40
0.0
 40
0.0414356154
 40
0.082584543
 40
0.1230902612
 40
0.1626636208
 40
0.2010272952
 40
0.2379118081
 40
0.2730800627
 40
0.3063289512
 40
0.3375015029
 40
0.3664912738
 40
0.3932643198
 40
0.4178713654
 40
0.4404737519
 40
0.4613670846
 40
0.4713175707
 40
0.4810204345
 40
0.4905535243
 40
0.5000000002
 40
0.5094464761
 40
0.518979566
 40
0.5286824297
 40
0.5386329158
 40
0.5595262485
 40
0.5821286349
 40
0.6067356805
 40
0.6335087264
 40
0.6624984973
 40
0.6936710489
 40
0.7269199374
 40
0.762088192
 40
0.7989727049
 40
0.8373363793
 40
0.8769097388
 40
0.9174154569
 40
0.9585643846
 40
1.0
 40
1.0
 40
1.0
 40
1.0
 10
10.937692343
 20
9.5030928525
 30
0.0
 10
10.9434095682
 20
9.5030928525
 30
0.0
 10
10.9548060909
 20
9.5033472023
 30
0.0
 10
10.971757284
 20
9.5044849264
 30
0.0
 10
10.9883836329
 20
9.5063714209
 30
0.0
 10
11.0045221625
 20
9.5089864831
 30
0.0
 10
11.0200210047
 20
9.5123046153
 30
0.0
 10
11.0347324949
 20
9.5162951175
 30
0.0
 10
11.0485163781
 20
9.5209184932
 30
0.0
 10
11.0612416739
 20
9.5261326653
 30
0.0
 10
11.0727895566
 20
9.531886454
 30
0.0
 10
11.0830511476
 20
9.5381297544
 30
0.0
 10
11.0919320868
 20
9.5448050977
 30
0.0
 10
11.0993487138
 20
9.5518588496
 30
0.0
 10
11.1052273884
 20
9.5592323262
 30
0.0
 10
11.1088474372
 20
9.56570613
 30
0.0
 10
11.1108519607
 20
9.5709378604
 30
0.0
 10
11.111912006
 20
9.5748303812
 30
0.0
 10
11.1125499004
 20
9.5787436521
 30
0.0
 10
11.1127632389
 20
9.5826677103
 30
0.0
 10
11.1125499004
 20
9.5865917685
 30
0.0
 10
11.1119120061
 20
9.5905050394
 30
0.0
 10
11.1108519607
 20
9.5943975602
 30
0.0
 10
11.1088474373
 20
9.5996292906
 30
0.0
 10
11.1052273885
 20
9.6061030944
 30
0.0
 10
11.0993487139
 20
9.613476571
 30
0.0
 10
11.0919320869
 20
9.6205303229
 30
0.0
 10
11.0830511478
 20
9.6272056662
 30
0.0
 10
11.0727895568
 20
9.6334489666
 30
0.0
 10
11.0612416741
 20
9.6392027553
 30
0.0
 10
11.0485163783
 20
9.6444169275
 30
0.0
 10
11.0347324951
 20
9.6490403032
 30
0.0
 10
11.020021005
 20
9.6530308054
 30
0.0
 10
11.0045221628
 20
9.6563489376
 30
0.0
 10
10.9883836332
 20
9.6589639998
 30
0.0
 10
10.9717572843
 20
9.6608504943
 30
0.0
 10
10.9548060912
 20
9.6619882184
 30
0.0
 10
10.9434095685
 20
9.6622425682
 30
0.0
 10
10.9376923433
 20
9.6622425682
 30
0.0
  0
SPLINE
  5
248
100
AcDbEntity
  8
0
100
AcDbSpline
 62
9
  6
CONTINUOUS
 70
0
 71
3
 72
16
 73
12
 74
0
 42
0.0000001
 43
0.0000001
 44
0.0000000001
 40
0.0
 40
0.0
 40
0.0
 40
0.0
 40
0.1271880892
 40
0.2533406606
 40
0.3786129989
 40
0.5032035721
 40
0.6273375923
 40
0.6893105852
 40
0.7512585615
 40
0.8752755039
 40
1.0
 40
1.0
 40
1.0
 40
1.0
 10
10.6303106837
 20
10.0681723376
 30
0.0
 10
10.6212309719
 20
10.0654170687
 30
0.0
 10
10.6032428428
 20
10.0596008248
 30
0.0
 10
10.5767179015
 20
10.0498722409
 30
0.0
 10
10.5507985578
 20
10.0391212237
 30
0.0
 10
10.5255204726
 20
10.027288278
 30
0.0
 10
10.5049975787
 20
10.0164949443
 30
0.0
 10
10.4889318832
 20
10.0073078059
 30
0.0
 10
10.4730947586
 20
9.99774901
 30
0.0
 10
10.4536926714
 20
9.9850495259
 30
0.0
 10
10.43875403
 20
9.9740187961
 30
0.0
 10
10.4314452877
 20
9.9682602433
 30
0.0
  0
LINE
  5
249
100
AcDbEntity
  8
0
100
AcDbLine
 62
9
  6
CONTINUOUS
 10
10.4314452877
 20
9.9682602433
 11
10.427661434
 21
9.9652135148
  0
SPLINE
  5
24A
100
AcDbEntity
  8
0
100
AcDbSpline
 62
9
  6
CONTINUOUS
 70
0
 71
3
 72
23
 73
19
 74
0
 42
0.0000001
 43
0.0000001
 44
0.0000000001
 40
0.0
 40
0.0
 40
0.0
 40
0.0
 40
0.0431879751
 40
0.0888753518
 40
0.1371981215
 40
0.1882923691
 40
0.2422944767
 40
0.2704285911
 40
0.2993259433
 40
0.3593045742
 40
0.4220047619
 40
0.4872041419
 40
0.554691833
 40
0.6242734225
 40
0.6958014577
 40
0.769191578
 40
0.8443821764
 40
1.0
 40
1.0
 40
1.0
 40
1.0
 10
10.5227116596
 20
9.8410215431
 30
0.0
 10
10.51840125
 20
9.8373888196
 30
0.0
 10
10.5095215099
 20
9.8299243733
 30
0.0
 10
10.4958043385
 20
9.8184126061
 30
0.0
 10
10.4813037883
 20
9.8062289922
 30
0.0
 10
10.465995167
 20
9.7933200914
 30
0.0
 10
10.4527315493
 20
9.7820737682
 30
0.0
 10
10.4417032327
 20
9.7726711652
 30
0.0
 10
10.4300971682
 20
9.7627438924
 30
0.0
 10
10.4150576855
 20
9.7498896371
 30
0.0
 10
10.3963170013
 20
9.734073309
 30
0.0
 10
10.3766412008
 20
9.7178471647
 30
0.0
 10
10.3560056902
 20
9.7013773212
 30
0.0
 10
10.3343808182
 20
9.6848306014
 30
0.0
 10
10.3117386787
 20
9.6683581111
 30
0.0
 10
10.2880616809
 20
9.6520786808
 30
0.0
 10
10.2546997273
 20
9.630543991
 30
0.0
 10
10.228609142
 20
9.6154216236
 30
0.0
 10
10.2106871451
 20
9.6058628106
 30
0.0
  0
SPLINE
  5
24B
100
AcDbEntity
  8
0
100
AcDbSpline
 62
7
  6
CONTINUOUS
 70
0
 71
3
 72
29
 73
25
 74
0
 42
0.0000001
 43
0.0000001
 44
0.0000000001
 40
0.0
 40
0.0
 40
0.0
 40
0.0
 40
0.028074893
 40
0.0570671875
 40
0.0867367862
 40
0.1169776883
 40
0.1477544069
 40
0.1790084839
 40
0.210636569
 40
0.2425272665
 40
0.3067904593
 40
0.3390580409
 40
0.3713521801
 40
0.4359189895
 40
0.5003084792
 40
0.564391234
 40
0.6280667261
 40
0.6912971974
 40
0.7540660227
 40
0.816320149
 40
0.8472335635
 40
0.8779956933
 40
0.9391472692
 40
1.0
 40
1.0
 40
1.0
 40
1.0
 10
10.2106871262
 20
9.6058626166
 30
0.0
 10
10.2110125819
 20
9.6092872404
 30
0.0
 10
10.2118658427
 20
9.6162308847
 30
0.0
 10
10.2136136567
 20
9.6267163622
 30
0.0
 10
10.2157618765
 20
9.6373977049
 30
0.0
 10
10.2182933482
 20
9.6482193873
 30
0.0
 10
10.2212118854
 20
9.6591442579
 30
0.0
 10
10.2245067525
 20
9.6701388859
 30
0.0
 10
10.2281430629
 20
9.6811689559
 30
0.0
 10
10.233419002
 20
9.695911958
 30
0.0
 10
10.2392383608
 20
9.7105383079
 30
0.0
 10
10.2455070931
 20
9.7250259265
 30
0.0
 10
10.2520604379
 20
9.7394281968
 30
0.0
 10
10.2607346233
 20
9.7571855895
 30
0.0
 10
10.2718498236
 20
9.7780696952
 30
0.0
 10
10.2836173657
 20
9.798467388
 30
0.0
 10
10.2959945877
 20
9.8183337336
 30
0.0
 10
10.3089455858
 20
9.8376371804
 30
0.0
 10
10.3224296376
 20
9.8563577163
 30
0.0
 10
10.3341314198
 20
9.8714680962
 30
0.0
 10
10.3437645759
 20
9.883207775
 30
0.0
 10
10.3535387337
 20
9.8946533147
 30
0.0
 10
10.3660972666
 20
9.9085396138
 30
0.0
 10
10.3764794087
 20
9.9192989892
 30
0.0
 10
10.3817276117
 20
9.9245955684
 30
0.0
  0
SPLINE
  5
24C
100
AcDbEntity
  8
0
100
AcDbSpline
 62
7
  6
CONTINUOUS
 70
0
 71
3
 72
15
 73
11
 74
0
 42
0.0000001
 43
0.0000001
 44
0.0000000001
 40
0.0
 40
0.0
 40
0.0
 40
0.0
 40
0.1448982198
 40
0.2834706061
 40
0.4152399569
 40
0.5412281203
 40
0.6624088338
 40
0.77903199
 40
0.8913782545
 40
1.0
 40
1.0
 40
1.0
 40
1.0
 10
10.2106871262
 20
9.6058626166
 30
0.0
 10
10.2102907839
 20
9.6016920845
 30
0.0
 10
10.2097284877
 20
9.5935105455
 30
0.0
 10
10.2096483876
 20
9.5814960786
 30
0.0
 10
10.2104166732
 20
9.5700523555
 30
0.0
 10
10.2119371074
 20
9.5591936923
 30
0.0
 10
10.2141069092
 20
9.5488929234
 30
0.0
 10
10.2169481819
 20
9.5391642402
 30
0.0
 10
10.2204825067
 20
9.5300531652
 30
0.0
 10
10.2233253991
 20
9.5243199549
 30
0.0
 10
10.2248526201
 20
9.5215758194
 30
0.0
  0
SPLINE
  5
24D
100
AcDbEntity
  8
0
100
AcDbSpline
 62
7
  6
CONTINUOUS
 70
0
 71
3
 72
41
 73
37
 74
0
 42
0.0000001
 43
0.0000001
 44
0.0000000001
 40
0.0
 40
0.0
 40
0.0
 40
0.0
 40
0.0750958979
 40
0.1125585239
 40
0.1312494396
 40
0.1499060127
 40
0.1870955053
 40
0.2240859261
 40
0.2608360767
 40
0.2973057495
 40
0.3334539691
 40
0.3692390153
 40
0.4395537359
 40
0.5079371591
 40
0.5740844615
 40
0.6062213429
 40
0.6376831346
 40
0.6684321271
 40
0.6984322791
 40
0.7276526286
 40
0.7560641904
 40
0.7836420485
 40
0.8103729928
 40
0.8362542196
 40
0.8613012352
 40
0.8855562313
 40
0.9090944876
 40
0.9206418908
 40
0.9320715029
 40
0.9434089679
 40
0.9546827249
 40
0.9603059857
 40
0.9659256054
 40
0.9771788284
 40
0.9885089998
 40
1.0
 40
1.0
 40
1.0
 40
1.0
 10
10.9376923427
 20
9.4036699705
 30
0.0
 10
10.9191100924
 20
9.4043439023
 30
0.0
 10
10.891245504
 20
9.4050306821
 30
0.0
 10
10.8587490995
 20
9.4054171146
 30
0.0
 10
10.8402257582
 20
9.4055405868
 30
0.0
 10
10.8217697767
 20
9.4056055557
 30
0.0
 10
10.798782532
 20
9.4056079006
 30
0.0
 10
10.7713152049
 20
9.4055923671
 30
0.0
 10
10.744026034
 20
9.405662824
 30
0.0
 10
10.7169465236
 20
9.4059339548
 30
0.0
 10
10.6901089172
 20
9.4064142571
 30
0.0
 10
10.6548983287
 20
9.4073198626
 30
0.0
 10
10.6117226565
 20
9.4089343716
 30
0.0
 10
10.5610732846
 20
9.4116822498
 30
0.0
 10
10.5199100465
 20
9.4146818417
 30
0.0
 10
10.4879205799
 20
9.4176557292
 30
0.0
 10
10.4646945589
 20
9.4201770734
 30
0.0
 10
10.4420424213
 20
9.4230513994
 30
0.0
 10
10.4200048798
 20
9.4263242185
 30
0.0
 10
10.3986239553
 20
9.4300379362
 30
0.0
 10
10.3779449697
 20
9.4342427282
 30
0.0
 10
10.3580181784
 20
9.4390002653
 30
0.0
 10
10.3388950297
 20
9.4443662461
 30
0.0
 10
10.3206329742
 20
9.4504135731
 30
0.0
 10
10.3032986665
 20
9.4572317692
 30
0.0
 10
10.2869593994
 20
9.4649024801
 30
0.0
 10
10.2741818843
 20
9.4722010865
 30
0.0
 10
10.2646236933
 20
9.4786353444
 30
0.0
 10
10.2578289758
 20
9.483743586
 30
0.0
 10
10.251372162
 20
9.4891680127
 30
0.0
 10
10.246276864
 20
9.4939608871
 30
0.0
 10
10.2423847947
 20
9.497953878
 30
0.0
 10
10.2386145527
 20
9.5020551185
 30
0.0
 10
10.2341318833
 20
9.5074171436
 30
0.0
 10
10.2291862282
 20
9.5142616076
 30
0.0
 10
10.2262362811
 20
9.5190896349
 30
0.0
 10
10.2248526201
 20
9.5215758194
 30
0.0
  0
SPLINE
  5
24E
100
AcDbEntity
  8
0
100
AcDbSpline
 62
7
  6
CONTINUOUS
 70
0
 71
3
 72
41
 73
37
 74
0
 42
0.0000001
 43
0.0000001
 44
0.0000000001
 40
0.0
 40
0.0
 40
0.0
 40
0.0
 40
0.0750958815
 40
0.1125584979
 40
0.1312494056
 40
0.1499059677
 40
0.1870954287
 40
0.2240858095
 40
0.2608359178
 40
0.2973055496
 40
0.3334537252
 40
0.3692387228
 40
0.4395533574
 40
0.5079367938
 40
0.5740841753
 40
0.6062211113
 40
0.6376829678
 40
0.6684320189
 40
0.6984322335
 40
0.7276526562
 40
0.7560642862
 40
0.7836422194
 40
0.8103732544
 40
0.8362545682
 40
0.8613016742
 40
0.8855567755
 40
0.9090951548
 40
0.9206425978
 40
0.9320722048
 40
0.9434096201
 40
0.9546833004
 40
0.9603065229
 40
0.9659261108
 40
0.9771792711
 40
0.9885093144
 40
1.0
 40
1.0
 40
1.0
 40
1.0
 10
10.9376923427
 20
9.4036699703
 30
0.0
 10
10.9562745323
 20
9.4043436251
 30
0.0
 10
10.9841390209
 20
9.4050300603
 30
0.0
 10
11.0166353023
 20
9.4054163066
 30
0.0
 10
11.0351585701
 20
9.4055397478
 30
0.0
 10
11.0536144728
 20
9.4056047397
 30
0.0
 10
11.0766016145
 20
9.405607194
 30
0.0
 10
11.1040688149
 20
9.405591867
 30
0.0
 10
11.1313578567
 20
9.4056625713
 30
0.0
 10
11.1584372364
 20
9.4059338772
 30
0.0
 10
11.1852747126
 20
9.4064142001
 30
0.0
 10
11.220485132
 20
9.4073197452
 30
0.0
 10
11.2636606181
 20
9.4089342864
 30
0.0
 10
11.3143098104
 20
9.4116821252
 30
0.0
 10
11.3554729438
 20
9.414681629
 30
0.0
 10
11.3874623389
 20
9.417655572
 30
0.0
 10
11.41068832
 20
9.420176913
 30
0.0
 10
11.4333404224
 20
9.4230512318
 30
0.0
 10
11.4553779368
 20
9.4263240137
 30
0.0
 10
11.4767588492
 20
9.4300376395
 30
0.0
 10
11.4974378325
 20
9.4342423319
 30
0.0
 10
11.5173646378
 20
9.4389997385
 30
0.0
 10
11.5364878352
 20
9.4443655123
 30
0.0
 10
11.5547499419
 20
9.4504126785
 30
0.0
 10
11.5720842848
 20
9.4572308048
 30
0.0
 10
11.5884234828
 20
9.4649017106
 30
0.0
 10
11.6012009192
 20
9.4722004663
 30
0.0
 10
11.6107591759
 20
9.4786346155
 30
0.0
 10
11.6175540187
 20
9.4837426298
 30
0.0
 10
11.6240109951
 20
9.4891667641
 30
0.0
 10
11.6291064335
 20
9.493959394
 30
0.0
 10
11.6329985961
 20
9.4979522157
 30
0.0
 10
11.6367689101
 20
9.5020533188
 30
0.0
 10
11.6412516425
 20
9.5074151862
 30
0.0
 10
11.6461974348
 20
9.5142593542
 30
0.0
 10
11.6491476099
 20
9.5190870825
 30
0.0
 10
11.6505314298
 20
9.5215730777
 30
0.0
  0
SPLINE
  5
24F
100
AcDbEntity
  8
0
100
AcDbSpline
 62
7
  6
CONTINUOUS
 70
0
 71
3
 72
15
 73
11
 74
0
 42
0.0000001
 43
0.0000001
 44
0.0000000001
 40
0.0
 40
0.0
 40
0.0
 40
0.0
 40
0.1448925785
 40
0.2834567988
 40
0.4152420104
 40
0.5412469818
 40
0.6623904724
 40
0.7789802814
 40
0.8913542424
 40
1.0
 40
1.0
 40
1.0
 40
1.0
 10
11.6646976618
 20
9.6058546527
 30
0.0
 10
11.6650936877
 20
9.6016845276
 30
0.0
 10
11.6656559498
 20
9.593503921
 30
0.0
 10
11.6657352261
 20
9.5814901607
 30
0.0
 10
11.6649677714
 20
9.5700465161
 30
0.0
 10
11.6634509927
 20
9.5591881383
 30
0.0
 10
11.661277677
 20
9.5488901798
 30
0.0
 10
11.6584302022
 20
9.5391654329
 30
0.0
 10
11.6548991684
 20
9.5300535058
 30
0.0
 10
11.6520591121
 20
9.5243175176
 30
0.0
 10
11.6505314298
 20
9.5215730777
 30
0.0
  0
LINE
  5
250
100
AcDbEntity
  8
0
100
AcDbLine
 62
7
  6
CONTINUOUS
 10
11.6645707226
 20
9.6071345823
 11
11.6646976618
 21
9.6058546527
  0
SPLINE
  5
251
100
AcDbEntity
  8
0
100
AcDbSpline
 62
7
  6
CONTINUOUS
 70
0
 71
3
 72
33
 73
29
 74
0
 42
0.0000001
 43
0.0000001
 44
0.0000000001
 40
0.0
 40
0.0
 40
0.0
 40
0.0
 40
0.0281818786
 40
0.0572566481
 40
0.0720633972
 40
0.0870138438
 40
0.117308892
 40
0.1481054507
 40
0.1793681767
 40
0.2110114351
 40
0.2429213923
 40
0.2749937314
 40
0.3071763837
 40
0.3394274191
 40
0.3717054935
 40
0.4362367124
 40
0.5005903251
 40
0.5646321092
 40
0.6282636691
 40
0.6914511431
 40
0.7228814892
 40
0.7541998631
 40
0.8164367784
 40
0.8473259031
 40
0.8780446575
 40
0.9086186285
 40
0.9391023416
 40
1.0
 40
1.0
 40
1.0
 40
1.0
 10
11.6645707226
 20
9.6071345823
 30
0.0
 10
11.6642217571
 20
9.6105557347
 30
0.0
 10
11.6633310873
 20
9.6174885484
 30
0.0
 10
11.6618477039
 20
9.6261580857
 30
0.0
 10
11.6604576157
 20
9.6332014615
 30
0.0
 10
11.6589289129
 20
9.6403683812
 30
0.0
 10
11.6567871978
 20
9.6493984542
 30
0.0
 10
11.653855885
 20
9.6602819149
 30
0.0
 10
11.6505446324
 20
9.6712278092
 30
0.0
 10
11.6468864595
 20
9.6822056134
 30
0.0
 10
11.6429232816
 20
9.6931818487
 30
0.0
 10
11.6386918117
 20
9.7041279012
 30
0.0
 10
11.6342150158
 20
9.7150208341
 30
0.0
 10
11.6295132693
 20
9.7258458813
 30
0.0
 10
11.6229708902
 20
9.7401720842
 30
0.0
 10
11.6143163238
 20
9.757836334
 30
0.0
 10
11.603232607
 20
9.7786108746
 30
0.0
 10
11.5915060128
 20
9.7989029058
 30
0.0
 10
11.5791732397
 20
9.8186645473
 30
0.0
 10
11.5684032346
 20
9.8346973013
 30
0.0
 10
11.5595199925
 20
9.8472378034
 30
0.0
 10
11.5505013436
 20
9.8595375901
 30
0.0
 10
11.541205479
 20
9.8715503043
 30
0.0
 10
11.5316142622
 20
9.8832298927
 30
0.0
 10
11.5242965512
 20
9.8917738551
 30
0.0
 10
11.5168438567
 20
9.9001339005
 30
0.0
 10
11.5067550891
 20
9.9110744742
 30
0.0
 10
11.4990224573
 20
9.9191104494
 30
0.0
 10
11.4938250543
 20
9.9244215359
 30
0.0
  0
LINE
  5
252
100
AcDbEntity
  8
0
100
AcDbLine
 62
9
  6
CONTINUOUS
 10
11.4445876449
 20
9.9677321415
 11
11.4487071311
 21
9.9643990677
  0
SPLINE
  5
253
100
AcDbEntity
  8
0
100
AcDbSpline
 62
9
  6
CONTINUOUS
 70
0
 71
3
 72
13
 73
9
 74
0
 42
0.0000001
 43
0.0000001
 44
0.0000000001
 40
0.0
 40
0.0
 40
0.0
 40
0.0
 40
0.2464617966
 40
0.3704095466
 40
0.4948283597
 40
0.6199095232
 40
0.745836002
 40
1.0
 40
1.0
 40
1.0
 40
1.0
 10
11.4445876449
 20
9.9677321415
 30
0.0
 10
11.4429391237
 20
9.9689780271
 30
0.0
 10
11.4404709067
 20
9.9708628492
 30
0.0
 10
11.4371793421
 20
9.9733881673
 30
0.0
 10
11.4346990816
 20
9.9752991021
 30
0.0
 10
11.4322172068
 20
9.9772350822
 30
0.0
 10
11.4289031488
 20
9.9798725581
 30
0.0
 10
11.4264370077
 20
9.9818910645
 30
0.0
 10
11.4247958829
 20
9.983250332
 30
0.0
  0
SPLINE
  5
254
100
AcDbEntity
  8
0
100
AcDbSpline
 62
9
  6
CONTINUOUS
 70
0
 71
3
 72
12
 73
8
 74
0
 42
0.0000001
 43
0.0000001
 44
0.0000000001
 40
0.0
 40
0.0
 40
0.0
 40
0.0
 40
0.2451767513
 40
0.4315828421
 40
0.6198518343
 40
0.8093597571
 40
1.0
 40
1.0
 40
1.0
 40
1.0
 10
11.4247958829
 20
9.983250332
 30
0.0
 10
11.4229835884
 20
9.9843396967
 30
0.0
 10
11.4198049578
 20
9.9862767085
 30
0.0
 10
11.4152829834
 20
9.9891282679
 30
0.0
 10
11.411194958
 20
9.9917671797
 30
0.0
 10
11.4070835339
 20
9.9944370711
 30
0.0
 10
11.4043398725
 20
9.9962318751
 30
0.0
 10
11.4029663851
 20
9.9971356399
 30
0.0
  0
SPLINE
  5
255
100
AcDbEntity
  8
0
100
AcDbSpline
 62
9
  6
CONTINUOUS
 70
0
 71
3
 72
18
 73
14
 74
0
 42
0.0000001
 43
0.0000001
 44
0.0000000001
 40
0.0
 40
0.0
 40
0.0
 40
0.0
 40
0.1251759407
 40
0.1870212528
 40
0.2486889523
 40
0.3103826452
 40
0.3722721792
 40
0.4343977557
 40
0.4967392402
 40
0.6219927621
 40
0.7478717518
 40
0.874014642
 40
1.0
 40
1.0
 40
1.0
 40
1.0
 10
11.4029663851
 20
9.9971356399
 30
0.0
 10
11.3989517701
 20
9.9999045942
 30
0.0
 10
11.3927800835
 20
10.0037928712
 30
0.0
 10
11.3843668399
 20
10.0085987142
 30
0.0
 10
11.3780273874
 20
10.0120462817
 30
0.0
 10
11.3716410987
 20
10.0154089458
 30
0.0
 10
11.3652232437
 20
10.0187497402
 30
0.0
 10
11.3587694951
 20
10.0220761367
 30
0.0
 10
11.3500966422
 20
10.0264852471
 30
0.0
 10
11.3391545414
 20
10.0319111983
 30
0.0
 10
11.3258739671
 20
10.0382129861
 30
0.0
 10
11.312415947
 20
10.0441987026
 30
0.0
 10
11.3033100637
 20
10.0478906798
 30
0.0
 10
11.2987234137
 20
10.0496386691
 30
0.0
  0
ENDSEC
  0
SECTION
  2
OBJECTS
  0
DICTIONARY
  5
C
100
AcDbDictionary
280
0
281
1
  3
ACAD_GROUP
350
D
  3
ACAD_MLINESTYLE
350
17
  3
ACAD_LAYOUT
350
1A
  3
ACAD_PLOTSETTINGS
350
19
  3
ACAD_PLOTSTYLENAME
350
E
  0
DICTIONARY
  5
D
102
{ACAD_REACTORS
330
C
102
}
100
AcDbDictionary
280
0
281
1
  0
ACDBDICTIONARYWDFLT
  5
E
102
{ACAD_REACTORS
330
C
102
}
100
AcDbDictionary
281
1
  3
Normal
350
F
100
AcDbDictionaryWithDefault
340
F
  0
DICTIONARY
  5
17
102
{ACAD_REACTORS
330
C
102
}
100
AcDbDictionary
280
0
281
1
  3
Standard
350
18
  0
DICTIONARY
  5
19
102
{ACAD_REACTORS
330
C
102
}
100
AcDbDictionary
281
1
  0
DICTIONARY
  5
1A
102
{ACAD_REACTORS
330
C
102
}
100
AcDbDictionary
281
1
  3
Model
350
256
  3
Layout1
350
257
  0
ACDBPLACEHOLDER
  5
F
102
{ACAD_REACTORS
330
E
102
}
  0
MLINESTYLE
  5
18
102
{ACAD_REACTORS
330
17
102
}
100
AcDbMlineStyle
  2
STANDARD
 70
0
  3

 62
256
 51
90.0
 52
90.0
 71
2
 49
0.5
 62
256
  6
BYLAYER
 49
-0.5
 62
256
  6
BYLAYER
  0
LAYOUT
  5
256
102
{ACAD_REACTORS
330
1A
102
}
100
AcDbPlotSettings
  1

  2
none_device
  4
ANSI_C_(22.00_x_17.00_Inches)
  6

 40
0.0
 41
0.0
 42
0.0
 43
0.0
 44
558.8
 45
431.8
 46
0.0
 47
0.0
 48
0.0
 49
0.0
140
0.0
141
0.0
142
1.0
143
1.0
 70
1024
 72
0
 73
0
 74
0
  7

 75
0
147
1.0
148
0.0
149
0.0
100
AcDbLayout
  1
Model
 70
0
 71
0
 10
0.0
 20
0.0
 11
22.0
 21
17.0
 12
0.0
 22
0.0
 32
0.0
 14
0.0
 24
0.0
 34
0.0
 15
0.0
 25
0.0
 35
0.0
146
0.0
 13
0.0
 23
0.0
 33
0.0
 16
1.0
 26
0.0
 36
0.0
 17
0.0
 27
1.0
 37
0.0
 76
0
330
205
345
0
346
0
  0
LAYOUT
  5
257
102
{ACAD_REACTORS
330
1A
102
}
100
AcDbPlotSettings
  1

  2
none_device
  4
ANSI_C_(22.00_x_17.00_Inches)
  6

 40
0.0
 41
0.0
 42
0.0
 43
0.0
 44
558.8
 45
431.8
 46
0.0
 47
0.0
 48
0.0
 49
0.0
140
0.0
141
0.0
142
1.0
143
1.0
 70
0
 72
0
 73
0
 74
0
  7

 75
0
147
1.0
148
0.0
149
0.0
100
AcDbLayout
  1
Layout1
 70
0
 71
1
 10
0.0
 20
0.0
 11
22.0
 21
17.0
 12
0.0
 22
0.0
 32
0.0
 14
0.0
 24
0.0
 34
0.0
 15
0.0
 25
0.0
 35
0.0
146
0.0
 13
0.0
 23
0.0
 33
0.0
 16
1.0
 26
0.0
 36
0.0
 17
0.0
 27
1.0
 37
0.0
 76
0
330
206
345
0
346
0
  0
ENDSEC
  0
EOF
