999
DXF file: E:\BT Custom\CADOUTPUT\_TOP.dxf
999
Pro/ENGINEER 2018400 by Parametric Technology Corporation
  0
SECTION
  2
HEADER
  9
$ACADVER
  1
AC1018
  9
$DWGCODEPAGE
  3
ANSI_1252
  9
$EXTMAX
 10
22.0
 20
17.0
 30
0.0
  9
$EXTMIN
 10
0.0
 20
0.0
 30
0.0
  9
$LIMMIN
 10
0.0
 20
0.0
  9
$LIMMAX
 10
22.0
 20
17.0
  9
$VIEWCTR
 10
11.0
 20
8.5
  9
$VIEWSIZE
 40
17.0
  9
$CLAYER
  8
0
  9
$LTSCALE
 40
1.21
  9
$CELTYPE
  6
BYLAYER
  9
$DIMSCALE
 40
1.0
  9
$DIMASZ
 40
0.1
  9
$DIMEXO
 40
0.0625
  9
$DIMDLI
 40
0.836
  9
$DIMEXE
 40
0.125
  9
$DIMCEN
 40
0.198
  9
$DIMLFAC
 40
1.0
  9
$DIMBLK
  1
_FILLED
  9
$DIMALT
 70
1
  9
$DIMALTD
 70
2
  9
$DIMALTTD
 70
2
  9
$DIMALTF
 40
25.4
  9
$DIMTXT
 40
0.08
  9
$DIMTOL
 70
1
  9
$DIMLIM
 70
0
  9
$DIMTFAC
 40
1.0
  9
$DIMTP
 40
0.001
  9
$DIMTM
 40
0.001
  9
$DIMGAP
 40
0.09
  9
$DIMDSEP
 70
46
  9
$AUNITS
 70
0
  9
$PDMODE
 70
3
  9
$PDSIZE
 40
0.06
  9
$HANDSEED
  5
277
  9
$TILEMODE
 70
1
  9
$MEASUREMENT
 70
0
  9
$INSUNITS
 70
1
  0
ENDSEC
  0
SECTION
  2
CLASSES
  0
CLASS
  1
ACDBDICTIONARYWDFLT
  2
AcDbDictionaryWithDefault
  3
AutoCAD 2000
 90
0
 91
1
280
0
281
0
  0
CLASS
  1
ACDBPLACEHOLDER
  2
AcDbPlaceHolder
  3
AutoCAD 2000
 90
0
 91
1
280
0
281
0
  0
CLASS
  1
LAYOUT
  2
AcDbLayout
  3
AutoCAD 2000
 90
0
 91
0
280
0
281
0
  0
ENDSEC
  0
SECTION
  2
TABLES
  0
TABLE
  2
VPORT
  5
8
100
AcDbSymbolTable
 70
2
  0
VPORT
  5
1F4
100
AcDbSymbolTableRecord
100
AcDbViewportTableRecord
  2
*ACTIVE
 70
0
 10
0.0
 20
0.0
 11
1.0
 21
1.0
 12
11.0
 22
8.5
 13
0.0
 23
0.0
 14
1.0
 24
1.0
 15
0.0
 25
0.0
 16
0.0
 26
0.0
 36
1.0
 17
0.0
 27
0.0
 37
0.0
 40
17.0
 41
1.2941176471
 42
50.0
 43
0.0
 44
0.0
 50
0.0
 51
0.0
 71
0
 72
100
 73
1
 74
1
 75
0
 76
0
 77
0
 78
0
  0
ENDTAB
  0
TABLE
  2
LTYPE
  5
5
100
AcDbSymbolTable
 70
6
  0
LTYPE
  5
14
100
AcDbSymbolTableRecord
100
AcDbLinetypeTableRecord
  2
BYBLOCK
 70
0
  3

 72
65
 73
0
 40
0.0
  0
LTYPE
  5
15
100
AcDbSymbolTableRecord
100
AcDbLinetypeTableRecord
  2
BYLAYER
 70
0
  3

 72
65
 73
0
 40
0.0
  0
LTYPE
  5
16
100
AcDbSymbolTableRecord
100
AcDbLinetypeTableRecord
  2
CONTINUOUS
 70
64
  3
Solid line
 72
65
 73
0
 40
0.0
  0
LTYPE
  5
1F5
100
AcDbSymbolTableRecord
100
AcDbLinetypeTableRecord
  2
CENTER
 70
64
  3
____ _ ____ _ ____ _ ____ _ ____ _ ____ _ ____
 72
65
 73
4
 40
0.6
 49
0.375
 74
0
 49
-0.075
 74
0
 49
0.075
 74
0
 49
-0.075
 74
0
  0
LTYPE
  5
1F6
100
AcDbSymbolTableRecord
100
AcDbLinetypeTableRecord
  2
HIDDEN
 70
64
  3
- - - - - - - - - - - - - - - - - - - -
 72
65
 73
2
 40
0.2
 49
0.1
 74
0
 49
-0.1
 74
0
  0
LTYPE
  5
1F7
100
AcDbSymbolTableRecord
100
AcDbLinetypeTableRecord
  2
PHANTOM
 70
64
  3
_____ _ _ _____ _ _ _____ _ _ _____
 72
65
 73
6
 40
0.8
 49
0.45
 74
0
 49
-0.05
 74
0
 49
0.1
 74
0
 49
-0.05
 74
0
 49
0.1
 74
0
 49
-0.05
 74
0
  0
LTYPE
  5
1F8
100
AcDbSymbolTableRecord
100
AcDbLinetypeTableRecord
  2
DOT
 70
64
  3
. . . . . . . . . . . . . . . . . . . .
 72
65
 73
2
 40
0.2
 49
0.1
 74
0
 49
-0.1
 74
0
  0
LTYPE
  5
1F9
100
AcDbSymbolTableRecord
100
AcDbLinetypeTableRecord
  2
DASHED
 70
64
  3
- - - - - - - - - - - - - - - - - - - -
 72
65
 73
2
 40
0.2
 49
0.1
 74
0
 49
-0.1
 74
0
  0
ENDTAB
  0
TABLE
  2
LAYER
  5
2
100
AcDbSymbolTable
 70
36
  0
LAYER
  5
10
100
AcDbSymbolTableRecord
100
AcDbLayerTableRecord
  2
0
 70
0
 62
7
  6
CONTINUOUS
370
-3
390
F
  0
LAYER
  5
1FA
100
AcDbSymbolTableRecord
100
AcDbLayerTableRecord
  2
DEFAULT_1
 70
0
 62
7
  6
CENTER
370
-3
390
F
  0
LAYER
  5
1FB
100
AcDbSymbolTableRecord
100
AcDbLayerTableRecord
  2
DEFAULT_2
 70
0
 62
8
  6
HIDDEN
370
-3
390
F
  0
LAYER
  5
1FC
100
AcDbSymbolTableRecord
100
AcDbLayerTableRecord
  2
DEFAULT_3
 70
0
 62
7
  6
PHANTOM
370
-3
390
F
  0
LAYER
  5
1FD
100
AcDbSymbolTableRecord
100
AcDbLayerTableRecord
  2
ALL_FEATURES
 70
0
 62
7
  6
CONTINUOUS
370
-3
390
F
  0
LAYER
  5
1FE
100
AcDbSymbolTableRecord
100
AcDbLayerTableRecord
  2
AXES_FEATURES
 70
0
 62
7
  6
CONTINUOUS
370
-3
390
F
  0
LAYER
  5
1FF
100
AcDbSymbolTableRecord
100
AcDbLayerTableRecord
  2
DEFAULT_COORDINATE_SYSTEM
 70
0
 62
7
  6
CONTINUOUS
370
-3
390
F
  0
LAYER
  5
200
100
AcDbSymbolTableRecord
100
AcDbLayerTableRecord
  2
DEFAULT_DATUM_AXES
 70
0
 62
7
  6
CONTINUOUS
370
-3
390
F
  0
LAYER
  5
201
100
AcDbSymbolTableRecord
100
AcDbLayerTableRecord
  2
DEFAULT_DATUM_PLANES
 70
0
 62
7
  6
CONTINUOUS
370
-3
390
F
  0
LAYER
  5
202
100
AcDbSymbolTableRecord
100
AcDbLayerTableRecord
  2
DIMENSIONS
 70
0
 62
7
  6
CONTINUOUS
370
-3
390
F
  0
ENDTAB
  0
TABLE
  2
STYLE
  5
3
100
AcDbSymbolTable
 70
1
  0
STYLE
  5
11
100
AcDbSymbolTableRecord
100
AcDbTextStyleTableRecord
  2
STANDARD
 70
0
 40
0.0
 41
0.8
 50
0.0
 71
0
 42
0.2
  3
txt
  4

  0
STYLE
  5
203
100
AcDbSymbolTableRecord
100
AcDbTextStyleTableRecord
  2
TEXTSTYLE_1
 70
0
 40
0.0
 41
0.8
 50
0.0
 71
0
 42
0.2
  3
gdt
  4

  0
ENDTAB
  0
TABLE
  2
VIEW
  5
6
100
AcDbSymbolTable
 70
0
  0
ENDTAB
  0
TABLE
  2
UCS
  5
7
100
AcDbSymbolTable
 70
0
  0
ENDTAB
  0
TABLE
  2
APPID
  5
9
100
AcDbSymbolTable
 70
1
  0
APPID
  5
204
100
AcDbSymbolTableRecord
100
AcDbRegAppTableRecord
  2
ACAD
 70
0
  0
ENDTAB
  0
TABLE
  2
BLOCK_RECORD
  5
1
100
AcDbSymbolTable
 70
0
  0
BLOCK_RECORD
  5
205
100
AcDbSymbolTableRecord
100
AcDbBlockTableRecord
  2
*Model_Space
  0
BLOCK_RECORD
  5
206
100
AcDbSymbolTableRecord
100
AcDbBlockTableRecord
  2
*Paper_Space
  0
BLOCK_RECORD
  5
207
100
AcDbSymbolTableRecord
100
AcDbBlockTableRecord
  2
_FILLED
  0
ENDTAB
  0
TABLE
  2
DIMSTYLE
  5
A
100
AcDbSymbolTable
 70
1
100
AcDbDimStyleTable
 71
0
  0
DIMSTYLE
105
208
100
AcDbSymbolTableRecord
100
AcDbDimStyleTableRecord
  2
STANDARD
 70
0
  3

  4

 40
1.0
 41
0.1
 42
0.0625
 43
0.38
 44
0.125
 45
0.0
 46
0.0
 47
0.001
 48
0.001
140
0.08
141
0.09
142
0.0
143
25.4
144
1.0
145
0.0
146
1.0
147
0.09
 71
1.0
 72
0.0
 73
1
 74
1
 75
0
 76
0
 77
0
 78
4
 79
1
170
1
171
2
172
0
173
0
174
0
175
0
176
0
177
0
178
0
270
2
179
3
271
3
272
3
273
2
274
2
275
0
280
0
281
0
282
0
283
1
284
4
285
0
286
0
287
3
288
0
340
11
278
46
341
207
342
207
343
207
344
207
  0
ENDTAB
  0
ENDSEC
  0
SECTION
  2
BLOCKS
  0
BLOCK
  5
20
100
AcDbEntity
  8
0
100
AcDbBlockBegin
  2
*Model_Space
 70
0
 10
0.0
 20
0.0
 30
0.0
  3
*Model_Space
  1

  0
ENDBLK
  5
21
100
AcDbEntity
  8
0
100
AcDbBlockEnd
  0
BLOCK
  5
1C
100
AcDbEntity
  8
0
100
AcDbBlockBegin
  2
*Paper_Space
 70
0
 10
0.0
 20
0.0
 30
0.0
  3
*Paper_Space
  1

  0
ENDBLK
  5
1D
100
AcDbEntity
  8
0
100
AcDbBlockEnd
  0
BLOCK
  5
209
100
AcDbEntity
  8
0
100
AcDbBlockBegin
  2
_FILLED
 70
64
 10
0.0
 20
0.0
  3
_FILLED
  1

  0
SOLID
  5
20A
100
AcDbEntity
  8
0
  6
BYBLOCK
 62
0
100
AcDbTrace
 10
0.0
 20
0.0
 11
-1.0
 21
0.2
 12
-1.0
 22
-0.2
 13
-1.0
 23
-0.2
  0
ENDBLK
  5
20B
100
AcDbEntity
  8
0
  6
BYBLOCK
 62
0
100
AcDbBlockEnd
  0
ENDSEC
  0
SECTION
  2
ENTITIES
  0
LWPOLYLINE
  5
20C
100
AcDbEntity
  8
0
100
AcDbPolyline
 62
7
  6
CONTINUOUS
 90
4
 70
0
 10
10.7804519662
 20
7.3356744475
 10
10.7839462939
 20
7.2969505475
 10
10.7869580117
 20
7.2571070514
 10
10.7894969588
 20
7.2161628477
  0
LWPOLYLINE
  5
20D
100
AcDbEntity
  8
0
100
AcDbPolyline
 62
7
  6
CONTINUOUS
 90
5
 70
0
 10
10.7894969588
 20
7.2161628477
 10
10.7915794736
 20
7.1741119296
 10
10.7932334809
 20
7.1307603088
 10
10.7944876565
 20
7.0858358116
 10
10.7953676246
 20
7.0390885113
  0
LINE
  5
20E
100
AcDbEntity
  8
0
100
AcDbLine
 62
7
  6
CONTINUOUS
 10
10.7953676246
 20
7.0390885113
 11
10.7958990947
 21
6.9902730123
  0
LINE
  5
20F
100
AcDbEntity
  8
0
100
AcDbLine
 62
7
  6
CONTINUOUS
 10
10.7958990947
 20
6.9902730123
 11
10.7961185301
 21
6.9266757501
  0
LWPOLYLINE
  5
210
100
AcDbEntity
  8
0
100
AcDbPolyline
 62
7
  6
CONTINUOUS
 90
4
 70
0
 10
10.796117706
 20
6.9312500069
 10
10.7943456152
 20
6.7288843747
 10
10.789323463
 20
6.5238120062
 10
10.7828246275
 20
6.3431677808
  0
LINE
  5
211
100
AcDbEntity
  8
0
100
AcDbLine
 62
7
  6
CONTINUOUS
 10
10.7783684926
 20
6.2381272829
 11
10.7828246275
 21
6.3431677808
  0
LINE
  5
212
100
AcDbEntity
  8
0
100
AcDbLine
 62
7
  6
CONTINUOUS
 10
10.7319290834
 20
5.3528445447
 11
10.7329168762
 21
5.374966816
  0
LWPOLYLINE
  5
213
100
AcDbEntity
  8
0
100
AcDbPolyline
 62
7
  6
CONTINUOUS
 90
3
 70
0
 10
10.7783684926
 20
6.2381272829
 10
10.775172481
 20
6.1672232463
 10
10.7708039734
 20
6.0737078193
  0
LINE
  5
214
100
AcDbEntity
  8
0
100
AcDbLine
 62
7
  6
CONTINUOUS
 10
10.7708039734
 20
6.0737078193
 11
10.762583833
 21
5.9045518149
  0
LINE
  5
215
100
AcDbEntity
  8
0
100
AcDbLine
 62
7
  6
CONTINUOUS
 10
10.762583833
 20
5.9045518149
 11
10.7549458527
 21
5.7528020376
  0
LWPOLYLINE
  5
216
100
AcDbEntity
  8
0
100
AcDbPolyline
 62
7
  6
CONTINUOUS
 90
8
 70
0
 10
10.7549458527
 20
5.7528020376
 10
10.7480441698
 20
5.6194825262
 10
10.7448866493
 20
5.5608634742
 10
10.7419306051
 20
5.5084097891
 10
10.7391906916
 20
5.4627287584
 10
10.7367088269
 20
5.4246057767
 10
10.7345355878
 20
5.3945902856
 10
10.7329168415
 20
5.3749664269
  0
LINE
  5
217
100
AcDbEntity
  8
0
100
AcDbLine
 62
7
  6
CONTINUOUS
 10
10.7340298613
 20
7.6087135259
 11
10.741492372
 21
7.5776403044
  0
LINE
  5
218
100
AcDbEntity
  8
0
100
AcDbLine
 62
7
  6
CONTINUOUS
 10
10.741492372
 20
7.5776403044
 11
10.7485905003
 21
7.5457252395
  0
LWPOLYLINE
  5
219
100
AcDbEntity
  8
0
100
AcDbPolyline
 62
7
  6
CONTINUOUS
 90
4
 70
0
 10
10.7485905003
 20
7.5457252395
 10
10.7552391816
 20
7.5130193622
 10
10.7613729812
 20
7.4795209988
 10
10.7669549954
 20
7.4451556523
  0
LWPOLYLINE
  5
21A
100
AcDbEntity
  8
0
100
AcDbPolyline
 62
7
  6
CONTINUOUS
 90
4
 70
0
 10
10.7669549954
 20
7.4451556523
 10
10.7719808
 20
7.4097774207
 10
10.7764700987
 20
7.3732686825
 10
10.7804519662
 20
7.3356744475
  0
LINE
  5
21B
100
AcDbEntity
  8
0
100
AcDbLine
 62
9
  6
CONTINUOUS
 10
11.0473183383
 20
5.0719469598
 11
11.0473183383
 21
8.402888932
  0
LINE
  5
21C
100
AcDbEntity
  8
0
100
AcDbLine
 62
9
  6
CONTINUOUS
 10
11.0473183383
 20
9.8264677545
 11
11.0473183383
 21
9.8771681826
  0
LWPOLYLINE
  5
21D
100
AcDbEntity
  8
0
100
AcDbPolyline
 62
7
  6
CONTINUOUS
 90
6
 70
0
 10
11.3617198406
 20
5.3749663655
 10
11.3601048379
 20
5.3945418058
 10
11.357936809
 20
5.4244748955
 10
11.3554612645
 20
5.4624836218
 10
11.352728488
 20
5.5080233376
 10
11.3497801955
 20
5.5603146892
  0
LINE
  5
21E
100
AcDbEntity
  8
0
100
AcDbLine
 62
7
  6
CONTINUOUS
 10
11.3497801955
 20
5.5603146892
 11
11.3432855471
 21
5.6827288541
  0
LINE
  5
21F
100
AcDbEntity
  8
0
100
AcDbLine
 62
7
  6
CONTINUOUS
 10
11.3432855471
 20
5.6827288541
 11
11.3360215703
 21
5.8251996895
  0
LINE
  5
220
100
AcDbEntity
  8
0
100
AcDbLine
 62
7
  6
CONTINUOUS
 10
11.3360215703
 20
5.8251996895
 11
11.3281060141
 21
5.9848350671
  0
LINE
  5
221
100
AcDbEntity
  8
0
100
AcDbLine
 62
7
  6
CONTINUOUS
 10
11.3281060141
 20
5.9848350671
 11
11.3220388374
 21
6.1121097205
  0
LWPOLYLINE
  5
222
100
AcDbEntity
  8
0
100
AcDbPolyline
 62
7
  6
CONTINUOUS
 90
3
 70
0
 10
11.3220388374
 20
6.1121097205
 10
11.3195779494
 20
6.1647453119
 10
11.3162705166
 20
6.2380744934
  0
LWPOLYLINE
  5
223
100
AcDbEntity
  8
0
100
AcDbPolyline
 62
7
  6
CONTINUOUS
 90
42
 70
0
 10
10.4423172203
 20
8.3550589989
 10
10.442060303
 20
8.3554022711
 10
10.4425594541
 20
8.3547018728
 10
10.444727292
 20
8.3515498242
 10
10.4482787899
 20
8.3461573118
 10
10.4528741323
 20
8.3388855711
 10
10.4581886911
 20
8.3301460021
 10
10.4639931141
 20
8.3202557512
 10
10.4701565655
 20
8.3094021981
 10
10.4765884247
 20
8.2977221266
 10
10.4832369305
 20
8.2852935405
 10
10.4900796517
 20
8.2721449392
 10
10.4971132868
 20
8.2582688875
 10
10.5043183264
 20
8.2436899849
 10
10.511665483
 20
8.2284562136
 10
10.5191361463
 20
8.2125979825
 10
10.5267170656
 20
8.1961374165
 10
10.5343997046
 20
8.1790887938
 10
10.5421804339
 20
8.1614573264
 10
10.5500536931
 20
8.1432543952
 10
10.5580130166
 20
8.1244960269
 10
10.5660488213
 20
8.1052062447
 10
10.5741539059
 20
8.0853965074
 10
10.5823262299
 20
8.0650646136
 10
10.5905639006
 20
8.0442086932
 10
10.5988648225
 20
8.0228284212
 10
10.6072258774
 20
8.0009276663
 10
10.6156443021
 20
7.9785115881
 10
10.6241191682
 20
7.955583276
 10
10.6326483261
 20
7.9321528394
 10
10.641224223
 20
7.908243035
 10
10.6498373819
 20
7.8838479263
 10
10.6584805173
 20
7.8589391167
 10
10.6671426624
 20
7.8334908152
 10
10.6758089015
 20
7.8074795111
 10
10.6844566824
 20
7.7808940709
 10
10.693058137
 20
7.7537280561
 10
10.7015797512
 20
7.725975127
 10
10.7099830377
 20
7.697621848
 10
10.7182247668
 20
7.6686486443
 10
10.7262573673
 20
7.6390262464
 10
10.7340298613
 20
7.6087135259
  0
LINE
  5
224
100
AcDbEntity
  8
0
100
AcDbLine
 62
7
  6
CONTINUOUS
 10
11.3617198059
 20
5.3749667546
 11
11.3627075932
 21
5.3528445447
  0
LINE
  5
225
100
AcDbEntity
  8
0
100
AcDbLine
 62
7
  6
CONTINUOUS
 10
11.3162743222
 20
6.237988376
 11
11.3124585481
 21
6.3272837837
  0
LINE
  5
226
100
AcDbEntity
  8
0
100
AcDbLine
 62
7
  6
CONTINUOUS
 10
11.3124585481
 20
6.3272837837
 11
11.305616285
 21
6.5141664079
  0
LINE
  5
227
100
AcDbEntity
  8
0
100
AcDbLine
 62
7
  6
CONTINUOUS
 10
11.305616285
 20
6.5141664079
 11
11.3003218804
 21
6.7271016776
  0
LINE
  5
228
100
AcDbEntity
  8
0
100
AcDbLine
 62
7
  6
CONTINUOUS
 10
11.3003218804
 20
6.7271016776
 11
11.2985192524
 21
6.9318916119
  0
LWPOLYLINE
  5
229
100
AcDbEntity
  8
0
100
AcDbPolyline
 62
7
  6
CONTINUOUS
 90
3
 70
0
 10
11.2985181452
 20
6.9267054227
 10
11.2985362756
 20
6.9460331212
 10
11.2988165828
 20
7.0001274066
  0
LWPOLYLINE
  5
22A
100
AcDbEntity
  8
0
100
AcDbPolyline
 62
7
  6
CONTINUOUS
 90
4
 70
0
 10
11.2988165828
 20
7.0001274066
 10
11.299466059
 20
7.0515995629
 10
11.3005182571
 20
7.1007721553
 10
11.3020034684
 20
7.1479556065
  0
LWPOLYLINE
  5
22B
100
AcDbEntity
  8
0
100
AcDbPolyline
 62
7
  6
CONTINUOUS
 90
4
 70
0
 10
11.3020034684
 20
7.1479556065
 10
11.3039535956
 20
7.1934680841
 10
11.3064049345
 20
7.2376409708
 10
11.3093847524
 20
7.2805811846
  0
LINE
  5
22C
100
AcDbEntity
  8
0
100
AcDbLine
 62
7
  6
CONTINUOUS
 10
11.3093847524
 20
7.2805811846
 11
11.3129079661
 21
7.3222663401
  0
LWPOLYLINE
  5
22D
100
AcDbEntity
  8
0
100
AcDbPolyline
 62
7
  6
CONTINUOUS
 90
3
 70
0
 10
11.3129079661
 20
7.3222663401
 10
11.3169826829
 20
7.3626761607
 10
11.3216221665
 20
7.4018359409
  0
LINE
  5
22E
100
AcDbEntity
  8
0
100
AcDbLine
 62
7
  6
CONTINUOUS
 10
11.3216221665
 20
7.4018359409
 11
11.3268645635
 21
7.4397291507
  0
LWPOLYLINE
  5
22F
100
AcDbEntity
  8
0
100
AcDbPolyline
 62
7
  6
CONTINUOUS
 90
3
 70
0
 10
11.3268645635
 20
7.4397291507
 10
11.332734057
 20
7.4764398674
 10
11.3392303717
 20
7.5121539605
  0
LINE
  5
230
100
AcDbEntity
  8
0
100
AcDbLine
 62
7
  6
CONTINUOUS
 10
11.3392303717
 20
7.5121539605
 11
11.3463112628
 21
7.5469671071
  0
LINE
  5
231
100
AcDbEntity
  8
0
100
AcDbLine
 62
7
  6
CONTINUOUS
 10
11.3463112628
 20
7.5469671071
 11
11.3538977513
 21
7.5808812436
  0
LWPOLYLINE
  5
232
100
AcDbEntity
  8
0
100
AcDbPolyline
 62
7
  6
CONTINUOUS
 90
39
 70
0
 10
11.3538977513
 20
7.5808812436
 10
11.3618892107
 20
7.6138447065
 10
11.3702234022
 20
7.6459652174
 10
11.3788388203
 20
7.6773154086
 10
11.3876749332
 20
7.7079412154
 10
11.396675944
 20
7.7378734243
 10
11.4057919058
 20
7.7671324535
 10
11.4149789463
 20
7.7957303211
 10
11.4242002158
 20
7.8236735237
 10
11.4334256085
 20
7.8509722659
 10
11.442633997
 20
7.8776499146
 10
11.4518111453
 20
7.9037377203
 10
11.4609473892
 20
7.9292694519
 10
11.4700325234
 20
7.9542603135
 10
11.4790566076
 20
7.9786838902
 10
11.4880170872
 20
8.0025278777
 10
11.4969128989
 20
8.0257887706
 10
11.5057403941
 20
8.04845976
 10
11.5144958291
 20
8.0705365535
 10
11.5231764522
 20
8.092019313
 10
11.531779638
 20
8.1129097769
 10
11.5403015068
 20
8.1332073622
 10
11.5487295964
 20
8.1528857454
 10
11.5570549794
 20
8.1719218263
 10
11.5652693249
 20
8.1902971491
 10
11.5733697307
 20
8.2080081607
 10
11.581350419
 20
8.2250467093
 10
11.5891996407
 20
8.2413938734
 10
11.596898982
 20
8.2570196691
 10
11.6044170093
 20
8.2718720379
 10
11.611722889
 20
8.2859054685
 10
11.6188032708
 20
8.2991109329
 10
11.625620196
 20
8.3114354481
 10
11.6320970145
 20
8.3227635896
 10
11.6381089537
 20
8.3329117175
 10
11.64348163
 20
8.3416396419
 10
11.6479310649
 20
8.3485742743
 10
11.6510857816
 20
8.3532777772
 10
11.6519031237
 20
8.3544544636
  0
ARC
  5
233
100
AcDbEntity
  8
0
100
AcDbCircle
 62
7
  6
CONTINUOUS
 10
42.5071497622
 20
7.6174470959
 40
31.2213647506
100
AcDbArc
 50
182.408645935
 51
182.5321750779
  0
ARC
  5
234
100
AcDbEntity
  8
0
100
AcDbCircle
 62
7
  6
CONTINUOUS
 10
34.4136175816
 20
7.2754075023
 40
23.1206085632
100
AcDbArc
 50
182.2004496716
 51
182.4046928002
  0
ARC
  5
235
100
AcDbEntity
  8
0
100
AcDbCircle
 62
7
  6
CONTINUOUS
 10
30.9849795627
 20
7.1430882812
 40
19.689418296
100
AcDbArc
 50
181.8895149203
 51
182.1987710211
  0
ARC
  5
236
100
AcDbEntity
  8
0
100
AcDbCircle
 62
7
  6
CONTINUOUS
 10
28.1825209749
 20
7.0489651597
 40
16.8853801272
100
AcDbArc
 50
181.6076185365
 51
181.8838533478
  0
ARC
  5
237
100
AcDbEntity
  8
0
100
AcDbCircle
 62
7
  6
CONTINUOUS
 10
26.0050694011
 20
6.987615663
 40
14.7070644816
100
AcDbArc
 50
181.116357987
 51
181.6066916719
  0
ARC
  5
238
100
AcDbEntity
  8
0
100
AcDbCircle
 62
7
  6
CONTINUOUS
 10
24.1487023348
 20
6.9495658285
 40
12.8503085875
100
AcDbArc
 50
180.7260466215
 51
181.1079969393
  0
ARC
  5
239
100
AcDbEntity
  8
0
100
AcDbCircle
 62
7
  6
CONTINUOUS
 10
22.6106730342
 20
6.9300425685
 40
11.3121553812
100
AcDbArc
 50
180.0169025586
 51
180.7258822408
  0
ARC
  5
23A
100
AcDbEntity
  8
0
100
AcDbCircle
 62
7
  6
CONTINUOUS
 10
19.3161225549
 20
6.9301481043
 40
8.0176033379
100
AcDbArc
 50
179.2775289957
 51
179.9830651312
  0
ARC
  5
23B
100
AcDbEntity
  8
0
100
AcDbCircle
 62
7
  6
CONTINUOUS
 10
2.8614217961
 20
6.9302768698
 40
7.9346958888
100
AcDbArc
 50
0.0091060729
 51
0.7759351767
  0
ARC
  5
23C
100
AcDbEntity
  8
0
100
AcDbCircle
 62
7
  6
CONTINUOUS
 10
6.1730864113
 20
6.97727279
 40
4.6226974367
100
AcDbArc
 50
0.7645630426
 51
2.5610557891
  0
ARC
  5
23D
100
AcDbEntity
  8
0
100
AcDbCircle
 62
7
  6
CONTINUOUS
 10
15.9051701915
 20
6.9778486824
 40
4.6063081957
100
AcDbArc
 50
177.4390082904
 51
179.2111609704
  0
ARC
  5
23E
100
AcDbEntity
  8
0
100
AcDbCircle
 62
7
  6
CONTINUOUS
 10
14.3421418759
 20
7.0483791031
 40
3.0416813073
100
AcDbArc
 50
174.9432370398
 51
177.3306024567
  0
ARC
  5
23F
100
AcDbEntity
  8
0
100
AcDbCircle
 62
7
  6
CONTINUOUS
 10
7.7545323716
 20
7.0486151547
 40
3.0396326002
100
AcDbArc
 50
2.7066894936
 51
5.0269422231
  0
ARC
  5
240
100
AcDbEntity
  8
0
100
AcDbCircle
 62
7
  6
CONTINUOUS
 10
8.2181945447
 20
7.0865844502
 40
2.5744283548
100
AcDbArc
 50
5.0893643117
 51
5.3666834632
  0
ARC
  5
241
100
AcDbEntity
  8
0
100
AcDbCircle
 62
7
  6
CONTINUOUS
 10
13.8729531292
 20
7.0869085027
 40
2.570924347
100
AcDbArc
 50
174.6507697163
 51
174.8769116449
  0
ARC
  5
242
100
AcDbEntity
  8
0
100
AcDbCircle
 62
7
  6
CONTINUOUS
 10
13.4799256941
 20
5.5346088734
 40
2.1250060607
100
AcDbArc
 50
184.3308925175
 51
184.9068425294
  0
ARC
  5
243
100
AcDbEntity
  8
0
100
AcDbCircle
 62
7
  6
CONTINUOUS
 10
8.9803849405
 20
7.1750128389
 40
1.8070514777
100
AcDbArc
 50
8.0448440179
 51
8.5575202729
  0
ARC
  5
244
100
AcDbEntity
  8
0
100
AcDbCircle
 62
7
  6
CONTINUOUS
 10
11.0473183383
 20
8.9562682486
 40
1.1
100
AcDbArc
 50
292.2857375535
 51
247.7145198647
  0
ARC
  5
245
100
AcDbEntity
  8
0
100
AcDbCircle
 62
7
  6
CONTINUOUS
 10
11.0473183383
 20
8.9562682486
 40
0.9500926608
100
AcDbArc
 50
301.7334667847
 51
238.2664684385
  0
ARC
  5
246
100
AcDbEntity
  8
0
100
AcDbCircle
 62
7
  6
CONTINUOUS
 10
11.0473183383
 20
8.9562682486
 40
0.920899934
100
AcDbArc
 50
304.5621756751
 51
235.4407381987
  0
ARC
  5
247
100
AcDbEntity
  8
0
100
AcDbCircle
 62
9
  6
CONTINUOUS
 10
11.0473183383
 20
8.9562682486
 40
0.8898565954
100
AcDbArc
 50
308.2595132569
 51
231.7410377001
  0
ARC
  5
248
100
AcDbEntity
  8
0
100
AcDbCircle
 62
9
  6
CONTINUOUS
 10
11.0473183383
 20
8.9562682486
 40
0.8701996109
100
AcDbArc
 50
311.3060382702
 51
228.6947625255
  0
ARC
  5
249
100
AcDbEntity
  8
0
100
AcDbCircle
 62
7
  6
CONTINUOUS
 10
11.1328164935
 20
8.8247664235
 40
0.7036499012
100
AcDbArc
 50
316.5045875536
 51
317.8351094615
  0
ARC
  5
24A
100
AcDbEntity
  8
0
100
AcDbCircle
 62
7
  6
CONTINUOUS
 10
10.9616230322
 20
8.8245804529
 40
0.7033788489
100
AcDbArc
 50
222.1048587927
 51
223.494342424
  0
CIRCLE
  5
24B
100
AcDbEntity
  8
0
100
AcDbCircle
 62
7
  6
CONTINUOUS
 10
11.0473183383
 20
8.9562682486
 40
0.553
  0
CIRCLE
  5
24C
100
AcDbEntity
  8
0
100
AcDbCircle
 62
9
  6
CONTINUOUS
 10
11.0473183383
 20
8.9562682486
 40
0.4967299082
  0
SPLINE
  5
24D
100
AcDbEntity
  8
0
100
AcDbSpline
 62
7
  6
CONTINUOUS
 70
0
 71
3
 72
21
 73
17
 74
0
 42
0.0000001
 43
0.0000001
 44
0.0000000001
 40
0.0
 40
0.0
 40
0.0
 40
0.0
 40
0.0642364906
 40
0.1284233744
 40
0.1925118959
 40
0.2564547332
 40
0.3836684452
 40
0.5097976639
 40
0.5724028608
 40
0.6346480662
 40
0.6965150193
 40
0.7579918306
 40
0.8190733397
 40
0.8797613742
 40
0.9400648932
 40
1.0
 40
1.0
 40
1.0
 40
1.0
 10
11.0473183383
 20
4.9082117634
 30
0.0
 10
11.0547478401
 20
4.9082117628
 30
0.0
 10
11.0696048434
 20
4.9086480245
 30
0.0
 10
11.0917961059
 20
4.9106087215
 30
0.0
 10
11.1138014146
 20
4.9138680522
 30
0.0
 10
11.1427112439
 20
4.9199153595
 30
0.0
 10
11.1779091886
 20
4.9306211019
 30
0.0
 10
11.2114202728
 20
4.9454360551
 30
0.0
 10
11.236779638
 20
4.9595939852
 30
0.0
 10
11.254952534
 20
4.9712880967
 30
0.0
 10
11.2722417778
 20
4.9840335891
 30
0.0
 10
11.2885729721
 20
4.9977782843
 30
0.0
 10
11.3038742897
 20
5.0124650582
 30
0.0
 10
11.3180784638
 20
5.0280330511
 30
0.0
 10
11.331121607
 20
5.0444159121
 30
0.0
 10
11.3390289949
 20
5.0558714008
 30
0.0
 10
11.3427667823
 20
5.0617093547
 30
0.0
  0
SPLINE
  5
24E
100
AcDbEntity
  8
0
100
AcDbSpline
 62
7
  6
CONTINUOUS
 70
0
 71
3
 72
35
 73
31
 74
0
 42
0.0000001
 43
0.0000001
 44
0.0000000001
 40
0.0
 40
0.0
 40
0.0
 40
0.0
 40
0.0659519617
 40
0.1316911691
 40
0.1644420799
 40
0.197071882
 40
0.2295595697
 40
0.2618871484
 40
0.2940385028
 40
0.3259992033
 40
0.3577572407
 40
0.389303167
 40
0.4206314201
 40
0.4517400051
 40
0.4826292879
 40
0.5133059175
 40
0.5437945914
 40
0.5741260497
 40
0.6043299157
 40
0.6344375864
 40
0.6644815482
 40
0.6944963325
 40
0.7245174799
 40
0.7545806032
 40
0.7847198321
 40
0.8149675244
 40
0.8453529021
 40
0.8759017091
 40
0.9375257859
 40
1.0
 40
1.0
 40
1.0
 40
1.0
 10
11.0473183383
 20
4.9494941723
 30
0.0
 10
11.0673185117
 20
4.9494947202
 30
0.0
 10
11.1073004209
 20
4.952104465
 30
0.0
 10
11.1563574477
 20
4.9618654566
 30
0.0
 10
11.1944149441
 20
4.9734714702
 30
0.0
 10
11.2221824064
 20
4.9840160322
 30
0.0
 10
11.2490560072
 20
4.9963603596
 30
0.0
 10
11.2748955614
 20
5.0104447942
 30
0.0
 10
11.2995629599
 20
5.0261997989
 30
0.0
 10
11.322923377
 20
5.0435475107
 30
0.0
 10
11.3448486963
 20
5.062397376
 30
0.0
 10
11.3652141825
 20
5.0826523501
 30
0.0
 10
11.3839064299
 20
5.1042018321
 30
0.0
 10
11.400814847
 20
5.1269306398
 30
0.0
 10
11.4158464292
 20
5.1507092545
 30
0.0
 10
11.4289127644
 20
5.175410163
 30
0.0
 10
11.439945734
 20
5.2009001947
 30
0.0
 10
11.4488835099
 20
5.2270472128
 30
0.0
 10
11.4556811649
 20
5.2537116387
 30
0.0
 10
11.4602978635
 20
5.2807507309
 30
0.0
 10
11.4627112404
 20
5.3080173439
 30
0.0
 10
11.4629063891
 20
5.3353637164
 30
0.0
 10
11.4608846588
 20
5.3626416889
 30
0.0
 10
11.4566583126
 20
5.3897040289
 30
0.0
 10
11.4502517825
 20
5.4164050346
 30
0.0
 10
11.4417038586
 20
5.4426015808
 30
0.0
 10
11.4310605119
 20
5.4681544093
 30
0.0
 10
11.4141181692
 20
5.5012708904
 30
0.0
 10
11.3879527093
 20
5.540420596
 30
0.0
 10
11.3624874858
 20
5.5683421263
 30
0.0
 10
11.3487460712
 20
5.581384625
 30
0.0
  0
SPLINE
  5
24F
100
AcDbEntity
  8
0
100
AcDbSpline
 62
7
  6
CONTINUOUS
 70
0
 71
3
 72
20
 73
16
 74
0
 42
0.0000001
 43
0.0000001
 44
0.0000000001
 40
0.0
 40
0.0
 40
0.0
 40
0.0
 40
0.017856373
 40
0.0377220423
 40
0.0594645663
 40
0.0829512377
 40
0.1346294249
 40
0.1917127072
 40
0.2531470989
 40
0.3178265212
 40
0.4528898447
 40
0.590913405
 40
0.7293188884
 40
0.8662196615
 40
1.0
 40
1.0
 40
1.0
 40
1.0
 10
10.7319290834
 20
5.3528445447
 30
0.0
 10
10.7323816887
 20
5.3581018021
 30
0.0
 10
10.7332868187
 20
5.3692122963
 30
0.0
 10
10.7346010548
 20
5.3867354243
 30
0.0
 10
10.7359445511
 20
5.4059245809
 30
0.0
 10
10.7378324922
 20
5.4344992585
 30
0.0
 10
10.7402224293
 20
5.4735067212
 30
0.0
 10
10.7430932286
 20
5.5237190658
 30
0.0
 10
10.7460310521
 20
5.5777755841
 30
0.0
 10
10.7500776791
 20
5.654849429
 30
0.0
 10
10.7551475703
 20
5.7545333295
 30
0.0
 10
10.7612359274
 20
5.8759801762
 30
0.0
 10
10.767218533
 20
5.9979759522
 30
0.0
 10
10.7729653167
 20
6.1187277458
 30
0.0
 10
10.7766233061
 20
6.1986326388
 30
0.0
 10
10.7783684926
 20
6.2381272829
 30
0.0
  0
SPLINE
  5
250
100
AcDbEntity
  8
0
100
AcDbSpline
 62
7
  6
CONTINUOUS
 70
0
 71
3
 72
19
 73
15
 74
0
 42
0.0000001
 43
0.0000001
 44
0.0000000001
 40
0.0
 40
0.0
 40
0.0
 40
0.0
 40
0.0418734469
 40
0.0890067568
 40
0.1408163406
 40
0.1967263497
 40
0.2561606813
 40
0.3185220373
 40
0.3831929265
 40
0.4495723905
 40
0.585569371
 40
0.7234840103
 40
0.8619678597
 40
1.0
 40
1.0
 40
1.0
 40
1.0
 10
11.3609874568
 20
5.3741361202
 30
0.0
 10
11.3602868624
 20
5.3833111509
 30
0.0
 10
11.3588881384
 20
5.4028206333
 30
0.0
 10
11.3568592566
 20
5.4336987118
 30
0.0
 10
11.354775372
 20
5.4676640414
 30
0.0
 10
11.3526440795
 20
5.5043344775
 30
0.0
 10
11.3504730013
 20
5.5433251478
 30
0.0
 10
11.3482689157
 20
5.5842420958
 30
0.0
 10
11.346038056
 20
5.6266859715
 30
0.0
 10
11.3430095107
 20
5.6852917476
 30
0.0
 10
11.3392209188
 20
5.7599750979
 30
0.0
 10
11.3346783678
 20
5.85048558
 30
0.0
 10
11.3301827756
 20
5.9414461912
 30
0.0
 10
11.3272407343
 20
6.0021396601
 30
0.0
 10
11.3257897395
 20
6.0324376633
 30
0.0
  0
LINE
  5
251
100
AcDbEntity
  8
0
100
AcDbLine
 62
7
  6
CONTINUOUS
 10
11.3257897395
 20
6.0324376633
 11
11.3220151937
 21
6.112146002
  0
LINE
  5
252
100
AcDbEntity
  8
0
100
AcDbLine
 62
7
  6
CONTINUOUS
 10
11.3220151937
 20
6.112146002
 11
11.3202015849
 21
6.1511652434
  0
LINE
  5
253
100
AcDbEntity
  8
0
100
AcDbLine
 62
7
  6
CONTINUOUS
 10
11.3202015849
 20
6.1511652434
 11
11.3162877188
 21
6.237685256
  0
LINE
  5
254
100
AcDbEntity
  8
0
100
AcDbLine
 62
7
  6
CONTINUOUS
 10
11.3162877188
 20
6.237685256
 11
11.3162743222
 21
6.237988376
  0
LINE
  5
255
100
AcDbEntity
  8
0
100
AcDbLine
 62
7
  6
CONTINUOUS
 10
10.7461182943
 20
5.5816005649
 11
10.7459129358
 21
5.5814058216
  0
SPLINE
  5
256
100
AcDbEntity
  8
0
100
AcDbSpline
 62
7
  6
CONTINUOUS
 70
0
 71
3
 72
34
 73
30
 74
0
 42
0.0000001
 43
0.0000001
 44
0.0000000001
 40
0.0
 40
0.0
 40
0.0
 40
0.0
 40
0.0624769616
 40
0.1241036886
 40
0.1546537796
 40
0.185040405
 40
0.215289314
 40
0.2454297241
 40
0.2754939968
 40
0.3055162661
 40
0.3355321441
 40
0.3655771712
 40
0.3956858873
 40
0.4258908252
 40
0.456223316
 40
0.4867129438
 40
0.5173905997
 40
0.5482809607
 40
0.5793905787
 40
0.6107198839
 40
0.6422668843
 40
0.6740260207
 40
0.705987828
 40
0.7381403128
 40
0.7704690317
 40
0.8029578866
 40
0.8683042851
 40
0.9340459612
 40
1.0
 40
1.0
 40
1.0
 40
1.0
 10
10.7459129358
 20
5.5814058216
 30
0.0
 10
10.732169955
 20
5.5683638414
 30
0.0
 10
10.7067015177
 20
5.5404431577
 30
0.0
 10
10.68053212
 20
5.5012937896
 30
0.0
 10
10.6635866965
 20
5.4681772348
 30
0.0
 10
10.6529411903
 20
5.4426241579
 30
0.0
 10
10.6443911193
 20
5.4164272288
 30
0.0
 10
10.6379826452
 20
5.3897256613
 30
0.0
 10
10.6337543744
 20
5.3626626382
 30
0.0
 10
10.6317309629
 20
5.3353838421
 30
0.0
 10
10.6319244705
 20
5.3080365382
 30
0.0
 10
10.6343364563
 20
5.2807689014
 30
0.0
 10
10.6389518389
 20
5.2537286817
 30
0.0
 10
10.6457484366
 20
5.2270630774
 30
0.0
 10
10.654685244
 20
5.2009148295
 30
0.0
 10
10.6657174512
 20
5.1754235533
 30
0.0
 10
10.6787832106
 20
5.150721379
 30
0.0
 10
10.6938143562
 20
5.1269414531
 30
0.0
 10
10.7107225553
 20
5.1042113844
 30
0.0
 10
10.7294146906
 20
5.0826606418
 30
0.0
 10
10.7497802845
 20
5.0624044953
 30
0.0
 10
10.7717057772
 20
5.0435534545
 30
0.0
 10
10.7950666569
 20
5.0262046897
 30
0.0
 10
10.8197342556
 20
5.0104487313
 30
0.0
 10
10.8455754167
 20
4.9963631481
 30
0.0
 10
10.8814670308
 20
4.9798749447
 30
0.0
 10
10.9285675419
 20
4.9637954043
 30
0.0
 10
10.9873300173
 20
4.9521062593
 30
0.0
 10
11.0273175921
 20
4.9494946759
 30
0.0
 10
11.0473183383
 20
4.9494941598
 30
0.0
  0
LINE
  5
257
100
AcDbEntity
  8
0
100
AcDbLine
 62
7
  6
CONTINUOUS
 10
11.2985192524
 20
6.9318916119
 11
11.2985195673
 21
6.932517861
  0
LINE
  5
258
100
AcDbEntity
  8
0
100
AcDbLine
 62
7
  6
CONTINUOUS
 10
11.2991566058
 20
7.0312433767
 11
11.2992985595
 21
7.0412655854
  0
LINE
  5
259
100
AcDbEntity
  8
0
100
AcDbLine
 62
7
  6
CONTINUOUS
 10
11.3034626731
 20
7.1836716855
 11
11.3037611193
 21
7.1900390934
  0
SPLINE
  5
25A
100
AcDbEntity
  8
0
100
AcDbSpline
 62
7
  6
CONTINUOUS
 70
0
 71
3
 72
10
 73
6
 74
0
 42
0.0000001
 43
0.0000001
 44
0.0000000001
 40
0.0
 40
0.0
 40
0.0
 40
0.0
 40
0.5015086644
 40
0.7506042794
 40
1.0
 40
1.0
 40
1.0
 40
1.0
 10
11.3132252529
 20
7.3265857795
 30
0.0
 10
11.3148168628
 20
7.3435817716
 30
0.0
 10
11.3174545949
 20
7.3689969688
 30
0.0
 10
11.3215508012
 20
7.4027881911
 30
0.0
 10
11.3238099015
 20
7.41960543
 30
0.0
 10
11.3249985069
 20
7.4280107372
 30
0.0
  0
SPLINE
  5
25B
100
AcDbEntity
  8
0
100
AcDbSpline
 62
7
  6
CONTINUOUS
 70
0
 71
3
 72
33
 73
29
 74
0
 42
0.0000001
 43
0.0000001
 44
0.0000000001
 40
0.0
 40
0.0
 40
0.0
 40
0.0
 40
0.0366968621
 40
0.0745006313
 40
0.1141127471
 40
0.156225077
 40
0.2015086691
 40
0.2506479126
 40
0.2768829205
 40
0.3043426087
 40
0.3632359655
 40
0.3948159256
 40
0.4279146542
 40
0.4625583359
 40
0.4986749365
 40
0.5361808432
 40
0.5749937646
 40
0.5948651149
 40
0.6150305819
 40
0.6561462779
 40
0.6981326448
 40
0.7407829562
 40
0.7838964411
 40
0.8272796016
 40
0.8707482413
 40
0.914128999
 40
0.9572612768
 40
1.0
 40
1.0
 40
1.0
 40
1.0
 10
11.3249985069
 20
7.4280107372
 30
0.0
 10
11.3271603622
 20
7.4432984493
 30
0.0
 10
11.3319444158
 20
7.4742808986
 30
0.0
 10
11.3405794961
 20
7.521515877
 30
0.0
 10
11.3510115005
 20
7.570718888
 30
0.0
 10
11.3635144348
 20
7.6226792705
 30
0.0
 10
11.3783701301
 20
7.678176595
 30
0.0
 10
11.3926129255
 20
7.7269073779
 30
0.0
 10
11.4053518321
 20
7.768256272
 30
0.0
 10
11.4197129299
 20
7.8133977374
 30
0.0
 10
11.4353745304
 20
7.8604829277
 30
0.0
 10
11.4523210176
 20
7.9096354486
 30
0.0
 10
11.4662130767
 20
7.9490479464
 30
0.0
 10
11.4810145486
 20
7.9901627288
 30
0.0
 10
11.4967841985
 20
8.0328984125
 30
0.0
 10
11.5135567376
 20
8.0771319219
 30
0.0
 10
11.5282805167
 20
8.1148304079
 30
0.0
 10
11.5405991259
 20
8.1456338946
 30
0.0
 10
11.5534564775
 20
8.1772648097
 30
0.0
 10
11.5701950523
 20
8.2173613527
 30
0.0
 10
11.5912957852
 20
8.2658829988
 30
0.0
 10
11.6135728566
 20
8.3148019792
 30
0.0
 10
11.6370609854
 20
8.3638047343
 30
0.0
 10
11.6617952424
 20
8.4125781711
 30
0.0
 10
11.6878105457
 20
8.4608098848
 30
0.0
 10
11.7151423205
 20
8.5081885073
 30
0.0
 10
11.7438255791
 20
8.5544017534
 30
0.0
 10
11.7639867581
 20
8.5843956596
 30
0.0
 10
11.7743232796
 20
8.5991097202
 30
0.0
  0
LINE
  5
25C
100
AcDbEntity
  8
0
100
AcDbLine
 62
7
  6
CONTINUOUS
 10
10.796117706
 20
6.9312500069
 11
10.7961175847
 21
6.9315379386
  0
LINE
  5
25D
100
AcDbEntity
  8
0
100
AcDbLine
 62
7
  6
CONTINUOUS
 10
10.7953900739
 20
7.0377301851
 11
10.7953722811
 21
7.0389568924
  0
LINE
  5
25E
100
AcDbEntity
  8
0
100
AcDbLine
 62
7
  6
CONTINUOUS
 10
10.7911665705
 20
7.1838332761
 11
10.7907738613
 21
7.1921559513
  0
SPLINE
  5
25F
100
AcDbEntity
  8
0
100
AcDbSpline
 62
7
  6
CONTINUOUS
 70
0
 71
3
 72
10
 73
6
 74
0
 42
0.0000001
 43
0.0000001
 44
0.0000000001
 40
0.0
 40
0.0
 40
0.0
 40
0.0
 40
0.5014811257
 40
0.7505887326
 40
1.0
 40
1.0
 40
1.0
 40
1.0
 10
10.7813379409
 20
7.3273691762
 30
0.0
 10
10.7797550896
 20
7.3442152384
 30
0.0
 10
10.7771344555
 20
7.3694071695
 30
0.0
 10
10.7730703136
 20
7.4029026575
 30
0.0
 10
10.7708307464
 20
7.4195738433
 30
0.0
 10
10.769652932
 20
7.4279062906
 30
0.0
  0
SPLINE
  5
260
100
AcDbEntity
  8
0
100
AcDbSpline
 62
7
  6
CONTINUOUS
 70
0
 71
3
 72
34
 73
30
 74
0
 42
0.0000001
 43
0.0000001
 44
0.0000000001
 40
0.0
 40
0.0
 40
0.0
 40
0.0
 40
0.0366522584
 40
0.0745979827
 40
0.11450408
 40
0.1570185887
 40
0.202777627
 40
0.2524362164
 40
0.2789359332
 40
0.3066540532
 40
0.3356603747
 40
0.3660240338
 40
0.3978140474
 40
0.4142654935
 40
0.4310955945
 40
0.4658590234
 40
0.5020268704
 40
0.5395201944
 40
0.5782613168
 40
0.5980758388
 40
0.6181671067
 40
0.6590804088
 40
0.7431342539
 40
0.7858932979
 40
0.8288937347
 40
0.8719618948
 40
0.9149342618
 40
0.9576593025
 40
1.0
 40
1.0
 40
1.0
 40
1.0
 10
10.7673184716
 20
7.4439061239
 30
0.0
 10
10.765052423
 20
7.4589613275
 30
0.0
 10
10.7600423229
 20
7.4895448143
 30
0.0
 10
10.7510715949
 20
7.5362602927
 30
0.0
 10
10.740302993
 20
7.5850914125
 30
0.0
 10
10.727477517
 20
7.6367733305
 30
0.0
 10
10.7123312574
 20
7.6920351374
 30
0.0
 10
10.6978916423
 20
7.7405793091
 30
0.0
 10
10.6850239106
 20
7.7817650355
 30
0.0
 10
10.6744279546
 20
7.8146716367
 30
0.0
 10
10.6630595959
 20
7.8490143506
 30
0.0
 10
10.6508861836
 20
7.8848710503
 30
0.0
 10
10.6401699204
 20
7.9157140558
 30
0.0
 10
10.6311737695
 20
7.9412028302
 30
0.0
 10
10.621681147
 20
7.9678260103
 30
0.0
 10
10.6092558959
 20
8.0020982611
 30
0.0
 10
10.5935656677
 20
8.0443153156
 30
0.0
 10
10.5769067952
 20
8.0879331898
 30
0.0
 10
10.5623021701
 20
8.1250621604
 30
0.0
 10
10.5500999869
 20
8.1553666261
 30
0.0
 10
10.5373827186
 20
8.1864359186
 30
0.0
 10
10.5140269281
 20
8.2419812619
 30
0.0
 10
10.4855853068
 20
8.3056004706
 30
0.0
 10
10.4549327863
 20
8.3691350869
 30
0.0
 10
10.4306141908
 20
8.4168089155
 30
0.0
 10
10.4050669803
 20
8.4639379042
 30
0.0
 10
10.3782577921
 20
8.510230719
 30
0.0
 10
10.3501539135
 20
8.5553949739
 30
0.0
 10
10.3304230557
 20
8.5847202594
 30
0.0
 10
10.3203131407
 20
8.599111785
 30
0.0
  0
SPLINE
  5
261
100
AcDbEntity
  8
0
100
AcDbSpline
 62
7
  6
CONTINUOUS
 70
0
 71
3
 72
13
 73
9
 74
0
 42
0.0000001
 43
0.0000001
 44
0.0000000001
 40
0.0
 40
0.0
 40
0.0
 40
0.0
 40
0.1266844995
 40
0.2527573186
 40
0.3784313961
 40
0.5037100513
 40
0.7530240743
 40
1.0
 40
1.0
 40
1.0
 40
1.0
 10
10.7783785612
 20
6.238355157
 30
0.0
 10
10.7796620461
 20
6.2674052633
 30
0.0
 10
10.7821541172
 20
6.3253683126
 30
0.0
 10
10.7855651369
 20
6.4121645442
 30
0.0
 10
10.7885962663
 20
6.4986520873
 30
0.0
 10
10.7920561738
 20
6.6134287607
 30
0.0
 10
10.7951737751
 20
6.7560694762
 30
0.0
 10
10.7961159935
 20
6.8699862886
 30
0.0
 10
10.7961185301
 20
6.9266757501
 30
0.0
  0
SPLINE
  5
262
100
AcDbEntity
  8
0
100
AcDbSpline
 62
7
  6
CONTINUOUS
 70
0
 71
3
 72
21
 73
17
 74
0
 42
0.0000001
 43
0.0000001
 44
0.0000000001
 40
0.0
 40
0.0
 40
0.0
 40
0.0
 40
0.0599342731
 40
0.1202369914
 40
0.1809242967
 40
0.2420051801
 40
0.3034814926
 40
0.3653480893
 40
0.4275930897
 40
0.4901982373
 40
0.616327783
 40
0.7435423679
 40
0.8074858209
 40
0.8715750407
 40
0.9357626806
 40
1.0
 40
1.0
 40
1.0
 40
1.0
 10
10.751827033
 20
5.0617763181
 30
0.0
 10
10.7555640759
 20
5.0559361181
 30
0.0
 10
10.7634702479
 20
5.0444761394
 30
0.0
 10
10.7765123538
 20
5.0280866641
 30
0.0
 10
10.790716251
 20
5.012512214
 30
0.0
 10
10.8060180234
 20
4.9978192003
 30
0.0
 10
10.8223503701
 20
4.9840685392
 30
0.0
 10
10.8396414237
 20
4.9713174089
 30
0.0
 10
10.8578167432
 20
4.9596180376
 30
0.0
 10
10.8831801268
 20
4.945453631
 30
0.0
 10
10.9166975291
 20
4.9306317692
 30
0.0
 10
10.9519030068
 20
4.9199209675
 30
0.0
 10
10.9808194061
 20
4.9138707749
 30
0.0
 10
11.00282988
 20
4.9106098782
 30
0.0
 10
11.0250264501
 20
4.9086482353
 30
0.0
 10
11.0398870398
 20
4.9082117635
 30
0.0
 10
11.0473183383
 20
4.9082117637
 30
0.0
  0
SPLINE
  5
263
100
AcDbEntity
  8
0
100
AcDbSpline
 62
7
  6
CONTINUOUS
 70
0
 71
3
 72
15
 73
11
 74
0
 42
0.0000001
 43
0.0000001
 44
0.0000000001
 40
0.0
 40
0.0
 40
0.0
 40
0.0
 40
0.2605816762
 40
0.3893018948
 40
0.5164292048
 40
0.6415463196
 40
0.7643202863
 40
0.8247292534
 40
0.8843009133
 40
1.0
 40
1.0
 40
1.0
 40
1.0
 10
11.6543731088
 20
8.3524298056
 30
0.0
 10
11.6658282235
 20
8.3650801227
 30
0.0
 10
11.6822582335
 20
8.3846198283
 30
0.0
 10
11.7024488955
 20
8.4117624879
 30
0.0
 10
11.7164928505
 20
8.4323949702
 30
0.0
 10
11.7293929674
 20
8.4533049196
 30
0.0
 10
11.7391808804
 20
8.4709747723
 30
0.0
 10
11.7463638026
 20
8.4851600806
 30
0.0
 10
11.7529737472
 20
8.499109295
 30
0.0
 10
11.7574516585
 20
8.5096894938
 30
0.0
 10
11.7601574254
 20
8.5167673138
 30
0.0
  0
SPLINE
  5
264
100
AcDbEntity
  8
0
100
AcDbSpline
 62
7
  6
CONTINUOUS
 70
0
 71
3
 72
17
 73
13
 74
0
 42
0.0000001
 43
0.0000001
 44
0.0000000001
 40
0.0
 40
0.0
 40
0.0
 40
0.0
 40
0.0981676206
 40
0.2051703965
 40
0.2620984506
 40
0.3211465589
 40
0.3821161068
 40
0.4447917375
 40
0.574752168
 40
0.7107716371
 40
0.8526858936
 40
1.0
 40
1.0
 40
1.0
 40
1.0
 10
11.7743236573
 20
8.5991054435
 30
0.0
 10
11.7747454353
 20
8.5963771055
 30
0.0
 10
11.7753124619
 20
8.590623498
 30
0.0
 10
11.7753319506
 20
8.583242483
 30
0.0
 10
11.7749519215
 20
8.5769819053
 30
0.0
 10
11.774465032
 20
8.5720284785
 30
0.0
 10
11.7737927694
 20
8.566933958
 30
0.0
 10
11.772651167
 20
8.5598929932
 30
0.0
 10
11.7707975486
 20
8.5508332938
 30
0.0
 10
11.7679286222
 20
8.5397220095
 30
0.0
 10
11.7643866462
 20
8.5282951153
 30
0.0
 10
11.7616367855
 20
8.5206370651
 30
0.0
 10
11.7601574254
 20
8.5167673138
 30
0.0
  0
LINE
  5
265
100
AcDbEntity
  8
0
100
AcDbLine
 62
7
  6
CONTINUOUS
 10
11.7741967181
 20
8.5998824611
 11
11.7743236573
 21
8.5991054435
  0
SPLINE
  5
266
100
AcDbEntity
  8
0
100
AcDbSpline
 62
7
  6
CONTINUOUS
 70
0
 71
3
 72
35
 73
31
 74
0
 42
0.0000001
 43
0.0000001
 44
0.0000000001
 40
0.0
 40
0.0
 40
0.0
 40
0.0
 40
0.0297478815
 40
0.0572683971
 40
0.0703585644
 40
0.083069814
 40
0.1074423746
 40
0.1306073262
 40
0.1418446225
 40
0.1529261675
 40
0.1748701486
 40
0.1968976752
 40
0.2193198343
 40
0.2423775633
 40
0.2662372846
 40
0.2909987442
 40
0.3434889311
 40
0.3713194032
 40
0.4002197795
 40
0.4612573873
 40
0.5265837049
 40
0.5960394202
 40
0.632240579
 40
0.6693831905
 40
0.746566571
 40
0.7866662987
 40
0.8278037102
 40
0.8698941078
 40
0.9127518592
 40
1.0
 40
1.0
 40
1.0
 40
1.0
 10
11.7741967181
 20
8.5998824611
 30
0.0
 10
11.7738685477
 20
8.6018213576
 30
0.0
 10
11.773043393
 20
8.6055250662
 30
0.0
 10
11.7715284024
 20
8.6099331159
 30
0.0
 10
11.7701048733
 20
8.6131594541
 30
0.0
 10
11.7686050719
 20
8.6161191281
 30
0.0
 10
11.7665066897
 20
8.6195162248
 30
0.0
 10
11.764031529
 20
8.6225305987
 30
0.0
 10
11.7618608384
 20
8.624615335
 30
0.0
 10
11.7595948337
 20
8.6264705968
 30
0.0
 10
11.7565209784
 20
8.6284457645
 30
0.0
 10
11.7525228897
 20
8.6302851625
 30
0.0
 10
11.7482638741
 20
8.6316495381
 30
0.0
 10
11.7437668482
 20
8.6325747673
 30
0.0
 10
11.7390518144
 20
8.6330986782
 30
0.0
 10
11.7323660071
 20
8.6333152072
 30
0.0
 10
11.725417378
 20
8.6328167038
 30
0.0
 10
11.7182743167
 20
8.6317580381
 30
0.0
 10
11.7106301958
 20
8.6302696302
 30
0.0
 10
11.7006837132
 20
8.6276995711
 30
0.0
 10
11.6883682666
 20
8.623694636
 30
0.0
 10
11.6777915215
 20
8.6196997962
 30
0.0
 10
11.6690482854
 20
8.6161405823
 30
0.0
 10
11.6598880124
 20
8.6122535438
 30
0.0
 10
11.6505803341
 20
8.6080571058
 30
0.0
 10
11.6411266728
 20
8.6035511237
 30
0.0
 10
11.6338198372
 20
8.5999347471
 30
0.0
 10
11.6263912154
 20
8.5961549888
 30
0.0
 10
11.6162691832
 20
8.5909478082
 30
0.0
 10
11.6086146908
 20
8.5870253887
 30
0.0
 10
11.6034510498
 20
8.584456159
 30
0.0
  0
SPLINE
  5
267
100
AcDbEntity
  8
0
100
AcDbSpline
 62
9
  6
CONTINUOUS
 70
0
 71
3
 72
10
 73
6
 74
0
 42
0.0000001
 43
0.0000001
 44
0.0000000001
 40
0.0
 40
0.0
 40
0.0
 40
0.0
 40
0.2587541589
 40
0.6362655552
 40
1.0
 40
1.0
 40
1.0
 40
1.0
 10
11.5583331266
 20
8.5600108448
 30
0.0
 10
11.562205044
 20
8.5621552048
 30
0.0
 10
11.5717304153
 20
8.5674200044
 30
0.0
 10
11.5867435138
 20
8.5756177337
 30
0.0
 10
11.5979362842
 20
8.5815755529
 30
0.0
 10
11.6034510498
 20
8.584456159
 30
0.0
  0
LINE
  5
268
100
AcDbEntity
  8
0
100
AcDbLine
 62
9
  6
CONTINUOUS
 10
11.5542136405
 20
8.5578528849
 11
11.5583331266
 21
8.5600108448
  0
SPLINE
  5
269
100
AcDbEntity
  8
0
100
AcDbSpline
 62
9
  6
CONTINUOUS
 70
0
 71
3
 72
13
 73
9
 74
0
 42
0.0000001
 43
0.0000001
 44
0.0000000001
 40
0.0
 40
0.0
 40
0.0
 40
0.0
 40
0.2538410044
 40
0.380187601
 40
0.5061126175
 40
0.6312435516
 40
0.7552484836
 40
1.0
 40
1.0
 40
1.0
 40
1.0
 10
11.5542136405
 20
8.5578528849
 30
0.0
 10
11.5525799705
 20
8.5569275851
 30
0.0
 10
11.5501161786
 20
8.5555715985
 30
0.0
 10
11.5468138491
 20
8.553808678
 30
0.0
 10
11.5443395109
 20
8.5525163829
 30
0.0
 10
11.5418631653
 20
8.5512657357
 30
0.0
 10
11.538572488
 20
8.5496791944
 30
0.0
 10
11.5360838655
 20
8.5485614287
 30
0.0
 10
11.5344218784
 20
8.5478438446
 30
0.0
  0
SPLINE
  5
26A
100
AcDbEntity
  8
0
100
AcDbSpline
 62
9
  6
CONTINUOUS
 70
0
 71
3
 72
13
 73
9
 74
0
 42
0.0000001
 43
0.0000001
 44
0.0000000001
 40
0.0
 40
0.0
 40
0.0
 40
0.0
 40
0.2535780212
 40
0.3792704895
 40
0.5042194074
 40
0.6286400003
 40
0.7527368519
 40
1.0
 40
1.0
 40
1.0
 40
1.0
 10
11.5344218784
 20
8.5478438446
 30
0.0
 10
11.5326321235
 20
8.5466976123
 30
0.0
 10
11.5299339049
 20
8.5450159924
 30
0.0
 10
11.526298381
 20
8.5428610659
 30
0.0
 10
11.5235704749
 20
8.5412986722
 30
0.0
 10
11.5208357601
 20
8.5397756254
 30
0.0
 10
11.5171874347
 20
8.5377864654
 30
0.0
 10
11.5144350568
 20
8.5363325774
 30
0.0
 10
11.5125923806
 20
8.5353841898
 30
0.0
  0
SPLINE
  5
26B
100
AcDbEntity
  8
0
100
AcDbSpline
 62
9
  6
CONTINUOUS
 70
0
 71
3
 72
18
 73
14
 74
0
 42
0.0000001
 43
0.0000001
 44
0.0000000001
 40
0.0
 40
0.0
 40
0.0
 40
0.0
 40
0.0590525905
 40
0.1193935824
 40
0.1807227677
 40
0.242723995
 40
0.305075879
 40
0.3674887199
 40
0.4299052471
 40
0.4923789182
 40
0.6177037481
 40
0.7438594059
 40
1.0
 40
1.0
 40
1.0
 40
1.0
 10
11.5125923806
 20
8.5353841898
 30
0.0
 10
11.5105337718
 20
8.5343832784
 30
0.0
 10
11.5064004853
 20
8.5323001347
 30
0.0
 10
11.5002065454
 20
8.5290271779
 30
0.0
 10
11.4939494847
 20
8.525630286
 30
0.0
 10
11.4876367173
 20
8.522172925
 30
0.0
 10
11.4812755793
 20
8.5187163218
 30
0.0
 10
11.4748616892
 20
8.5153238042
 30
0.0
 10
11.4684036663
 20
8.5120057955
 30
0.0
 10
11.459730457
 20
8.507664247
 30
0.0
 10
11.4487704963
 20
8.5023729629
 30
0.0
 10
11.4309230958
 20
8.4940865908
 30
0.0
 10
11.4173974872
 20
8.4880314694
 30
0.0
 10
11.4083494092
 20
8.4839435137
 30
0.0
  0
SPLINE
  5
26C
100
AcDbEntity
  8
0
100
AcDbSpline
 62
9
  6
CONTINUOUS
 70
0
 71
3
 72
18
 73
14
 74
0
 42
0.0000001
 43
0.0000001
 44
0.0000000001
 40
0.0
 40
0.0
 40
0.0
 40
0.0
 40
0.120906202
 40
0.2436424948
 40
0.3678090737
 40
0.4303224381
 40
0.4930706503
 40
0.6191331798
 40
0.682401573
 40
0.7457883337
 40
0.809270353
 40
0.872824448
 40
1.0
 40
1.0
 40
1.0
 40
1.0
 10
11.4083494092
 20
8.4839435137
 30
0.0
 10
11.3946281006
 20
8.477825175
 30
0.0
 10
11.3667181519
 20
8.4660679266
 30
0.0
 10
11.3238535807
 20
8.4501706024
 30
0.0
 10
11.2872010127
 20
8.4385029152
 30
0.0
 10
11.2573219576
 20
8.4302538664
 30
0.0
 10
11.227005139
 20
8.4227488584
 30
0.0
 10
11.196301704
 20
8.4164558684
 30
0.0
 10
11.1652991864
 20
8.4114410472
 30
0.0
 10
11.1418749432
 20
8.4083333923
 30
0.0
 10
11.1183345419
 20
8.4059053369
 30
0.0
 10
11.0868278501
 20
8.4035979937
 30
0.0
 10
11.0631209455
 20
8.4029019263
 30
0.0
 10
11.0473183383
 20
8.4028889231
 30
0.0
  0
SPLINE
  5
26D
100
AcDbEntity
  8
0
100
AcDbSpline
 62
7
  6
CONTINUOUS
 70
0
 71
3
 72
22
 73
18
 74
0
 42
0.0000001
 43
0.0000001
 44
0.0000000001
 40
0.0
 40
0.0
 40
0.0
 40
0.0
 40
0.1318663422
 40
0.1975401188
 40
0.2628306685
 40
0.391750175
 40
0.4553622895
 40
0.5182814732
 40
0.5804882926
 40
0.6420017853
 40
0.7028503203
 40
0.7630827562
 40
0.8227884805
 40
0.8820896112
 40
0.9116374223
 40
0.9411305387
 40
1.0
 40
1.0
 40
1.0
 40
1.0
 10
11.0473183383
 20
5.0719481868
 30
0.0
 10
11.0267297067
 20
5.0719481868
 30
0.0
 10
10.9957997907
 20
5.0746755998
 30
0.0
 10
10.955705792
 20
5.0836007165
 30
0.0
 10
10.9169918039
 20
5.0958992919
 30
0.0
 10
10.8803906694
 20
5.1132928731
 30
0.0
 10
10.8470558184
 20
5.1352731684
 30
0.0
 10
10.8240664355
 20
5.1537865819
 30
0.0
 10
10.8032488823
 20
5.1742452949
 30
0.0
 10
10.7847736931
 20
5.1964239464
 30
0.0
 10
10.7688069802
 20
5.2201021845
 30
0.0
 10
10.7555144071
 20
5.245063417
 30
0.0
 10
10.7450675038
 20
5.2710827499
 30
0.0
 10
10.7387767313
 20
5.2934582989
 30
0.0
 10
10.7352376854
 20
5.3116017039
 30
0.0
 10
10.7327012709
 20
5.3298422545
 30
0.0
 10
10.7319291564
 20
5.3436540397
 30
0.0
 10
10.7319291585
 20
5.3528454803
 30
0.0
  0
SPLINE
  5
26E
100
AcDbEntity
  8
0
100
AcDbSpline
 62
7
  6
CONTINUOUS
 70
0
 71
3
 72
22
 73
18
 74
0
 42
0.0000001
 43
0.0000001
 44
0.0000000001
 40
0.0
 40
0.0
 40
0.0
 40
0.0
 40
0.0588694605
 40
0.0883625759
 40
0.1179103857
 40
0.177211513
 40
0.2369172332
 40
0.2971496644
 40
0.3579981944
 40
0.4195116822
 40
0.4817184972
 40
0.5446376775
 40
0.6082497897
 40
0.7371692969
 40
0.8024598507
 40
0.8681336342
 40
1.0
 40
1.0
 40
1.0
 40
1.0
 10
11.3627075181
 20
5.3528454803
 30
0.0
 10
11.3627075202
 20
5.3436540398
 30
0.0
 10
11.3619354057
 20
5.3298422549
 30
0.0
 10
11.3593989914
 20
5.3116017048
 30
0.0
 10
11.3558599458
 20
5.2934583006
 30
0.0
 10
11.3495691738
 20
5.2710827529
 30
0.0
 10
11.3391222715
 20
5.2450634217
 30
0.0
 10
11.3258297
 20
5.2201021907
 30
0.0
 10
11.3098629892
 20
5.196423954
 30
0.0
 10
11.2913878023
 20
5.1742453036
 30
0.0
 10
11.2705702513
 20
5.1537865911
 30
0.0
 10
11.2475808706
 20
5.1352731775
 30
0.0
 10
11.2142460213
 20
5.1132928808
 30
0.0
 10
11.1776448873
 20
5.0958992978
 30
0.0
 10
11.138930898
 20
5.08360072
 30
0.0
 10
11.0988368943
 20
5.0746756007
 30
0.0
 10
11.0679069736
 20
5.0719481868
 30
0.0
 10
11.0473183383
 20
5.0719481868
 30
0.0
  0
SPLINE
  5
26F
100
AcDbEntity
  8
0
100
AcDbSpline
 62
9
  6
CONTINUOUS
 70
0
 71
3
 72
26
 73
22
 74
0
 42
0.0000001
 43
0.0000001
 44
0.0000000001
 40
0.0
 40
0.0
 40
0.0
 40
0.0
 40
0.0655495996
 40
0.1310742121
 40
0.1638035971
 40
0.1964983801
 40
0.2617563253
 40
0.3267974549
 40
0.3915575817
 40
0.4559633213
 40
0.5199299878
 40
0.5833637167
 40
0.646155226
 40
0.7081685619
 40
0.7692295681
 40
0.8291519908
 40
0.8586388287
 40
0.8877851031
 40
0.9165674621
 40
0.9449218123
 40
1.0
 40
1.0
 40
1.0
 40
1.0
 10
11.0473183383
 20
8.402888886
 30
0.0
 10
11.035615068
 20
8.402900654
 30
0.0
 10
11.0122106304
 20
8.4034160289
 30
0.0
 10
10.9830166998
 20
8.4053061957
 30
0.0
 10
10.9597460284
 20
8.4075788873
 30
0.0
 10
10.9365781574
 20
8.4103556772
 30
0.0
 10
10.9078011181
 20
8.4147495869
 30
0.0
 10
10.8736139752
 20
8.4214397642
 30
0.0
 10
10.8398741926
 20
8.4294734552
 30
0.0
 10
10.8066580684
 20
8.438762327
 30
0.0
 10
10.7740425796
 20
8.4492262678
 30
0.0
 10
10.7420914619
 20
8.460743983
 30
0.0
 10
10.710865396
 20
8.4731872791
 30
0.0
 10
10.680423992
 20
8.4864100503
 30
0.0
 10
10.6508075556
 20
8.5002143083
 30
0.0
 10
10.6267171076
 20
8.5121094422
 30
0.0
 10
10.6078764377
 20
8.5217572496
 30
0.0
 10
10.5940478371
 20
8.5289934069
 30
0.0
 10
10.5804584806
 20
8.5362493327
 30
0.0
 10
10.5628346873
 20
8.5457782379
 30
0.0
 10
10.549745336
 20
8.5528893553
 30
0.0
 10
10.5410712833
 20
8.55752212
 30
0.0
  0
LINE
  5
270
100
AcDbEntity
  8
0
100
AcDbLine
 62
9
  6
CONTINUOUS
 10
10.5410712833
 20
8.55752212
 11
10.5372874296
 21
8.5595072055
  0
SPLINE
  5
271
100
AcDbEntity
  8
0
100
AcDbSpline
 62
9
  6
CONTINUOUS
 70
0
 71
3
 72
9
 73
5
 74
0
 42
0.0000001
 43
0.0000001
 44
0.0000000001
 40
0.0
 40
0.0
 40
0.0
 40
0.0
 40
0.5117518268
 40
1.0
 40
1.0
 40
1.0
 40
1.0
 10
10.5372874296
 20
8.5595072055
 30
0.0
 10
10.5294847554
 20
8.5638097167
 30
0.0
 10
10.5142281745
 20
8.5721997574
 30
0.0
 10
10.4988840624
 20
8.5804303
 30
0.0
 10
10.4913536072
 20
8.5843749564
 30
0.0
  0
SPLINE
  5
272
100
AcDbEntity
  8
0
100
AcDbSpline
 62
7
  6
CONTINUOUS
 70
0
 71
3
 72
35
 73
31
 74
0
 42
0.0000001
 43
0.0000001
 44
0.0000000001
 40
0.0
 40
0.0
 40
0.0
 40
0.0
 40
0.0300530153
 40
0.0441848042
 40
0.0578170095
 40
0.071015388
 40
0.0838175799
 40
0.1083089967
 40
0.131537745
 40
0.1538940904
 40
0.1758611574
 40
0.1978556017
 40
0.2202226289
 40
0.2432241917
 40
0.2670194027
 40
0.2917071266
 40
0.3173730891
 40
0.3440710889
 40
0.4006472463
 40
0.4615719282
 40
0.5267941091
 40
0.5961689324
 40
0.6323479285
 40
0.6694887215
 40
0.7466764648
 40
0.7867399742
 40
0.8277858808
 40
0.8697486133
 40
0.9125158646
 40
1.0
 40
1.0
 40
1.0
 40
1.0
 10
10.3203131218
 20
8.5991116666
 30
0.0
 10
10.3206183782
 20
8.6010845078
 30
0.0
 10
10.3212209495
 20
8.6039652433
 30
0.0
 10
10.3223258014
 20
8.6076449659
 30
0.0
 10
10.323251019
 20
8.6102052996
 30
0.0
 10
10.3242760173
 20
8.61263166
 30
0.0
 10
10.3257471033
 20
8.6156472089
 30
0.0
 10
10.3278222
 20
8.6191039092
 30
0.0
 10
10.3307521667
 20
8.6227425254
 30
0.0
 10
10.3340807588
 20
8.625778165
 30
0.0
 10
10.3377554623
 20
8.6282359972
 30
0.0
 10
10.3417390655
 20
8.6301497135
 30
0.0
 10
10.3459965336
 20
8.6315609916
 30
0.0
 10
10.3504980783
 20
8.6325180889
 30
0.0
 10
10.3552199725
 20
8.6330709604
 30
0.0
 10
10.3601463027
 20
8.6332577764
 30
0.0
 10
10.3652656694
 20
8.6330964168
 30
0.0
 10
10.3724751798
 20
8.6324320571
 30
0.0
 10
10.38192866
 20
8.6307959082
 30
0.0
 10
10.3936936675
 20
8.6277749026
 30
0.0
 10
10.4060561187
 20
8.6237723108
 30
0.0
 10
10.4166748764
 20
8.6197720232
 30
0.0
 10
10.4254547124
 20
8.6161991255
 30
0.0
 10
10.4346553949
 20
8.6122865053
 30
0.0
 10
10.4440018269
 20
8.6080607735
 30
0.0
 10
10.4534971786
 20
8.6035429935
 30
0.0
 10
10.4608340529
 20
8.5999362658
 30
0.0
 10
10.4682957429
 20
8.5961775391
 30
0.0
 10
10.4784829478
 20
8.5909731723
 30
0.0
 10
10.4861751754
 20
8.5870121284
 30
0.0
 10
10.4913536072
 20
8.5843749564
 30
0.0
  0
SPLINE
  5
273
100
AcDbEntity
  8
0
100
AcDbSpline
 62
7
  6
CONTINUOUS
 70
0
 71
3
 72
16
 73
12
 74
0
 42
0.0000001
 43
0.0000001
 44
0.0000000001
 40
0.0
 40
0.0
 40
0.0
 40
0.0
 40
0.0981682267
 40
0.2051753695
 40
0.2621080448
 40
0.3211674217
 40
0.4448283037
 40
0.574763472
 40
0.7107331873
 40
0.8526591567
 40
1.0
 40
1.0
 40
1.0
 40
1.0
 10
10.3203131218
 20
8.5991116666
 30
0.0
 10
10.3198909612
 20
8.5963832857
 30
0.0
 10
10.3193239216
 20
8.5906293434
 30
0.0
 10
10.3193038732
 20
8.5832478585
 30
0.0
 10
10.3196840577
 20
8.5769864874
 30
0.0
 10
10.3203450115
 20
8.5702776728
 30
0.0
 10
10.3216451394
 20
8.5615755497
 30
0.0
 10
10.3238381396
 20
8.5508367063
 30
0.0
 10
10.3267036174
 20
8.5397256341
 30
0.0
 10
10.3302474271
 20
8.528299287
 30
0.0
 10
10.3329990478
 20
8.5206404732
 30
0.0
 10
10.3344786156
 20
8.5167698614
 30
0.0
  0
SPLINE
  5
274
100
AcDbEntity
  8
0
100
AcDbSpline
 62
7
  6
CONTINUOUS
 70
0
 71
3
 72
15
 73
11
 74
0
 42
0.0000001
 43
0.0000001
 44
0.0000000001
 40
0.0
 40
0.0
 40
0.0
 40
0.0
 40
0.2605844255
 40
0.3893014445
 40
0.5164227121
 40
0.641534278
 40
0.76430707
 40
0.824717485
 40
0.8842910318
 40
1.0
 40
1.0
 40
1.0
 40
1.0
 10
10.4397729107
 20
8.3529722938
 30
0.0
 10
10.4283734387
 20
8.3655878442
 30
0.0
 10
10.4120229912
 20
8.385070467
 30
0.0
 10
10.3919289739
 20
8.41212808
 30
0.0
 10
10.3779519893
 20
8.4326929569
 30
0.0
 10
10.3651122889
 20
8.453532082
 30
0.0
 10
10.3553685993
 20
8.471140339
 30
0.0
 10
10.3482168039
 20
8.48527546
 30
0.0
 10
10.3416345188
 20
8.4991753844
 30
0.0
 10
10.3371743856
 20
8.5097176136
 30
0.0
 10
10.3344786156
 20
8.5167698614
 30
0.0
  0
ENDSEC
  0
SECTION
  2
OBJECTS
  0
DICTIONARY
  5
C
100
AcDbDictionary
280
0
281
1
  3
ACAD_GROUP
350
D
  3
ACAD_MLINESTYLE
350
17
  3
ACAD_LAYOUT
350
1A
  3
ACAD_PLOTSETTINGS
350
19
  3
ACAD_PLOTSTYLENAME
350
E
  0
DICTIONARY
  5
D
102
{ACAD_REACTORS
330
C
102
}
100
AcDbDictionary
280
0
281
1
  0
ACDBDICTIONARYWDFLT
  5
E
102
{ACAD_REACTORS
330
C
102
}
100
AcDbDictionary
281
1
  3
Normal
350
F
100
AcDbDictionaryWithDefault
340
F
  0
DICTIONARY
  5
17
102
{ACAD_REACTORS
330
C
102
}
100
AcDbDictionary
280
0
281
1
  3
Standard
350
18
  0
DICTIONARY
  5
19
102
{ACAD_REACTORS
330
C
102
}
100
AcDbDictionary
281
1
  0
DICTIONARY
  5
1A
102
{ACAD_REACTORS
330
C
102
}
100
AcDbDictionary
281
1
  3
Model
350
275
  3
Layout1
350
276
  0
ACDBPLACEHOLDER
  5
F
102
{ACAD_REACTORS
330
E
102
}
  0
MLINESTYLE
  5
18
102
{ACAD_REACTORS
330
17
102
}
100
AcDbMlineStyle
  2
STANDARD
 70
0
  3

 62
256
 51
90.0
 52
90.0
 71
2
 49
0.5
 62
256
  6
BYLAYER
 49
-0.5
 62
256
  6
BYLAYER
  0
LAYOUT
  5
275
102
{ACAD_REACTORS
330
1A
102
}
100
AcDbPlotSettings
  1

  2
none_device
  4
ANSI_C_(22.00_x_17.00_Inches)
  6

 40
0.0
 41
0.0
 42
0.0
 43
0.0
 44
558.8
 45
431.8
 46
0.0
 47
0.0
 48
0.0
 49
0.0
140
0.0
141
0.0
142
1.0
143
1.0
 70
1024
 72
0
 73
0
 74
0
  7

 75
0
147
1.0
148
0.0
149
0.0
100
AcDbLayout
  1
Model
 70
0
 71
0
 10
0.0
 20
0.0
 11
22.0
 21
17.0
 12
0.0
 22
0.0
 32
0.0
 14
0.0
 24
0.0
 34
0.0
 15
0.0
 25
0.0
 35
0.0
146
0.0
 13
0.0
 23
0.0
 33
0.0
 16
1.0
 26
0.0
 36
0.0
 17
0.0
 27
1.0
 37
0.0
 76
0
330
205
345
0
346
0
  0
LAYOUT
  5
276
102
{ACAD_REACTORS
330
1A
102
}
100
AcDbPlotSettings
  1

  2
none_device
  4
ANSI_C_(22.00_x_17.00_Inches)
  6

 40
0.0
 41
0.0
 42
0.0
 43
0.0
 44
558.8
 45
431.8
 46
0.0
 47
0.0
 48
0.0
 49
0.0
140
0.0
141
0.0
142
1.0
143
1.0
 70
0
 72
0
 73
0
 74
0
  7

 75
0
147
1.0
148
0.0
149
0.0
100
AcDbLayout
  1
Layout1
 70
0
 71
1
 10
0.0
 20
0.0
 11
22.0
 21
17.0
 12
0.0
 22
0.0
 32
0.0
 14
0.0
 24
0.0
 34
0.0
 15
0.0
 25
0.0
 35
0.0
146
0.0
 13
0.0
 23
0.0
 33
0.0
 16
1.0
 26
0.0
 36
0.0
 17
0.0
 27
1.0
 37
0.0
 76
0
330
206
345
0
346
0
  0
ENDSEC
  0
EOF
