999
DXF file: 1030-7173_RIGHT.dxf
999
Pro/ENGINEER 2025093 by Parametric Technology Corporation
  0
SECTION
  2
HEADER
  9
$ACADVER
  1
AC1032
  9
$DWGCODEPAGE
  3
ANSI_1252
  9
$EXTMAX
 10
22.0
 20
17.0
 30
0.0
  9
$EXTMIN
 10
0.0
 20
0.0
 30
0.0
  9
$LIMMIN
 10
0.0
 20
0.0
  9
$LIMMAX
 10
22.0
 20
17.0
  9
$VIEWCTR
 10
11.0
 20
8.5
  9
$VIEWSIZE
 40
17.0
  9
$CLAYER
  8
0
  9
$LTSCALE
 40
1.21
  9
$CELTYPE
  6
BYLAYER
  9
$DIMSCALE
 40
1.0
  9
$DIMASZ
 40
0.1875
  9
$DIMEXO
 40
0.0625
  9
$DIMDLI
 40
0.836
  9
$DIMEXE
 40
0.125
  9
$DIMCEN
 40
0.198
  9
$DIMLFAC
 40
1.0
  9
$DIMBLK
  1
_FILLED
  9
$DIMALT
 70
0
  9
$DIMALTF
 40
25.4
  9
$DIMTXT
 40
0.15625
  9
$DIMTOL
 70
0
  9
$DIMLIM
 70
0
  9
$DIMTFAC
 40
1.0
  9
$DIMGAP
 40
0.09
  9
$DIMDSEP
 70
46
  9
$AUNITS
 70
0
  9
$PDMODE
 70
3
  9
$PDSIZE
 40
0.3125
  9
$HANDSEED
  5
341
  9
$TILEMODE
 70
1
  9
$MEASUREMENT
 70
0
  9
$INSUNITS
 70
1
  0
ENDSEC
  0
SECTION
  2
CLASSES
  0
CLASS
  1
ACDBDICTIONARYWDFLT
  2
AcDbDictionaryWithDefault
  3
AutoCAD 2000
 90
0
 91
1
280
0
281
0
  0
CLASS
  1
ACDBPLACEHOLDER
  2
AcDbPlaceHolder
  3
AutoCAD 2000
 90
0
 91
1
280
0
281
0
  0
CLASS
  1
LAYOUT
  2
AcDbLayout
  3
AutoCAD 2000
 90
0
 91
0
280
0
281
0
  0
ENDSEC
  0
SECTION
  2
TABLES
  0
TABLE
  2
VPORT
  5
8
100
AcDbSymbolTable
 70
2
  0
VPORT
  5
1F4
100
AcDbSymbolTableRecord
100
AcDbViewportTableRecord
  2
*ACTIVE
 70
0
 10
0.0
 20
0.0
 11
1.0
 21
1.0
 12
11.0
 22
8.5
 13
0.0
 23
0.0
 14
1.0
 24
1.0
 15
0.0
 25
0.0
 16
0.0
 26
0.0
 36
1.0
 17
0.0
 27
0.0
 37
0.0
 40
17.0
 41
1.2941176471
 42
50.0
 43
0.0
 44
0.0
 50
0.0
 51
0.0
 71
0
 72
100
 73
1
 74
1
 75
0
 76
0
 77
0
 78
0
  0
ENDTAB
  0
TABLE
  2
LTYPE
  5
5
100
AcDbSymbolTable
 70
6
  0
LTYPE
  5
14
100
AcDbSymbolTableRecord
100
AcDbLinetypeTableRecord
  2
BYBLOCK
 70
0
  3

 72
65
 73
0
 40
0.0
  0
LTYPE
  5
15
100
AcDbSymbolTableRecord
100
AcDbLinetypeTableRecord
  2
BYLAYER
 70
0
  3

 72
65
 73
0
 40
0.0
  0
LTYPE
  5
16
100
AcDbSymbolTableRecord
100
AcDbLinetypeTableRecord
  2
CONTINUOUS
 70
64
  3
Solid line
 72
65
 73
0
 40
0.0
  0
LTYPE
  5
1F5
100
AcDbSymbolTableRecord
100
AcDbLinetypeTableRecord
  2
CENTER
 70
64
  3
____ _ ____ _ ____ _ ____ _ ____ _ ____ _ ____
 72
65
 73
4
 40
0.6
 49
0.375
 74
0
 49
-0.075
 74
0
 49
0.075
 74
0
 49
-0.075
 74
0
  0
LTYPE
  5
1F6
100
AcDbSymbolTableRecord
100
AcDbLinetypeTableRecord
  2
HIDDEN
 70
64
  3
- - - - - - - - - - - - - - - - - - - -
 72
65
 73
2
 40
0.2
 49
0.1
 74
0
 49
-0.1
 74
0
  0
LTYPE
  5
1F7
100
AcDbSymbolTableRecord
100
AcDbLinetypeTableRecord
  2
PHANTOM
 70
64
  3
_____ _ _ _____ _ _ _____ _ _ _____
 72
65
 73
6
 40
0.8
 49
0.45
 74
0
 49
-0.05
 74
0
 49
0.1
 74
0
 49
-0.05
 74
0
 49
0.1
 74
0
 49
-0.05
 74
0
  0
LTYPE
  5
1F8
100
AcDbSymbolTableRecord
100
AcDbLinetypeTableRecord
  2
DOT
 70
64
  3
. . . . . . . . . . . . . . . . . . . .
 72
65
 73
2
 40
0.2
 49
0.1
 74
0
 49
-0.1
 74
0
  0
LTYPE
  5
1F9
100
AcDbSymbolTableRecord
100
AcDbLinetypeTableRecord
  2
DASHED
 70
64
  3
- - - - - - - - - - - - - - - - - - - -
 72
65
 73
2
 40
0.2
 49
0.1
 74
0
 49
-0.1
 74
0
  0
ENDTAB
  0
TABLE
  2
LAYER
  5
2
100
AcDbSymbolTable
 70
36
  0
LAYER
  5
10
100
AcDbSymbolTableRecord
100
AcDbLayerTableRecord
  2
0
 70
0
 62
7
  6
CONTINUOUS
370
-3
390
F
  0
LAYER
  5
1FA
100
AcDbSymbolTableRecord
100
AcDbLayerTableRecord
  2
DEFAULT_1
 70
0
 62
7
  6
CENTER
370
-3
390
F
  0
LAYER
  5
1FB
100
AcDbSymbolTableRecord
100
AcDbLayerTableRecord
  2
DEFAULT_2
 70
0
 62
8
  6
HIDDEN
370
-3
390
F
  0
LAYER
  5
1FC
100
AcDbSymbolTableRecord
100
AcDbLayerTableRecord
  2
DEFAULT_3
 70
0
 62
7
  6
PHANTOM
370
-3
390
F
  0
LAYER
  5
1FD
100
AcDbSymbolTableRecord
100
AcDbLayerTableRecord
  2
DEFAULT_COORDINATE_SYSTEM
 70
0
 62
7
  6
CONTINUOUS
370
-3
390
F
  0
LAYER
  5
1FE
100
AcDbSymbolTableRecord
100
AcDbLayerTableRecord
  2
DEFAULT_DATUM_AXES
 70
0
 62
7
  6
CONTINUOUS
370
-3
390
F
  0
LAYER
  5
1FF
100
AcDbSymbolTableRecord
100
AcDbLayerTableRecord
  2
DEFAULT_DATUM_CURVES
 70
0
 62
7
  6
CONTINUOUS
370
-3
390
F
  0
LAYER
  5
200
100
AcDbSymbolTableRecord
100
AcDbLayerTableRecord
  2
DEFAULT_DATUM_PLANES
 70
0
 62
7
  6
CONTINUOUS
370
-3
390
F
  0
ENDTAB
  0
TABLE
  2
STYLE
  5
3
100
AcDbSymbolTable
 70
1
  0
STYLE
  5
11
100
AcDbSymbolTableRecord
100
AcDbTextStyleTableRecord
  2
STANDARD
 70
0
 40
0.0
 41
0.8
 50
0.0
 71
0
 42
0.2
  3
txt
  4

  0
STYLE
  5
201
100
AcDbSymbolTableRecord
100
AcDbTextStyleTableRecord
  2
TEXTSTYLE_1
 70
0
 40
0.0
 41
0.8
 50
0.0
 71
0
 42
0.2
  3
gdt
  4

  0
ENDTAB
  0
TABLE
  2
VIEW
  5
6
100
AcDbSymbolTable
 70
0
  0
ENDTAB
  0
TABLE
  2
UCS
  5
7
100
AcDbSymbolTable
 70
0
  0
ENDTAB
  0
TABLE
  2
APPID
  5
9
100
AcDbSymbolTable
 70
1
  0
APPID
  5
202
100
AcDbSymbolTableRecord
100
AcDbRegAppTableRecord
  2
ACAD
 70
0
  0
ENDTAB
  0
TABLE
  2
BLOCK_RECORD
  5
1
100
AcDbSymbolTable
 70
0
  0
BLOCK_RECORD
  5
203
100
AcDbSymbolTableRecord
100
AcDbBlockTableRecord
  2
*Model_Space
  0
BLOCK_RECORD
  5
204
100
AcDbSymbolTableRecord
100
AcDbBlockTableRecord
  2
*Paper_Space
  0
BLOCK_RECORD
  5
205
100
AcDbSymbolTableRecord
100
AcDbBlockTableRecord
  2
_FILLED
  0
ENDTAB
  0
TABLE
  2
DIMSTYLE
  5
A
100
AcDbSymbolTable
 70
1
100
AcDbDimStyleTable
 71
0
  0
DIMSTYLE
105
206
100
AcDbSymbolTableRecord
100
AcDbDimStyleTableRecord
  2
STANDARD
 70
0
  3

  4

 40
1.0
 41
0.1875
 42
0.0625
 43
0.38
 44
0.125
 45
0.0
 46
0.0
 47
0.001
 48
0.001
140
0.15625
141
0.0
142
0.0
143
25.4
144
1.0
145
0.0
146
1.0
147
0.09
 71
0
 72
0
 73
1
 74
1
 75
0
 76
0
 77
0
 78
4
 79
1
170
0
171
2
172
0
173
0
174
0
175
0
176
0
177
0
178
0
270
2
179
1
271
3
272
3
273
2
274
2
275
0
280
0
281
0
282
0
283
1
284
4
285
0
286
0
287
3
288
0
340
11
278
46
341
205
342
205
343
205
344
205
  0
ENDTAB
  0
ENDSEC
  0
SECTION
  2
BLOCKS
  0
BLOCK
  5
20
100
AcDbEntity
  8
0
100
AcDbBlockBegin
  2
*Model_Space
 70
0
 10
0.0
 20
0.0
 30
0.0
  3
*Model_Space
  1

  0
ENDBLK
  5
21
100
AcDbEntity
  8
0
100
AcDbBlockEnd
  0
BLOCK
  5
1C
100
AcDbEntity
  8
0
100
AcDbBlockBegin
  2
*Paper_Space
 70
0
 10
0.0
 20
0.0
 30
0.0
  3
*Paper_Space
  1

  0
ENDBLK
  5
1D
100
AcDbEntity
  8
0
100
AcDbBlockEnd
  0
BLOCK
  5
207
100
AcDbEntity
  8
0
100
AcDbBlockBegin
  2
_FILLED
 70
64
 10
0.0
 20
0.0
 30
0.0
  3
_FILLED
  1

  0
SOLID
  5
208
100
AcDbEntity
  8
0
  6
BYBLOCK
 62
0
100
AcDbTrace
 10
0.0
 20
0.0
 30
0.0
 11
-1.0
 21
0.1666666667
 31
0.0
 12
-1.0
 22
-0.1666666667
 32
0.0
 13
-1.0
 23
-0.1666666667
 33
0.0
  0
ENDBLK
  5
209
100
AcDbEntity
  8
0
  6
BYBLOCK
 62
0
100
AcDbBlockEnd
  0
ENDSEC
  0
SECTION
  2
ENTITIES
  0
LINE
  5
20A
100
AcDbEntity
  8
0
100
AcDbLine
 62
7
  6
CONTINUOUS
 10
0.0
 20
0.0
 30
0.0
 11
0.0
 21
17.0
 31
0.0
  0
LINE
  5
20B
100
AcDbEntity
  8
0
100
AcDbLine
 62
7
  6
CONTINUOUS
 10
0.0
 20
0.0
 30
0.0
 11
22.0
 21
0.0
 31
0.0
  0
LINE
  5
20C
100
AcDbEntity
  8
0
100
AcDbLine
 62
7
  6
CONTINUOUS
 10
0.0
 20
17.0
 30
0.0
 11
22.0
 21
17.0
 31
0.0
  0
LINE
  5
20D
100
AcDbEntity
  8
0
100
AcDbLine
 62
7
  6
CONTINUOUS
 10
22.0
 20
0.0
 30
0.0
 11
22.0
 21
17.0
 31
0.0
  0
LINE
  5
20E
100
AcDbEntity
  8
0
100
AcDbLine
 62
7
  6
CONTINUOUS
 10
13.568725808
 20
3.2812964827
 30
0.0
 11
14.803475808
 21
3.2812964827
 31
0.0
  0
LINE
  5
20F
100
AcDbEntity
  8
0
100
AcDbLine
 62
7
  6
CONTINUOUS
 10
13.6732805062
 20
3.4310337988
 30
0.0
 11
14.6989211098
 21
3.4310337988
 31
0.0
  0
LINE
  5
210
100
AcDbEntity
  8
0
100
AcDbLine
 62
7
  6
CONTINUOUS
 10
13.6838767316
 20
3.4492079608
 30
0.0
 11
14.6883248844
 21
3.4492079608
 31
0.0
  0
LINE
  5
211
100
AcDbEntity
  8
0
100
AcDbLine
 62
7
  6
CONTINUOUS
 10
13.737850808
 20
3.6167964827
 30
0.0
 11
14.634350808
 21
3.6167964827
 31
0.0
  0
LINE
  5
212
100
AcDbEntity
  8
0
100
AcDbLine
 62
7
  6
CONTINUOUS
 10
7.5304921785
 20
10.4396095563
 30
0.0
 11
7.5302552867
 21
10.432825864
 31
0.0
  0
LINE
  5
213
100
AcDbEntity
  8
0
100
AcDbLine
 62
7
  6
CONTINUOUS
 10
7.5256459946
 20
10.3008330065
 30
0.0
 11
7.5255513002
 21
10.2981213159
 31
0.0
  0
LINE
  5
214
100
AcDbEntity
  8
0
100
AcDbLine
 62
7
  6
CONTINUOUS
 10
7.736670688
 20
10.7255137114
 30
0.0
 11
7.7602801975
 21
11.4016016059
 31
0.0
  0
LINE
  5
215
100
AcDbEntity
  8
0
100
AcDbLine
 62
7
  6
CONTINUOUS
 10
7.8067433691
 20
12.7163732162
 30
0.0
 11
7.7974917837
 21
12.451442475
 31
0.0
  0
LINE
  5
216
100
AcDbEntity
  8
0
100
AcDbLine
 62
7
  6
CONTINUOUS
 10
7.7645771929
 20
11.5088919153
 30
0.0
 11
7.7938404269
 21
12.3468812956
 31
0.0
  0
LINE
  5
217
100
AcDbEntity
  8
0
100
AcDbLine
 62
7
  6
CONTINUOUS
 10
7.8073274063
 20
10.2698647467
 30
0.0
 11
7.806420569
 21
10.2438963236
 31
0.0
  0
LINE
  5
218
100
AcDbEntity
  8
0
100
AcDbLine
 62
7
  6
CONTINUOUS
 10
7.8313615057
 20
10.2690254574
 30
0.0
 11
7.8304546683
 21
10.2430570343
 31
0.0
  0
LINE
  5
219
100
AcDbEntity
  8
0
100
AcDbLine
 62
7
  6
CONTINUOUS
 10
7.8765308374
 20
10.2674481096
 30
0.0
 11
7.8756240001
 21
10.2414796865
 31
0.0
  0
LINE
  5
21A
100
AcDbEntity
  8
0
100
AcDbLine
 62
7
  6
CONTINUOUS
 10
7.932795754
 20
10.2654832954
 30
0.0
 11
7.9318889167
 21
10.2395148723
 31
0.0
  0
LINE
  5
21B
100
AcDbEntity
  8
0
100
AcDbLine
 62
7
  6
CONTINUOUS
 10
7.9373873134
 20
10.2653229546
 30
0.0
 11
7.936480476
 21
10.2393545316
 31
0.0
  0
LINE
  5
21C
100
AcDbEntity
  8
0
100
AcDbLine
 62
7
  6
CONTINUOUS
 10
7.99365223
 20
10.2633581404
 30
0.0
 11
7.9927453927
 21
10.2373897174
 31
0.0
  0
LINE
  5
21D
100
AcDbEntity
  8
0
100
AcDbLine
 62
7
  6
CONTINUOUS
 10
8.0065907445
 20
10.2629063176
 30
0.0
 11
8.0056839071
 21
10.2369378945
 31
0.0
  0
LINE
  5
21E
100
AcDbEntity
  8
0
100
AcDbLine
 62
7
  6
CONTINUOUS
 10
8.0628556611
 20
10.2609415034
 30
0.0
 11
8.0619488238
 21
10.2349730803
 31
0.0
  0
LINE
  5
21F
100
AcDbEntity
  8
0
100
AcDbLine
 62
7
  6
CONTINUOUS
 10
8.0757941756
 20
10.2604896805
 30
0.0
 11
8.0748873383
 21
10.2345212574
 31
0.0
  0
LINE
  5
220
100
AcDbEntity
  8
0
100
AcDbLine
 62
7
  6
CONTINUOUS
 10
8.4053776884
 20
10.7256078085
 30
0.0
 11
8.4009035854
 21
10.7155588085
 31
0.0
  0
LINE
  5
221
100
AcDbEntity
  8
0
100
AcDbLine
 62
7
  6
CONTINUOUS
 10
8.5245252074
 20
10.6605189162
 30
0.0
 11
8.5289993105
 21
10.6705679163
 31
0.0
  0
LINE
  5
222
100
AcDbEntity
  8
0
100
AcDbLine
 62
7
  6
CONTINUOUS
 10
8.4613357643
 20
10.9217941181
 30
0.0
 11
8.4113577439
 21
10.8418125664
 31
0.0
  0
LINE
  5
223
100
AcDbEntity
  8
0
100
AcDbLine
 62
7
  6
CONTINUOUS
 10
8.4706642934
 20
10.9159650062
 30
0.0
 11
8.420686273
 21
10.8359834544
 31
0.0
  0
LINE
  5
224
100
AcDbEntity
  8
0
100
AcDbLine
 62
7
  6
CONTINUOUS
 10
7.8708156404
 20
10.219980856
 30
0.0
 11
7.8808950308
 21
10.2333605355
 31
0.0
  0
LINE
  5
225
100
AcDbEntity
  8
0
100
AcDbLine
 62
7
  6
CONTINUOUS
 10
7.9159849721
 20
10.2184035082
 30
0.0
 11
7.9318889167
 21
10.2395148723
 31
0.0
  0
LINE
  5
226
100
AcDbEntity
  8
0
100
AcDbLine
 62
7
  6
CONTINUOUS
 10
7.9768414481
 20
10.2162783533
 30
0.0
 11
7.9927453927
 21
10.2373897174
 31
0.0
  0
LINE
  5
227
100
AcDbEntity
  8
0
100
AcDbLine
 62
7
  6
CONTINUOUS
 10
8.0460448792
 20
10.2138617162
 30
0.0
 11
8.0619488238
 21
10.2349730803
 31
0.0
  0
LINE
  5
228
100
AcDbEntity
  8
0
100
AcDbLine
 62
7
  6
CONTINUOUS
 10
8.1152483103
 20
10.2114450791
 30
0.0
 11
8.1311522549
 21
10.2325564432
 31
0.0
  0
LINE
  5
229
100
AcDbEntity
  8
0
100
AcDbLine
 62
7
  6
CONTINUOUS
 10
8.1761047863
 20
10.2093199242
 30
0.0
 11
8.1920087309
 21
10.2304312883
 31
0.0
  0
LINE
  5
22A
100
AcDbEntity
  8
0
100
AcDbLine
 62
7
  6
CONTINUOUS
 10
8.221274118
 20
10.2077425763
 30
0.0
 11
8.2371780626
 21
10.2288539405
 31
0.0
  0
LINE
  5
22B
100
AcDbEntity
  8
0
100
AcDbLine
 62
7
  6
CONTINUOUS
 10
14.2989148341
 20
5.4966576425
 30
0.0
 11
14.0733744413
 21
5.4966576425
 31
0.0
  0
LINE
  5
22C
100
AcDbEntity
  8
0
100
AcDbLine
 62
7
  6
CONTINUOUS
 10
14.2800501843
 20
5.523698981
 30
0.0
 11
14.0922390912
 21
5.523698981
 31
0.0
  0
LINE
  5
22D
100
AcDbEntity
  8
0
100
AcDbLine
 62
7
  6
CONTINUOUS
 10
14.2851446377
 20
5.537274042
 30
0.0
 11
14.0871446377
 21
5.537274042
 31
0.0
  0
LINE
  5
22E
100
AcDbEntity
  8
0
100
AcDbLine
 62
7
  6
CONTINUOUS
 10
14.2915485981
 20
5.5521097103
 30
0.0
 11
14.0807406773
 21
5.5521097103
 31
0.0
  0
LINE
  5
22F
100
AcDbEntity
  8
0
100
AcDbLine
 62
7
  6
CONTINUOUS
 10
14.2896232091
 20
5.6903382568
 30
0.0
 11
14.1895100979
 21
5.6903382568
 31
0.0
  0
LINE
  5
230
100
AcDbEntity
  8
0
100
AcDbLine
 62
7
  6
CONTINUOUS
 10
14.1827822269
 20
5.6903382568
 30
0.0
 11
14.0826660663
 21
5.6903382568
 31
0.0
  0
LINE
  5
231
100
AcDbEntity
  8
0
100
AcDbLine
 62
7
  6
CONTINUOUS
 10
14.2939446377
 20
5.7016822406
 30
0.0
 11
14.2684361795
 21
5.7016822406
 31
0.0
  0
LINE
  5
232
100
AcDbEntity
  8
0
100
AcDbLine
 62
7
  6
CONTINUOUS
 10
14.1038561452
 20
5.7016822406
 30
0.0
 11
14.0783446377
 21
5.7016822406
 31
0.0
  0
LINE
  5
233
100
AcDbEntity
  8
0
100
AcDbLine
 62
7
  6
CONTINUOUS
 10
14.2939446377
 20
5.7094866008
 30
0.0
 11
14.292829248
 21
5.7094866008
 31
0.0
  0
LINE
  5
234
100
AcDbEntity
  8
0
100
AcDbLine
 62
7
  6
CONTINUOUS
 10
14.0794604358
 20
5.7094866008
 30
0.0
 11
14.0783446377
 21
5.7094866008
 31
0.0
  0
LINE
  5
235
100
AcDbEntity
  8
0
100
AcDbLine
 62
7
  6
CONTINUOUS
 10
8.3904852991
 20
10.7665489616
 30
0.0
 11
8.391117253
 21
10.7303443438
 31
0.0
  0
LINE
  5
236
100
AcDbEntity
  8
0
100
AcDbLine
 62
7
  6
CONTINUOUS
 10
8.4014836237
 20
10.7667409381
 30
0.0
 11
8.4021155777
 21
10.7305363203
 31
0.0
  0
LINE
  5
237
100
AcDbEntity
  8
0
100
AcDbLine
 62
7
  6
CONTINUOUS
 10
8.1320590922
 20
10.2585248663
 30
0.0
 11
8.1311522549
 21
10.2325564432
 31
0.0
  0
LINE
  5
238
100
AcDbEntity
  8
0
100
AcDbLine
 62
7
  6
CONTINUOUS
 10
8.1366506515
 20
10.2583645255
 30
0.0
 11
8.1357438142
 21
10.2323961025
 31
0.0
  0
LINE
  5
239
100
AcDbEntity
  8
0
100
AcDbLine
 62
7
  6
CONTINUOUS
 10
8.1929155682
 20
10.2563997113
 30
0.0
 11
8.1920087309
 21
10.2304312883
 31
0.0
  0
LINE
  5
23A
100
AcDbEntity
  8
0
100
AcDbLine
 62
7
  6
CONTINUOUS
 10
8.2380848999
 20
10.2548223635
 30
0.0
 11
8.2371780626
 21
10.2288539405
 31
0.0
  0
LINE
  5
23B
100
AcDbEntity
  8
0
100
AcDbLine
 62
7
  6
CONTINUOUS
 10
8.2621189993
 20
10.2539830743
 30
0.0
 11
8.261212162
 21
10.2280146512
 31
0.0
  0
LINE
  5
23C
100
AcDbEntity
  8
0
100
AcDbLine
 62
7
  6
CONTINUOUS
 10
8.3353674368
 20
11.1239622203
 30
0.0
 11
8.3207410578
 21
10.7051175247
 31
0.0
  0
LINE
  5
23D
100
AcDbEntity
  8
0
100
AcDbLine
 62
7
  6
CONTINUOUS
 10
8.3637609584
 20
11.1229706966
 30
0.0
 11
8.3485587377
 21
10.6876360524
 31
0.0
  0
LINE
  5
23E
100
AcDbEntity
  8
0
100
AcDbLine
 62
7
  6
CONTINUOUS
 10
8.3911952414
 20
11.4870099309
 30
0.0
 11
8.4204584754
 21
12.3249993112
 31
0.0
  0
LINE
  5
23F
100
AcDbEntity
  8
0
100
AcDbLine
 62
7
  6
CONTINUOUS
 10
8.4241098323
 20
12.4295604905
 30
0.0
 11
8.4333614176
 21
12.6944912318
 31
0.0
  0
LINE
  5
240
100
AcDbEntity
  8
0
100
AcDbLine
 62
7
  6
CONTINUOUS
 10
8.3804378348
 20
11.1631985712
 30
0.0
 11
8.3879975759
 21
11.379681232
 31
0.0
  0
LINE
  5
241
100
AcDbEntity
  8
0
100
AcDbLine
 62
7
  6
CONTINUOUS
 10
8.3845262587
 20
11.1384398547
 30
0.0
 11
8.3687592093
 21
10.6869306364
 31
0.0
  0
LINE
  5
242
100
AcDbEntity
  8
0
100
AcDbLine
 62
7
  6
CONTINUOUS
 10
8.4004513787
 20
11.1216894389
 30
0.0
 11
8.3858249997
 21
10.7028447433
 31
0.0
  0
LINE
  5
243
100
AcDbEntity
  8
0
100
AcDbLine
 62
7
  6
CONTINUOUS
 10
8.4154057495
 20
11.0771404009
 30
0.0
 11
8.4069187524
 21
10.8341046021
 31
0.0
  0
LINE
  5
244
100
AcDbEntity
  8
0
100
AcDbLine
 62
7
  6
CONTINUOUS
 10
8.4027503294
 20
10.7147365851
 30
0.0
 11
8.4017391066
 21
10.685778953
 31
0.0
  0
LINE
  5
245
100
AcDbEntity
  8
0
100
AcDbLine
 62
7
  6
CONTINUOUS
 10
8.4483856468
 20
11.0759887175
 30
0.0
 11
8.4419157679
 21
10.8907156273
 31
0.0
  0
LINE
  5
246
100
AcDbEntity
  8
0
100
AcDbLine
 62
7
  6
CONTINUOUS
 10
8.4352649164
 20
10.7002601582
 30
0.0
 11
8.4347190039
 21
10.6846272696
 31
0.0
  0
LINE
  5
247
100
AcDbEntity
  8
0
100
AcDbLine
 62
7
  6
CONTINUOUS
 10
8.4763478318
 20
10.9311485534
 30
0.0
 11
8.4802138607
 21
11.0418571368
 31
0.0
  0
LINE
  5
248
100
AcDbEntity
  8
0
100
AcDbLine
 62
7
  6
CONTINUOUS
 10
8.4998887094
 20
10.7384964105
 30
0.0
 11
8.4995779659
 21
10.7295978872
 31
0.0
  0
LINE
  5
249
100
AcDbEntity
  8
0
100
AcDbLine
 62
7
  6
CONTINUOUS
 10
8.5035349589
 20
10.8429113346
 30
0.0
 11
8.5038448252
 21
10.8517847424
 31
0.0
  0
LINE
  5
24A
100
AcDbEntity
  8
0
100
AcDbLine
 62
7
  6
CONTINUOUS
 10
8.5501206697
 20
10.4040033448
 30
0.0
 11
8.549883778
 21
10.3972196525
 31
0.0
  0
LINE
  5
24B
100
AcDbEntity
  8
0
100
AcDbLine
 62
7
  6
CONTINUOUS
 10
8.5452744858
 20
10.265226795
 30
0.0
 11
8.5451797915
 21
10.2625151044
 31
0.0
  0
LINE
  5
24C
100
AcDbEntity
  8
0
100
AcDbLine
 62
7
  6
CONTINUOUS
 10
8.2453082174
 20
10.2069032871
 30
0.0
 11
8.261212162
 21
10.2280146512
 31
0.0
  0
LINE
  5
24D
100
AcDbEntity
  8
0
100
AcDbLine
 62
7
  6
CONTINUOUS
 10
14.0777946377
 20
6.2814866008
 30
0.0
 11
14.0794604815
 21
6.2814866008
 31
0.0
  0
LINE
  5
24E
100
AcDbEntity
  8
0
100
AcDbLine
 62
7
  6
CONTINUOUS
 10
14.2928292936
 20
6.2814866008
 30
0.0
 11
14.2944946377
 21
6.2814866008
 31
0.0
  0
LINE
  5
24F
100
AcDbEntity
  8
0
100
AcDbLine
 62
7
  6
CONTINUOUS
 10
14.0777946377
 20
6.3144866008
 30
0.0
 11
14.2944946377
 21
6.3144866008
 31
0.0
  0
LINE
  5
250
100
AcDbEntity
  8
0
100
AcDbLine
 62
7
  6
CONTINUOUS
 10
14.0313196377
 20
6.4244866008
 30
0.0
 11
14.3409696377
 21
6.4244866008
 31
0.0
  0
LINE
  5
251
100
AcDbEntity
  8
0
100
AcDbLine
 62
7
  6
CONTINUOUS
 10
14.0313196377
 20
6.4822366008
 30
0.0
 11
14.3409696377
 21
6.4822366008
 31
0.0
  0
LINE
  5
252
100
AcDbEntity
  8
0
100
AcDbLine
 62
7
  6
CONTINUOUS
 10
14.626100808
 20
7.0707964827
 30
0.0
 11
14.3423034676
 21
7.0707964827
 31
0.0
  0
LINE
  5
253
100
AcDbEntity
  8
0
100
AcDbLine
 62
7
  6
CONTINUOUS
 10
14.0299858078
 20
7.0707964827
 30
0.0
 11
13.746100808
 21
7.0707964827
 31
0.0
  0
LINE
  5
254
100
AcDbEntity
  8
0
100
AcDbLine
 62
7
  6
CONTINUOUS
 10
14.653600808
 20
7.0872964827
 30
0.0
 11
14.3430381105
 21
7.0872964827
 31
0.0
  0
LINE
  5
255
100
AcDbEntity
  8
0
100
AcDbLine
 62
7
  6
CONTINUOUS
 10
13.718600808
 20
7.0872964827
 30
0.0
 11
14.0292511649
 21
7.0872964827
 31
0.0
  0
LINE
  5
256
100
AcDbEntity
  8
0
100
AcDbLine
 62
7
  6
CONTINUOUS
 10
14.686600808
 20
7.1202964827
 30
0.0
 11
14.3445073962
 21
7.1202964827
 31
0.0
  0
LINE
  5
257
100
AcDbEntity
  8
0
100
AcDbLine
 62
7
  6
CONTINUOUS
 10
13.685600808
 20
7.1202964827
 30
0.0
 11
14.0277818792
 21
7.1202964827
 31
0.0
  0
LINE
  5
258
100
AcDbEntity
  8
0
100
AcDbLine
 62
7
  6
CONTINUOUS
 10
14.6737615027
 20
7.1422964827
 30
0.0
 11
14.34548692
 21
7.1422964827
 31
0.0
  0
LINE
  5
259
100
AcDbEntity
  8
0
100
AcDbLine
 62
7
  6
CONTINUOUS
 10
13.6984401133
 20
7.1422964827
 30
0.0
 11
14.0268023554
 21
7.1422964827
 31
0.0
  0
LINE
  5
25A
100
AcDbEntity
  8
0
100
AcDbLine
 62
7
  6
CONTINUOUS
 10
7.820813118
 20
10.2217269826
 30
0.0
 11
7.806420569
 21
10.2438963236
 31
0.0
  0
LINE
  5
25B
100
AcDbEntity
  8
0
100
AcDbLine
 62
7
  6
CONTINUOUS
 10
7.8448472174
 20
10.2208876934
 30
0.0
 11
7.8304546683
 21
10.2430570343
 31
0.0
  0
LINE
  5
25C
100
AcDbEntity
  8
0
100
AcDbLine
 62
7
  6
CONTINUOUS
 10
7.8900165491
 20
10.2193103455
 30
0.0
 11
7.8756240001
 21
10.2414796865
 31
0.0
  0
LINE
  5
25D
100
AcDbEntity
  8
0
100
AcDbLine
 62
7
  6
CONTINUOUS
 10
7.9508730251
 20
10.2171851906
 30
0.0
 11
7.936480476
 21
10.2393545316
 31
0.0
  0
LINE
  5
25E
100
AcDbEntity
  8
0
100
AcDbLine
 62
7
  6
CONTINUOUS
 10
8.0200764562
 20
10.2147685535
 30
0.0
 11
8.0056839071
 21
10.2369378945
 31
0.0
  0
LINE
  5
25F
100
AcDbEntity
  8
0
100
AcDbLine
 62
7
  6
CONTINUOUS
 10
8.0892798873
 20
10.2123519164
 30
0.0
 11
8.0748873383
 21
10.2345212574
 31
0.0
  0
LINE
  5
260
100
AcDbEntity
  8
0
100
AcDbLine
 62
7
  6
CONTINUOUS
 10
8.1501363633
 20
10.2102267615
 30
0.0
 11
8.1357438142
 21
10.2323961025
 31
0.0
  0
LINE
  5
261
100
AcDbEntity
  8
0
100
AcDbLine
 62
7
  6
CONTINUOUS
 10
8.195305695
 20
10.2086494136
 30
0.0
 11
8.1861841767
 21
10.2226996036
 31
0.0
  0
LINE
  5
262
100
AcDbEntity
  8
0
100
AcDbLine
 62
7
  6
CONTINUOUS
 10
8.4734557633
 20
10.9182217789
 30
0.0
 11
8.4697101739
 21
10.9285644362
 31
0.0
  0
LINE
  5
263
100
AcDbEntity
  8
0
100
AcDbLine
 62
7
  6
CONTINUOUS
 10
9.769050808
 20
13.9843514827
 30
0.0
 11
9.769050808
 21
14.6113514827
 31
0.0
  0
LINE
  5
264
100
AcDbEntity
  8
0
100
AcDbLine
 62
7
  6
CONTINUOUS
 10
14.620600808
 20
7.3457964827
 30
0.0
 11
14.3605776007
 21
7.3457964827
 31
0.0
  0
LINE
  5
265
100
AcDbEntity
  8
0
100
AcDbLine
 62
7
  6
CONTINUOUS
 10
13.751600808
 20
7.3457964827
 30
0.0
 11
14.0117116747
 21
7.3457964827
 31
0.0
  0
LINE
  5
266
100
AcDbEntity
  8
0
100
AcDbLine
 62
7
  6
CONTINUOUS
 10
14.620600808
 20
7.3732964827
 30
0.0
 11
14.3631871157
 21
7.3732964827
 31
0.0
  0
LINE
  5
267
100
AcDbEntity
  8
0
100
AcDbLine
 62
7
  6
CONTINUOUS
 10
14.0091021597
 20
7.3732964827
 30
0.0
 11
13.751600808
 21
7.3732964827
 31
0.0
  0
LINE
  5
268
100
AcDbEntity
  8
0
100
AcDbLine
 62
7
  6
CONTINUOUS
 10
14.604100808
 20
7.3897964827
 30
0.0
 11
14.3647528248
 21
7.3897964827
 31
0.0
  0
LINE
  5
269
100
AcDbEntity
  8
0
100
AcDbLine
 62
7
  6
CONTINUOUS
 10
14.0075364507
 20
7.3897964827
 30
0.0
 11
13.768100808
 21
7.3897964827
 31
0.0
  0
LINE
  5
26A
100
AcDbEntity
  8
0
100
AcDbLine
 62
7
  6
CONTINUOUS
 10
13.872600808
 20
7.3980464827
 30
0.0
 11
14.0067535961
 21
7.3980464827
 31
0.0
  0
LINE
  5
26B
100
AcDbEntity
  8
0
100
AcDbLine
 62
7
  6
CONTINUOUS
 10
14.3655356793
 20
7.3980464827
 30
0.0
 11
14.499600808
 21
7.3980464827
 31
0.0
  0
LINE
  5
26C
100
AcDbEntity
  8
0
100
AcDbLine
 62
7
  6
CONTINUOUS
 10
13.9798946377
 20
7.6372366008
 30
0.0
 11
14.3923946377
 21
7.6372366008
 31
0.0
  0
LINE
  5
26D
100
AcDbEntity
  8
0
100
AcDbLine
 62
7
  6
CONTINUOUS
 10
14.0761446377
 20
7.8984866008
 30
0.0
 11
14.2961446377
 21
7.8984866008
 31
0.0
  0
LINE
  5
26E
100
AcDbEntity
  8
0
100
AcDbLine
 62
7
  6
CONTINUOUS
 10
14.0761446377
 20
7.9314866008
 30
0.0
 11
14.2961446377
 21
7.9314866008
 31
0.0
  0
LINE
  5
26F
100
AcDbEntity
  8
0
100
AcDbLine
 62
7
  6
CONTINUOUS
 10
14.0871446377
 20
7.9424866008
 30
0.0
 11
14.2851446377
 21
7.9424866008
 31
0.0
  0
LINE
  5
270
100
AcDbEntity
  8
0
100
AcDbLine
 62
7
  6
CONTINUOUS
 10
8.5883167274
 20
10.6745796605
 30
0.0
 11
8.5800325265
 21
10.6818165117
 31
0.0
  0
LINE
  5
271
100
AcDbEntity
  8
0
100
AcDbLine
 62
7
  6
CONTINUOUS
 10
9.0889486475
 20
11.8298812861
 30
0.0
 11
9.0828547162
 21
11.8390390152
 31
0.0
  0
LINE
  5
272
100
AcDbEntity
  8
0
100
AcDbLine
 62
7
  6
CONTINUOUS
 10
8.4009035854
 20
10.7155588085
 30
0.0
 11
8.5245252074
 21
10.6605189162
 31
0.0
  0
LINE
  5
273
100
AcDbEntity
  8
0
100
AcDbLine
 62
7
  6
CONTINUOUS
 10
8.420686273
 20
10.8359834544
 30
0.0
 11
8.4113577439
 21
10.8418125664
 31
0.0
  0
LINE
  5
274
100
AcDbEntity
  8
0
100
AcDbLine
 62
7
  6
CONTINUOUS
 10
8.4706642934
 20
10.9159650062
 30
0.0
 11
8.4613357643
 21
10.9217941181
 31
0.0
  0
LINE
  5
275
100
AcDbEntity
  8
0
100
AcDbLine
 62
7
  6
CONTINUOUS
 10
8.393652927
 20
11.1356205283
 30
0.0
 11
8.3937801974
 21
11.1355258164
 31
0.0
  0
LINE
  5
276
100
AcDbEntity
  8
0
100
AcDbLine
 62
7
  6
CONTINUOUS
 10
13.718600808
 20
7.0872964827
 30
0.0
 11
13.685600808
 21
7.1202964827
 31
0.0
  0
LINE
  5
277
100
AcDbEntity
  8
0
100
AcDbLine
 62
7
  6
CONTINUOUS
 10
9.1017074099
 20
11.8119725556
 30
0.0
 11
9.1083722409
 21
11.8032215541
 31
0.0
  0
LINE
  5
278
100
AcDbEntity
  8
0
100
AcDbLine
 62
7
  6
CONTINUOUS
 10
8.5383373157
 20
10.2736603986
 30
0.0
 11
8.5342697075
 21
10.274462769
 31
0.0
  0
LINE
  5
279
100
AcDbEntity
  8
0
100
AcDbLine
 62
7
  6
CONTINUOUS
 10
8.4053776884
 20
10.7256078085
 30
0.0
 11
8.5289993105
 21
10.6705679163
 31
0.0
  0
LINE
  5
27A
100
AcDbEntity
  8
0
100
AcDbLine
 62
7
  6
CONTINUOUS
 10
14.2800501843
 20
5.523698981
 30
0.0
 11
14.2989148341
 21
5.4966576425
 31
0.0
  0
LINE
  5
27B
100
AcDbEntity
  8
0
100
AcDbLine
 62
7
  6
CONTINUOUS
 10
12.536100808
 20
13.9843514827
 30
0.0
 11
12.536100808
 21
14.6113514827
 31
0.0
  0
LINE
  5
27C
100
AcDbEntity
  8
0
100
AcDbLine
 62
7
  6
CONTINUOUS
 10
7.820813118
 20
10.2217269826
 30
0.0
 11
7.8708156404
 21
10.219980856
 31
0.0
  0
LINE
  5
27D
100
AcDbEntity
  8
0
100
AcDbLine
 62
7
  6
CONTINUOUS
 10
7.8900165491
 20
10.2193103455
 30
0.0
 11
7.9159849721
 21
10.2184035082
 31
0.0
  0
LINE
  5
27E
100
AcDbEntity
  8
0
100
AcDbLine
 62
7
  6
CONTINUOUS
 10
7.9508730251
 20
10.2171851906
 30
0.0
 11
7.9768414481
 21
10.2162783533
 31
0.0
  0
LINE
  5
27F
100
AcDbEntity
  8
0
100
AcDbLine
 62
7
  6
CONTINUOUS
 10
8.0200764562
 20
10.2147685535
 30
0.0
 11
8.0460448792
 21
10.2138617162
 31
0.0
  0
LINE
  5
280
100
AcDbEntity
  8
0
100
AcDbLine
 62
7
  6
CONTINUOUS
 10
8.0892798873
 20
10.2123519164
 30
0.0
 11
8.1152483103
 21
10.2114450791
 31
0.0
  0
LINE
  5
281
100
AcDbEntity
  8
0
100
AcDbLine
 62
7
  6
CONTINUOUS
 10
8.1501363633
 20
10.2102267615
 30
0.0
 11
8.1761047863
 21
10.2093199242
 31
0.0
  0
LINE
  5
282
100
AcDbEntity
  8
0
100
AcDbLine
 62
7
  6
CONTINUOUS
 10
8.195305695
 20
10.2086494136
 30
0.0
 11
8.2453082174
 21
10.2069032871
 31
0.0
  0
LINE
  5
283
100
AcDbEntity
  8
0
100
AcDbLine
 62
7
  6
CONTINUOUS
 10
7.806420569
 20
10.2438963236
 30
0.0
 11
7.9318889167
 21
10.2395148723
 31
0.0
  0
LINE
  5
284
100
AcDbEntity
  8
0
100
AcDbLine
 62
7
  6
CONTINUOUS
 10
7.936480476
 20
10.2393545316
 30
0.0
 11
7.9927453927
 21
10.2373897174
 31
0.0
  0
LINE
  5
285
100
AcDbEntity
  8
0
100
AcDbLine
 62
7
  6
CONTINUOUS
 10
8.0056839071
 20
10.2369378945
 30
0.0
 11
8.0619488238
 21
10.2349730803
 31
0.0
  0
LINE
  5
286
100
AcDbEntity
  8
0
100
AcDbLine
 62
7
  6
CONTINUOUS
 10
8.0748873383
 20
10.2345212574
 30
0.0
 11
8.1311522549
 21
10.2325564432
 31
0.0
  0
LINE
  5
287
100
AcDbEntity
  8
0
100
AcDbLine
 62
7
  6
CONTINUOUS
 10
8.1357438142
 20
10.2323961025
 30
0.0
 11
8.261212162
 21
10.2280146512
 31
0.0
  0
LINE
  5
288
100
AcDbEntity
  8
0
100
AcDbLine
 62
7
  6
CONTINUOUS
 10
7.7945152894
 20
10.2703121556
 30
0.0
 11
8.2749311161
 21
10.2535356653
 31
0.0
  0
LINE
  5
289
100
AcDbEntity
  8
0
100
AcDbLine
 62
7
  6
CONTINUOUS
 10
8.5281140012
 20
10.2466009974
 30
0.0
 11
7.5414654072
 21
10.2810555255
 31
0.0
  0
LINE
  5
28A
100
AcDbEntity
  8
0
100
AcDbLine
 62
7
  6
CONTINUOUS
 10
7.5255513002
 20
10.2981213159
 30
0.0
 11
8.5451797915
 21
10.2625151044
 31
0.0
  0
LINE
  5
28B
100
AcDbEntity
  8
0
100
AcDbLine
 62
7
  6
CONTINUOUS
 10
7.5256459946
 20
10.3008330065
 30
0.0
 11
8.5452744858
 21
10.265226795
 31
0.0
  0
LINE
  5
28C
100
AcDbEntity
  8
0
100
AcDbLine
 62
7
  6
CONTINUOUS
 10
7.5331545646
 20
10.3087621538
 30
0.0
 11
8.5383373157
 21
10.2736603986
 31
0.0
  0
LINE
  5
28D
100
AcDbEntity
  8
0
100
AcDbLine
 62
7
  6
CONTINUOUS
 10
7.5372682348
 20
10.3092788276
 30
0.0
 11
8.5342697075
 21
10.274462769
 31
0.0
  0
LINE
  5
28E
100
AcDbEntity
  8
0
100
AcDbLine
 62
7
  6
CONTINUOUS
 10
7.536390721
 20
10.4245622086
 30
0.0
 11
8.5431868459
 21
10.3894041132
 31
0.0
  0
LINE
  5
28F
100
AcDbEntity
  8
0
100
AcDbLine
 62
7
  6
CONTINUOUS
 10
7.5302552867
 20
10.432825864
 30
0.0
 11
8.549883778
 21
10.3972196525
 31
0.0
  0
LINE
  5
290
100
AcDbEntity
  8
0
100
AcDbLine
 62
7
  6
CONTINUOUS
 10
7.5304921785
 20
10.4396095563
 30
0.0
 11
8.5501206697
 21
10.4040033448
 31
0.0
  0
LINE
  5
291
100
AcDbEntity
  8
0
100
AcDbLine
 62
7
  6
CONTINUOUS
 10
7.5426350505
 20
10.4549507785
 30
0.0
 11
8.5390775268
 21
10.4201542405
 31
0.0
  0
LINE
  5
292
100
AcDbEntity
  8
0
100
AcDbLine
 62
7
  6
CONTINUOUS
 10
7.5331545646
 20
10.3087621538
 30
0.0
 11
7.5372682348
 21
10.3092788276
 31
0.0
  0
LINE
  5
293
100
AcDbEntity
  8
0
100
AcDbLine
 62
7
  6
CONTINUOUS
 10
8.4021155777
 20
10.7305363203
 30
0.0
 11
8.391117253
 21
10.7303443438
 31
0.0
  0
LINE
  5
294
100
AcDbEntity
  8
0
100
AcDbLine
 62
7
  6
CONTINUOUS
 10
8.3710918452
 20
10.5867476905
 30
0.0
 11
7.7218324989
 21
10.6094203265
 31
0.0
  0
LINE
  5
295
100
AcDbEntity
  8
0
100
AcDbLine
 62
7
  6
CONTINUOUS
 10
8.382131787
 20
10.6139456514
 30
0.0
 11
7.7127166837
 21
10.637322142
 31
0.0
  0
LINE
  5
296
100
AcDbEntity
  8
0
100
AcDbLine
 62
7
  6
CONTINUOUS
 10
7.7333465215
 20
10.7091197364
 30
0.0
 11
8.4512089525
 21
10.6840514279
 31
0.0
  0
LINE
  5
297
100
AcDbEntity
  8
0
100
AcDbLine
 62
7
  6
CONTINUOUS
 10
7.736670688
 20
10.7255137114
 30
0.0
 11
8.4331735476
 21
10.7011912956
 31
0.0
  0
LINE
  5
298
100
AcDbEntity
  8
0
100
AcDbLine
 62
7
  6
CONTINUOUS
 10
8.4418114787
 20
10.7487688191
 30
0.0
 11
8.5158823155
 21
10.7461822085
 31
0.0
  0
LINE
  5
299
100
AcDbEntity
  8
0
100
AcDbLine
 62
7
  6
CONTINUOUS
 10
8.5189513704
 20
10.8341286746
 30
0.0
 11
8.4449494045
 21
10.8367128802
 31
0.0
  0
LINE
  5
29A
100
AcDbEntity
  8
0
100
AcDbLine
 62
7
  6
CONTINUOUS
 10
14.2851446376
 20
7.9424866009
 30
0.0
 11
14.2961446376
 21
7.9314866009
 31
0.0
  0
LINE
  5
29B
100
AcDbEntity
  8
0
100
AcDbLine
 62
7
  6
CONTINUOUS
 10
14.0777946377
 20
6.3144866008
 30
0.0
 11
14.0313196377
 21
6.4244866008
 31
0.0
  0
LINE
  5
29C
100
AcDbEntity
  8
0
100
AcDbLine
 62
7
  6
CONTINUOUS
 10
8.4014836237
 20
10.7667409381
 30
0.0
 11
8.3904852991
 21
10.7665489616
 31
0.0
  0
LINE
  5
29D
100
AcDbEntity
  8
0
100
AcDbLine
 62
7
  6
CONTINUOUS
 10
8.3952688035
 20
10.9732799011
 30
0.0
 11
8.4777185467
 21
10.9704006926
 31
0.0
  0
LINE
  5
29E
100
AcDbEntity
  8
0
100
AcDbLine
 62
7
  6
CONTINUOUS
 10
8.4154057495
 20
11.0771404009
 30
0.0
 11
8.4483856468
 21
11.0759887175
 31
0.0
  0
LINE
  5
29F
100
AcDbEntity
  8
0
100
AcDbLine
 62
7
  6
CONTINUOUS
 10
8.3353674368
 20
11.1239622203
 30
0.0
 11
8.4004513787
 21
11.1216894389
 31
0.0
  0
LINE
  5
2A0
100
AcDbEntity
  8
0
100
AcDbLine
 62
7
  6
CONTINUOUS
 10
14.686600808
 20
7.1202964827
 30
0.0
 11
14.6737615027
 21
7.1422964827
 31
0.0
  0
LINE
  5
2A1
100
AcDbEntity
  8
0
100
AcDbLine
 62
7
  6
CONTINUOUS
 10
13.746100808
 20
3.6167964827
 30
0.0
 11
13.746100808
 21
5.769156813
 31
0.0
  0
LINE
  5
2A2
100
AcDbEntity
  8
0
100
AcDbLine
 62
7
  6
CONTINUOUS
 10
13.746100808
 20
6.2218156798
 30
0.0
 11
13.746100808
 21
7.0707964827
 31
0.0
  0
LINE
  5
2A3
100
AcDbEntity
  8
0
100
AcDbLine
 62
7
  6
CONTINUOUS
 10
13.751600808
 20
7.3457964827
 30
0.0
 11
13.751600808
 21
7.3732964827
 31
0.0
  0
LINE
  5
2A4
100
AcDbEntity
  8
0
100
AcDbLine
 62
7
  6
CONTINUOUS
 10
13.872600808
 20
7.3980464827
 30
0.0
 11
13.872600808
 21
12.6478514827
 31
0.0
  0
LINE
  5
2A5
100
AcDbEntity
  8
0
100
AcDbLine
 62
7
  6
CONTINUOUS
 10
8.9345993642
 20
11.5529426533
 30
0.0
 11
8.9236054557
 21
11.5533086797
 31
0.0
  0
LINE
  5
2A6
100
AcDbEntity
  8
0
100
AcDbLine
 62
7
  6
CONTINUOUS
 10
7.7602801975
 20
11.4016016059
 30
0.0
 11
8.3879975759
 21
11.379681232
 31
0.0
  0
LINE
  5
2A7
100
AcDbEntity
  8
0
100
AcDbLine
 62
7
  6
CONTINUOUS
 10
7.7614057041
 20
11.4180723598
 30
0.0
 11
8.3880237527
 21
11.3961903754
 31
0.0
  0
LINE
  5
2A8
100
AcDbEntity
  8
0
100
AcDbLine
 62
7
  6
CONTINUOUS
 10
7.7645771929
 20
11.5088919153
 30
0.0
 11
8.3911952414
 21
11.4870099309
 31
0.0
  0
LINE
  5
2A9
100
AcDbEntity
  8
0
100
AcDbLine
 62
7
  6
CONTINUOUS
 10
8.9756158188
 20
11.5879106467
 30
0.0
 11
8.9865549412
 21
11.5867549643
 31
0.0
  0
LINE
  5
2AA
100
AcDbEntity
  8
0
100
AcDbLine
 62
7
  6
CONTINUOUS
 10
14.0313196377
 20
6.4244866008
 30
0.0
 11
14.0313196377
 21
6.4822366008
 31
0.0
  0
LINE
  5
2AB
100
AcDbEntity
  8
0
100
AcDbLine
 62
7
  6
CONTINUOUS
 10
14.0761446377
 20
7.8984866008
 30
0.0
 11
14.0761446377
 21
7.9314866008
 31
0.0
  0
LINE
  5
2AC
100
AcDbEntity
  8
0
100
AcDbLine
 62
7
  6
CONTINUOUS
 10
14.0777946377
 20
6.2814866008
 30
0.0
 11
14.0777946377
 21
6.3144866008
 31
0.0
  0
LINE
  5
2AD
100
AcDbEntity
  8
0
100
AcDbLine
 62
7
  6
CONTINUOUS
 10
14.0783446377
 20
5.7094866008
 30
0.0
 11
14.0783446377
 21
5.7016822406
 31
0.0
  0
LINE
  5
2AE
100
AcDbEntity
  8
0
100
AcDbLine
 62
7
  6
CONTINUOUS
 10
14.2939446377
 20
5.7094866008
 30
0.0
 11
14.2939446377
 21
5.7016822406
 31
0.0
  0
LINE
  5
2AF
100
AcDbEntity
  8
0
100
AcDbLine
 62
7
  6
CONTINUOUS
 10
14.2944946377
 20
6.2814866008
 30
0.0
 11
14.2944946377
 21
6.3144866008
 31
0.0
  0
LINE
  5
2B0
100
AcDbEntity
  8
0
100
AcDbLine
 62
7
  6
CONTINUOUS
 10
14.2961446377
 20
7.8984866008
 30
0.0
 11
14.2961446377
 21
7.9314866008
 31
0.0
  0
LINE
  5
2B1
100
AcDbEntity
  8
0
100
AcDbLine
 62
7
  6
CONTINUOUS
 10
14.3409696377
 20
6.4244866008
 30
0.0
 11
14.3409696377
 21
6.4822366008
 31
0.0
  0
LINE
  5
2B2
100
AcDbEntity
  8
0
100
AcDbLine
 62
7
  6
CONTINUOUS
 10
13.685600808
 20
7.1202964827
 30
0.0
 11
13.6984401133
 21
7.1422964827
 31
0.0
  0
LINE
  5
2B3
100
AcDbEntity
  8
0
100
AcDbLine
 62
7
  6
CONTINUOUS
 10
14.0871446378
 20
7.9424866009
 30
0.0
 11
14.0761446379
 21
7.9314866009
 31
0.0
  0
LINE
  5
2B4
100
AcDbEntity
  8
0
100
AcDbLine
 62
7
  6
CONTINUOUS
 10
14.4671435469
 20
5.8029775394
 30
0.0
 11
14.4671435469
 21
5.8497308821
 31
0.0
  0
LINE
  5
2B5
100
AcDbEntity
  8
0
100
AcDbLine
 62
7
  6
CONTINUOUS
 10
14.4671435469
 20
6.1412416106
 30
0.0
 11
14.4671435469
 21
6.1879949534
 31
0.0
  0
LINE
  5
2B6
100
AcDbEntity
  8
0
100
AcDbLine
 62
7
  6
CONTINUOUS
 10
14.499600808
 20
7.3980464827
 30
0.0
 11
14.499600808
 21
12.6478514827
 31
0.0
  0
LINE
  5
2B7
100
AcDbEntity
  8
0
100
AcDbLine
 62
7
  6
CONTINUOUS
 10
14.620600808
 20
7.3457964827
 30
0.0
 11
14.620600808
 21
7.3732964827
 31
0.0
  0
LINE
  5
2B8
100
AcDbEntity
  8
0
100
AcDbLine
 62
7
  6
CONTINUOUS
 10
14.626100808
 20
3.6167964827
 30
0.0
 11
14.626100808
 21
5.7690229575
 31
0.0
  0
LINE
  5
2B9
100
AcDbEntity
  8
0
100
AcDbLine
 62
7
  6
CONTINUOUS
 10
14.626100808
 20
6.2219495353
 30
0.0
 11
14.626100808
 21
7.0707964827
 31
0.0
  0
LINE
  5
2BA
100
AcDbEntity
  8
0
100
AcDbLine
 62
7
  6
CONTINUOUS
 10
7.7938404269
 20
12.3468812956
 30
0.0
 11
8.4204584754
 21
12.3249993112
 31
0.0
  0
LINE
  5
2BB
100
AcDbEntity
  8
0
100
AcDbLine
 62
7
  6
CONTINUOUS
 10
8.4236299642
 20
12.4158188666
 30
0.0
 11
7.7970119157
 21
12.4377008511
 31
0.0
  0
LINE
  5
2BC
100
AcDbEntity
  8
0
100
AcDbLine
 62
7
  6
CONTINUOUS
 10
8.4241098323
 20
12.4295604905
 30
0.0
 11
7.7974917837
 21
12.451442475
 31
0.0
  0
LINE
  5
2BD
100
AcDbEntity
  8
0
100
AcDbLine
 62
7
  6
CONTINUOUS
 10
8.4333614176
 20
12.6944912318
 30
0.0
 11
7.8067433691
 21
12.7163732162
 31
0.0
  0
LINE
  5
2BE
100
AcDbEntity
  8
0
100
AcDbLine
 62
7
  6
CONTINUOUS
 10
14.2944946377
 20
6.3144866008
 30
0.0
 11
14.3409696377
 21
6.4244866008
 31
0.0
  0
LINE
  5
2BF
100
AcDbEntity
  8
0
100
AcDbLine
 62
7
  6
CONTINUOUS
 10
14.653600808
 20
7.0872964827
 30
0.0
 11
14.686600808
 21
7.1202964827
 31
0.0
  0
LINE
  5
2C0
100
AcDbEntity
  8
0
100
AcDbLine
 62
7
  6
CONTINUOUS
 10
13.872600808
 20
12.6478514827
 30
0.0
 11
14.499600808
 21
12.6478514827
 31
0.0
  0
LINE
  5
2C1
100
AcDbEntity
  8
0
100
AcDbLine
 62
7
  6
CONTINUOUS
 10
14.0922390912
 20
5.523698981
 30
0.0
 11
14.0733744413
 21
5.4966576425
 31
0.0
  0
LINE
  5
2C2
100
AcDbEntity
  8
0
100
AcDbLine
 62
7
  6
CONTINUOUS
 10
12.536100808
 20
13.9843514827
 30
0.0
 11
9.769050808
 21
13.9843514827
 31
0.0
  0
LINE
  5
2C3
100
AcDbEntity
  8
0
100
AcDbLine
 62
7
  6
CONTINUOUS
 10
12.536100808
 20
14.6113514827
 30
0.0
 11
9.769050808
 21
14.6113514827
 31
0.0
  0
ARC
  5
2C4
100
AcDbEntity
  8
0
100
AcDbCircle
 62
7
  6
CONTINUOUS
 10
7.4374785941
 20
6.7672984965
 30
0.0
 40
6.6
100
AcDbArc
 50
357.5245566827
 51
7.5741286844
  0
ARC
  5
2C5
100
AcDbEntity
  8
0
100
AcDbCircle
 62
7
  6
CONTINUOUS
 10
14.0965066736
 20
7.6765805087
 30
0.0
 40
0.2984922619
100
AcDbArc
 50
352.4258713156
 51
48.0238475486
  0
ARC
  5
2C6
100
AcDbEntity
  8
0
100
AcDbCircle
 62
7
  6
CONTINUOUS
 10
13.8738126573
 20
3.4805224004
 30
0.0
 40
0.1925
100
AcDbArc
 50
134.9342863148
 51
189.3620468441
  0
ARC
  5
2C7
100
AcDbEntity
  8
0
100
AcDbCircle
 62
7
  6
CONTINUOUS
 10
13.728225808
 20
3.2812964827
 30
0.0
 40
0.1595
100
AcDbArc
 50
110.1503401241
 51
180.0
  0
ARC
  5
2C8
100
AcDbEntity
  8
0
100
AcDbCircle
 62
7
  6
CONTINUOUS
 10
13.810725808
 20
7.2216575107
 30
0.0
 40
0.1375
100
AcDbArc
 50
115.4675601425
 51
215.2518187511
  0
ARC
  5
2C9
100
AcDbEntity
  8
0
100
AcDbCircle
 62
7
  6
CONTINUOUS
 10
14.0062946377
 20
5.6222743537
 30
0.0
 40
0.1023
100
AcDbArc
 50
316.6958241971
 51
41.7081302546
  0
ARC
  5
2CA
100
AcDbEntity
  8
0
100
AcDbCircle
 62
7
  6
CONTINUOUS
 10
14.0953946377
 20
5.7016822406
 30
0.0
 40
0.01705
100
AcDbArc
 50
180.0
 51
221.7081302546
  0
ARC
  5
2CB
100
AcDbEntity
  8
0
100
AcDbCircle
 62
7
  6
CONTINUOUS
 10
13.6675965094
 20
3.4465238659
 30
0.0
 40
0.0165
100
AcDbArc
 50
290.1503401241
 51
9.3620468441
  0
ARC
  5
2CC
100
AcDbEntity
  8
0
100
AcDbCircle
 62
7
  6
CONTINUOUS
 10
13.768100808
 20
7.3732964827
 30
0.0
 40
0.0165
100
AcDbArc
 50
90.0
 51
180.0
  0
ARC
  5
2CD
100
AcDbEntity
  8
0
100
AcDbCircle
 62
7
  6
CONTINUOUS
 10
13.762600808
 20
7.0707964827
 30
0.0
 40
0.0165
100
AcDbArc
 50
90.0
 51
180.0
  0
ARC
  5
2CE
100
AcDbEntity
  8
0
100
AcDbCircle
 62
7
  6
CONTINUOUS
 10
14.0871446377
 20
5.546074042
 30
0.0
 40
0.0088
100
AcDbArc
 50
136.6958241971
 51
270.0
  0
ARC
  5
2CF
100
AcDbEntity
  8
0
100
AcDbCircle
 62
7
  6
CONTINUOUS
 10
14.0850217986
 20
5.5287339276
 30
0.0
 40
0.0088
100
AcDbArc
 50
325.0994999977
 51
76.0407512258
  0
ARC
  5
2D0
100
AcDbEntity
  8
0
100
AcDbCircle
 62
7
  6
CONTINUOUS
 10
7.4702070482
 20
10.720149953
 30
0.0
 40
0.2749116543
100
AcDbArc
 50
285.2754178086
 51
336.2477530946
  0
ARC
  5
2D1
100
AcDbEntity
  8
0
100
AcDbCircle
 62
7
  6
CONTINUOUS
 10
7.5403372969
 20
10.3669472189
 30
0.0
 40
0.05775
100
AcDbArc
 50
93.9185890389
 51
266.9536418652
  0
ARC
  5
2D2
100
AcDbEntity
  8
0
100
AcDbCircle
 62
7
  6
CONTINUOUS
 10
7.7320028909
 20
10.6706431895
 30
0.0
 40
0.0385
100
AcDbArc
 50
88.0
 51
239.9377610562
  0
ARC
  5
2D3
100
AcDbEntity
  8
0
100
AcDbCircle
 62
7
  6
CONTINUOUS
 10
7.7016959939
 20
10.6182815433
 30
0.0
 40
0.022
100
AcDbArc
 50
336.2477530946
 51
59.9377610562
  0
ARC
  5
2D4
100
AcDbEntity
  8
0
100
AcDbCircle
 62
7
  6
CONTINUOUS
 10
7.7951198476
 20
10.2876244377
 30
0.0
 40
0.0173228346
100
AcDbArc
 50
240.9526023058
 51
268.0
  0
ARC
  5
2D5
100
AcDbEntity
  8
0
100
AcDbCircle
 62
7
  6
CONTINUOUS
 10
7.5420412489
 20
10.2975454742
 30
0.0
 40
0.0165
100
AcDbArc
 50
178.0
 51
268.0
  0
ARC
  5
2D6
100
AcDbEntity
  8
0
100
AcDbCircle
 62
7
  6
CONTINUOUS
 10
7.5469821271
 20
10.4390337146
 30
0.0
 40
0.0165
100
AcDbArc
 50
105.2754178086
 51
178.0
  0
ARC
  5
2D7
100
AcDbEntity
  8
0
100
AcDbCircle
 62
7
  6
CONTINUOUS
 10
7.7531606366
 20
10.7249378697
 30
0.0
 40
0.0165
100
AcDbArc
 50
178.0
 51
268.0
  0
ARC
  5
2D8
100
AcDbEntity
  8
0
100
AcDbCircle
 62
7
  6
CONTINUOUS
 10
7.5338909689
 20
10.3005450857
 30
0.0
 40
0.00825
100
AcDbArc
 50
95.121101917
 51
178.0
  0
ARC
  5
2D9
100
AcDbEntity
  8
0
100
AcDbCircle
 62
7
  6
CONTINUOUS
 10
7.538500261
 20
10.4325379431
 30
0.0
 40
0.00825
100
AcDbArc
 50
178.0
 51
255.1848245863
  0
ARC
  5
2DA
100
AcDbEntity
  8
0
100
AcDbCircle
 62
7
  6
CONTINUOUS
 10
7.7767701461
 20
11.4010257642
 30
0.0
 40
0.0165
100
AcDbArc
 50
88.0
 51
178.0
  0
ARC
  5
2DB
100
AcDbEntity
  8
0
100
AcDbCircle
 62
7
  6
CONTINUOUS
 10
8.6298284573
 20
10.6796550811
 30
0.0
 40
0.2749116543
100
AcDbArc
 50
199.7522469054
 51
250.7245821914
  0
ARC
  5
2DC
100
AcDbEntity
  8
0
100
AcDbCircle
 62
7
  6
CONTINUOUS
 10
8.5279643571
 20
10.7689486675
 30
0.0
 40
0.1375
100
AcDbArc
 50
148.0
 51
181.0
  0
ARC
  5
2DD
100
AcDbEntity
  8
0
100
AcDbCircle
 62
7
  6
CONTINUOUS
 10
8.5279643571
 20
10.7689486675
 30
0.0
 40
0.1265
100
AcDbArc
 50
148.0
 51
181.0
  0
CIRCLE
  5
2DE
100
AcDbEntity
  8
0
100
AcDbCircle
 62
7
  6
CONTINUOUS
 10
8.4879702103
 20
10.7911837406
 30
0.0
 40
0.0627
  0
ARC
  5
2DF
100
AcDbEntity
  8
0
100
AcDbCircle
 62
7
  6
CONTINUOUS
 10
8.5352308651
 20
10.33220477
 30
0.0
 40
0.05775
100
AcDbArc
 50
269.0463581348
 51
82.0814109611
  0
ARC
  5
2E0
100
AcDbEntity
  8
0
100
AcDbCircle
 62
7
  6
CONTINUOUS
 10
8.5468957228
 20
10.7107639164
 30
0.0
 40
0.055
100
AcDbArc
 50
246.0
 51
318.8604268863
  0
ARC
  5
2E1
100
AcDbEntity
  8
0
100
AcDbCircle
 62
7
  6
CONTINUOUS
 10
8.5017118342
 20
10.7907038725
 30
0.0
 40
0.044
100
AcDbArc
 50
297.9999999996
 51
57.9999999426
  0
ARC
  5
2E2
100
AcDbEntity
  8
0
100
AcDbCircle
 62
7
  6
CONTINUOUS
 10
8.5468957228
 20
10.7107639164
 30
0.0
 40
0.044
100
AcDbArc
 50
246.0
 51
318.8604268863
  0
ARC
  5
2E3
100
AcDbEntity
  8
0
100
AcDbCircle
 62
7
  6
CONTINUOUS
 10
8.3652169189
 20
10.6485308684
 30
0.0
 40
0.0385
100
AcDbArc
 50
296.0622389438
 51
84.7285877348
  0
ARC
  5
2E4
100
AcDbEntity
  8
0
100
AcDbCircle
 62
7
  6
CONTINUOUS
 10
8.391797426
 20
10.5941826703
 30
0.0
 40
0.022
100
AcDbArc
 50
116.0622389438
 51
199.7522469054
  0
ARC
  5
2E5
100
AcDbEntity
  8
0
100
AcDbCircle
 62
7
  6
CONTINUOUS
 10
8.2755356743
 20
10.2708479473
 30
0.0
 40
0.0173228346
100
AcDbArc
 50
268.0
 51
295.0473976942
  0
ARC
  5
2E6
100
AcDbEntity
  8
0
100
AcDbCircle
 62
7
  6
CONTINUOUS
 10
8.5286898429
 20
10.2630909461
 30
0.0
 40
0.0165
100
AcDbArc
 50
268.0
 51
358.0
  0
ARC
  5
2E7
100
AcDbEntity
  8
0
100
AcDbCircle
 62
7
  6
CONTINUOUS
 10
8.5336307211
 20
10.4045791865
 30
0.0
 40
0.0165
100
AcDbArc
 50
358.0
 51
70.7245821914
  0
ARC
  5
2E8
100
AcDbEntity
  8
0
100
AcDbCircle
 62
7
  6
CONTINUOUS
 10
8.4517847942
 20
10.7005413765
 30
0.0
 40
0.0165
100
AcDbArc
 50
268.0
 51
310.9458660469
  0
ARC
  5
2E9
100
AcDbEntity
  8
0
100
AcDbCircle
 62
7
  6
CONTINUOUS
 10
8.369335051
 20
10.703420585
 30
0.0
 40
0.0165
100
AcDbArc
 50
268.0
 51
358.0
  0
ARC
  5
2EA
100
AcDbEntity
  8
0
100
AcDbCircle
 62
7
  6
CONTINUOUS
 10
8.40761474
 20
10.7306323085
 30
0.0
 40
0.0165
100
AcDbArc
 50
181.0
 51
246.0
  0
ARC
  5
2EB
100
AcDbEntity
  8
0
100
AcDbCircle
 62
7
  6
CONTINUOUS
 10
8.5370295115
 20
10.2655147158
 30
0.0
 40
0.00825
100
AcDbArc
 50
358.0
 51
80.878898083
  0
ARC
  5
2EC
100
AcDbEntity
  8
0
100
AcDbCircle
 62
7
  6
CONTINUOUS
 10
8.5416388037
 20
10.3975075733
 30
0.0
 40
0.00825
100
AcDbArc
 50
280.8151754137
 51
358.0
  0
ARC
  5
2ED
100
AcDbEntity
  8
0
100
AcDbCircle
 62
7
  6
CONTINUOUS
 10
8.40761474
 20
10.7306323085
 30
0.0
 40
0.0055
100
AcDbArc
 50
181.0
 51
246.0
  0
ARC
  5
2EE
100
AcDbEntity
  8
0
100
AcDbCircle
 62
7
  6
CONTINUOUS
 10
8.378616198
 20
11.4419840476
 30
0.0
 40
0.04675
100
AcDbArc
 50
281.6089606308
 51
74.3910393692
  0
ARC
  5
2EF
100
AcDbEntity
  8
0
100
AcDbCircle
 62
7
  6
CONTINUOUS
 10
8.4134177321
 20
11.1620468878
 30
0.0
 40
0.033
100
AcDbArc
 50
178.0
 51
233.2064323565
  0
ARC
  5
2F0
100
AcDbEntity
  8
0
100
AcDbCircle
 62
7
  6
CONTINUOUS
 10
8.4472339634
 20
11.0430088202
 30
0.0
 40
0.033
100
AcDbArc
 50
358.0
 51
88.0
  0
ARC
  5
2F1
100
AcDbEntity
  8
0
100
AcDbCircle
 62
7
  6
CONTINUOUS
 10
8.3715076273
 20
11.3802570737
 30
0.0
 40
0.0165
100
AcDbArc
 50
358.0
 51
88.0
  0
ARC
  5
2F2
100
AcDbEntity
  8
0
100
AcDbCircle
 62
7
  6
CONTINUOUS
 10
8.4159815912
 20
11.0936303495
 30
0.0
 40
0.0165
100
AcDbArc
 50
178.0
 51
268.0
  0
ARC
  5
2F3
100
AcDbEntity
  8
0
100
AcDbCircle
 62
7
  6
CONTINUOUS
 10
8.3839614301
 20
11.1222652806
 30
0.0
 40
0.0165
100
AcDbArc
 50
358.0
 51
83.4135225507
  0
ARC
  5
2F4
100
AcDbEntity
  8
0
100
AcDbCircle
 62
7
  6
CONTINUOUS
 10
8.4753285579
 20
10.9130504503
 30
0.0
 40
0.0165
100
AcDbArc
 50
109.9078345615
 51
148.0
  0
ARC
  5
2F5
100
AcDbEntity
  8
0
100
AcDbCircle
 62
7
  6
CONTINUOUS
 10
8.4753285579
 20
10.9130504503
 30
0.0
 40
0.0055
100
AcDbArc
 50
109.9078345615
 51
148.0
  0
ARC
  5
2F6
100
AcDbEntity
  8
0
100
AcDbCircle
 62
7
  6
CONTINUOUS
 10
9.769050808
 20
12.6478479305
 30
0.0
 40
1.9635035522
100
AcDbArc
 50
90.0
 51
178.0
  0
ARC
  5
2F7
100
AcDbEntity
  8
0
100
AcDbCircle
 62
7
  6
CONTINUOUS
 10
7.3456865872
 20
11.7601073361
 30
0.0
 40
1.65
100
AcDbArc
 50
318.8604268863
 51
353.9692588344
  0
ARC
  5
2F8
100
AcDbEntity
  8
0
100
AcDbCircle
 62
7
  6
CONTINUOUS
 10
7.3456865872
 20
11.7601073361
 30
0.0
 40
1.639
100
AcDbArc
 50
318.8604268863
 51
353.9692588344
  0
ARC
  5
2F9
100
AcDbEntity
  8
0
100
AcDbCircle
 62
7
  6
CONTINUOUS
 10
9.7690508336
 20
12.647847904
 30
0.0
 40
1.3365035787
100
AcDbArc
 50
90.000001097
 51
177.999998903
  0
ARC
  5
2FA
100
AcDbEntity
  8
0
100
AcDbCircle
 62
7
  6
CONTINUOUS
 10
8.2351585104
 20
11.5762295343
 30
0.0
 40
0.6998283982
100
AcDbArc
 50
289.9078345615
 51
358.0931234751
  0
ARC
  5
2FB
100
AcDbEntity
  8
0
100
AcDbCircle
 62
7
  6
CONTINUOUS
 10
8.2351585104
 20
11.5762295343
 30
0.0
 40
0.6888283982
100
AcDbArc
 50
289.9078345615
 51
358.0931234751
  0
ARC
  5
2FC
100
AcDbEntity
  8
0
100
AcDbCircle
 62
7
  6
CONTINUOUS
 10
9.2809074828
 20
11.5414128207
 30
0.0
 40
0.3575
100
AcDbArc
 50
123.6414348994
 51
178.0931234751
  0
ARC
  5
2FD
100
AcDbEntity
  8
0
100
AcDbCircle
 62
7
  6
CONTINUOUS
 10
9.2809074828
 20
11.5414128207
 30
0.0
 40
0.3465
100
AcDbArc
 50
123.6414348994
 51
178.0931234751
  0
ARC
  5
2FE
100
AcDbEntity
  8
0
100
AcDbCircle
 62
7
  6
CONTINUOUS
 10
9.2983199284
 20
11.5538180136
 30
0.0
 40
0.3245
100
AcDbArc
 50
127.293182167
 51
173.9692588344
  0
ARC
  5
2FF
100
AcDbEntity
  8
0
100
AcDbCircle
 62
7
  6
CONTINUOUS
 10
9.2983199284
 20
11.5538180136
 30
0.0
 40
0.3135
100
AcDbArc
 50
127.293182167
 51
173.9692588344
  0
ARC
  5
300
100
AcDbEntity
  8
0
100
AcDbCircle
 62
7
  6
CONTINUOUS
 10
7.7739847476
 20
11.4630982431
 30
0.0
 40
0.04675
100
AcDbArc
 50
101.6089606308
 51
254.3910393692
  0
ARC
  5
301
100
AcDbEntity
  8
0
100
AcDbCircle
 62
7
  6
CONTINUOUS
 10
8.4110509207
 20
12.3707929834
 30
0.0
 40
0.04675
100
AcDbArc
 50
281.6089606308
 51
74.3910393692
  0
ARC
  5
302
100
AcDbEntity
  8
0
100
AcDbCircle
 62
7
  6
CONTINUOUS
 10
7.8064194704
 20
12.3919071789
 30
0.0
 40
0.04675
100
AcDbArc
 50
101.6089606308
 51
254.3910393692
  0
ARC
  5
303
100
AcDbEntity
  8
0
100
AcDbCircle
 62
7
  6
CONTINUOUS
 10
9.0950425788
 20
11.820723557
 30
0.0
 40
0.022
100
AcDbArc
 50
307.293182167
 51
123.6414348994
  0
ARC
  5
304
100
AcDbEntity
  8
0
100
AcDbCircle
 62
7
  6
CONTINUOUS
 10
9.0950425788
 20
11.820723557
 30
0.0
 40
0.011
100
AcDbArc
 50
307.293182167
 51
123.6414348995
  0
ARC
  5
305
100
AcDbEntity
  8
0
100
AcDbCircle
 62
7
  6
CONTINUOUS
 10
12.5361007814
 20
12.6478514561
 30
0.0
 40
1.9635000266
100
AcDbArc
 50
0.0000007764
 51
89.9999992236
  0
ARC
  5
306
100
AcDbEntity
  8
0
100
AcDbCircle
 62
7
  6
CONTINUOUS
 10
12.5361007807
 20
12.6478514554
 30
0.0
 40
1.3365000273
100
AcDbArc
 50
0.0000011707
 51
89.9999988293
  0
ARC
  5
307
100
AcDbEntity
  8
0
100
AcDbCircle
 62
7
  6
CONTINUOUS
 10
14.4983889587
 20
3.4805224004
 30
0.0
 40
0.1925
100
AcDbArc
 50
350.6379531559
 51
45.0657136852
  0
ARC
  5
308
100
AcDbEntity
  8
0
100
AcDbCircle
 62
7
  6
CONTINUOUS
 10
14.643975808
 20
3.2812964827
 30
0.0
 40
0.1595
100
AcDbArc
 50
0.0
 51
69.8496598759
  0
ARC
  5
309
100
AcDbEntity
  8
0
100
AcDbCircle
 62
7
  6
CONTINUOUS
 10
14.1861446377
 20
5.4179866008
 30
0.0
 40
0.1375
100
AcDbArc
 50
145.0994999977
 51
34.9005000023
  0
ARC
  5
30A
100
AcDbEntity
  8
0
100
AcDbCircle
 62
7
  6
CONTINUOUS
 10
14.7046051066
 20
3.4465238659
 30
0.0
 40
0.0165
100
AcDbArc
 50
170.6379531559
 51
249.8496598759
  0
ARC
  5
30B
100
AcDbEntity
  8
0
100
AcDbCircle
 62
7
  6
CONTINUOUS
 10
14.2851446377
 20
5.546074042
 30
0.0
 40
0.0088
100
AcDbArc
 50
270.0
 51
43.3041758029
  0
ARC
  5
30C
100
AcDbEntity
  8
0
100
AcDbCircle
 62
7
  6
CONTINUOUS
 10
14.2872674768
 20
5.5287339276
 30
0.0
 40
0.0088
100
AcDbArc
 50
103.9592487742
 51
214.9005000023
  0
ARC
  5
30D
100
AcDbEntity
  8
0
100
AcDbCircle
 62
7
  6
CONTINUOUS
 10
14.1861355855
 20
5.9954862464
 30
0.0
 40
0.495
100
AcDbArc
 50
281.9609004046
 51
71.7715630999
  0
ARC
  5
30E
100
AcDbEntity
  8
0
100
AcDbCircle
 62
7
  6
CONTINUOUS
 10
14.1861355855
 20
5.9954862464
 30
0.0
 40
0.495
100
AcDbArc
 50
108.2262478804
 51
258.0409844137
  0
ARC
  5
30F
100
AcDbEntity
  8
0
100
AcDbCircle
 62
7
  6
CONTINUOUS
 10
14.1861355855
 20
5.9954862464
 30
0.0
 40
0.4614107143
100
AcDbArc
 50
109.6099067249
 51
256.4947018093
  0
ARC
  5
310
100
AcDbEntity
  8
0
100
AcDbCircle
 62
7
  6
CONTINUOUS
 10
14.1861355855
 20
5.9954862464
 30
0.0
 40
0.4614107143
100
AcDbArc
 50
283.5075592808
 51
70.3876924455
  0
ARC
  5
311
100
AcDbEntity
  8
0
100
AcDbCircle
 62
7
  6
CONTINUOUS
 10
14.1861355855
 20
5.9954862464
 30
0.0
 40
0.4427502203
100
AcDbArc
 50
109.7502946059
 51
257.4402441351
  0
ARC
  5
312
100
AcDbEntity
  8
0
100
AcDbCircle
 62
7
  6
CONTINUOUS
 10
14.1861355855
 20
5.9954862464
 30
0.0
 40
0.4427502203
100
AcDbArc
 50
282.5618409215
 51
70.247545108
  0
ARC
  5
313
100
AcDbEntity
  8
0
100
AcDbCircle
 62
7
  6
CONTINUOUS
 10
14.1861355855
 20
5.9954862464
 30
0.0
 40
0.4261441949
100
AcDbArc
 50
109.6276922187
 51
258.1655449257
  0
ARC
  5
314
100
AcDbEntity
  8
0
100
AcDbCircle
 62
7
  6
CONTINUOUS
 10
14.1861355855
 20
5.9954862464
 30
0.0
 40
0.4261441949
100
AcDbArc
 50
281.836742526
 51
70.3700638528
  0
ARC
  5
315
100
AcDbEntity
  8
0
100
AcDbCircle
 62
7
  6
CONTINUOUS
 10
14.1861355855
 20
5.9954862464
 30
0.0
 40
0.3163065043
100
AcDbArc
 50
110.0365713131
 51
250.1469521823
  0
ARC
  5
316
100
AcDbEntity
  8
0
100
AcDbCircle
 62
7
  6
CONTINUOUS
 10
14.1861355855
 20
5.9954862464
 30
0.0
 40
0.3061368937
100
AcDbArc
 50
110.7327094227
 51
249.3781270362
  0
CIRCLE
  5
317
100
AcDbEntity
  8
0
100
AcDbCircle
 62
7
  6
CONTINUOUS
 10
14.1861461624
 20
5.9954866008
 30
0.0
 40
0.30525
  0
ARC
  5
318
100
AcDbEntity
  8
0
100
AcDbCircle
 62
7
  6
CONTINUOUS
 10
14.2757826018
 20
7.6765805087
 30
0.0
 40
0.2984922619
100
AcDbArc
 50
131.9761524514
 51
187.5741286844
  0
CIRCLE
  5
319
100
AcDbEntity
  8
0
100
AcDbCircle
 62
7
  6
CONTINUOUS
 10
14.1861474471
 20
5.9954866008
 30
0.0
 40
0.2882
  0
CIRCLE
  5
31A
100
AcDbEntity
  8
0
100
AcDbCircle
 62
7
  6
CONTINUOUS
 10
14.1861475897
 20
5.9954866008
 30
0.0
 40
0.2803537837
  0
CIRCLE
  5
31B
100
AcDbEntity
  8
0
100
AcDbCircle
 62
7
  6
CONTINUOUS
 10
14.1861477306
 20
5.9954866008
 30
0.0
 40
0.2475
  0
CIRCLE
  5
31C
100
AcDbEntity
  8
0
100
AcDbCircle
 62
7
  6
CONTINUOUS
 10
14.1861290214
 20
5.9954976158
 30
0.0
 40
0.2365
  0
CIRCLE
  5
31D
100
AcDbEntity
  8
0
100
AcDbCircle
 62
7
  6
CONTINUOUS
 10
14.1861287806
 20
5.9954980328
 30
0.0
 40
0.2103131594
  0
ARC
  5
31E
100
AcDbEntity
  8
0
100
AcDbCircle
 62
7
  6
CONTINUOUS
 10
14.3446854046
 20
5.9996753969
 30
0.0
 40
0.1935958527
100
AcDbArc
 50
301.2951478456
 51
309.2381591514
  0
ARC
  5
31F
100
AcDbEntity
  8
0
100
AcDbCircle
 62
7
  6
CONTINUOUS
 10
14.3446858269
 20
5.9912978812
 30
0.0
 40
0.1935949772
100
AcDbArc
 50
50.7617906144
 51
58.7045277743
  0
ARC
  5
320
100
AcDbEntity
  8
0
100
AcDbCircle
 62
7
  6
CONTINUOUS
 10
14.3401355855
 20
5.9954862464
 30
0.0
 40
0.17875
100
AcDbArc
 50
312.8580263964
 51
47.1419546382
  0
ARC
  5
321
100
AcDbEntity
  8
0
100
AcDbCircle
 62
7
  6
CONTINUOUS
 10
14.561475808
 20
7.2216575107
 30
0.0
 40
0.1375
100
AcDbArc
 50
324.7481812489
 51
64.5324398575
  0
ARC
  5
322
100
AcDbEntity
  8
0
100
AcDbCircle
 62
7
  6
CONTINUOUS
 10
14.1861446377
 20
7.8558616008
 30
0.0
 40
0.119625
100
AcDbArc
 50
46.3971810298
 51
133.6028189702
  0
ARC
  5
323
100
AcDbEntity
  8
0
100
AcDbCircle
 62
7
  6
CONTINUOUS
 10
14.3659946377
 20
5.6222743537
 30
0.0
 40
0.1023
100
AcDbArc
 50
138.2918697454
 51
223.3041758029
  0
ARC
  5
324
100
AcDbEntity
  8
0
100
AcDbCircle
 62
7
  6
CONTINUOUS
 10
14.2768946377
 20
5.7016822406
 30
0.0
 40
0.01705
100
AcDbArc
 50
318.2918697454
 51
360.0
  0
ARC
  5
325
100
AcDbEntity
  8
0
100
AcDbCircle
 62
7
  6
CONTINUOUS
 10
14.604100808
 20
7.3732964827
 30
0.0
 40
0.0165
100
AcDbArc
 50
0.0
 51
90.0
  0
ARC
  5
326
100
AcDbEntity
  8
0
100
AcDbCircle
 62
7
  6
CONTINUOUS
 10
14.609600808
 20
7.0707964827
 30
0.0
 40
0.0165
100
AcDbArc
 50
0.0
 51
90.0
  0
ARC
  5
327
100
AcDbEntity
  8
0
100
AcDbCircle
 62
7
  6
CONTINUOUS
 10
20.9348106813
 20
6.7672984965
 30
0.0
 40
6.6
100
AcDbArc
 50
172.4258713156
 51
182.4754433173
  0
SPLINE
  5
328
100
AcDbEntity
  8
0
100
AcDbSpline
 62
7
  6
CONTINUOUS
 70
0
 71
3
 72
10
 73
6
 74
0
 42
0.0000001
 43
0.0000001
 44
0.0000000001
 40
0.0
 40
0.0
 40
0.0
 40
0.0
 40
0.2500071336
 40
0.625002303
 40
1.0
 40
1.0
 40
1.0
 40
1.0
 10
8.5223685829
 20
10.7518541785
 30
0.0
 10
8.5218583348
 20
10.7513483919
 30
0.0
 10
8.5205625222
 20
10.7501041914
 30
0.0
 10
8.5184105565
 20
10.748198096
 30
0.0
 10
8.5167347537
 20
10.7468414946
 30
0.0
 10
8.5158823155
 20
10.7461822085
 30
0.0
  0
SPLINE
  5
329
100
AcDbEntity
  8
0
100
AcDbSpline
 62
7
  6
CONTINUOUS
 70
0
 71
3
 72
11
 73
7
 74
0
 42
0.0000001
 43
0.0000001
 44
0.0000000001
 40
0.0
 40
0.0
 40
0.0
 40
0.0
 40
0.2494187246
 40
0.4991134547
 40
0.749293589
 40
1.0
 40
1.0
 40
1.0
 40
1.0
 10
8.5035349589
 20
10.8429113346
 30
0.0
 10
8.5049220129
 20
10.8423873045
 30
0.0
 10
8.5076683229
 20
10.841258269
 30
0.0
 10
8.5116638297
 20
10.8392787233
 30
0.0
 10
8.5154769929
 20
10.8369489967
 30
0.0
 10
8.5178388589
 20
10.8351204426
 30
0.0
 10
8.5189513704
 20
10.8341286746
 30
0.0
  0
SPLINE
  5
32A
100
AcDbEntity
  8
0
100
AcDbSpline
 62
7
  6
CONTINUOUS
 70
0
 71
3
 72
11
 73
7
 74
0
 42
0.0000001
 43
0.0000001
 44
0.0000000001
 40
0.0
 40
0.0
 40
0.0
 40
0.0
 40
0.2507063381
 40
0.5008865814
 40
0.7505812385
 40
1.0
 40
1.0
 40
1.0
 40
1.0
 10
8.5158802299
 20
10.7461822813
 30
0.0
 10
8.51470129
 20
10.745270475
 30
0.0
 10
8.5122175895
 20
10.743611157
 30
0.0
 10
8.5082511768
 20
10.7415531535
 30
0.0
 10
8.5041273582
 20
10.7398570179
 30
0.0
 10
8.5013089411
 20
10.7389224086
 30
0.0
 10
8.4998887094
 20
10.7384964105
 30
0.0
  0
SPLINE
  5
32B
100
AcDbEntity
  8
0
100
AcDbSpline
 62
7
  6
CONTINUOUS
 70
0
 71
3
 72
9
 73
5
 74
0
 42
0.0000001
 43
0.0000001
 44
0.0000000001
 40
0.0
 40
0.0
 40
0.0
 40
0.0
 40
0.4999954702
 40
1.0
 40
1.0
 40
1.0
 40
1.0
 10
8.5250282818
 20
10.8280179887
 30
0.0
 10
8.524080773
 20
10.8290983548
 30
0.0
 10
8.522115805
 20
10.8311987551
 30
0.0
 10
8.520024041
 20
10.8331724235
 30
0.0
 10
8.5189513704
 20
10.8341286746
 30
0.0
  0
SPLINE
  5
32C
100
AcDbEntity
  8
0
100
AcDbSpline
 62
7
  6
CONTINUOUS
 70
0
 71
3
 72
19
 73
15
 74
0
 42
0.0000001
 43
0.0000001
 44
0.0000000001
 40
0.0
 40
0.0
 40
0.0
 40
0.0
 40
0.1293907044
 40
0.2579653785
 40
0.3852538999
 40
0.5109519573
 40
0.5732363281
 40
0.6351084201
 40
0.6965934784
 40
0.7577307323
 40
0.8185726726
 40
0.8791819124
 40
0.9396323596
 40
1.0
 40
1.0
 40
1.0
 40
1.0
 10
8.3589487426
 20
11.1725103087
 30
0.0
 10
8.3588551518
 20
11.17046188
 30
0.0
 10
8.3590239557
 20
11.1663526399
 30
0.0
 10
8.3603419187
 20
11.1603598405
 30
0.0
 10
8.3626787605
 20
11.1547476438
 30
0.0
 10
8.3654224588
 20
11.1505346934
 30
0.0
 10
8.3680316499
 20
11.1475496933
 30
0.0
 10
8.3701725809
 20
11.1455249895
 30
0.0
 10
8.3724838806
 20
11.1437268613
 30
0.0
 10
8.3749455185
 20
11.1421708419
 30
0.0
 10
8.3775359114
 20
11.1408707378
 30
0.0
 10
8.3802324968
 20
11.1398379496
 30
0.0
 10
8.3830112488
 20
11.1390816934
 30
0.0
 10
8.3849036407
 20
11.1387661143
 30
0.0
 10
8.3858540243
 20
11.1386563784
 30
0.0
  0
SPLINE
  5
32D
100
AcDbEntity
  8
0
100
AcDbSpline
 62
7
  6
CONTINUOUS
 70
0
 71
3
 72
29
 73
25
 74
0
 42
0.0000001
 43
0.0000001
 44
0.0000000001
 40
0.0
 40
0.0
 40
0.0
 40
0.0
 40
0.0594287304
 40
0.0897911733
 40
0.1204906179
 40
0.1826470816
 40
0.2455302658
 40
0.2771642255
 40
0.3088824056
 40
0.3406640214
 40
0.372492476
 40
0.4362169337
 40
0.5000000143
 40
0.5637830936
 40
0.6275075495
 40
0.6593360055
 40
0.6911176202
 40
0.722835802
 40
0.754469762
 40
0.8173529491
 40
0.8795094181
 40
0.9102088759
 40
0.9405712829
 40
1.0
 40
1.0
 40
1.0
 40
1.0
 10
14.4671435469
 20
5.8497308821
 30
0.0
 10
14.4720761347
 20
5.8540068682
 30
0.0
 10
14.4791924055
 20
5.8608710212
 30
0.0
 10
14.4879632284
 20
5.870788971
 30
0.0
 10
14.4963778892
 20
5.8813979769
 30
0.0
 10
14.5059091209
 20
5.895646358
 30
0.0
 10
14.5138989802
 20
5.9109293084
 30
0.0
 10
14.5193154373
 20
5.9237000885
 30
0.0
 10
14.5228747921
 20
5.9335307733
 30
0.0
 10
14.5259077433
 20
5.9435587226
 30
0.0
 10
14.5292358865
 20
5.9571497871
 30
0.0
 10
14.5320287747
 20
5.9744645954
 30
0.0
 10
14.5331493442
 20
5.9954862514
 30
0.0
 10
14.5320287983
 20
6.0165079119
 30
0.0
 10
14.5292358561
 20
6.0338227108
 30
0.0
 10
14.5259077313
 20
6.0474137787
 30
0.0
 10
14.5228748011
 20
6.0574417348
 30
0.0
 10
14.5193154489
 20
6.0672724209
 30
0.0
 10
14.513898987
 20
6.0800431997
 30
0.0
 10
14.5059090905
 20
6.095326134
 30
0.0
 10
14.4963778619
 20
6.1095745105
 30
0.0
 10
14.4879632987
 20
6.1201835955
 30
0.0
 10
14.4791923314
 20
6.1301014133
 30
0.0
 10
14.4720761288
 20
6.13696562
 30
0.0
 10
14.4671435469
 20
6.1412416106
 30
0.0
  0
SPLINE
  5
32E
100
AcDbEntity
  8
0
100
AcDbSpline
 62
7
  6
CONTINUOUS
 70
0
 71
3
 72
24
 73
20
 74
0
 42
0.0000001
 43
0.0000001
 44
0.0000000001
 40
0.0
 40
0.0
 40
0.0
 40
0.0
 40
0.0297498067
 40
0.0599766423
 40
0.090579595
 40
0.1214735724
 40
0.1838560555
 40
0.246755989
 40
0.3731567959
 40
0.4365684348
 40
0.500011182
 40
0.5634539316
 40
0.6268655708
 40
0.7532663828
 40
0.8161663176
 40
0.8785488189
 40
0.9400232711
 40
0.9702500725
 40
1.0
 40
1.0
 40
1.0
 40
1.0
 10
14.4671435469
 20
6.1879949534
 30
0.0
 10
14.4700032205
 20
6.1849793701
 30
0.0
 10
14.4755805301
 20
6.1787189958
 30
0.0
 10
14.4834355422
 20
6.1687905762
 30
0.0
 10
14.4908120137
 20
6.1583051016
 30
0.0
 10
14.4999970303
 20
6.1436306909
 30
0.0
 10
14.5101197068
 20
6.1242569736
 30
0.0
 10
14.52334595
 20
6.0916380922
 30
0.0
 10
14.5321017348
 20
6.0572164609
 30
0.0
 10
14.5364597039
 20
6.0220791728
 30
0.0
 10
14.5375501883
 20
5.9954862529
 30
0.0
 10
14.5364596837
 20
5.9688933718
 30
0.0
 10
14.5321017321
 20
5.9337559325
 30
0.0
 10
14.5233463737
 20
5.8993351324
 30
0.0
 10
14.5101190149
 20
5.8667143378
 30
0.0
 10
14.4980175545
 20
5.8435528287
 30
0.0
 10
14.4861118877
 20
5.8255652978
 30
0.0
 10
14.4755802394
 20
5.8122540327
 30
0.0
 10
14.4700032269
 20
5.8059931398
 30
0.0
 10
14.4671435469
 20
5.8029775394
 30
0.0
  0
SPLINE
  5
32F
100
AcDbEntity
  8
0
100
AcDbSpline
 62
7
  6
CONTINUOUS
 70
0
 71
3
 72
15
 73
11
 74
0
 42
0.0000001
 43
0.0000001
 44
0.0000000001
 40
0.0
 40
0.0
 40
0.0
 40
0.0
 40
0.1218078101
 40
0.2441949088
 40
0.3674053948
 40
0.491618395
 40
0.6169552996
 40
0.7434763614
 40
0.8711797879
 40
1.0
 40
1.0
 40
1.0
 40
1.0
 10
14.4671435469
 20
5.8029775394
 30
0.0
 10
14.4613375155
 20
5.7972085317
 30
0.0
 10
14.4492975721
 20
5.7860385453
 30
0.0
 10
14.4301067768
 20
5.7704813543
 30
0.0
 10
14.4098143328
 20
5.7561087818
 30
0.0
 10
14.3884742254
 20
5.7429624959
 30
0.0
 10
14.3661470466
 20
5.7310915993
 30
0.0
 10
14.3429005897
 20
5.7205579709
 30
0.0
 10
14.3188179255
 20
5.7114290999
 30
0.0
 10
14.3023332403
 20
5.7063458562
 30
0.0
 10
14.2939852374
 20
5.7040572674
 30
0.0
  0
SPLINE
  5
330
100
AcDbEntity
  8
0
100
AcDbSpline
 62
7
  6
CONTINUOUS
 70
0
 71
3
 72
15
 73
11
 74
0
 42
0.0000001
 43
0.0000001
 44
0.0000000001
 40
0.0
 40
0.0
 40
0.0
 40
0.0
 40
0.1288105555
 40
0.2565054083
 40
0.3830204587
 40
0.5083548727
 40
0.6325694927
 40
0.7557854244
 40
0.8781816465
 40
1.0
 40
1.0
 40
1.0
 40
1.0
 10
14.2945376834
 20
6.2867633062
 30
0.0
 10
14.3028581667
 20
6.2844698333
 30
0.0
 10
14.3192881534
 20
6.2793799941
 30
0.0
 10
14.3432905404
 20
6.2702506642
 30
0.0
 10
14.3664597332
 20
6.2597252549
 30
0.0
 10
14.3887138041
 20
6.247871056
 30
0.0
 10
14.4099850873
 20
6.234748457
 30
0.0
 10
14.4302147559
 20
6.2204077215
 30
0.0
 10
14.449346971
 20
6.2048872514
 30
0.0
 10
14.461353637
 20
6.1937481953
 30
0.0
 10
14.4671435469
 20
6.1879949534
 30
0.0
  0
SPLINE
  5
331
100
AcDbEntity
  8
0
100
AcDbSpline
 62
7
  6
CONTINUOUS
 70
0
 71
3
 72
13
 73
9
 74
0
 42
0.0000001
 43
0.0000001
 44
0.0000000001
 40
0.0
 40
0.0
 40
0.0
 40
0.0
 40
0.092917717
 40
0.1958173308
 40
0.3085984151
 40
0.430899866
 40
0.7012566636
 40
1.0
 40
1.0
 40
1.0
 40
1.0
 10
14.4699641656
 20
6.1938200153
 30
0.0
 10
14.4699446009
 20
6.1936183703
 30
0.0
 10
14.4698749089
 20
6.1931959969
 30
0.0
 10
14.4696978752
 20
6.192545972
 30
0.0
 10
14.4694447318
 20
6.1918530846
 30
0.0
 10
14.4689935029
 20
6.1908468551
 30
0.0
 10
14.46824906
 20
6.1895322404
 30
0.0
 10
14.4675373575
 20
6.1885137833
 30
0.0
 10
14.4671435469
 20
6.1879949534
 30
0.0
  0
SPLINE
  5
332
100
AcDbEntity
  8
0
100
AcDbSpline
 62
7
  6
CONTINUOUS
 70
0
 71
3
 72
13
 73
9
 74
0
 42
0.0000001
 43
0.0000001
 44
0.0000000001
 40
0.0
 40
0.0
 40
0.0
 40
0.0
 40
0.092917721
 40
0.1958173371
 40
0.3085984224
 40
0.4308998731
 40
0.7012566678
 40
1.0
 40
1.0
 40
1.0
 40
1.0
 10
14.4699641656
 20
5.7971524774
 30
0.0
 10
14.4699446009
 20
5.7973541224
 30
0.0
 10
14.4698749089
 20
5.7977764959
 30
0.0
 10
14.4696978753
 20
5.7984265208
 30
0.0
 10
14.4694447318
 20
5.7991194082
 30
0.0
 10
14.468993503
 20
5.8001256377
 30
0.0
 10
14.4682490601
 20
5.8014402524
 30
0.0
 10
14.4675373575
 20
5.8024587094
 30
0.0
 10
14.4671435469
 20
5.8029775394
 30
0.0
  0
SPLINE
  5
333
100
AcDbEntity
  8
0
100
AcDbSpline
 62
7
  6
CONTINUOUS
 70
0
 71
3
 72
15
 73
11
 74
0
 42
0.0000001
 43
0.0000001
 44
0.0000000001
 40
0.0
 40
0.0
 40
0.0
 40
0.0
 40
0.1030667593
 40
0.2163747104
 40
0.3382756616
 40
0.466767579
 40
0.5996047915
 40
0.7343943017
 40
0.8686709173
 40
1.0
 40
1.0
 40
1.0
 40
1.0
 10
14.4585457725
 20
6.132975579
 30
0.0
 10
14.4589215644
 20
6.1331506982
 30
0.0
 10
14.4596887024
 20
6.1335657918
 30
0.0
 10
14.4608222574
 20
6.1343211261
 30
0.0
 10
14.461973968
 20
6.1352254955
 30
0.0
 10
14.4631187869
 20
6.136259514
 30
0.0
 10
14.4642319835
 20
6.137400988
 30
0.0
 10
14.4652893556
 20
6.1386252393
 30
0.0
 10
14.466267927
 20
6.1399056408
 30
0.0
 10
14.4668638879
 20
6.1407934266
 30
0.0
 10
14.4671435469
 20
6.1412416106
 30
0.0
  0
SPLINE
  5
334
100
AcDbEntity
  8
0
100
AcDbSpline
 62
7
  6
CONTINUOUS
 70
0
 71
3
 72
15
 73
11
 74
0
 42
0.0000001
 43
0.0000001
 44
0.0000000001
 40
0.0
 40
0.0
 40
0.0
 40
0.0
 40
0.103064851
 40
0.2163716141
 40
0.338272069
 40
0.466764092
 40
0.599601881
 40
0.7343922805
 40
0.8686699244
 40
1.0
 40
1.0
 40
1.0
 40
1.0
 10
14.4585454984
 20
5.8579970423
 30
0.0
 10
14.4589212979
 20
5.8578219331
 30
0.0
 10
14.4596884545
 20
5.8574068534
 30
0.0
 10
14.4608220391
 20
5.8566515277
 30
0.0
 10
14.4619737852
 20
5.8557471541
 30
0.0
 10
14.4631186432
 20
5.8547131197
 30
0.0
 10
14.4642318799
 20
5.8535716201
 30
0.0
 10
14.4652892909
 20
5.8523473354
 30
0.0
 10
14.4662678976
 20
5.8510668951
 30
0.0
 10
14.4668638789
 20
5.8501790809
 30
0.0
 10
14.4671435469
 20
5.8497308821
 30
0.0
  0
SPLINE
  5
335
100
AcDbEntity
  8
0
100
AcDbSpline
 62
7
  6
CONTINUOUS
 70
0
 71
3
 72
39
 73
35
 74
0
 42
0.0000001
 43
0.0000001
 44
0.0000000001
 40
0.0
 40
0.0
 40
0.0
 40
0.0
 40
0.0000180063
 40
0.0000720105
 40
0.0001619822
 40
0.0002878906
 40
0.0006473962
 40
0.0011502835
 40
0.0017963092
 40
0.0025852304
 40
0.0035168045
 40
0.0045907894
 40
0.0071650247
 40
0.0103060074
 40
0.0140118149
 40
0.0182805309
 40
0.0231101408
 40
0.028496898
 40
0.040921234
 40
0.0555125518
 40
0.0722305626
 40
0.0910356196
 40
0.111882127
 40
0.1347169127
 40
0.1594880076
 40
0.2146392868
 40
0.2769434235
 40
0.3460238088
 40
0.4215542758
 40
0.5032603306
 40
0.5909391984
 40
0.6844622494
 40
0.7837868683
 40
1.0
 40
1.0
 40
1.0
 40
1.0
 10
8.3804378348
 20
11.1631985712
 30
0.0
 10
8.3804377854
 20
11.1631984377
 30
0.0
 10
8.3804371989
 20
11.1631993456
 30
0.0
 10
8.3804363523
 20
11.1631996338
 30
0.0
 10
8.3804346243
 20
11.1632012889
 30
0.0
 10
8.3804311591
 20
11.1632039991
 30
0.0
 10
8.3804250833
 20
11.1632090958
 30
0.0
 10
8.3804158759
 20
11.1632165956
 30
0.0
 10
8.3804040089
 20
11.1632263281
 30
0.0
 10
8.3803895163
 20
11.16323816
 30
0.0
 10
8.3803723859
 20
11.1632521292
 30
0.0
 10
8.3803442912
 20
11.1632749896
 30
0.0
 10
8.380302591
 20
11.1633088181
 30
0.0
 10
8.3802446365
 20
11.1633556482
 30
0.0
 10
8.3801761522
 20
11.1634107703
 30
0.0
 10
8.3800971404
 20
11.1634741124
 30
0.0
 10
8.3800076211
 20
11.1635456018
 30
0.0
 10
8.3798674366
 20
11.1636570126
 30
0.0
 10
8.3796660521
 20
11.1638155033
 30
0.0
 10
8.3793926257
 20
11.1640273496
 30
0.0
 10
8.3790772263
 20
11.1642673967
 30
0.0
 10
8.3787199773
 20
11.1645341152
 30
0.0
 10
8.3783209376
 20
11.1648256842
 30
0.0
 10
8.3778800414
 20
11.1651398916
 30
0.0
 10
8.377212122
 20
11.165602925
 30
0.0
 10
8.3762739033
 20
11.1662237823
 30
0.0
 10
8.3750180923
 20
11.1669985652
 30
0.0
 10
8.3735947425
 20
11.1678069285
 30
0.0
 10
8.3720038389
 20
11.1686283588
 30
0.0
 10
8.3702445979
 20
11.169440645
 30
0.0
 10
8.3683165762
 20
11.170221515
 30
0.0
 10
8.3662188596
 20
11.1709476931
 30
0.0
 10
8.3631066495
 20
11.1718353481
 30
0.0
 10
8.3606457735
 20
11.1722999505
 30
0.0
 10
8.3589487416
 20
11.1725103088
 30
0.0
  0
SPLINE
  5
336
100
AcDbEntity
  8
0
100
AcDbSpline
 62
7
  6
CONTINUOUS
 70
0
 71
3
 72
10
 73
6
 74
0
 42
0.0000001
 43
0.0000001
 44
0.0000000001
 40
0.0
 40
0.0
 40
0.0
 40
0.0
 40
0.2360776947
 40
0.4787800425
 40
1.0
 40
1.0
 40
1.0
 40
1.0
 10
8.3589487416
 20
11.1725103088
 30
0.0
 10
8.3586590166
 20
11.1725462229
 30
0.0
 10
8.3580644704
 20
11.1725716536
 30
0.0
 10
8.3568318946
 20
11.1724333066
 30
0.0
 10
8.355925262
 20
11.1721210673
 30
0.0
 10
8.3553415887
 20
11.1718476024
 30
0.0
  0
SPLINE
  5
337
100
AcDbEntity
  8
0
100
AcDbSpline
 62
7
  6
CONTINUOUS
 70
0
 71
3
 72
22
 73
18
 74
0
 42
0.0000001
 43
0.0000001
 44
0.0000000001
 40
0.0
 40
0.0
 40
0.0
 40
0.0
 40
0.0362798619
 40
0.0765037318
 40
0.1208770128
 40
0.1694480432
 40
0.2221162834
 40
0.278723805
 40
0.3390652693
 40
0.4028896976
 40
0.4699282606
 40
0.5398791745
 40
0.6871115786
 40
0.7636850997
 40
0.8416597175
 40
0.920590733
 40
1.0
 40
1.0
 40
1.0
 40
1.0
 10
8.3553415887
 20
11.1718476024
 30
0.0
 10
8.3547531598
 20
11.1715719137
 30
0.0
 10
8.3535635631
 20
11.1708788559
 30
0.0
 10
8.3518540153
 20
11.1695427325
 30
0.0
 10
8.3501437027
 20
11.1678743225
 30
0.0
 10
8.3484501446
 20
11.1658869439
 30
0.0
 10
8.3467869182
 20
11.1635977039
 30
0.0
 10
8.3451716224
 20
11.1610222135
 30
0.0
 10
8.3436215448
 20
11.158177429
 30
0.0
 10
8.3421533906
 20
11.1550815843
 30
0.0
 10
8.3407852935
 20
11.1517533428
 30
0.0
 10
8.3390888323
 20
11.1469518765
 30
0.0
 10
8.3377040318
 20
11.1418659425
 30
0.0
 10
8.3366477176
 20
11.1365636164
 30
0.0
 10
8.3360208033
 20
11.132427336
 30
0.0
 10
8.335582608
 20
11.1282160461
 30
0.0
 10
8.3354170946
 20
11.1253836552
 30
0.0
 10
8.3353674368
 20
11.1239622203
 30
0.0
  0
SPLINE
  5
338
100
AcDbEntity
  8
0
100
AcDbSpline
 62
7
  6
CONTINUOUS
 70
0
 71
3
 72
19
 73
15
 74
0
 42
0.0000001
 43
0.0000001
 44
0.0000000001
 40
0.0
 40
0.0
 40
0.0
 40
0.0
 40
0.1339029856
 40
0.2664996112
 40
0.3320075909
 40
0.3967865307
 40
0.4607454602
 40
0.5238222112
 40
0.647089041
 40
0.7669067173
 40
0.8258224878
 40
0.8841945405
 40
0.9421968721
 40
1.0
 40
1.0
 40
1.0
 40
1.0
 10
8.3207410577
 20
10.7051175247
 30
0.0
 10
8.3207034758
 20
10.7040413199
 30
0.0
 10
8.3204477514
 20
10.7019015743
 30
0.0
 10
8.3196821973
 20
10.6993291077
 30
0.0
 10
8.3188169185
 20
10.6973975025
 30
0.0
 10
8.3180522574
 20
10.6960328062
 30
0.0
 10
8.3171766547
 20
10.6947599664
 30
0.0
 10
8.3158832612
 20
10.6932143363
 30
0.0
 10
8.314035279
 20
10.6915613659
 30
0.0
 10
8.3119145039
 20
10.6903377726
 30
0.0
 10
8.3101264418
 20
10.6896658799
 30
0.0
 10
8.3087571388
 20
10.6893181044
 30
0.0
 10
8.3073665114
 20
10.6891278341
 30
0.0
 10
8.3064330304
 20
10.6891071145
 30
0.0
 10
8.3059684553
 20
10.6891233378
 30
0.0
  0
SPLINE
  5
339
100
AcDbEntity
  8
0
100
AcDbSpline
 62
7
  6
CONTINUOUS
 70
0
 71
3
 72
24
 73
20
 74
0
 42
0.0000001
 43
0.0000001
 44
0.0000000001
 40
0.0
 40
0.0
 40
0.0
 40
0.0
 40
0.1129510132
 40
0.2290602151
 40
0.3482675381
 40
0.4706023651
 40
0.533024069
 40
0.5963417825
 40
0.6606317233
 40
0.6931887546
 40
0.7260414236
 40
0.7591962886
 40
0.7926769582
 40
0.8264988464
 40
0.8606579513
 40
0.8951403495
 40
0.9299110676
 40
0.964897914
 40
1.0
 40
1.0
 40
1.0
 40
1.0
 10
8.3845262587
 20
11.1384398547
 30
0.0
 10
8.3834862183
 20
11.1383160799
 30
0.0
 10
8.3813891821
 20
11.1379521857
 30
0.0
 10
8.3782722265
 20
11.1370891471
 30
0.0
 10
8.3751718735
 20
11.1358970412
 30
0.0
 10
8.3726538964
 20
11.1346157845
 30
0.0
 10
8.3707066733
 20
11.1333883256
 30
0.0
 10
8.3692828583
 20
11.1323474976
 30
0.0
 10
8.3681566209
 20
11.1313761027
 30
0.0
 10
8.367303081
 20
11.1305282029
 30
0.0
 10
8.3666879601
 20
11.1298515856
 30
0.0
 10
8.3661076059
 20
11.1291337109
 30
0.0
 10
8.3655696504
 20
11.1283723606
 30
0.0
 10
8.3650805722
 20
11.127567709
 30
0.0
 10
8.36464947
 20
11.1267197809
 30
0.0
 10
8.3642922525
 20
11.1258284414
 30
0.0
 10
8.3640155528
 20
11.1249008164
 30
0.0
 10
8.3638289087
 20
11.1239449007
 30
0.0
 10
8.3637723558
 20
11.123295994
 30
0.0
 10
8.3637609584
 20
11.1229706966
 30
0.0
  0
SPLINE
  5
33A
100
AcDbEntity
  8
0
100
AcDbSpline
 62
7
  6
CONTINUOUS
 70
0
 71
3
 72
16
 73
12
 74
0
 42
0.0000001
 43
0.0000001
 44
0.0000000001
 40
0.0
 40
0.0
 40
0.0
 40
0.0
 40
0.1268450556
 40
0.2545756887
 40
0.3824064304
 40
0.5095389257
 40
0.6352593301
 40
0.759028399
 40
0.8805572364
 40
0.9405433835
 40
1.0
 40
1.0
 40
1.0
 40
1.0
 10
8.3553415848
 20
11.1718476005
 30
0.0
 10
8.3554164547
 20
11.1698143612
 30
0.0
 10
8.3559239227
 20
11.1657386209
 30
0.0
 10
8.3577083586
 20
11.1598410449
 30
0.0
 10
8.360458614
 20
11.1543201217
 30
0.0
 10
8.3640806597
 20
11.149367528
 30
0.0
 10
8.3684519334
 20
11.1451530747
 30
0.0
 10
8.3734224226
 20
11.1418236999
 30
0.0
 10
8.3779489747
 20
11.139874553
 30
0.0
 10
8.3816858026
 20
11.1388681418
 30
0.0
 10
8.3835790358
 20
11.1385507362
 30
0.0
 10
8.3845262628
 20
11.1384398552
 30
0.0
  0
LINE
  5
33B
100
AcDbEntity
  8
0
100
AcDbLine
 62
7
  6
CONTINUOUS
 10
8.3858540246
 20
11.1386563784
 30
0.0
 11
8.3845262543
 21
11.1384398528
 31
0.0
  0
SPLINE
  5
33C
100
AcDbEntity
  8
0
100
AcDbSpline
 62
7
  6
CONTINUOUS
 70
0
 71
3
 72
15
 73
11
 74
0
 42
0.0000001
 43
0.0000001
 44
0.0000000001
 40
0.0
 40
0.0
 40
0.0
 40
0.0
 40
0.1219826725
 40
0.2445035047
 40
0.3678041293
 40
0.4920573123
 40
0.6173791304
 40
0.7438250948
 40
0.871388641
 40
1.0
 40
1.0
 40
1.0
 40
1.0
 10
14.4699641656
 20
5.7971524774
 30
0.0
 10
14.4640436419
 20
5.7910908927
 30
0.0
 10
14.451748739
 20
5.7793509593
 30
0.0
 10
14.4321003369
 20
5.7629924078
 30
0.0
 10
14.4112785163
 20
5.7478846589
 30
0.0
 10
14.3893422232
 20
5.7340782606
 30
0.0
 10
14.366356432
 20
5.7216345161
 30
0.0
 10
14.3423960844
 20
5.7106256901
 30
0.0
 10
14.3175528812
 20
5.7011303171
 30
0.0
 10
14.3005343002
 20
5.6958806831
 30
0.0
 10
14.2919154194
 20
5.6935301057
 30
0.0
  0
SPLINE
  5
33D
100
AcDbEntity
  8
0
100
AcDbSpline
 62
7
  6
CONTINUOUS
 70
0
 71
3
 72
28
 73
24
 74
0
 42
0.0000001
 43
0.0000001
 44
0.0000000001
 40
0.0
 40
0.0
 40
0.0
 40
0.0
 40
0.0599710336
 40
0.121425338
 40
0.1525275866
 40
0.1837981624
 40
0.2466708869
 40
0.3098328595
 40
0.3731496231
 40
0.4365442552
 40
0.4999709848
 40
0.5633977175
 40
0.5951088009
 40
0.6268072501
 40
0.6901239939
 40
0.7532859937
 40
0.7847789044
 40
0.8161767192
 40
0.8474473329
 40
0.8785495788
 40
0.9400036584
 40
0.9702320792
 40
1.0
 40
1.0
 40
1.0
 40
1.0
 10
14.4699641656
 20
6.1938200153
 30
0.0
 10
14.4760278207
 20
6.1876116493
 30
0.0
 10
14.4875469922
 20
6.1742822668
 30
0.0
 10
14.5000604546
 20
6.1560483276
 30
0.0
 10
14.5090250736
 20
6.1405255767
 30
0.0
 10
14.5172877406
 20
6.1243871958
 30
0.0
 10
14.5261546899
 20
6.1033805991
 30
0.0
 10
14.5344206068
 20
6.0772176848
 30
0.0
 10
14.5403208963
 20
6.0503456906
 30
0.0
 10
14.5438573507
 20
6.0230247945
 30
0.0
 10
14.5450352923
 20
5.9954868834
 30
0.0
 10
14.544053311
 20
5.972531933
 30
0.0
 10
14.542087947
 20
5.9542783912
 30
0.0
 10
14.5393362438
 20
5.9361427464
 30
0.0
 10
14.5344208049
 20
5.9137551994
 30
0.0
 10
14.5275235091
 20
5.8919248449
 30
0.0
 10
14.520820137
 20
5.8749542279
 30
0.0
 10
14.5152115776
 20
5.8625302995
 30
0.0
 10
14.5090249112
 20
5.8504466113
 30
0.0
 10
14.5000611174
 20
5.8349250546
 30
0.0
 10
14.489983426
 20
5.820241157
 30
0.0
 10
14.4788530431
 20
5.8066311053
 30
0.0
 10
14.4729739886
 20
5.8002341377
 30
0.0
 10
14.4699641656
 20
5.7971524774
 30
0.0
  0
SPLINE
  5
33E
100
AcDbEntity
  8
0
100
AcDbSpline
 62
7
  6
CONTINUOUS
 70
0
 71
3
 72
15
 73
11
 74
0
 42
0.0000001
 43
0.0000001
 44
0.0000000001
 40
0.0
 40
0.0
 40
0.0
 40
0.0
 40
0.1285702449
 40
0.2560967849
 40
0.3825165024
 40
0.5078274088
 40
0.6320870226
 40
0.7554111715
 40
0.87797148
 40
1.0
 40
1.0
 40
1.0
 40
1.0
 10
14.2945334878
 20
6.2967189835
 30
0.0
 10
14.3030216781
 20
6.2943429945
 30
0.0
 10
14.3197803553
 20
6.2890586134
 30
0.0
 10
14.3442418801
 20
6.279557525
 30
0.0
 10
14.3678353206
 20
6.2685869141
 30
0.0
 10
14.3904735261
 20
6.2562221211
 30
0.0
 10
14.4120849985
 20
6.242532172
 30
0.0
 10
14.4326079305
 20
6.2275758779
 30
0.0
 10
14.4519843783
 20
6.2114003294
 30
0.0
 10
14.4641186605
 20
6.1998049637
 30
0.0
 10
14.4699641656
 20
6.1938200153
 30
0.0
  0
ENDSEC
  0
SECTION
  2
OBJECTS
  0
DICTIONARY
  5
C
100
AcDbDictionary
280
0
281
1
  3
ACAD_GROUP
350
D
  3
ACAD_MLINESTYLE
350
17
  3
ACAD_LAYOUT
350
1A
  3
ACAD_PLOTSETTINGS
350
19
  3
ACAD_PLOTSTYLENAME
350
E
  0
DICTIONARY
  5
D
102
{ACAD_REACTORS
330
C
102
}
100
AcDbDictionary
280
0
281
1
  0
ACDBDICTIONARYWDFLT
  5
E
102
{ACAD_REACTORS
330
C
102
}
100
AcDbDictionary
281
1
  3
Normal
350
F
100
AcDbDictionaryWithDefault
340
F
  0
DICTIONARY
  5
17
102
{ACAD_REACTORS
330
C
102
}
100
AcDbDictionary
280
0
281
1
  3
Standard
350
18
  0
DICTIONARY
  5
19
102
{ACAD_REACTORS
330
C
102
}
100
AcDbDictionary
281
1
  0
DICTIONARY
  5
1A
102
{ACAD_REACTORS
330
C
102
}
100
AcDbDictionary
281
1
  3
Model
350
33F
  3
Layout1
350
340
  0
ACDBPLACEHOLDER
  5
F
102
{ACAD_REACTORS
330
E
102
}
  0
MLINESTYLE
  5
18
102
{ACAD_REACTORS
330
17
102
}
100
AcDbMlineStyle
  2
STANDARD
 70
0
  3

 62
256
 51
90.0
 52
90.0
 71
2
 49
0.5
 62
256
  6
BYLAYER
 49
-0.5
 62
256
  6
BYLAYER
  0
LAYOUT
  5
33F
102
{ACAD_REACTORS
330
1A
102
}
100
AcDbPlotSettings
  1

  2
none_device
  4
ANSI_C_(22.00_x_17.00_Inches)
  6

 40
0.0
 41
0.0
 42
0.0
 43
0.0
 44
558.8
 45
431.8
 46
0.0
 47
0.0
 48
0.0
 49
0.0
140
0.0
141
0.0
142
1.0
143
1.0
 70
1024
 72
0
 73
0
 74
0
  7

 75
0
147
1.0
148
0.0
149
0.0
100
AcDbLayout
  1
Model
 70
0
 71
0
 10
0.0
 20
0.0
 11
22.0
 21
17.0
 12
0.0
 22
0.0
 32
0.0
 14
0.0
 24
0.0
 34
0.0
 15
0.0
 25
0.0
 35
0.0
146
0.0
 13
0.0
 23
0.0
 33
0.0
 16
1.0
 26
0.0
 36
0.0
 17
0.0
 27
1.0
 37
0.0
 76
0
330
203
345
0
346
0
  0
LAYOUT
  5
340
102
{ACAD_REACTORS
330
1A
102
}
100
AcDbPlotSettings
  1

  2
none_device
  4
ANSI_C_(22.00_x_17.00_Inches)
  6

 40
0.0
 41
0.0
 42
0.0
 43
0.0
 44
558.8
 45
431.8
 46
0.0
 47
0.0
 48
0.0
 49
0.0
140
0.0
141
0.0
142
1.0
143
1.0
 70
0
 72
0
 73
0
 74
0
  7

 75
0
147
1.0
148
0.0
149
0.0
100
AcDbLayout
  1
Layout1
 70
0
 71
1
 10
0.0
 20
0.0
 11
22.0
 21
17.0
 12
0.0
 22
0.0
 32
0.0
 14
0.0
 24
0.0
 34
0.0
 15
0.0
 25
0.0
 35
0.0
146
0.0
 13
0.0
 23
0.0
 33
0.0
 16
1.0
 26
0.0
 36
0.0
 17
0.0
 27
1.0
 37
0.0
 76
0
330
204
345
0
346
0
  0
ENDSEC
  0
EOF
