999
DXF file: 1030-7173_TOP.dxf
999
Pro/ENGINEER 2025093 by Parametric Technology Corporation
  0
SECTION
  2
HEADER
  9
$ACADVER
  1
AC1032
  9
$DWGCODEPAGE
  3
ANSI_1252
  9
$EXTMAX
 10
22.0
 20
17.0
 30
0.0
  9
$EXTMIN
 10
0.0
 20
0.0
 30
0.0
  9
$LIMMIN
 10
0.0
 20
0.0
  9
$LIMMAX
 10
22.0
 20
17.0
  9
$VIEWCTR
 10
11.0
 20
8.5
  9
$VIEWSIZE
 40
17.0
  9
$CLAYER
  8
0
  9
$LTSCALE
 40
1.21
  9
$CELTYPE
  6
BYLAYER
  9
$DIMSCALE
 40
1.0
  9
$DIMASZ
 40
0.1875
  9
$DIMEXO
 40
0.0625
  9
$DIMDLI
 40
0.836
  9
$DIMEXE
 40
0.125
  9
$DIMCEN
 40
0.198
  9
$DIMLFAC
 40
1.0
  9
$DIMBLK
  1
_FILLED
  9
$DIMALT
 70
0
  9
$DIMALTF
 40
25.4
  9
$DIMTXT
 40
0.15625
  9
$DIMTOL
 70
0
  9
$DIMLIM
 70
0
  9
$DIMTFAC
 40
1.0
  9
$DIMGAP
 40
0.09
  9
$DIMDSEP
 70
46
  9
$AUNITS
 70
0
  9
$PDMODE
 70
3
  9
$PDSIZE
 40
0.3125
  9
$HANDSEED
  5
28A
  9
$TILEMODE
 70
1
  9
$MEASUREMENT
 70
0
  9
$INSUNITS
 70
1
  0
ENDSEC
  0
SECTION
  2
CLASSES
  0
CLASS
  1
ACDBDICTIONARYWDFLT
  2
AcDbDictionaryWithDefault
  3
AutoCAD 2000
 90
0
 91
1
280
0
281
0
  0
CLASS
  1
ACDBPLACEHOLDER
  2
AcDbPlaceHolder
  3
AutoCAD 2000
 90
0
 91
1
280
0
281
0
  0
CLASS
  1
LAYOUT
  2
AcDbLayout
  3
AutoCAD 2000
 90
0
 91
0
280
0
281
0
  0
ENDSEC
  0
SECTION
  2
TABLES
  0
TABLE
  2
VPORT
  5
8
100
AcDbSymbolTable
 70
2
  0
VPORT
  5
1F4
100
AcDbSymbolTableRecord
100
AcDbViewportTableRecord
  2
*ACTIVE
 70
0
 10
0.0
 20
0.0
 11
1.0
 21
1.0
 12
11.0
 22
8.5
 13
0.0
 23
0.0
 14
1.0
 24
1.0
 15
0.0
 25
0.0
 16
0.0
 26
0.0
 36
1.0
 17
0.0
 27
0.0
 37
0.0
 40
17.0
 41
1.2941176471
 42
50.0
 43
0.0
 44
0.0
 50
0.0
 51
0.0
 71
0
 72
100
 73
1
 74
1
 75
0
 76
0
 77
0
 78
0
  0
ENDTAB
  0
TABLE
  2
LTYPE
  5
5
100
AcDbSymbolTable
 70
6
  0
LTYPE
  5
14
100
AcDbSymbolTableRecord
100
AcDbLinetypeTableRecord
  2
BYBLOCK
 70
0
  3

 72
65
 73
0
 40
0.0
  0
LTYPE
  5
15
100
AcDbSymbolTableRecord
100
AcDbLinetypeTableRecord
  2
BYLAYER
 70
0
  3

 72
65
 73
0
 40
0.0
  0
LTYPE
  5
16
100
AcDbSymbolTableRecord
100
AcDbLinetypeTableRecord
  2
CONTINUOUS
 70
64
  3
Solid line
 72
65
 73
0
 40
0.0
  0
LTYPE
  5
1F5
100
AcDbSymbolTableRecord
100
AcDbLinetypeTableRecord
  2
CENTER
 70
64
  3
____ _ ____ _ ____ _ ____ _ ____ _ ____ _ ____
 72
65
 73
4
 40
0.6
 49
0.375
 74
0
 49
-0.075
 74
0
 49
0.075
 74
0
 49
-0.075
 74
0
  0
LTYPE
  5
1F6
100
AcDbSymbolTableRecord
100
AcDbLinetypeTableRecord
  2
HIDDEN
 70
64
  3
- - - - - - - - - - - - - - - - - - - -
 72
65
 73
2
 40
0.2
 49
0.1
 74
0
 49
-0.1
 74
0
  0
LTYPE
  5
1F7
100
AcDbSymbolTableRecord
100
AcDbLinetypeTableRecord
  2
PHANTOM
 70
64
  3
_____ _ _ _____ _ _ _____ _ _ _____
 72
65
 73
6
 40
0.8
 49
0.45
 74
0
 49
-0.05
 74
0
 49
0.1
 74
0
 49
-0.05
 74
0
 49
0.1
 74
0
 49
-0.05
 74
0
  0
LTYPE
  5
1F8
100
AcDbSymbolTableRecord
100
AcDbLinetypeTableRecord
  2
DOT
 70
64
  3
. . . . . . . . . . . . . . . . . . . .
 72
65
 73
2
 40
0.2
 49
0.1
 74
0
 49
-0.1
 74
0
  0
LTYPE
  5
1F9
100
AcDbSymbolTableRecord
100
AcDbLinetypeTableRecord
  2
DASHED
 70
64
  3
- - - - - - - - - - - - - - - - - - - -
 72
65
 73
2
 40
0.2
 49
0.1
 74
0
 49
-0.1
 74
0
  0
ENDTAB
  0
TABLE
  2
LAYER
  5
2
100
AcDbSymbolTable
 70
36
  0
LAYER
  5
10
100
AcDbSymbolTableRecord
100
AcDbLayerTableRecord
  2
0
 70
0
 62
7
  6
CONTINUOUS
370
-3
390
F
  0
LAYER
  5
1FA
100
AcDbSymbolTableRecord
100
AcDbLayerTableRecord
  2
DEFAULT_1
 70
0
 62
7
  6
CENTER
370
-3
390
F
  0
LAYER
  5
1FB
100
AcDbSymbolTableRecord
100
AcDbLayerTableRecord
  2
DEFAULT_2
 70
0
 62
8
  6
HIDDEN
370
-3
390
F
  0
LAYER
  5
1FC
100
AcDbSymbolTableRecord
100
AcDbLayerTableRecord
  2
DEFAULT_3
 70
0
 62
7
  6
PHANTOM
370
-3
390
F
  0
LAYER
  5
1FD
100
AcDbSymbolTableRecord
100
AcDbLayerTableRecord
  2
DEFAULT_COORDINATE_SYSTEM
 70
0
 62
7
  6
CONTINUOUS
370
-3
390
F
  0
LAYER
  5
1FE
100
AcDbSymbolTableRecord
100
AcDbLayerTableRecord
  2
DEFAULT_DATUM_AXES
 70
0
 62
7
  6
CONTINUOUS
370
-3
390
F
  0
LAYER
  5
1FF
100
AcDbSymbolTableRecord
100
AcDbLayerTableRecord
  2
DEFAULT_DATUM_CURVES
 70
0
 62
7
  6
CONTINUOUS
370
-3
390
F
  0
LAYER
  5
200
100
AcDbSymbolTableRecord
100
AcDbLayerTableRecord
  2
DEFAULT_DATUM_PLANES
 70
0
 62
7
  6
CONTINUOUS
370
-3
390
F
  0
ENDTAB
  0
TABLE
  2
STYLE
  5
3
100
AcDbSymbolTable
 70
1
  0
STYLE
  5
11
100
AcDbSymbolTableRecord
100
AcDbTextStyleTableRecord
  2
STANDARD
 70
0
 40
0.0
 41
0.8
 50
0.0
 71
0
 42
0.2
  3
txt
  4

  0
STYLE
  5
201
100
AcDbSymbolTableRecord
100
AcDbTextStyleTableRecord
  2
TEXTSTYLE_1
 70
0
 40
0.0
 41
0.8
 50
0.0
 71
0
 42
0.2
  3
gdt
  4

  0
ENDTAB
  0
TABLE
  2
VIEW
  5
6
100
AcDbSymbolTable
 70
0
  0
ENDTAB
  0
TABLE
  2
UCS
  5
7
100
AcDbSymbolTable
 70
0
  0
ENDTAB
  0
TABLE
  2
APPID
  5
9
100
AcDbSymbolTable
 70
1
  0
APPID
  5
202
100
AcDbSymbolTableRecord
100
AcDbRegAppTableRecord
  2
ACAD
 70
0
  0
ENDTAB
  0
TABLE
  2
BLOCK_RECORD
  5
1
100
AcDbSymbolTable
 70
0
  0
BLOCK_RECORD
  5
203
100
AcDbSymbolTableRecord
100
AcDbBlockTableRecord
  2
*Model_Space
  0
BLOCK_RECORD
  5
204
100
AcDbSymbolTableRecord
100
AcDbBlockTableRecord
  2
*Paper_Space
  0
BLOCK_RECORD
  5
205
100
AcDbSymbolTableRecord
100
AcDbBlockTableRecord
  2
_FILLED
  0
ENDTAB
  0
TABLE
  2
DIMSTYLE
  5
A
100
AcDbSymbolTable
 70
1
100
AcDbDimStyleTable
 71
0
  0
DIMSTYLE
105
206
100
AcDbSymbolTableRecord
100
AcDbDimStyleTableRecord
  2
STANDARD
 70
0
  3

  4

 40
1.0
 41
0.1875
 42
0.0625
 43
0.38
 44
0.125
 45
0.0
 46
0.0
 47
0.001
 48
0.001
140
0.15625
141
0.0
142
0.0
143
25.4
144
1.0
145
0.0
146
1.0
147
0.09
 71
0
 72
0
 73
1
 74
1
 75
0
 76
0
 77
0
 78
4
 79
1
170
0
171
2
172
0
173
0
174
0
175
0
176
0
177
0
178
0
270
2
179
1
271
3
272
3
273
2
274
2
275
0
280
0
281
0
282
0
283
1
284
4
285
0
286
0
287
3
288
0
340
11
278
46
341
205
342
205
343
205
344
205
  0
ENDTAB
  0
ENDSEC
  0
SECTION
  2
BLOCKS
  0
BLOCK
  5
20
100
AcDbEntity
  8
0
100
AcDbBlockBegin
  2
*Model_Space
 70
0
 10
0.0
 20
0.0
 30
0.0
  3
*Model_Space
  1

  0
ENDBLK
  5
21
100
AcDbEntity
  8
0
100
AcDbBlockEnd
  0
BLOCK
  5
1C
100
AcDbEntity
  8
0
100
AcDbBlockBegin
  2
*Paper_Space
 70
0
 10
0.0
 20
0.0
 30
0.0
  3
*Paper_Space
  1

  0
ENDBLK
  5
1D
100
AcDbEntity
  8
0
100
AcDbBlockEnd
  0
BLOCK
  5
207
100
AcDbEntity
  8
0
100
AcDbBlockBegin
  2
_FILLED
 70
64
 10
0.0
 20
0.0
 30
0.0
  3
_FILLED
  1

  0
SOLID
  5
208
100
AcDbEntity
  8
0
  6
BYBLOCK
 62
0
100
AcDbTrace
 10
0.0
 20
0.0
 30
0.0
 11
-1.0
 21
0.1666666667
 31
0.0
 12
-1.0
 22
-0.1666666667
 32
0.0
 13
-1.0
 23
-0.1666666667
 33
0.0
  0
ENDBLK
  5
209
100
AcDbEntity
  8
0
  6
BYBLOCK
 62
0
100
AcDbBlockEnd
  0
ENDSEC
  0
SECTION
  2
ENTITIES
  0
LINE
  5
20A
100
AcDbEntity
  8
0
100
AcDbLine
 62
7
  6
CONTINUOUS
 10
0.0
 20
0.0
 30
0.0
 11
0.0
 21
17.0
 31
0.0
  0
LINE
  5
20B
100
AcDbEntity
  8
0
100
AcDbLine
 62
7
  6
CONTINUOUS
 10
0.0
 20
0.0
 30
0.0
 11
22.0
 21
0.0
 31
0.0
  0
LINE
  5
20C
100
AcDbEntity
  8
0
100
AcDbLine
 62
7
  6
CONTINUOUS
 10
0.0
 20
17.0
 30
0.0
 11
22.0
 21
17.0
 31
0.0
  0
LINE
  5
20D
100
AcDbEntity
  8
0
100
AcDbLine
 62
7
  6
CONTINUOUS
 10
22.0
 20
0.0
 30
0.0
 11
22.0
 21
17.0
 31
0.0
  0
LINE
  5
20E
100
AcDbEntity
  8
0
100
AcDbLine
 62
7
  6
CONTINUOUS
 10
11.9157043794
 20
12.2776139801
 30
0.0
 11
11.9579043852
 21
12.2946645372
 31
0.0
  0
LINE
  5
20F
100
AcDbEntity
  8
0
100
AcDbLine
 62
7
  6
CONTINUOUS
 10
11.4736996128
 20
11.5632628148
 30
0.0
 11
11.7401144368
 21
11.6731005053
 31
0.0
  0
LINE
  5
210
100
AcDbEntity
  8
0
100
AcDbLine
 62
7
  6
CONTINUOUS
 10
12.188912444
 20
11.6841675866
 30
0.0
 11
12.2308155229
 21
11.701260277
 31
0.0
  0
LINE
  5
211
100
AcDbEntity
  8
0
100
AcDbLine
 62
7
  6
CONTINUOUS
 10
12.297037274
 20
11.7090652301
 30
0.0
 11
12.2862379873
 21
11.7012188713
 31
0.0
  0
LINE
  5
212
100
AcDbEntity
  8
0
100
AcDbLine
 62
7
  6
CONTINUOUS
 10
10.8101314874
 20
7.5723222322
 30
0.0
 11
10.1834119177
 21
7.5723222322
 31
0.0
  0
LINE
  5
213
100
AcDbEntity
  8
0
100
AcDbLine
 62
7
  6
CONTINUOUS
 10
9.9866467026
 20
5.8435778483
 30
0.0
 11
9.9866530103
 21
5.8433411246
 31
0.0
  0
LINE
  5
214
100
AcDbEntity
  8
0
100
AcDbLine
 62
7
  6
CONTINUOUS
 10
9.9866467026
 20
5.8435778483
 30
0.0
 11
9.9866467576
 21
5.8433411217
 31
0.0
  0
LINE
  5
215
100
AcDbEntity
  8
0
100
AcDbLine
 62
7
  6
CONTINUOUS
 10
10.1834119219
 20
11.989320835
 30
0.0
 11
10.1834119177
 21
5.9140722322
 31
0.0
  0
LINE
  5
216
100
AcDbEntity
  8
0
100
AcDbLine
 62
7
  6
CONTINUOUS
 10
12.2384047845
 20
12.2644182399
 30
0.0
 11
12.2460256338
 21
12.2776183405
 31
0.0
  0
LINE
  5
217
100
AcDbEntity
  8
0
100
AcDbLine
 62
7
  6
CONTINUOUS
 10
10.8102689121
 20
5.9149117672
 30
0.0
 11
10.8102713239
 21
5.9140724501
 31
0.0
  0
LINE
  5
218
100
AcDbEntity
  8
0
100
AcDbLine
 62
7
  6
CONTINUOUS
 10
10.8101340145
 20
5.9140722398
 30
0.0
 11
10.8101314855
 21
11.9894072859
 31
0.0
  0
LINE
  5
219
100
AcDbEntity
  8
0
100
AcDbLine
 62
7
  6
CONTINUOUS
 10
11.8897056665
 20
12.1975945755
 30
0.0
 11
11.9157043794
 21
12.2776139801
 31
0.0
  0
LINE
  5
21A
100
AcDbEntity
  8
0
100
AcDbLine
 62
7
  6
CONTINUOUS
 10
12.2308155229
 20
11.701260277
 30
0.0
 11
12.2384120447
 21
11.71441824
 31
0.0
  0
LINE
  5
21B
100
AcDbEntity
  8
0
100
AcDbLine
 62
7
  6
CONTINUOUS
 10
11.0068967026
 20
5.8433409565
 30
0.0
 11
11.0068967026
 21
5.8435778483
 31
0.0
  0
LINE
  5
21C
100
AcDbEntity
  8
0
100
AcDbLine
 62
7
  6
CONTINUOUS
 10
11.0068903948
 20
5.8433411246
 30
0.0
 11
11.0068967026
 21
5.8435778483
 31
0.0
  0
LINE
  5
21D
100
AcDbEntity
  8
0
100
AcDbLine
 62
7
  6
CONTINUOUS
 10
11.2706253211
 20
12.4486570097
 30
0.0
 11
11.2706253211
 21
11.5301570097
 31
0.0
  0
LINE
  5
21E
100
AcDbEntity
  8
0
100
AcDbLine
 62
7
  6
CONTINUOUS
 10
11.2709007735
 20
12.4503757597
 30
0.0
 11
11.2709007735
 21
11.5284382597
 31
0.0
  0
LINE
  5
21F
100
AcDbEntity
  8
0
100
AcDbLine
 62
7
  6
CONTINUOUS
 10
11.364794927
 20
12.450817724
 30
0.0
 11
11.364794927
 21
11.5279962954
 31
0.0
  0
LINE
  5
220
100
AcDbEntity
  8
0
100
AcDbLine
 62
7
  6
CONTINUOUS
 10
11.3907255319
 20
11.5466567894
 30
0.0
 11
11.3907255319
 21
12.43215723
 31
0.0
  0
LINE
  5
221
100
AcDbEntity
  8
0
100
AcDbLine
 62
7
  6
CONTINUOUS
 10
12.297037274
 20
11.7090652301
 30
0.0
 11
12.3077116817
 21
11.7419191548
 31
0.0
  0
LINE
  5
222
100
AcDbEntity
  8
0
100
AcDbLine
 62
7
  6
CONTINUOUS
 10
11.4736996128
 20
11.5632628148
 30
0.0
 11
11.4736996128
 21
12.4155512046
 31
0.0
  0
LINE
  5
223
100
AcDbEntity
  8
0
100
AcDbLine
 62
7
  6
CONTINUOUS
 10
11.7401144368
 20
11.6731005053
 30
0.0
 11
11.7401144368
 21
11.9948176537
 31
0.0
  0
LINE
  5
224
100
AcDbEntity
  8
0
100
AcDbLine
 62
7
  6
CONTINUOUS
 10
11.7469217026
 20
11.9946436954
 30
0.0
 11
11.7469217026
 21
11.683270116
 31
0.0
  0
LINE
  5
225
100
AcDbEntity
  8
0
100
AcDbLine
 62
7
  6
CONTINUOUS
 10
11.8897111627
 20
11.7812326985
 30
0.0
 11
11.8897097233
 21
11.8902751944
 31
0.0
  0
LINE
  5
226
100
AcDbEntity
  8
0
100
AcDbLine
 62
7
  6
CONTINUOUS
 10
11.889707106
 20
12.0885520795
 30
0.0
 11
11.8897056665
 21
12.1975945755
 31
0.0
  0
LINE
  5
227
100
AcDbEntity
  8
0
100
AcDbLine
 62
7
  6
CONTINUOUS
 10
11.9157119881
 20
11.7012139802
 30
0.0
 11
11.9157099907
 21
11.8525295746
 31
0.0
  0
LINE
  5
228
100
AcDbEntity
  8
0
100
AcDbLine
 62
7
  6
CONTINUOUS
 10
11.9157063768
 20
12.1262983857
 30
0.0
 11
11.9157043794
 21
12.2776139801
 31
0.0
  0
LINE
  5
229
100
AcDbEntity
  8
0
100
AcDbLine
 62
7
  6
CONTINUOUS
 10
11.9579124441
 20
11.6841645373
 30
0.0
 11
11.9579107113
 21
11.815426951
 31
0.0
  0
LINE
  5
22A
100
AcDbEntity
  8
0
100
AcDbLine
 62
7
  6
CONTINUOUS
 10
11.9579061179
 20
12.1634021235
 30
0.0
 11
11.9579043852
 21
12.2946645372
 31
0.0
  0
LINE
  5
22B
100
AcDbEntity
  8
0
100
AcDbLine
 62
7
  6
CONTINUOUS
 10
12.188912444
 20
11.6841675866
 30
0.0
 11
12.1889107113
 21
11.8154300003
 31
0.0
  0
LINE
  5
22C
100
AcDbEntity
  8
0
100
AcDbLine
 62
7
  6
CONTINUOUS
 10
12.1889061179
 20
12.1634051728
 30
0.0
 11
12.1889043852
 21
12.2946675865
 31
0.0
  0
LINE
  5
22D
100
AcDbEntity
  8
0
100
AcDbLine
 62
7
  6
CONTINUOUS
 10
12.2308155229
 20
11.701260277
 30
0.0
 11
12.2308135308
 21
11.8521719282
 31
0.0
  0
LINE
  5
22E
100
AcDbEntity
  8
0
100
AcDbLine
 62
7
  6
CONTINUOUS
 10
12.2308099073
 20
12.1266643511
 30
0.0
 11
12.2308079152
 21
12.2775760023
 31
0.0
  0
LINE
  5
22F
100
AcDbEntity
  8
0
100
AcDbLine
 62
7
  6
CONTINUOUS
 10
12.2384047845
 20
12.2644182399
 30
0.0
 11
12.2384067251
 21
12.1174078511
 31
0.0
  0
LINE
  5
230
100
AcDbEntity
  8
0
100
AcDbLine
 62
7
  6
CONTINUOUS
 10
12.2384101041
 20
11.8614286288
 30
0.0
 11
12.2384120447
 21
11.71441824
 31
0.0
  0
LINE
  5
231
100
AcDbEntity
  8
0
100
AcDbLine
 62
7
  6
CONTINUOUS
 10
12.2460332425
 20
11.7012183406
 30
0.0
 11
12.2460309889
 21
11.871940799
 31
0.0
  0
LINE
  5
232
100
AcDbEntity
  8
0
100
AcDbLine
 62
7
  6
CONTINUOUS
 10
12.2460278874
 20
12.1068958821
 30
0.0
 11
12.2460256338
 21
12.2776183405
 31
0.0
  0
LINE
  5
233
100
AcDbEntity
  8
0
100
AcDbLine
 62
7
  6
CONTINUOUS
 10
12.2862303786
 20
12.2776188712
 30
0.0
 11
12.2862379873
 21
11.7012188713
 31
0.0
  0
LINE
  5
234
100
AcDbEntity
  8
0
100
AcDbLine
 62
7
  6
CONTINUOUS
 10
12.2970298724
 20
12.2697727975
 30
0.0
 11
12.297037274
 21
11.7090652301
 31
0.0
  0
LINE
  5
235
100
AcDbEntity
  8
0
100
AcDbLine
 62
7
  6
CONTINUOUS
 10
12.3077116817
 20
11.7419191548
 30
0.0
 11
12.3077051475
 21
12.2369191547
 31
0.0
  0
LINE
  5
236
100
AcDbEntity
  8
0
100
AcDbLine
 62
7
  6
CONTINUOUS
 10
12.335690525
 20
11.7529004455
 30
0.0
 11
12.3356936469
 21
12.2259004455
 31
0.0
  0
LINE
  5
237
100
AcDbEntity
  8
0
100
AcDbLine
 62
7
  6
CONTINUOUS
 10
12.372168583
 20
11.7790870454
 30
0.0
 11
12.3721713593
 21
12.1997133641
 31
0.0
  0
LINE
  5
238
100
AcDbEntity
  8
0
100
AcDbLine
 62
7
  6
CONTINUOUS
 10
10.8101314874
 20
10.3393722322
 30
0.0
 11
10.1834119177
 21
10.3393722322
 31
0.0
  0
LWPOLYLINE
  5
239
100
AcDbEntity
  8
0
100
AcDbPolyline
 62
7
  6
CONTINUOUS
 90
9
 70
0
 10
11.6442209698
 20
12.3404663918
 10
11.643784449
 20
12.3418092928
 10
11.6431795554
 20
12.3430850959
 10
11.6424161729
 20
12.3442729747
 10
11.6415068907
 20
12.3453532985
 10
11.6404666885
 20
12.3463082539
 10
11.6393127022
 20
12.347122097
 10
11.6380639442
 20
12.3477814088
 10
11.6377558098
 20
12.3479139789
  0
LINE
  5
23A
100
AcDbEntity
  8
0
100
AcDbLine
 62
7
  6
CONTINUOUS
 10
11.8897111627
 20
11.7812326985
 30
0.0
 11
11.9157119881
 21
11.7012139802
 31
0.0
  0
LINE
  5
23B
100
AcDbEntity
  8
0
100
AcDbLine
 62
7
  6
CONTINUOUS
 10
12.2384120447
 20
11.71441824
 30
0.0
 11
12.2460332425
 21
11.7012183406
 31
0.0
  0
LINE
  5
23C
100
AcDbEntity
  8
0
100
AcDbLine
 62
7
  6
CONTINUOUS
 10
12.2970298724
 20
12.2697727975
 30
0.0
 11
12.3077051475
 21
12.2369191547
 31
0.0
  0
LINE
  5
23D
100
AcDbEntity
  8
0
100
AcDbLine
 62
7
  6
CONTINUOUS
 10
11.2706253211
 20
11.5569505504
 30
0.0
 11
10.8101314874
 21
11.5529318816
 31
0.0
  0
LINE
  5
23E
100
AcDbEntity
  8
0
100
AcDbLine
 62
7
  6
CONTINUOUS
 10
12.2308079152
 20
12.2775760023
 30
0.0
 11
12.2384047845
 21
12.2644182399
 31
0.0
  0
LINE
  5
23F
100
AcDbEntity
  8
0
100
AcDbLine
 62
7
  6
CONTINUOUS
 10
11.9579124441
 20
11.6841645373
 30
0.0
 11
12.188912444
 21
11.6841675866
 31
0.0
  0
LINE
  5
240
100
AcDbEntity
  8
0
100
AcDbLine
 62
7
  6
CONTINUOUS
 10
12.2460332425
 20
11.7012183406
 30
0.0
 11
12.2862379873
 21
11.7012188713
 31
0.0
  0
LINE
  5
241
100
AcDbEntity
  8
0
100
AcDbLine
 62
7
  6
CONTINUOUS
 10
12.335690525
 20
11.7529004455
 30
0.0
 11
12.3077115367
 21
11.7529006302
 31
0.0
  0
LINE
  5
242
100
AcDbEntity
  8
0
100
AcDbLine
 62
7
  6
CONTINUOUS
 10
11.9157119881
 20
11.7012139802
 30
0.0
 11
11.9579124441
 21
11.6841645373
 31
0.0
  0
LINE
  5
243
100
AcDbEntity
  8
0
100
AcDbLine
 62
7
  6
CONTINUOUS
 10
11.7469217026
 20
11.8244117521
 30
0.0
 11
11.8897105927
 21
11.824413637
 31
0.0
  0
LINE
  5
244
100
AcDbEntity
  8
0
100
AcDbLine
 62
7
  6
CONTINUOUS
 10
11.7231643281
 20
12.1544114385
 30
0.0
 11
11.8897062366
 21
12.1544136369
 31
0.0
  0
LINE
  5
245
100
AcDbEntity
  8
0
100
AcDbLine
 62
7
  6
CONTINUOUS
 10
12.3356936469
 20
12.2259004455
 30
0.0
 11
12.3077052929
 21
12.2259006302
 31
0.0
  0
LINE
  5
246
100
AcDbEntity
  8
0
100
AcDbLine
 62
7
  6
CONTINUOUS
 10
12.2460256338
 20
12.2776183405
 30
0.0
 11
12.2862303786
 21
12.2776188712
 31
0.0
  0
LINE
  5
247
100
AcDbEntity
  8
0
100
AcDbLine
 62
7
  6
CONTINUOUS
 10
11.9579043852
 20
12.2946645372
 30
0.0
 11
12.1889043852
 21
12.2946675865
 31
0.0
  0
LINE
  5
248
100
AcDbEntity
  8
0
100
AcDbLine
 62
7
  6
CONTINUOUS
 10
11.4736996128
 20
12.4155512046
 30
0.0
 11
11.6377558174
 21
12.3479139974
 31
0.0
  0
LINE
  5
249
100
AcDbEntity
  8
0
100
AcDbLine
 62
7
  6
CONTINUOUS
 10
12.2970298724
 20
12.2697727975
 30
0.0
 11
12.2862303786
 21
12.2776188712
 31
0.0
  0
LINE
  5
24A
100
AcDbEntity
  8
0
100
AcDbLine
 62
7
  6
CONTINUOUS
 10
11.2706253211
 20
12.421793914
 30
0.0
 11
10.7653331329
 21
12.4262035321
 31
0.0
  0
LINE
  5
24B
100
AcDbEntity
  8
0
100
AcDbLine
 62
7
  6
CONTINUOUS
 10
12.1889043852
 20
12.2946675865
 30
0.0
 11
12.2308079152
 21
12.2775760023
 31
0.0
  0
ARC
  5
24C
100
AcDbEntity
  8
0
100
AcDbCircle
 62
7
  6
CONTINUOUS
 10
10.4963599325
 20
5.843532998
 30
0.0
 40
0.5097165218
100
AcDbArc
 50
127.8808567831
 51
179.9949584731
  0
ARC
  5
24D
100
AcDbEntity
  8
0
100
AcDbCircle
 62
7
  6
CONTINUOUS
 10
10.4971834716
 20
5.8435329979
 30
0.0
 40
0.5097165218
100
AcDbArc
 50
0.0050415357
 51
52.1191407948
  0
ARC
  5
24E
100
AcDbEntity
  8
0
100
AcDbCircle
 62
7
  6
CONTINUOUS
 10
10.497194235
 20
5.8440848662
 30
0.0
 40
0.4981054766
100
AcDbArc
 50
0.0049285551
 51
51.0658939349
  0
ARC
  5
24F
100
AcDbEntity
  8
0
100
AcDbCircle
 62
7
  6
CONTINUOUS
 10
10.4963491692
 20
5.8440848663
 30
0.0
 40
0.4981054766
100
AcDbArc
 50
128.9341059887
 51
179.9950714512
  0
ARC
  5
250
100
AcDbEntity
  8
0
100
AcDbCircle
 62
7
  6
CONTINUOUS
 10
10.4963913328
 20
5.8518811123
 30
0.0
 40
0.3549196303
100
AcDbArc
 50
169.3484627215
 51
179.9999650176
  0
ARC
  5
251
100
AcDbEntity
  8
0
100
AcDbCircle
 62
7
  6
CONTINUOUS
 10
10.4971520746
 20
5.8518811126
 30
0.0
 40
0.354919628
100
AcDbArc
 50
0.0000349348
 51
10.634575232
  0
ARC
  5
252
100
AcDbEntity
  8
0
100
AcDbCircle
 62
7
  6
CONTINUOUS
 10
10.496469876
 20
5.9119909972
 30
0.0
 40
0.348950163
100
AcDbArc
 50
153.8274897755
 51
164.8802736477
  0
ARC
  5
253
100
AcDbEntity
  8
0
100
AcDbCircle
 62
7
  6
CONTINUOUS
 10
10.4971232595
 20
5.9120068129
 30
0.0
 40
0.348898263
100
AcDbArc
 50
344.8805895519
 51
26.1697923904
  0
ARC
  5
254
100
AcDbEntity
  8
0
100
AcDbCircle
 62
7
  6
CONTINUOUS
 10
10.497130778
 20
5.8795721771
 30
0.0
 40
0.348890894
100
AcDbArc
 50
344.8802537254
 51
2.6425160595
  0
ARC
  5
255
100
AcDbEntity
  8
0
100
AcDbCircle
 62
7
  6
CONTINUOUS
 10
10.4913272424
 20
5.92332367
 30
0.0
 40
0.318804245
100
AcDbArc
 50
358.3380038953
 51
0.0000265164
  0
ARC
  5
256
100
AcDbEntity
  8
0
100
AcDbCircle
 62
7
  6
CONTINUOUS
 10
10.4967719388
 20
5.9138963036
 30
0.0
 40
0.3136129635
100
AcDbArc
 50
269.9977526105
 51
270.1714411786
  0
ARC
  5
257
100
AcDbEntity
  8
0
100
AcDbCircle
 62
7
  6
CONTINUOUS
 10
10.4971358872
 20
5.913592444
 30
0.0
 40
0.3131358043
100
AcDbArc
 50
0.2414028545
 51
1.7809444597
  0
ARC
  5
258
100
AcDbEntity
  8
0
100
AcDbCircle
 62
7
  6
CONTINUOUS
 10
10.4971416984
 20
5.9135930147
 30
0.0
 40
0.3131299925
100
AcDbArc
 50
344.8802628152
 51
0.0877259799
  0
ARC
  5
259
100
AcDbEntity
  8
0
100
AcDbCircle
 62
7
  6
CONTINUOUS
 10
10.4963934448
 20
5.9135926925
 30
0.0
 40
0.3131217316
100
AcDbArc
 50
178.3790400096
 51
193.8402597229
  0
ARC
  5
25A
100
AcDbEntity
  8
0
100
AcDbCircle
 62
7
  6
CONTINUOUS
 10
10.4967717026
 20
11.9893722322
 30
0.0
 40
0.617375
100
AcDbArc
 50
300.5128021549
 51
315.1381868997
  0
ARC
  5
25B
100
AcDbEntity
  8
0
100
AcDbCircle
 62
7
  6
CONTINUOUS
 10
10.4967717026
 20
11.9893722322
 30
0.0
 40
0.617375
100
AcDbArc
 50
44.8618131003
 51
239.4871978451
  0
ARC
  5
25C
100
AcDbEntity
  8
0
100
AcDbCircle
 62
7
  6
CONTINUOUS
 10
11.1969217026
 20
11.9946436954
 30
0.0
 40
0.55
100
AcDbArc
 50
0.0
 51
30.0928201554
  0
ARC
  5
25D
100
AcDbEntity
  8
0
100
AcDbCircle
 62
7
  6
CONTINUOUS
 10
10.4967717026
 20
11.9893722322
 30
0.0
 40
0.512875
100
AcDbArc
 50
307.6688735556
 51
232.3311264444
  0
ARC
  5
25E
100
AcDbEntity
  8
0
100
AcDbCircle
 62
7
  6
CONTINUOUS
 10
10.4967717026
 20
11.9893722322
 30
0.0
 40
0.4345
100
AcDbArc
 50
316.1752233663
 51
223.8247766337
  0
ARC
  5
25F
100
AcDbEntity
  8
0
100
AcDbCircle
 62
7
  6
CONTINUOUS
 10
10.4967717026
 20
11.9893722322
 30
0.0
 40
0.418
100
AcDbArc
 50
318.5709877846
 51
221.4290122153
  0
ARC
  5
260
100
AcDbEntity
  8
0
100
AcDbCircle
 62
7
  6
CONTINUOUS
 10
10.4967717026
 20
11.9893722322
 30
0.0
 40
0.3685
100
AcDbArc
 50
328.2906762524
 51
211.7093237471
  0
ARC
  5
261
100
AcDbEntity
  8
0
100
AcDbCircle
 62
7
  6
CONTINUOUS
 10
10.4967717026
 20
11.9893722322
 30
0.0
 40
0.3575
100
AcDbArc
 50
331.2684364439
 51
208.7315635561
  0
ARC
  5
262
100
AcDbEntity
  8
0
100
AcDbCircle
 62
7
  6
CONTINUOUS
 10
10.4910538023
 20
11.9893733231
 30
0.0
 40
0.319077685
100
AcDbArc
 50
359.9998041137
 51
3.4442698791
  0
ARC
  5
263
100
AcDbEntity
  8
0
100
AcDbCircle
 62
7
  6
CONTINUOUS
 10
11.3898449288
 20
12.2121589924
 30
0.0
 40
0.22
100
AcDbArc
 50
67.5945911166
 51
89.77065921
  0
ARC
  5
264
100
AcDbEntity
  8
0
100
AcDbCircle
 62
7
  6
CONTINUOUS
 10
11.3898449288
 20
11.7666550269
 30
0.0
 40
0.22
100
AcDbArc
 50
270.22934079
 51
292.4054088834
  0
ARC
  5
265
100
AcDbEntity
  8
0
100
AcDbCircle
 62
7
  6
CONTINUOUS
 10
11.3179217026
 20
12.4349070097
 30
0.0
 40
0.0495
100
AcDbArc
 50
18.749340847
 51
161.7900431357
  0
ARC
  5
266
100
AcDbEntity
  8
0
100
AcDbCircle
 62
7
  6
CONTINUOUS
 10
11.3179217026
 20
11.5439070097
 30
0.0
 40
0.0495
100
AcDbArc
 50
198.2099568643
 51
341.250659153
  0
ARC
  5
267
100
AcDbEntity
  8
0
100
AcDbCircle
 62
7
  6
CONTINUOUS
 10
11.3908356073
 20
12.4596570097
 30
0.0
 40
0.0275
100
AcDbArc
 50
198.749340847
 51
269.77065921
  0
ARC
  5
268
100
AcDbEntity
  8
0
100
AcDbCircle
 62
7
  6
CONTINUOUS
 10
11.3908356073
 20
11.5191570097
 30
0.0
 40
0.0275
100
AcDbArc
 50
90.22934079
 51
161.250659153
  0
ARC
  5
269
100
AcDbEntity
  8
0
100
AcDbCircle
 62
7
  6
CONTINUOUS
 10
11.2761253211
 20
11.5301570097
 30
0.0
 40
0.0055
100
AcDbArc
 50
180.0
 51
198.2099568643
  0
ARC
  5
26A
100
AcDbEntity
  8
0
100
AcDbCircle
 62
7
  6
CONTINUOUS
 10
11.2761253211
 20
12.4486570097
 30
0.0
 40
0.0055
100
AcDbArc
 50
161.7900431357
 51
180.0
  0
ARC
  5
26B
100
AcDbEntity
  8
0
100
AcDbCircle
 62
7
  6
CONTINUOUS
 10
11.7491146646
 20
11.9894043171
 30
0.0
 40
0.65759375
100
AcDbArc
 50
341.3474418821
 51
18.6518017876
  0
ARC
  5
26C
100
AcDbEntity
  8
0
100
AcDbCircle
 62
7
  6
CONTINUOUS
 10
11.9107234663
 20
12.408300609
 30
0.0
 40
0.275
100
AcDbArc
 50
194.282449753
 51
210.0928201554
  0
CIRCLE
  5
26D
100
AcDbEntity
  8
0
100
AcDbCircle
 62
7
  6
CONTINUOUS
 10
12.0734084146
 20
11.9894160619
 30
0.0
 40
0.2088542978
  0
CIRCLE
  5
26E
100
AcDbEntity
  8
0
100
AcDbCircle
 62
7
  6
CONTINUOUS
 10
12.0734084146
 20
11.9894160619
 30
0.0
 40
0.11
  0
CIRCLE
  5
26F
100
AcDbEntity
  8
0
100
AcDbCircle
 62
7
  6
CONTINUOUS
 10
12.0734084146
 20
11.9894160619
 30
0.0
 40
0.099
  0
CIRCLE
  5
270
100
AcDbEntity
  8
0
100
AcDbCircle
 62
7
  6
CONTINUOUS
 10
12.0734084146
 20
11.9894160619
 30
0.0
 40
0.0825
  0
ARC
  5
271
100
AcDbEntity
  8
0
100
AcDbCircle
 62
7
  6
CONTINUOUS
 10
12.3356933928
 20
12.1874004455
 30
0.0
 40
0.0385
100
AcDbArc
 50
18.6518017876
 51
89.9996218348
  0
ARC
  5
272
100
AcDbEntity
  8
0
100
AcDbCircle
 62
7
  6
CONTINUOUS
 10
12.3356907791
 20
11.7914004455
 30
0.0
 40
0.0385
100
AcDbArc
 50
269.9996218348
 51
341.3474418821
  0
ARC
  5
273
100
AcDbEntity
  8
0
100
AcDbCircle
 62
7
  6
CONTINUOUS
 10
11.7359217026
 20
11.683270116
 30
0.0
 40
0.011
100
AcDbArc
 50
292.4054088834
 51
360.0
  0
SPLINE
  5
274
100
AcDbEntity
  8
0
100
AcDbSpline
 62
7
  6
CONTINUOUS
 70
0
 71
3
 72
47
 73
43
 74
0
 42
0.0000001
 43
0.0000001
 44
0.0000000001
 40
0.0
 40
0.0
 40
0.0
 40
0.0
 40
0.0156316605
 40
0.03126373
 40
0.0468953741
 40
0.0625270922
 40
0.0937839995
 40
0.1250403555
 40
0.1406713524
 40
0.1563021501
 40
0.1719327309
 40
0.1875630789
 40
0.2188168592
 40
0.2500695511
 40
0.2813210843
 40
0.3125714159
 40
0.3438205347
 40
0.375068459
 40
0.4063152377
 40
0.4375609487
 40
0.4688056961
 40
0.5000496093
 40
0.5312928374
 40
0.5625355485
 40
0.5937779216
 40
0.6250201465
 40
0.6562624145
 40
0.6875049177
 40
0.718747841
 40
0.7499913594
 40
0.7812356327
 40
0.8124808014
 40
0.8281068431
 40
0.8437331505
 40
0.8593597346
 40
0.8749866048
 40
0.9062350654
 40
0.9374847322
 40
0.9531131026
 40
0.968741774
 40
0.9843707417
 40
1.0
 40
1.0
 40
1.0
 40
1.0
 10
10.4967717026
 20
5.285858721
 30
0.0
 10
10.5041255837
 20
5.285858721
 30
0.0
 10
10.518835225
 20
5.2861507334
 30
0.0
 10
10.5408633889
 20
5.2874639017
 30
0.0
 10
10.5628227826
 20
5.2896504235
 30
0.0
 10
10.5919582592
 20
5.2937245345
 30
0.0
 10
10.6280400823
 20
5.3009812954
 30
0.0
 10
10.6634320719
 20
5.311077755
 30
0.0
 10
10.6911910829
 20
5.3208171646
 30
0.0
 10
10.7117067477
 20
5.3289432519
 30
0.0
 10
10.7318834091
 20
5.337877238
 30
0.0
 10
10.7582869892
 20
5.3508451501
 30
0.0
 10
10.7902952232
 20
5.3690061302
 30
0.0
 10
10.8268479587
 20
5.3937736821
 30
0.0
 10
10.8613203968
 20
5.421362942
 30
0.0
 10
10.8934933939
 20
5.4515992404
 30
0.0
 10
10.9231645047
 20
5.4842920527
 30
0.0
 10
10.9501463497
 20
5.5192352292
 30
0.0
 10
10.9742688244
 20
5.5562083456
 30
0.0
 10
10.9953796321
 20
5.5949782742
 30
0.0
 10
11.0133456625
 20
5.6353004362
 30
0.0
 10
11.0280534754
 20
5.6769205346
 30
0.0
 10
11.0394103188
 20
5.7195760165
 30
0.0
 10
11.0473444944
 20
5.7629978229
 30
0.0
 10
11.051805938
 20
5.8069120382
 30
0.0
 10
11.0527665181
 20
5.8510416426
 30
0.0
 10
11.0502201255
 20
5.8951082433
 30
0.0
 10
11.0441828878
 20
5.9388338922
 30
0.0
 10
11.0346928762
 20
5.9819426313
 30
0.0
 10
11.0218098318
 20
6.0241629694
 30
0.0
 10
11.0056158798
 20
6.0652269903
 30
0.0
 10
10.9894436419
 20
6.0982734929
 30
0.0
 10
10.9749665404
 20
6.1238714221
 30
0.0
 10
10.9633527732
 20
6.1426269248
 30
0.0
 10
10.9510029579
 20
6.1609065928
 30
0.0
 10
10.9335838246
 20
6.1846035043
 30
0.0
 10
10.9100643052
 20
6.2129001423
 30
0.0
 10
10.8843721757
 20
6.2392408983
 30
0.0
 10
10.8626181583
 20
6.2590364049
 30
0.0
 10
10.8457229261
 20
6.273226245
 30
0.0
 10
10.8282778181
 20
6.2867339012
 30
0.0
 10
10.8162985046
 20
6.295270808
 30
0.0
 10
10.8102271175
 20
6.2994182418
 30
0.0
  0
SPLINE
  5
275
100
AcDbEntity
  8
0
100
AcDbSpline
 62
7
  6
CONTINUOUS
 70
0
 71
3
 72
47
 73
43
 74
0
 42
0.0000001
 43
0.0000001
 44
0.0000000001
 40
0.0
 40
0.0
 40
0.0
 40
0.0
 40
0.0156292582
 40
0.0312582259
 40
0.0468868973
 40
0.0625152676
 40
0.0937649343
 40
0.1250133948
 40
0.1406402649
 40
0.156266849
 40
0.1718931564
 40
0.187519198
 40
0.2187643666
 40
0.2500086398
 40
0.2812521582
 40
0.3124950814
 40
0.3437375846
 40
0.3749798526
 40
0.4062220774
 40
0.4374644506
 40
0.4687071617
 40
0.4999503898
 40
0.5311943031
 40
0.5624390505
 40
0.5936847616
 40
0.6249315403
 40
0.6561794647
 40
0.6874285836
 40
0.7186789153
 40
0.7499304486
 40
0.7811831406
 40
0.812436921
 40
0.828067269
 40
0.8436978498
 40
0.8593286475
 40
0.8749596444
 40
0.9062160005
 40
0.9374729078
 40
0.9531046259
 40
0.96873627
 40
0.9843683395
 40
1.0
 40
1.0
 40
1.0
 40
1.0
 10
10.1833162995
 20
6.2994182499
 30
0.0
 10
10.1772449123
 20
6.2952708163
 30
0.0
 10
10.1652655984
 20
6.2867339097
 30
0.0
 10
10.1478204899
 20
6.2732262538
 30
0.0
 10
10.1309252573
 20
6.259036414
 30
0.0
 10
10.1091712392
 20
6.2392409078
 30
0.0
 10
10.083479109
 20
6.2129001524
 30
0.0
 10
10.0599595886
 20
6.1846035147
 30
0.0
 10
10.0425404547
 20
6.1609066034
 30
0.0
 10
10.0301906389
 20
6.1426269356
 30
0.0
 10
10.0185768711
 20
6.123871433
 30
0.0
 10
10.004099769
 20
6.098273504
 30
0.0
 10
9.9879275302
 20
6.0652270014
 30
0.0
 10
9.9717335772
 20
6.0241629807
 30
0.0
 10
9.9588505318
 20
5.9819426424
 30
0.0
 10
9.9493605193
 20
5.9388339032
 30
0.0
 10
9.9433232807
 20
5.895108254
 30
0.0
 10
9.9407768872
 20
5.8510416529
 30
0.0
 10
9.9417374665
 20
5.806912048
 30
0.0
 10
9.9461989094
 20
5.7629978322
 30
0.0
 10
9.9541330843
 20
5.7195760252
 30
0.0
 10
9.9654899272
 20
5.6769205427
 30
0.0
 10
9.9801977396
 20
5.6353004435
 30
0.0
 10
9.9981637698
 20
5.5949782808
 30
0.0
 10
10.0192745772
 20
5.5562083514
 30
0.0
 10
10.0433970517
 20
5.5192352343
 30
0.0
 10
10.0703788967
 20
5.4842920571
 30
0.0
 10
10.1000500076
 20
5.4515992441
 30
0.0
 10
10.1322230048
 20
5.421362945
 30
0.0
 10
10.1666954431
 20
5.3937736845
 30
0.0
 10
10.2032481789
 20
5.3690061321
 30
0.0
 10
10.2352564132
 20
5.3508451515
 30
0.0
 10
10.2616599935
 20
5.3378772391
 30
0.0
 10
10.2818366551
 20
5.3289432528
 30
0.0
 10
10.3023523202
 20
5.3208171654
 30
0.0
 10
10.3301113315
 20
5.3110777555
 30
0.0
 10
10.3655033215
 20
5.3009812957
 30
0.0
 10
10.4015851449
 20
5.2937245346
 30
0.0
 10
10.4307206219
 20
5.2896504235
 30
0.0
 10
10.4526800157
 20
5.2874639017
 30
0.0
 10
10.4747081799
 20
5.2861507334
 30
0.0
 10
10.4894178214
 20
5.285858721
 30
0.0
 10
10.4967717026
 20
5.285858721
 30
0.0
  0
SPLINE
  5
276
100
AcDbEntity
  8
0
100
AcDbSpline
 62
7
  6
CONTINUOUS
 70
0
 71
3
 72
29
 73
25
 74
0
 42
0.0000001
 43
0.0000001
 44
0.0000000001
 40
0.0
 40
0.0
 40
0.0
 40
0.0
 40
0.0624767018
 40
0.1249861453
 40
0.1875246701
 40
0.2500670763
 40
0.3125846293
 40
0.3438380504
 40
0.3750822373
 40
0.4063206726
 40
0.4375595225
 40
0.4688040707
 40
0.5000567421
 40
0.5625665053
 40
0.625089851
 40
0.6875981006
 40
0.718848457
 40
0.750088754
 40
0.7813204601
 40
0.8125477576
 40
0.8437771362
 40
0.8750134009
 40
0.9374936925
 40
1.0
 40
1.0
 40
1.0
 40
1.0
 10
10.4967717026
 20
5.6007632079
 30
0.0
 10
10.4865247358
 20
5.6007632079
 30
0.0
 10
10.4660111993
 20
5.6018041263
 30
0.0
 10
10.4355520476
 20
5.6063922886
 30
0.0
 10
10.4056678438
 20
5.6139128826
 30
0.0
 10
10.3766465865
 20
5.6242721067
 30
0.0
 10
10.3534057462
 20
5.6351995535
 30
0.0
 10
10.3355353844
 20
5.6452667081
 30
0.0
 10
10.322525045
 20
5.6534698895
 30
0.0
 10
10.309945049
 20
5.6623144991
 30
0.0
 10
10.2978295058
 20
5.6717853442
 30
0.0
 10
10.2861995124
 20
5.6818502525
 30
0.0
 10
10.2713719443
 20
5.6960200167
 30
0.0
 10
10.2541570029
 20
5.7150715404
 30
0.0
 10
10.2358042339
 20
5.7398118414
 30
0.0
 10
10.2225639162
 20
5.7618110974
 30
0.0
 10
10.2132997256
 20
5.780107468
 30
0.0
 10
10.2070354039
 20
5.7941519284
 30
0.0
 10
10.2014775943
 20
5.808486418
 30
0.0
 10
10.1966502181
 20
5.8230814167
 30
0.0
 10
10.1925673343
 20
5.8379028662
 30
0.0
 10
10.1881132982
 20
5.8579130358
 30
0.0
 10
10.1844009829
 20
5.8833081829
 30
0.0
 10
10.1834119177
 20
5.9038204097
 30
0.0
 10
10.1834119177
 20
5.9140722322
 30
0.0
  0
SPLINE
  5
277
100
AcDbEntity
  8
0
100
AcDbSpline
 62
7
  6
CONTINUOUS
 70
0
 71
3
 72
29
 73
25
 74
0
 42
0.0000001
 43
0.0000001
 44
0.0000000001
 40
0.0
 40
0.0
 40
0.0
 40
0.0
 40
0.0624577672
 40
0.1249490165
 40
0.1874707639
 40
0.2499984245
 40
0.3125038229
 40
0.3437523055
 40
0.3749923872
 40
0.4062276052
 40
0.4374641663
 40
0.468707364
 40
0.4999596225
 40
0.562471335
 40
0.6250002151
 40
0.6875173644
 40
0.7187733401
 40
0.7500199801
 40
0.7812587045
 40
0.8124936426
 40
0.8437312119
 40
0.8749761232
 40
0.9374747096
 40
1.0
 40
1.0
 40
1.0
 40
1.0
 10
10.4967717026
 20
12.3028722322
 30
0.0
 10
10.4865236515
 20
12.3028722322
 30
0.0
 10
10.4660078015
 20
12.3018304471
 30
0.0
 10
10.4355453749
 20
12.2972384885
 30
0.0
 10
10.4056580963
 20
12.2897116922
 30
0.0
 10
10.3766340612
 20
12.2793439516
 30
0.0
 10
10.3533915004
 20
12.2684076767
 30
0.0
 10
10.3355200319
 20
12.2583324749
 30
0.0
 10
10.3225088218
 20
12.2501226452
 30
0.0
 10
10.3099280976
 20
12.2412708733
 30
0.0
 10
10.2978119643
 20
12.2317923946
 30
0.0
 10
10.2861815155
 20
12.2217194146
 30
0.0
 10
10.2713533111
 20
12.2075381296
 30
0.0
 10
10.2541380194
 20
12.1884711995
 30
0.0
 10
10.2357857927
 20
12.1637114686
 30
0.0
 10
10.2225466816
 20
12.1416954032
 30
0.0
 10
10.2132837646
 20
12.1233851535
 30
0.0
 10
10.2070205084
 20
12.1093299243
 30
0.0
 10
10.2014639643
 20
12.0949845074
 30
0.0
 10
10.1966380732
 20
12.0803784506
 30
0.0
 10
10.1925568286
 20
12.065545867
 30
0.0
 10
10.1881051575
 20
12.0455206814
 30
0.0
 10
10.1843962249
 20
12.0201068473
 30
0.0
 10
10.1834102701
 20
11.9995799651
 30
0.0
 10
10.1834119219
 20
11.989320835
 30
0.0
  0
SPLINE
  5
278
100
AcDbEntity
  8
0
100
AcDbSpline
 62
7
  6
CONTINUOUS
 70
0
 71
3
 72
47
 73
43
 74
0
 42
0.0000001
 43
0.0000001
 44
0.0000000001
 40
0.0
 40
0.0
 40
0.0
 40
0.0
 40
0.0156246077
 40
0.0312499114
 40
0.0468749807
 40
0.0625004645
 40
0.0937439639
 40
0.124988618
 40
0.1406154865
 40
0.1562426736
 40
0.1718701838
 40
0.1874980197
 40
0.2187465093
 40
0.2499962665
 40
0.2812472144
 40
0.3124992378
 40
0.343752183
 40
0.3750058691
 40
0.4062600867
 40
0.4375146119
 40
0.4687692087
 40
0.5000236388
 40
0.531277671
 40
0.5625310847
 40
0.5937836833
 40
0.6250352937
 40
0.6562857789
 40
0.6875350374
 40
0.7187830091
 40
0.7500296777
 40
0.7812750681
 40
0.812519251
 40
0.8281450032
 40
0.8437704971
 40
0.8593957527
 40
0.8750207914
 40
0.9062621452
 40
0.9375029262
 40
0.9531272546
 40
0.9687515234
 40
0.9843757662
 40
1.0
 40
1.0
 40
1.0
 40
1.0
 10
10.8339440441
 20
5.7885684423
 30
0.0
 10
10.8325571464
 20
5.7834353381
 30
0.0
 10
10.82954808
 20
5.7732307763
 30
0.0
 10
10.8243401036
 20
5.7581474635
 30
0.0
 10
10.8184477696
 20
5.7433170834
 30
0.0
 10
10.8096977775
 20
5.7239265685
 30
0.0
 10
10.7971110459
 20
5.7004678425
 30
0.0
 10
10.7824341235
 20
5.678256393
 30
0.0
 10
10.769517117
 20
5.6613515201
 30
0.0
 10
10.7592579842
 20
5.6491258379
 30
0.0
 10
10.7484506841
 20
5.637381442
 30
0.0
 10
10.7333434484
 20
5.6223993165
 30
0.0
 10
10.7131972515
 20
5.6049883522
 30
0.0
 10
10.6872203722
 20
5.5863925169
 30
0.0
 10
10.6596529775
 20
5.5702430741
 30
0.0
 10
10.6307263528
 20
5.556676105
 30
0.0
 10
10.600681657
 20
5.5458044239
 30
0.0
 10
10.5697697448
 20
5.5377188224
 30
0.0
 10
10.5382485875
 20
5.532486771
 30
0.0
 10
10.5063812768
 20
5.5301518446
 30
0.0
 10
10.4744337647
 20
5.5307336197
 30
0.0
 10
10.4426726787
 20
5.5342271413
 30
0.0
 10
10.4113630995
 20
5.5406033495
 30
0.0
 10
10.3807663352
 20
5.5498090041
 30
0.0
 10
10.3511377569
 20
5.5617673124
 30
0.0
 10
10.3227246899
 20
5.5763785436
 30
0.0
 10
10.2957642762
 20
5.593520714
 30
0.0
 10
10.2704816234
 20
5.6130509007
 30
0.0
 10
10.2470878022
 20
5.6348059333
 30
0.0
 10
10.2257779899
 20
5.6586047399
 30
0.0
 10
10.2067308512
 20
5.6842470821
 30
0.0
 10
10.1928731409
 20
5.7069799001
 30
0.0
 10
10.1830706229
 20
5.7258606236
 30
0.0
 10
10.1763721409
 20
5.7403448731
 30
0.0
 10
10.1703428007
 20
5.7551199024
 30
0.0
 10
10.1632137631
 20
5.7751623198
 30
0.0
 10
10.1560320105
 20
5.8007951457
 30
0.0
 10
10.1512220069
 20
5.8269766672
 30
0.0
 10
10.148820915
 20
5.848112457
 30
0.0
 10
10.1477461968
 20
5.8640332622
 30
0.0
 10
10.1474003674
 20
5.879985863
 30
0.0
 10
10.147656182
 20
5.8906212643
 30
0.0
 10
10.1479055273
 20
5.8959324523
 30
0.0
  0
SPLINE
  5
279
100
AcDbEntity
  8
0
100
AcDbSpline
 62
7
  6
CONTINUOUS
 70
0
 71
3
 72
47
 73
43
 74
0
 42
0.0000001
 43
0.0000001
 44
0.0000000001
 40
0.0
 40
0.0
 40
0.0
 40
0.0
 40
0.0156254042
 40
0.0312513501
 40
0.0468772202
 40
0.0625034857
 40
0.0937473743
 40
0.1249925293
 40
0.1406203183
 40
0.1562484531
 40
0.1718769379
 40
0.1875057733
 40
0.2187550681
 40
0.2500056863
 40
0.2812575147
 40
0.3125103931
 40
0.3437641191
 40
0.3750184592
 40
0.4062731574
 40
0.4375279413
 40
0.4687825365
 40
0.5000366772
 40
0.5312901129
 40
0.5625426203
 40
0.593794014
 40
0.6250441497
 40
0.6562929304
 40
0.6875403138
 40
0.7187863101
 40
0.7500309813
 40
0.7812744426
 40
0.8125168554
 40
0.8281424402
 40
0.8437678407
 40
0.8593930873
 40
0.875018212
 40
0.9062588049
 40
0.9374993034
 40
0.9531243575
 40
0.9687493539
 40
0.9843747722
 40
1.0
 40
1.0
 40
1.0
 40
1.0
 10
10.8339440441
 20
5.821003165
 30
0.0
 10
10.8324543253
 20
5.8154895054
 30
0.0
 10
10.8292034197
 20
5.8045332517
 30
0.0
 10
10.8235267451
 20
5.7883595974
 30
0.0
 10
10.8170624526
 20
5.772483097
 30
0.0
 10
10.8074170991
 20
5.7517674583
 30
0.0
 10
10.7934695066
 20
5.7267972593
 30
0.0
 10
10.7771395616
 20
5.7033151786
 30
0.0
 10
10.7627471926
 20
5.6855636376
 30
0.0
 10
10.7513097711
 20
5.6727922322
 30
0.0
 10
10.7392590406
 20
5.6605972465
 30
0.0
 10
10.722416603
 20
5.6451481295
 30
0.0
 10
10.6999695297
 20
5.6274134347
 30
0.0
 10
10.6710828582
 20
5.6088786319
 30
0.0
 10
10.6405165368
 20
5.5932619045
 30
0.0
 10
10.6085664522
 20
5.580715109
 30
0.0
 10
10.5755398538
 20
5.5713586134
 30
0.0
 10
10.5417548737
 20
5.5652825366
 30
0.0
 10
10.5075367742
 20
5.5625453442
 30
0.0
 10
10.4732150276
 20
5.5631734148
 30
0.0
 10
10.4391200909
 20
5.5671606572
 30
0.0
 10
10.4055802385
 20
5.574468707
 30
0.0
 10
10.3729184262
 20
5.5850272702
 30
0.0
 10
10.3414491488
 20
5.5987346857
 30
0.0
 10
10.3114754387
 20
5.6154590136
 30
0.0
 10
10.2832859779
 20
5.6350393097
 30
0.0
 10
10.257152256
 20
5.6572870446
 30
0.0
 10
10.2333259683
 20
5.6819880561
 30
0.0
 10
10.2120367043
 20
5.708904392
 30
0.0
 10
10.1934894034
 20
5.737777415
 30
0.0
 10
10.1778633115
 20
5.7683269743
 30
0.0
 10
10.1673989086
 20
5.7949451579
 30
0.0
 10
10.1606264209
 20
5.8167684438
 30
0.0
 10
10.156355489
 20
5.8333690923
 30
0.0
 10
10.152904864
 20
5.8501592242
 30
0.0
 10
10.1494091678
 20
5.8727395009
 30
0.0
 10
10.1471255512
 20
5.9012463434
 30
0.0
 10
10.1476500734
 20
5.9298397089
 30
0.0
 10
10.1497492037
 20
5.9525921331
 30
0.0
 10
10.1521597935
 20
5.9695628938
 30
0.0
 10
10.1554005986
 20
5.9863940902
 30
0.0
 10
10.1581096591
 20
5.997496477
 30
0.0
 10
10.1595993611
 20
6.0030100744
 30
0.0
  0
SPLINE
  5
27A
100
AcDbEntity
  8
0
100
AcDbSpline
 62
7
  6
CONTINUOUS
 70
0
 71
3
 72
47
 73
43
 74
0
 42
0.0000001
 43
0.0000001
 44
0.0000000001
 40
0.0
 40
0.0
 40
0.0
 40
0.0
 40
0.0156246177
 40
0.0312496082
 40
0.0468743632
 40
0.0624993648
 40
0.0937403256
 40
0.1249821189
 40
0.1406081063
 40
0.1562343805
 40
0.1718609637
 40
0.1874878749
 40
0.218733323
 40
0.2499802256
 40
0.2812286123
 40
0.3124784552
 40
0.3437296686
 40
0.3749821154
 40
0.4062356125
 40
0.4374899336
 40
0.4687448219
 40
0.5000000006
 40
0.5312551793
 40
0.5625100676
 40
0.5937643887
 40
0.6250178857
 40
0.6562703324
 40
0.6875215456
 40
0.7187713884
 40
0.750019775
 40
0.7812666775
 40
0.8125121255
 40
0.8281390366
 40
0.8437656198
 40
0.8593918939
 40
0.8750178812
 40
0.9062596746
 40
0.9375006353
 40
0.9531256368
 40
0.9687503918
 40
0.9843753823
 40
1.0
 40
1.0
 40
1.0
 40
1.0
 10
10.8520717026
 20
5.851881329
 30
0.0
 10
10.8520717026
 20
5.8460713633
 30
0.0
 10
10.8517862295
 20
5.8344492535
 30
0.0
 10
10.8505028034
 20
5.8170598805
 30
0.0
 10
10.8483669635
 20
5.7997535392
 30
0.0
 10
10.8443909924
 20
5.7768513606
 30
0.0
 10
10.8373185826
 20
5.7486301141
 30
0.0
 10
10.8275113294
 20
5.7212386154
 30
0.0
 10
10.818086364
 20
5.6999889439
 30
0.0
 10
10.8102420764
 20
5.6844137984
 30
0.0
 10
10.8016424426
 20
5.6692421935
 30
0.0
 10
10.7892000928
 20
5.6496043822
 30
0.0
 10
10.7718595183
 20
5.6262360876
 30
0.0
 10
10.7484064634
 20
5.6003750085
 30
0.0
 10
10.7225293299
 20
5.5769347284
 30
0.0
 10
10.6944784636
 20
5.5561428502
 30
0.0
 10
10.6645237309
 20
5.5381990503
 30
0.0
 10
10.6329537168
 20
5.523276168
 30
0.0
 10
10.6000724066
 20
5.5115178321
 30
0.0
 10
10.5661964297
 20
5.5030372613
 30
0.0
 10
10.5316519904
 20
5.4979160355
 30
0.0
 10
10.4967717019
 20
5.4962034521
 30
0.0
 10
10.4618914133
 20
5.4979160357
 30
0.0
 10
10.4273469741
 20
5.5030372616
 30
0.0
 10
10.3934709973
 20
5.5115178325
 30
0.0
 10
10.3605896872
 20
5.5232761685
 30
0.0
 10
10.3290196733
 20
5.5381990508
 30
0.0
 10
10.2990649407
 20
5.5561428507
 30
0.0
 10
10.2710140746
 20
5.5769347289
 30
0.0
 10
10.2451369412
 20
5.600375009
 30
0.0
 10
10.2216838865
 20
5.6262360881
 30
0.0
 10
10.204343312
 20
5.6496043825
 30
0.0
 10
10.1919009623
 20
5.6692421938
 30
0.0
 10
10.1833013285
 20
5.6844137987
 30
0.0
 10
10.175457041
 20
5.6999889442
 30
0.0
 10
10.1660320757
 20
5.7212386155
 30
0.0
 10
10.1562248225
 20
5.7486301143
 30
0.0
 10
10.1491524127
 20
5.7768513607
 30
0.0
 10
10.1451764416
 20
5.7997535392
 30
0.0
 10
10.1430406017
 20
5.8170598805
 30
0.0
 10
10.1417571756
 20
5.8344492535
 30
0.0
 10
10.1414717026
 20
5.8460713633
 30
0.0
 10
10.1414717026
 20
5.851881329
 30
0.0
  0
SPLINE
  5
27B
100
AcDbEntity
  8
0
100
AcDbSpline
 62
7
  6
CONTINUOUS
 70
0
 71
3
 72
29
 73
25
 74
0
 42
0.0000001
 43
0.0000001
 44
0.0000000001
 40
0.0
 40
0.0
 40
0.0
 40
0.0
 40
0.0625063075
 40
0.1249865991
 40
0.1562228638
 40
0.1874522424
 40
0.2186795399
 40
0.249911246
 40
0.281151543
 40
0.3124018994
 40
0.374910149
 40
0.4374334947
 40
0.4999432579
 40
0.5311959293
 40
0.5624404775
 40
0.5936793274
 40
0.6249177627
 40
0.6561619496
 40
0.6874153707
 40
0.7499329237
 40
0.8124753299
 40
0.8750138547
 40
0.9375232982
 40
1.0
 40
1.0
 40
1.0
 40
1.0
 10
10.8101314874
 20
5.9140722322
 30
0.0
 10
10.8101314874
 20
5.9038204097
 30
0.0
 10
10.8091424223
 20
5.8833081829
 30
0.0
 10
10.8054301069
 20
5.8579130358
 30
0.0
 10
10.8009760708
 20
5.8379028662
 30
0.0
 10
10.796893187
 20
5.8230814167
 30
0.0
 10
10.7920658108
 20
5.808486418
 30
0.0
 10
10.7865080012
 20
5.7941519284
 30
0.0
 10
10.7802436795
 20
5.780107468
 30
0.0
 10
10.7709794889
 20
5.7618110974
 30
0.0
 10
10.7577391712
 20
5.7398118414
 30
0.0
 10
10.7393864022
 20
5.7150715404
 30
0.0
 10
10.7221714608
 20
5.6960200167
 30
0.0
 10
10.7073438928
 20
5.6818502525
 30
0.0
 10
10.6957138994
 20
5.6717853442
 30
0.0
 10
10.6835983561
 20
5.6623144991
 30
0.0
 10
10.6710183601
 20
5.6534698895
 30
0.0
 10
10.6580080208
 20
5.6452667081
 30
0.0
 10
10.6401376589
 20
5.6351995535
 30
0.0
 10
10.6168968186
 20
5.6242721067
 30
0.0
 10
10.5878755613
 20
5.6139128826
 30
0.0
 10
10.5579913575
 20
5.6063922886
 30
0.0
 10
10.5275322058
 20
5.6018041263
 30
0.0
 10
10.5070186693
 20
5.6007632079
 30
0.0
 10
10.4967717026
 20
5.6007632079
 30
0.0
  0
SPLINE
  5
27C
100
AcDbEntity
  8
0
100
AcDbSpline
 62
7
  6
CONTINUOUS
 70
0
 71
3
 72
29
 73
25
 74
0
 42
0.0000001
 43
0.0000001
 44
0.0000000001
 40
0.0
 40
0.0
 40
0.0
 40
0.0
 40
0.0625252593
 40
0.1250237642
 40
0.1562686348
 40
0.1875061798
 40
0.2187411222
 40
0.2499798753
 40
0.2812265538
 40
0.3124825674
 40
0.3749997725
 40
0.4375286568
 40
0.5000403345
 40
0.5312925686
 40
0.5625357465
 40
0.5937722982
 40
0.625007522
 40
0.6562476193
 40
0.6874961202
 40
0.7500015539
 40
0.8125292294
 40
0.8750509771
 40
0.9375422258
 40
1.0
 40
1.0
 40
1.0
 40
1.0
 10
10.8101314855
 20
11.9894072859
 30
0.0
 10
10.8101303591
 20
11.9996646106
 30
0.0
 10
10.8091391945
 20
12.0201876009
 30
0.0
 10
10.8054246139
 20
12.0455960187
 30
0.0
 10
10.8009689464
 20
12.0656166012
 30
0.0
 10
10.7968849645
 20
12.0804456196
 30
0.0
 10
10.7920565971
 20
12.0950480139
 30
0.0
 10
10.7864979463
 20
12.1093897284
 30
0.0
 10
10.7802329207
 20
12.1234412286
 30
0.0
 10
10.770968086
 20
12.1417464933
 30
0.0
 10
10.7577273761
 20
12.1637563352
 30
0.0
 10
10.7393744021
 20
12.1885087655
 30
0.0
 10
10.7221593894
 20
12.2075698428
 30
0.0
 10
10.7073319044
 20
12.2217466488
 30
0.0
 10
10.6957022334
 20
12.2318163863
 30
0.0
 10
10.6835871008
 20
12.2412917537
 30
0.0
 10
10.6710075995
 20
12.2501405715
 30
0.0
 10
10.6579978449
 20
12.2583476558
 30
0.0
 10
10.6401285901
 20
12.268419471
 30
0.0
 10
10.6168892744
 20
12.2793520424
 30
0.0
 10
10.5878697266
 20
12.2897162441
 30
0.0
 10
10.5579873876
 20
12.2972404491
 30
0.0
 10
10.5275302025
 20
12.3018308129
 30
0.0
 10
10.5070179564
 20
12.3028722322
 30
0.0
 10
10.4967717026
 20
12.3028722322
 30
0.0
  0
SPLINE
  5
27D
100
AcDbEntity
  8
0
100
AcDbSpline
 62
7
  6
CONTINUOUS
 70
0
 71
3
 72
29
 73
25
 74
0
 42
0.0000001
 43
0.0000001
 44
0.0000000001
 40
0.0
 40
0.0
 40
0.0
 40
0.0
 40
0.0624767018
 40
0.1249861453
 40
0.1875246701
 40
0.2500670763
 40
0.3125846293
 40
0.3438380504
 40
0.3750822373
 40
0.4063206726
 40
0.4375595225
 40
0.4688040707
 40
0.5000567421
 40
0.5625665053
 40
0.625089851
 40
0.6875981006
 40
0.718848457
 40
0.750088754
 40
0.7813204601
 40
0.8125477576
 40
0.8437771362
 40
0.8750134009
 40
0.9374936925
 40
1.0
 40
1.0
 40
1.0
 40
1.0
 10
10.4967717026
 20
5.6100147932
 30
0.0
 10
10.4865247358
 20
5.6100147932
 30
0.0
 10
10.4660111993
 20
5.6110557117
 30
0.0
 10
10.4355520476
 20
5.615643874
 30
0.0
 10
10.4056678438
 20
5.623164468
 30
0.0
 10
10.3766465865
 20
5.6335236921
 30
0.0
 10
10.3534057462
 20
5.6444511388
 30
0.0
 10
10.3355353844
 20
5.6545182934
 30
0.0
 10
10.322525045
 20
5.6627214748
 30
0.0
 10
10.309945049
 20
5.6715660845
 30
0.0
 10
10.2978295058
 20
5.6810369296
 30
0.0
 10
10.2861995124
 20
5.6911018379
 30
0.0
 10
10.2713719443
 20
5.7052716021
 30
0.0
 10
10.2541570029
 20
5.7243231258
 30
0.0
 10
10.2358042339
 20
5.7490634268
 30
0.0
 10
10.2225639162
 20
5.7710626828
 30
0.0
 10
10.2132997256
 20
5.7893590534
 30
0.0
 10
10.2070354039
 20
5.8034035138
 30
0.0
 10
10.2014775943
 20
5.8177380034
 30
0.0
 10
10.1966502181
 20
5.832333002
 30
0.0
 10
10.1925673343
 20
5.8471544516
 30
0.0
 10
10.1881132982
 20
5.8671646212
 30
0.0
 10
10.1844009829
 20
5.8925597682
 30
0.0
 10
10.1834119177
 20
5.913071995
 30
0.0
 10
10.1834119177
 20
5.9233238175
 30
0.0
  0
SPLINE
  5
27E
100
AcDbEntity
  8
0
100
AcDbSpline
 62
7
  6
CONTINUOUS
 70
0
 71
3
 72
26
 73
22
 74
0
 42
0.0000001
 43
0.0000001
 44
0.0000000001
 40
0.0
 40
0.0
 40
0.0
 40
0.0
 40
0.062505078
 40
0.124979811
 40
0.1874241327
 40
0.2498727128
 40
0.312357279
 40
0.3748748049
 40
0.4374018786
 40
0.4999113923
 40
0.5311632996
 40
0.5624076432
 40
0.5936474684
 40
0.6248884816
 40
0.6561361668
 40
0.6873932882
 40
0.749917933
 40
0.8124651457
 40
0.8750068896
 40
0.9375194249
 40
1.0
 40
1.0
 40
1.0
 40
1.0
 10
10.8099973721
 20
5.9140773151
 30
0.0
 10
10.8097056218
 20
5.9040230067
 30
0.0
 10
10.8081694373
 20
5.8839337076
 30
0.0
 10
10.8030066303
 20
5.8541730643
 30
0.0
 10
10.7949807593
 20
5.8250573261
 30
0.0
 10
10.7840983745
 20
5.7968836551
 30
0.0
 10
10.7705362101
 20
5.769887475
 30
0.0
 10
10.7544600128
 20
5.7442942798
 30
0.0
 10
10.7360374341
 20
5.7203317459
 30
0.0
 10
10.7188598471
 20
5.7019040503
 30
0.0
 10
10.7041142943
 20
5.6882110884
 30
0.0
 10
10.6925709371
 20
5.6784911539
 30
0.0
 10
10.6805653699
 20
5.6693513457
 30
0.0
 10
10.6681193155
 20
5.660820151
 30
0.0
 10
10.6552672381
 20
5.6529083163
 30
0.0
 10
10.6376366097
 20
5.6432004734
 30
0.0
 10
10.6147456181
 20
5.6326658568
 30
0.0
 10
10.5862064869
 20
5.6226819299
 30
0.0
 10
10.5568519087
 20
5.6154360654
 30
0.0
 10
10.5269541009
 20
5.6110169508
 30
0.0
 10
10.5068262999
 20
5.6100147932
 30
0.0
 10
10.4967717026
 20
5.6100147932
 30
0.0
  0
SPLINE
  5
27F
100
AcDbEntity
  8
0
100
AcDbSpline
 62
7
  6
CONTINUOUS
 70
0
 71
3
 72
13
 73
9
 74
0
 42
0.0000001
 43
0.0000001
 44
0.0000000001
 40
0.0
 40
0.0
 40
0.0
 40
0.0
 40
0.2781598626
 40
0.5341303189
 40
0.6550928813
 40
0.7722898499
 40
0.8868459282
 40
1.0
 40
1.0
 40
1.0
 40
1.0
 10
11.6674649224
 20
12.2732355898
 30
0.0
 10
11.6680452357
 20
12.2732000038
 30
0.0
 10
11.6691572969
 20
12.2730357765
 30
0.0
 10
11.6704521622
 20
12.2725512937
 30
0.0
 10
11.6713358061
 20
12.2720114501
 30
0.0
 10
11.6719098813
 20
12.2715450611
 30
0.0
 10
11.6724011749
 20
12.2710142121
 30
0.0
 10
11.6726709573
 20
12.2706196047
 30
0.0
 10
11.672789545
 20
12.2704149711
 30
0.0
  0
LINE
  5
280
100
AcDbEntity
  8
0
100
AcDbLine
 62
7
  6
CONTINUOUS
 10
11.7401144368
 20
11.9948176537
 30
0.0
 11
11.7469217026
 21
11.9946436954
 31
0.0
  0
SPLINE
  5
281
100
AcDbEntity
  8
0
100
AcDbSpline
 62
7
  6
CONTINUOUS
 70
0
 71
3
 72
65
 73
61
 74
0
 42
0.0000001
 43
0.0000001
 44
0.0000000001
 40
0.0
 40
0.0
 40
0.0
 40
0.0
 40
0.0156210805
 40
0.0312423272
 40
0.0468635532
 40
0.0624849682
 40
0.0937189217
 40
0.1249539154
 40
0.1405766006
 40
0.1561996473
 40
0.1718230825
 40
0.18744693
 40
0.2030712092
 40
0.2186959355
 40
0.23432112
 40
0.2499467694
 40
0.2655728859
 40
0.2811994673
 40
0.2968265068
 40
0.3124539933
 40
0.3280819115
 40
0.3437102418
 40
0.3593389605
 40
0.3749680405
 40
0.3905974508
 40
0.4062271575
 40
0.4218571237
 40
0.4374873099
 40
0.4531176748
 40
0.4687481752
 40
0.5
 40
0.5312518248
 40
0.5468823252
 40
0.5625126901
 40
0.5781428763
 40
0.5937728425
 40
0.6094025492
 40
0.6250319595
 40
0.6406610395
 40
0.6562897582
 40
0.6719180885
 40
0.6875460067
 40
0.7031734932
 40
0.7188005327
 40
0.7344271141
 40
0.7500532306
 40
0.76567888
 40
0.7813040645
 40
0.7969287908
 40
0.81255307
 40
0.8281769175
 40
0.8438003527
 40
0.8594233994
 40
0.8750460846
 40
0.9062810783
 40
0.9375150318
 40
0.9531364468
 40
0.9687576728
 40
0.9843789195
 40
1.0
 40
1.0
 40
1.0
 40
1.0
 10
9.9982467765
 20
5.8441277128
 30
0.0
 10
9.9982467765
 20
5.8359764267
 30
0.0
 10
9.9986472854
 20
5.8196709051
 30
0.0
 10
10.0004479991
 20
5.7952740115
 30
0.0
 10
10.0034446084
 20
5.7709936374
 30
0.0
 10
10.009023058
 20
5.7388622831
 30
0.0
 10
10.0189459235
 20
5.6992682843
 30
0.0
 10
10.0327059009
 20
5.6608383219
 30
0.0
 10
10.045929514
 20
5.6310252003
 30
0.0
 10
10.0569355434
 20
5.6091731542
 30
0.0
 10
10.0690010151
 20
5.5878876711
 30
0.0
 10
10.0820970676
 20
5.5672193533
 30
0.0
 10
10.0961920966
 20
5.5472181744
 30
0.0
 10
10.1112521604
 20
5.5279322709
 30
0.0
 10
10.1272409727
 20
5.5094081165
 30
0.0
 10
10.1441200151
 20
5.4916903334
 30
0.0
 10
10.1618486233
 20
5.4748216055
 30
0.0
 10
10.1803840871
 20
5.45884257
 30
0.0
 10
10.1996817526
 20
5.4437917213
 30
0.0
 10
10.2196951298
 20
5.4297053174
 30
0.0
 10
10.2403760048
 20
5.4166172931
 30
0.0
 10
10.2616745558
 20
5.4045591783
 30
0.0
 10
10.283539473
 20
5.3935600217
 30
0.0
 10
10.3059180815
 20
5.3836463213
 30
0.0
 10
10.3287564731
 20
5.37484196
 30
0.0
 10
10.3519996151
 20
5.3671681488
 30
0.0
 10
10.3755915634
 20
5.3606433746
 30
0.0
 10
10.3994752937
 20
5.3552833547
 30
0.0
 10
10.4235939742
 20
5.3511010008
 30
0.0
 10
10.4559797039
 20
5.3471087755
 30
0.0
 10
10.4967717026
 20
5.3451050365
 30
0.0
 10
10.5375637012
 20
5.3471087755
 30
0.0
 10
10.5699494309
 20
5.3511010008
 30
0.0
 10
10.5940681114
 20
5.3552833547
 30
0.0
 10
10.6179518417
 20
5.3606433746
 30
0.0
 10
10.64154379
 20
5.3671681488
 30
0.0
 10
10.664786932
 20
5.37484196
 30
0.0
 10
10.6876253236
 20
5.3836463213
 30
0.0
 10
10.7100039321
 20
5.3935600217
 30
0.0
 10
10.7318688493
 20
5.4045591783
 30
0.0
 10
10.7531674003
 20
5.4166172931
 30
0.0
 10
10.7738482753
 20
5.4297053174
 30
0.0
 10
10.7938616525
 20
5.4437917213
 30
0.0
 10
10.813159318
 20
5.45884257
 30
0.0
 10
10.8316947818
 20
5.4748216055
 30
0.0
 10
10.84942339
 20
5.4916903334
 30
0.0
 10
10.8663024324
 20
5.5094081165
 30
0.0
 10
10.8822912447
 20
5.5279322709
 30
0.0
 10
10.8973513085
 20
5.5472181744
 30
0.0
 10
10.9114463375
 20
5.5672193533
 30
0.0
 10
10.92454239
 20
5.5878876711
 30
0.0
 10
10.9366078617
 20
5.6091731542
 30
0.0
 10
10.9476138911
 20
5.6310252003
 30
0.0
 10
10.9608375042
 20
5.6608383219
 30
0.0
 10
10.9745974816
 20
5.6992682843
 30
0.0
 10
10.9845203471
 20
5.7388622831
 30
0.0
 10
10.9900987967
 20
5.7709936374
 30
0.0
 10
10.993095406
 20
5.7952740115
 30
0.0
 10
10.9948961197
 20
5.8196709051
 30
0.0
 10
10.9952966286
 20
5.8359764267
 30
0.0
 10
10.9952966286
 20
5.8441277128
 30
0.0
  0
SPLINE
  5
282
100
AcDbEntity
  8
0
100
AcDbSpline
 62
7
  6
CONTINUOUS
 70
0
 71
3
 72
65
 73
61
 74
0
 42
0.0000001
 43
0.0000001
 44
0.0000000001
 40
0.0
 40
0.0
 40
0.0
 40
0.0
 40
0.0156211009
 40
0.0312423387
 40
0.0468635653
 40
0.0624849786
 40
0.0937189364
 40
0.124953935
 40
0.1405766202
 40
0.1561996669
 40
0.1718231022
 40
0.1874469498
 40
0.203071229
 40
0.2186959554
 40
0.2343211398
 40
0.249946789
 40
0.2655729052
 40
0.2811994861
 40
0.2968265249
 40
0.3124540107
 40
0.3280819278
 40
0.3437102568
 40
0.3593389742
 40
0.3749680525
 40
0.3905974611
 40
0.4062271658
 40
0.4218571299
 40
0.437487314
 40
0.4531176766
 40
0.4687481746
 40
0.5
 40
0.5312518254
 40
0.5468823234
 40
0.562512686
 40
0.5781428701
 40
0.5937728342
 40
0.6094025389
 40
0.6250319475
 40
0.6406610258
 40
0.6562897432
 40
0.6719180722
 40
0.6875459893
 40
0.7031734751
 40
0.7188005139
 40
0.7344270948
 40
0.750053211
 40
0.7656788602
 40
0.7813040446
 40
0.796928771
 40
0.8125530502
 40
0.8281768978
 40
0.8438003331
 40
0.8594233798
 40
0.875046065
 40
0.9062810636
 40
0.9375150214
 40
0.9531364347
 40
0.9687576613
 40
0.9843788991
 40
1.0
 40
1.0
 40
1.0
 40
1.0
 10
9.9866467576
 20
5.8433411217
 30
0.0
 10
9.9866506336
 20
5.8350026191
 30
0.0
 10
9.9870679665
 20
5.8183228044
 30
0.0
 10
9.9889210921
 20
5.7933664172
 30
0.0
 10
9.9919971598
 20
5.7685297349
 30
0.0
 10
9.997717329
 20
5.7356628054
 30
0.0
 10
10.0078839576
 20
5.6951634912
 30
0.0
 10
10.0219742089
 20
5.655856074
 30
0.0
 10
10.0355119247
 20
5.6253628701
 30
0.0
 10
10.0467780224
 20
5.6030126435
 30
0.0
 10
10.0591273883
 20
5.5812421658
 30
0.0
 10
10.0725304992
 20
5.5601031616
 30
0.0
 10
10.0869550288
 20
5.5396467124
 30
0.0
 10
10.1023662628
 20
5.5199220213
 30
0.0
 10
10.1187270905
 20
5.5009765914
 30
0.0
 10
10.1359981206
 20
5.4828560326
 30
0.0
 10
10.1541377691
 20
5.4656039734
 30
0.0
 10
10.1731023615
 20
5.4492619499
 30
0.0
 10
10.1928462368
 20
5.4338693076
 30
0.0
 10
10.2133218583
 20
5.4194631059
 30
0.0
 10
10.2344799278
 20
5.4060780297
 30
0.0
 10
10.2562695036
 20
5.3937463052
 30
0.0
 10
10.2786381245
 20
5.3824976229
 30
0.0
 10
10.3015319337
 20
5.3723590657
 30
0.0
 10
10.3248958147
 20
5.3633550439
 30
0.0
 10
10.3486735016
 20
5.3555072368
 30
0.0
 10
10.3728077978
 20
5.3488345391
 30
0.0
 10
10.3972404023
 20
5.3433530151
 30
0.0
 10
10.4219132118
 20
5.3390758613
 30
0.0
 10
10.4550428676
 20
5.3349931512
 30
0.0
 10
10.4967717026
 20
5.3329440015
 30
0.0
 10
10.5385005375
 20
5.3349931512
 30
0.0
 10
10.5716301933
 20
5.3390758613
 30
0.0
 10
10.5963030028
 20
5.3433530151
 30
0.0
 10
10.6207356073
 20
5.3488345391
 30
0.0
 10
10.6448699035
 20
5.3555072368
 30
0.0
 10
10.6686475904
 20
5.3633550439
 30
0.0
 10
10.6920114714
 20
5.3723590657
 30
0.0
 10
10.7149052806
 20
5.3824976229
 30
0.0
 10
10.7372739015
 20
5.3937463052
 30
0.0
 10
10.7590634773
 20
5.4060780297
 30
0.0
 10
10.7802215468
 20
5.4194631059
 30
0.0
 10
10.8006971683
 20
5.4338693076
 30
0.0
 10
10.8204410437
 20
5.4492619499
 30
0.0
 10
10.839405636
 20
5.4656039734
 30
0.0
 10
10.8575452845
 20
5.4828560326
 30
0.0
 10
10.8748163146
 20
5.5009765914
 30
0.0
 10
10.8911771423
 20
5.5199220213
 30
0.0
 10
10.9065883763
 20
5.5396467124
 30
0.0
 10
10.9210129059
 20
5.5601031616
 30
0.0
 10
10.9344160168
 20
5.5812421658
 30
0.0
 10
10.9467653827
 20
5.6030126435
 30
0.0
 10
10.9580314805
 20
5.6253628701
 30
0.0
 10
10.9715691962
 20
5.655856074
 30
0.0
 10
10.9856594475
 20
5.6951634912
 30
0.0
 10
10.9958260761
 20
5.7356628054
 30
0.0
 10
11.0015462454
 20
5.7685297349
 30
0.0
 10
11.004622313
 20
5.7933664172
 30
0.0
 10
11.0064754386
 20
5.8183228044
 30
0.0
 10
11.0068927715
 20
5.8350026191
 30
0.0
 10
11.0068966475
 20
5.8433411217
 30
0.0
  0
SPLINE
  5
283
100
AcDbEntity
  8
0
100
AcDbSpline
 62
7
  6
CONTINUOUS
 70
0
 71
3
 72
27
 73
23
 74
0
 42
0.0000001
 43
0.0000001
 44
0.0000000001
 40
0.0
 40
0.0
 40
0.0
 40
0.0
 40
0.0624778062
 40
0.0937234412
 40
0.1249699254
 40
0.1874517795
 40
0.2499362326
 40
0.2811860097
 40
0.3124365327
 40
0.3749268643
 40
0.4374203012
 40
0.4999168139
 40
0.5624163294
 40
0.6249186659
 40
0.6874235863
 40
0.7186834
 40
0.7499437408
 40
0.8124528217
 40
0.8749633807
 40
0.9062255509
 40
0.9374879084
 40
1.0
 40
1.0
 40
1.0
 40
1.0
 10
10.7994320184
 20
5.8319171024
 30
0.0
 10
10.7972122769
 20
5.8237015254
 30
0.0
 10
10.7933772136
 20
5.8115054742
 30
0.0
 10
10.7872867542
 20
5.7956064662
 30
0.0
 10
10.7805530227
 20
5.7799673865
 30
0.0
 10
10.770948423
 20
5.7609525379
 30
0.0
 10
10.7598263932
 20
5.7427828718
 30
0.0
 10
10.7500655082
 20
5.7288296272
 30
0.0
 10
10.7397439054
 20
5.7152850074
 30
0.0
 10
10.7258184695
 20
5.6991590102
 30
0.0
 10
10.7075899748
 20
5.6812350787
 30
0.0
 10
10.6879613911
 20
5.6648531628
 30
0.0
 10
10.6670633593
 20
5.6501228372
 30
0.0
 10
10.6450354924
 20
5.6371419918
 30
0.0
 10
10.6258556023
 20
5.6278529221
 30
0.0
 10
10.6101003119
 20
5.6213781486
 30
0.0
 10
10.5940938832
 20
5.6155499056
 30
0.0
 10
10.5736601751
 20
5.6094943645
 30
0.0
 10
10.5528012372
 20
5.6051221115
 30
0.0
 10
10.5359458501
 20
5.6026516456
 30
0.0
 10
10.519004636
 20
5.6008693245
 30
0.0
 10
10.5062251341
 20
5.6003102225
 30
0.0
 10
10.4977103342
 20
5.6002847441
 30
0.0
  0
SPLINE
  5
284
100
AcDbEntity
  8
0
100
AcDbSpline
 62
7
  6
CONTINUOUS
 70
0
 71
3
 72
27
 73
23
 74
0
 42
0.0000001
 43
0.0000001
 44
0.0000000001
 40
0.0
 40
0.0
 40
0.0
 40
0.0
 40
0.0625122694
 40
0.0937749813
 40
0.1250374979
 40
0.1875482138
 40
0.2500574255
 40
0.2813180587
 40
0.3125781603
 40
0.3750830872
 40
0.4375853633
 40
0.5000847307
 40
0.5625810402
 40
0.6250741871
 40
0.6875641966
 40
0.7188147839
 40
0.7500646309
 40
0.8125487001
 40
0.8750301393
 40
0.9062767198
 40
0.9375227683
 40
1.0
 40
1.0
 40
1.0
 40
1.0
 10
10.4967596376
 20
5.6002833404
 30
0.0
 10
10.4880798673
 20
5.6002836807
 30
0.0
 10
10.4750508445
 20
5.6008254392
 30
0.0
 10
10.4577795031
 20
5.6026253915
 30
0.0
 10
10.440596904
 20
5.6051404395
 30
0.0
 10
10.4193373664
 20
5.6096187124
 30
0.0
 10
10.3985228232
 20
5.6158453823
 30
0.0
 10
10.3822285891
 20
5.6218478631
 30
0.0
 10
10.3661980984
 20
5.6285210412
 30
0.0
 10
10.3467003887
 20
5.6381023677
 30
0.0
 10
10.3243422963
 20
5.6514989317
 30
0.0
 10
10.3031729978
 20
5.6667039751
 30
0.0
 10
10.2833394008
 20
5.6836124062
 30
0.0
 10
10.2649786882
 20
5.7021067569
 30
0.0
 10
10.2510083747
 20
5.7187377912
 30
0.0
 10
10.2406925228
 20
5.73269922
 30
0.0
 10
10.2309657193
 20
5.7470763612
 30
0.0
 10
10.2199404912
 20
5.7657864912
 30
0.0
 10
10.2105073038
 20
5.7853470426
 30
0.0
 10
10.2039562768
 20
5.8014204104
 30
0.0
 10
10.1980789288
 20
5.8177504428
 30
0.0
 10
10.1944380791
 20
5.8302647096
 30
0.0
 10
10.1923629288
 20
5.8386877574
 30
0.0
  0
SPLINE
  5
285
100
AcDbEntity
  8
0
100
AcDbSpline
 62
7
  6
CONTINUOUS
 70
0
 71
3
 72
65
 73
61
 74
0
 42
0.0000001
 43
0.0000001
 44
0.0000000001
 40
0.0
 40
0.0
 40
0.0
 40
0.0
 40
0.0156210805
 40
0.0312423272
 40
0.0468635532
 40
0.0624849682
 40
0.0937189217
 40
0.1249539154
 40
0.1405766006
 40
0.1561996473
 40
0.1718230825
 40
0.18744693
 40
0.2030712092
 40
0.2186959355
 40
0.23432112
 40
0.2499467694
 40
0.2655728859
 40
0.2811994673
 40
0.2968265068
 40
0.3124539933
 40
0.3280819115
 40
0.3437102418
 40
0.3593389605
 40
0.3749680405
 40
0.3905974508
 40
0.4062271575
 40
0.4218571237
 40
0.4374873099
 40
0.4531176748
 40
0.4687481752
 40
0.5
 40
0.5312518248
 40
0.5468823252
 40
0.5625126901
 40
0.5781428763
 40
0.5937728425
 40
0.6094025492
 40
0.6250319595
 40
0.6406610395
 40
0.6562897582
 40
0.6719180885
 40
0.6875460067
 40
0.7031734932
 40
0.7188005327
 40
0.7344271141
 40
0.7500532306
 40
0.76567888
 40
0.7813040645
 40
0.7969287908
 40
0.81255307
 40
0.8281769175
 40
0.8438003527
 40
0.8594233994
 40
0.8750460846
 40
0.9062810783
 40
0.9375150318
 40
0.9531364468
 40
0.9687576728
 40
0.9843789195
 40
1.0
 40
1.0
 40
1.0
 40
1.0
 10
9.9866467026
 20
5.8433409565
 30
0.0
 10
9.9866467026
 20
5.8349999998
 30
0.0
 10
9.9870565308
 20
5.8183150684
 30
0.0
 10
9.9888991449
 20
5.7933504885
 30
0.0
 10
9.9919654817
 20
5.7685051394
 30
0.0
 10
9.9976737351
 20
5.7356261272
 30
0.0
 10
10.0078274938
 20
5.6951108238
 30
0.0
 10
10.0219076493
 20
5.6557866425
 30
0.0
 10
10.0354389599
 20
5.6252798056
 30
0.0
 10
10.0467010863
 20
5.6029192887
 30
0.0
 10
10.059047307
 20
5.5811385181
 30
0.0
 10
10.0724480889
 20
5.5599892734
 30
0.0
 10
10.0868710922
 20
5.5395226912
 30
0.0
 10
10.1022815855
 20
5.519788028
 30
0.0
 10
10.1186424382
 20
5.5008328388
 30
0.0
 10
10.1359142355
 20
5.4827027842
 30
0.0
 10
10.1540553671
 20
5.4654415414
 30
0.0
 10
10.1730221288
 20
5.4490906931
 30
0.0
 10
10.1927688276
 20
5.4336896292
 30
0.0
 10
10.213247892
 20
5.4192754517
 30
0.0
 10
10.2344099861
 20
5.4058828849
 30
0.0
 10
10.2562041286
 20
5.3935441923
 30
0.0
 10
10.2785778161
 20
5.3822890986
 30
0.0
 10
10.3014771478
 20
5.3721447183
 30
0.0
 10
10.3248469613
 20
5.3631354901
 30
0.0
 10
10.3486309432
 20
5.3552831186
 30
0.0
 10
10.3727718477
 20
5.3486065207
 30
0.0
 10
10.3972113236
 20
5.3431217797
 30
0.0
 10
10.4218912167
 20
5.3388421074
 30
0.0
 10
10.4550305233
 20
5.3347569879
 30
0.0
 10
10.4967717026
 20
5.3327066243
 30
0.0
 10
10.5385128818
 20
5.3347569879
 30
0.0
 10
10.5716521884
 20
5.3388421074
 30
0.0
 10
10.5963320815
 20
5.3431217797
 30
0.0
 10
10.6207715574
 20
5.3486065207
 30
0.0
 10
10.6449124619
 20
5.3552831186
 30
0.0
 10
10.6686964438
 20
5.3631354901
 30
0.0
 10
10.6920662573
 20
5.3721447183
 30
0.0
 10
10.714965589
 20
5.3822890986
 30
0.0
 10
10.7373392765
 20
5.3935441923
 30
0.0
 10
10.759133419
 20
5.4058828849
 30
0.0
 10
10.7802955131
 20
5.4192754517
 30
0.0
 10
10.8007745775
 20
5.4336896292
 30
0.0
 10
10.8205212764
 20
5.4490906931
 30
0.0
 10
10.8394880381
 20
5.4654415414
 30
0.0
 10
10.8576291696
 20
5.4827027842
 30
0.0
 10
10.8749009669
 20
5.5008328388
 30
0.0
 10
10.8912618196
 20
5.519788028
 30
0.0
 10
10.9066723129
 20
5.5395226912
 30
0.0
 10
10.9210953162
 20
5.5599892734
 30
0.0
 10
10.9344960982
 20
5.5811385181
 30
0.0
 10
10.9468423188
 20
5.6029192887
 30
0.0
 10
10.9581044452
 20
5.6252798056
 30
0.0
 10
10.9716357559
 20
5.6557866425
 30
0.0
 10
10.9857159113
 20
5.6951108238
 30
0.0
 10
10.99586967
 20
5.7356261272
 30
0.0
 10
11.0015779234
 20
5.7685051394
 30
0.0
 10
11.0046442602
 20
5.7933504885
 30
0.0
 10
11.0064868743
 20
5.8183150684
 30
0.0
 10
11.0068967026
 20
5.8349999998
 30
0.0
 10
11.0068967026
 20
5.8433409565
 30
0.0
  0
SPLINE
  5
286
100
AcDbEntity
  8
0
100
AcDbSpline
 62
7
  6
CONTINUOUS
 70
0
 71
3
 72
44
 73
40
 74
0
 42
0.0000001
 43
0.0000001
 44
0.0000000001
 40
0.0
 40
0.0
 40
0.0
 40
0.0
 40
0.1235385938
 40
0.2389120662
 40
0.3459587057
 40
0.444619555
 40
0.5349078601
 40
0.6168829772
 40
0.6906286557
 40
0.7562503383
 40
0.8138564218
 40
0.8396857732
 40
0.8635491288
 40
0.8854582505
 40
0.9054241672
 40
0.923457448
 40
0.9395674015
 40
0.9537621356
 40
0.9660493192
 40
0.971479531
 40
0.9764350608
 40
0.9809165807
 40
0.984924757
 40
0.9884601653
 40
0.9915231893
 40
0.9941141859
 40
0.9952327851
 40
0.9962335106
 40
0.9971164067
 40
0.9978815175
 40
0.9985288863
 40
0.9990585368
 40
0.9994704717
 40
0.9996322964
 40
0.9997646928
 40
0.9998676611
 40
0.9999412016
 40
0.9999853145
 40
1.0
 40
1.0
 40
1.0
 40
1.0
 10
11.6674649224
 20
12.2732355898
 30
0.0
 10
11.6658302735
 20
12.2761250014
 30
0.0
 10
11.6627638565
 20
12.2817671179
 30
0.0
 10
11.6585914954
 20
12.2900765337
 30
0.0
 10
11.6549557077
 20
12.2979026296
 30
0.0
 10
11.6518075224
 20
12.3052081851
 30
0.0
 10
11.6490987125
 20
12.3119666044
 30
0.0
 10
11.6467828216
 20
12.3181590709
 30
0.0
 10
11.6448176251
 20
12.3237734285
 30
0.0
 10
11.6431633586
 20
12.3288016808
 30
0.0
 10
11.641974953
 20
12.3326270006
 30
0.0
 10
11.6411506163
 20
12.3353900281
 30
0.0
 10
11.640613027
 20
12.3372375159
 30
0.0
 10
11.6401298584
 20
12.3389367021
 30
0.0
 10
11.6396984089
 20
12.3404876875
 30
0.0
 10
11.6393158674
 20
12.3418905021
 30
0.0
 10
11.6389798123
 20
12.3431452309
 30
0.0
 10
11.6386883197
 20
12.3442520304
 30
0.0
 10
11.638472789
 20
12.3450820548
 30
0.0
 10
11.6383210725
 20
12.3456721347
 30
0.0
 10
11.6382221495
 20
12.3460592104
 30
0.0
 10
11.6381331506
 20
12.3464093805
 30
0.0
 10
11.6380539085
 20
12.346722655
 30
0.0
 10
11.6379842696
 20
12.3469990399
 30
0.0
 10
11.6379241522
 20
12.3472385507
 30
0.0
 10
11.6378799957
 20
12.347415108
 30
0.0
 10
11.6378493586
 20
12.3475379211
 30
0.0
 10
11.6378298588
 20
12.3476162051
 30
0.0
 10
11.6378126747
 20
12.3476852778
 30
0.0
 10
11.6377977993
 20
12.3477451365
 30
0.0
 10
11.6377852121
 20
12.3477957926
 30
0.0
 10
11.6377749334
 20
12.3478372152
 30
0.0
 10
11.637767754
 20
12.3478660307
 30
0.0
 10
11.6377632319
 20
12.3478843888
 30
0.0
 10
11.6377605553
 20
12.347894871
 30
0.0
 10
11.6377588282
 20
12.3479026099
 30
0.0
 10
11.637756786
 20
12.3479090828
 30
0.0
 10
11.6377570093
 20
12.3479112749
 30
0.0
 10
11.637755515
 20
12.3479141119
 30
0.0
 10
11.6377558795
 20
12.3479139607
 30
0.0
  0
SPLINE
  5
287
100
AcDbEntity
  8
0
100
AcDbSpline
 62
7
  6
CONTINUOUS
 70
0
 71
3
 72
15
 73
11
 74
0
 42
0.0000001
 43
0.0000001
 44
0.0000000001
 40
0.0
 40
0.0
 40
0.0
 40
0.0
 40
0.1373641761
 40
0.2732054585
 40
0.4063334716
 40
0.5357217893
 40
0.6605149751
 40
0.7799805868
 40
0.8934142366
 40
1.0
 40
1.0
 40
1.0
 40
1.0
 10
11.7401144368
 20
11.9948176537
 30
0.0
 10
11.7401143608
 20
12.0081366802
 30
0.0
 10
11.7391939636
 20
12.0346363382
 30
0.0
 10
11.7351060542
 20
12.0738521418
 30
0.0
 10
11.72848337
 20
12.1119359278
 30
0.0
 10
11.7195788386
 20
12.1484473152
 30
0.0
 10
11.708706703
 20
12.1830331191
 30
0.0
 10
11.69622622
 20
12.2154163077
 30
0.0
 10
11.6825358562
 20
12.2453717091
 30
0.0
 10
11.6725537947
 20
12.2642406156
 30
0.0
 10
11.6674649224
 20
12.2732355898
 30
0.0
  0
ENDSEC
  0
SECTION
  2
OBJECTS
  0
DICTIONARY
  5
C
100
AcDbDictionary
280
0
281
1
  3
ACAD_GROUP
350
D
  3
ACAD_MLINESTYLE
350
17
  3
ACAD_LAYOUT
350
1A
  3
ACAD_PLOTSETTINGS
350
19
  3
ACAD_PLOTSTYLENAME
350
E
  0
DICTIONARY
  5
D
102
{ACAD_REACTORS
330
C
102
}
100
AcDbDictionary
280
0
281
1
  0
ACDBDICTIONARYWDFLT
  5
E
102
{ACAD_REACTORS
330
C
102
}
100
AcDbDictionary
281
1
  3
Normal
350
F
100
AcDbDictionaryWithDefault
340
F
  0
DICTIONARY
  5
17
102
{ACAD_REACTORS
330
C
102
}
100
AcDbDictionary
280
0
281
1
  3
Standard
350
18
  0
DICTIONARY
  5
19
102
{ACAD_REACTORS
330
C
102
}
100
AcDbDictionary
281
1
  0
DICTIONARY
  5
1A
102
{ACAD_REACTORS
330
C
102
}
100
AcDbDictionary
281
1
  3
Model
350
288
  3
Layout1
350
289
  0
ACDBPLACEHOLDER
  5
F
102
{ACAD_REACTORS
330
E
102
}
  0
MLINESTYLE
  5
18
102
{ACAD_REACTORS
330
17
102
}
100
AcDbMlineStyle
  2
STANDARD
 70
0
  3

 62
256
 51
90.0
 52
90.0
 71
2
 49
0.5
 62
256
  6
BYLAYER
 49
-0.5
 62
256
  6
BYLAYER
  0
LAYOUT
  5
288
102
{ACAD_REACTORS
330
1A
102
}
100
AcDbPlotSettings
  1

  2
none_device
  4
ANSI_C_(22.00_x_17.00_Inches)
  6

 40
0.0
 41
0.0
 42
0.0
 43
0.0
 44
558.8
 45
431.8
 46
0.0
 47
0.0
 48
0.0
 49
0.0
140
0.0
141
0.0
142
1.0
143
1.0
 70
1024
 72
0
 73
0
 74
0
  7

 75
0
147
1.0
148
0.0
149
0.0
100
AcDbLayout
  1
Model
 70
0
 71
0
 10
0.0
 20
0.0
 11
22.0
 21
17.0
 12
0.0
 22
0.0
 32
0.0
 14
0.0
 24
0.0
 34
0.0
 15
0.0
 25
0.0
 35
0.0
146
0.0
 13
0.0
 23
0.0
 33
0.0
 16
1.0
 26
0.0
 36
0.0
 17
0.0
 27
1.0
 37
0.0
 76
0
330
203
345
0
346
0
  0
LAYOUT
  5
289
102
{ACAD_REACTORS
330
1A
102
}
100
AcDbPlotSettings
  1

  2
none_device
  4
ANSI_C_(22.00_x_17.00_Inches)
  6

 40
0.0
 41
0.0
 42
0.0
 43
0.0
 44
558.8
 45
431.8
 46
0.0
 47
0.0
 48
0.0
 49
0.0
140
0.0
141
0.0
142
1.0
143
1.0
 70
0
 72
0
 73
0
 74
0
  7

 75
0
147
1.0
148
0.0
149
0.0
100
AcDbLayout
  1
Layout1
 70
0
 71
1
 10
0.0
 20
0.0
 11
22.0
 21
17.0
 12
0.0
 22
0.0
 32
0.0
 14
0.0
 24
0.0
 34
0.0
 15
0.0
 25
0.0
 35
0.0
146
0.0
 13
0.0
 23
0.0
 33
0.0
 16
1.0
 26
0.0
 36
0.0
 17
0.0
 27
1.0
 37
0.0
 76
0
330
204
345
0
346
0
  0
ENDSEC
  0
EOF
