999
DXF file: E:\BRASSTECH\RAY\EN-4300m\Webdata\1\CAD\1030_TOP.dxf
999
Pro/ENGINEER 2018400 by Parametric Technology Corporation
  0
SECTION
  2
HEADER
  9
$ACADVER
  1
AC1018
  9
$DWGCODEPAGE
  3
ANSI_1252
  9
$EXTMAX
 10
22.0
 20
17.0
 30
0.0
  9
$EXTMIN
 10
0.0
 20
0.0
 30
0.0
  9
$LIMMIN
 10
0.0
 20
0.0
  9
$LIMMAX
 10
22.0
 20
17.0
  9
$VIEWCTR
 10
11.0
 20
8.5
  9
$VIEWSIZE
 40
17.0
  9
$CLAYER
  8
0
  9
$LTSCALE
 40
1.21
  9
$CELTYPE
  6
BYLAYER
  9
$DIMSCALE
 40
1.0
  9
$DIMASZ
 40
0.1
  9
$DIMEXO
 40
0.0625
  9
$DIMDLI
 40
0.836
  9
$DIMEXE
 40
0.125
  9
$DIMCEN
 40
0.198
  9
$DIMLFAC
 40
1.0
  9
$DIMBLK
  1
_FILLED
  9
$DIMALT
 70
1
  9
$DIMALTD
 70
2
  9
$DIMALTTD
 70
2
  9
$DIMALTF
 40
25.4
  9
$DIMTXT
 40
0.08
  9
$DIMTOL
 70
1
  9
$DIMLIM
 70
0
  9
$DIMTFAC
 40
1.0
  9
$DIMTP
 40
0.001
  9
$DIMTM
 40
0.001
  9
$DIMGAP
 40
0.09
  9
$DIMDSEP
 70
46
  9
$AUNITS
 70
0
  9
$PDMODE
 70
3
  9
$PDSIZE
 40
0.06
  9
$HANDSEED
  5
388
  9
$TILEMODE
 70
1
  9
$MEASUREMENT
 70
0
  9
$INSUNITS
 70
1
  0
ENDSEC
  0
SECTION
  2
CLASSES
  0
CLASS
  1
ACDBDICTIONARYWDFLT
  2
AcDbDictionaryWithDefault
  3
AutoCAD 2000
 90
0
 91
1
280
0
281
0
  0
CLASS
  1
ACDBPLACEHOLDER
  2
AcDbPlaceHolder
  3
AutoCAD 2000
 90
0
 91
1
280
0
281
0
  0
CLASS
  1
LAYOUT
  2
AcDbLayout
  3
AutoCAD 2000
 90
0
 91
0
280
0
281
0
  0
ENDSEC
  0
SECTION
  2
TABLES
  0
TABLE
  2
VPORT
  5
8
100
AcDbSymbolTable
 70
2
  0
VPORT
  5
1F4
100
AcDbSymbolTableRecord
100
AcDbViewportTableRecord
  2
*ACTIVE
 70
0
 10
0.0
 20
0.0
 11
1.0
 21
1.0
 12
11.0
 22
8.5
 13
0.0
 23
0.0
 14
1.0
 24
1.0
 15
0.0
 25
0.0
 16
0.0
 26
0.0
 36
1.0
 17
0.0
 27
0.0
 37
0.0
 40
17.0
 41
1.2941176471
 42
50.0
 43
0.0
 44
0.0
 50
0.0
 51
0.0
 71
0
 72
100
 73
1
 74
1
 75
0
 76
0
 77
0
 78
0
  0
ENDTAB
  0
TABLE
  2
LTYPE
  5
5
100
AcDbSymbolTable
 70
6
  0
LTYPE
  5
14
100
AcDbSymbolTableRecord
100
AcDbLinetypeTableRecord
  2
BYBLOCK
 70
0
  3

 72
65
 73
0
 40
0.0
  0
LTYPE
  5
15
100
AcDbSymbolTableRecord
100
AcDbLinetypeTableRecord
  2
BYLAYER
 70
0
  3

 72
65
 73
0
 40
0.0
  0
LTYPE
  5
16
100
AcDbSymbolTableRecord
100
AcDbLinetypeTableRecord
  2
CONTINUOUS
 70
64
  3
Solid line
 72
65
 73
0
 40
0.0
  0
LTYPE
  5
1F5
100
AcDbSymbolTableRecord
100
AcDbLinetypeTableRecord
  2
CENTER
 70
64
  3
____ _ ____ _ ____ _ ____ _ ____ _ ____ _ ____
 72
65
 73
4
 40
0.6
 49
0.375
 74
0
 49
-0.075
 74
0
 49
0.075
 74
0
 49
-0.075
 74
0
  0
LTYPE
  5
1F6
100
AcDbSymbolTableRecord
100
AcDbLinetypeTableRecord
  2
HIDDEN
 70
64
  3
- - - - - - - - - - - - - - - - - - - -
 72
65
 73
2
 40
0.2
 49
0.1
 74
0
 49
-0.1
 74
0
  0
LTYPE
  5
1F7
100
AcDbSymbolTableRecord
100
AcDbLinetypeTableRecord
  2
PHANTOM
 70
64
  3
_____ _ _ _____ _ _ _____ _ _ _____
 72
65
 73
6
 40
0.8
 49
0.45
 74
0
 49
-0.05
 74
0
 49
0.1
 74
0
 49
-0.05
 74
0
 49
0.1
 74
0
 49
-0.05
 74
0
  0
LTYPE
  5
1F8
100
AcDbSymbolTableRecord
100
AcDbLinetypeTableRecord
  2
DOT
 70
64
  3
. . . . . . . . . . . . . . . . . . . .
 72
65
 73
2
 40
0.2
 49
0.1
 74
0
 49
-0.1
 74
0
  0
LTYPE
  5
1F9
100
AcDbSymbolTableRecord
100
AcDbLinetypeTableRecord
  2
DASHED
 70
64
  3
- - - - - - - - - - - - - - - - - - - -
 72
65
 73
2
 40
0.2
 49
0.1
 74
0
 49
-0.1
 74
0
  0
ENDTAB
  0
TABLE
  2
LAYER
  5
2
100
AcDbSymbolTable
 70
36
  0
LAYER
  5
10
100
AcDbSymbolTableRecord
100
AcDbLayerTableRecord
  2
0
 70
0
 62
7
  6
CONTINUOUS
370
-3
390
F
  0
LAYER
  5
1FA
100
AcDbSymbolTableRecord
100
AcDbLayerTableRecord
  2
DEFAULT_1
 70
0
 62
7
  6
CENTER
370
-3
390
F
  0
LAYER
  5
1FB
100
AcDbSymbolTableRecord
100
AcDbLayerTableRecord
  2
DEFAULT_2
 70
0
 62
8
  6
HIDDEN
370
-3
390
F
  0
LAYER
  5
1FC
100
AcDbSymbolTableRecord
100
AcDbLayerTableRecord
  2
DEFAULT_3
 70
0
 62
7
  6
PHANTOM
370
-3
390
F
  0
LAYER
  5
1FD
100
AcDbSymbolTableRecord
100
AcDbLayerTableRecord
  2
ALL_FEATURES
 70
0
 62
7
  6
CONTINUOUS
370
-3
390
F
  0
LAYER
  5
1FE
100
AcDbSymbolTableRecord
100
AcDbLayerTableRecord
  2
AXES_FEATURES
 70
0
 62
7
  6
CONTINUOUS
370
-3
390
F
  0
LAYER
  5
1FF
100
AcDbSymbolTableRecord
100
AcDbLayerTableRecord
  2
DIMENSIONS
 70
0
 62
7
  6
CONTINUOUS
370
-3
390
F
  0
ENDTAB
  0
TABLE
  2
STYLE
  5
3
100
AcDbSymbolTable
 70
1
  0
STYLE
  5
11
100
AcDbSymbolTableRecord
100
AcDbTextStyleTableRecord
  2
STANDARD
 70
0
 40
0.0
 41
0.8
 50
0.0
 71
0
 42
0.2
  3
txt
  4

  0
STYLE
  5
200
100
AcDbSymbolTableRecord
100
AcDbTextStyleTableRecord
  2
TEXTSTYLE_1
 70
0
 40
0.0
 41
0.8
 50
0.0
 71
0
 42
0.2
  3
gdt
  4

  0
ENDTAB
  0
TABLE
  2
VIEW
  5
6
100
AcDbSymbolTable
 70
0
  0
ENDTAB
  0
TABLE
  2
UCS
  5
7
100
AcDbSymbolTable
 70
0
  0
ENDTAB
  0
TABLE
  2
APPID
  5
9
100
AcDbSymbolTable
 70
1
  0
APPID
  5
201
100
AcDbSymbolTableRecord
100
AcDbRegAppTableRecord
  2
ACAD
 70
0
  0
ENDTAB
  0
TABLE
  2
BLOCK_RECORD
  5
1
100
AcDbSymbolTable
 70
0
  0
BLOCK_RECORD
  5
202
100
AcDbSymbolTableRecord
100
AcDbBlockTableRecord
  2
*Model_Space
  0
BLOCK_RECORD
  5
203
100
AcDbSymbolTableRecord
100
AcDbBlockTableRecord
  2
*Paper_Space
  0
BLOCK_RECORD
  5
204
100
AcDbSymbolTableRecord
100
AcDbBlockTableRecord
  2
_FILLED
  0
ENDTAB
  0
TABLE
  2
DIMSTYLE
  5
A
100
AcDbSymbolTable
 70
1
100
AcDbDimStyleTable
 71
0
  0
DIMSTYLE
105
205
100
AcDbSymbolTableRecord
100
AcDbDimStyleTableRecord
  2
STANDARD
 70
0
  3

  4

 40
1.0
 41
0.1
 42
0.0625
 43
0.38
 44
0.125
 45
0.0
 46
0.0
 47
0.001
 48
0.001
140
0.08
141
0.09
142
0.0
143
25.4
144
1.0
145
0.0
146
1.0
147
0.09
 71
1.0
 72
0.0
 73
1
 74
1
 75
0
 76
0
 77
0
 78
4
 79
1
170
1
171
2
172
0
173
0
174
0
175
0
176
0
177
0
178
0
270
2
179
3
271
3
272
3
273
2
274
2
275
0
280
0
281
0
282
0
283
1
284
4
285
0
286
0
287
3
288
0
340
11
278
46
341
204
342
204
343
204
344
204
  0
ENDTAB
  0
ENDSEC
  0
SECTION
  2
BLOCKS
  0
BLOCK
  5
20
100
AcDbEntity
  8
0
100
AcDbBlockBegin
  2
*Model_Space
 70
0
 10
0.0
 20
0.0
 30
0.0
  3
*Model_Space
  1

  0
ENDBLK
  5
21
100
AcDbEntity
  8
0
100
AcDbBlockEnd
  0
BLOCK
  5
1C
100
AcDbEntity
  8
0
100
AcDbBlockBegin
  2
*Paper_Space
 70
0
 10
0.0
 20
0.0
 30
0.0
  3
*Paper_Space
  1

  0
ENDBLK
  5
1D
100
AcDbEntity
  8
0
100
AcDbBlockEnd
  0
BLOCK
  5
206
100
AcDbEntity
  8
0
100
AcDbBlockBegin
  2
_FILLED
 70
64
 10
0.0
 20
0.0
  3
_FILLED
  1

  0
SOLID
  5
207
100
AcDbEntity
  8
0
  6
BYBLOCK
 62
0
100
AcDbTrace
 10
0.0
 20
0.0
 11
-1.0
 21
0.2
 12
-1.0
 22
-0.2
 13
-1.0
 23
-0.2
  0
ENDBLK
  5
208
100
AcDbEntity
  8
0
  6
BYBLOCK
 62
0
100
AcDbBlockEnd
  0
ENDSEC
  0
SECTION
  2
ENTITIES
  0
LINE
  5
209
100
AcDbEntity
  8
0
100
AcDbLine
 62
7
  6
CONTINUOUS
 10
3.7908183383
 20
10.7732278081
 11
3.7708183383
 21
10.7532278081
  0
LINE
  5
20A
100
AcDbEntity
  8
0
100
AcDbLine
 62
7
  6
CONTINUOUS
 10
3.7708183383
 20
10.7532278081
 11
3.7708183383
 21
10.2302278081
  0
LINE
  5
20B
100
AcDbEntity
  8
0
100
AcDbLine
 62
7
  6
CONTINUOUS
 10
3.7908183383
 20
10.7732278081
 11
3.7908183383
 21
10.2102278081
  0
LINE
  5
20C
100
AcDbEntity
  8
0
100
AcDbLine
 62
7
  6
CONTINUOUS
 10
3.8708183383
 20
10.2102278081
 11
3.8708183383
 21
10.7732278081
  0
LINE
  5
20D
100
AcDbEntity
  8
0
100
AcDbLine
 62
7
  6
CONTINUOUS
 10
6.4151186959
 20
10.709725907
 11
6.6682871351
 21
11.1482265064
  0
LINE
  5
20E
100
AcDbEntity
  8
0
100
AcDbLine
 62
7
  6
CONTINUOUS
 10
6.1598183383
 20
10.7732278081
 11
6.1598183383
 21
10.2102278081
  0
LINE
  5
20F
100
AcDbEntity
  8
0
100
AcDbLine
 62
7
  6
CONTINUOUS
 10
6.2648183383
 20
10.2102278081
 11
6.2648183383
 21
10.7732278081
  0
LINE
  5
210
100
AcDbEntity
  8
0
100
AcDbLine
 62
7
  6
CONTINUOUS
 10
6.4648183383
 20
10.6887278081
 11
6.4648183383
 21
10.2947278081
  0
LINE
  5
211
100
AcDbEntity
  8
0
100
AcDbLine
 62
7
  6
CONTINUOUS
 10
7.1463183383
 20
10.5757278081
 11
7.1373183383
 21
10.5542130895
  0
LINE
  5
212
100
AcDbEntity
  8
0
100
AcDbLine
 62
7
  6
CONTINUOUS
 10
7.2978330569
 20
10.5457278081
 11
7.3063183383
 21
10.5542130895
  0
LINE
  5
213
100
AcDbEntity
  8
0
100
AcDbLine
 62
7
  6
CONTINUOUS
 10
6.7823183383
 20
10.5757278081
 11
6.7823183383
 21
10.5577278081
  0
LINE
  5
214
100
AcDbEntity
  8
0
100
AcDbLine
 62
7
  6
CONTINUOUS
 10
6.7823183383
 20
10.4307278081
 11
6.7823183383
 21
10.4067278081
  0
LINE
  5
215
100
AcDbEntity
  8
0
100
AcDbLine
 62
7
  6
CONTINUOUS
 10
6.7988183383
 20
10.5349297819
 11
6.7988183383
 21
10.4535258343
  0
LINE
  5
216
100
AcDbEntity
  8
0
100
AcDbLine
 62
7
  6
CONTINUOUS
 10
6.8388183383
 20
10.4535258343
 11
6.8388183383
 21
10.4817278081
  0
LINE
  5
217
100
AcDbEntity
  8
0
100
AcDbLine
 62
7
  6
CONTINUOUS
 10
6.8398183383
 20
10.5112834324
 11
6.8398183383
 21
10.5352834324
  0
LINE
  5
218
100
AcDbEntity
  8
0
100
AcDbLine
 62
7
  6
CONTINUOUS
 10
6.8553183383
 20
10.4067278081
 11
6.8553183383
 21
10.4307278081
  0
LINE
  5
219
100
AcDbEntity
  8
0
100
AcDbLine
 62
7
  6
CONTINUOUS
 10
6.8553183383
 20
10.5577278081
 11
6.8553183383
 21
10.5757278081
  0
LINE
  5
21A
100
AcDbEntity
  8
0
100
AcDbLine
 62
7
  6
CONTINUOUS
 10
6.8723183383
 20
10.5757278081
 11
6.8723183383
 21
10.5577278081
  0
LINE
  5
21B
100
AcDbEntity
  8
0
100
AcDbLine
 62
7
  6
CONTINUOUS
 10
6.8723183383
 20
10.4307278081
 11
6.8723183383
 21
10.4067278081
  0
LINE
  5
21C
100
AcDbEntity
  8
0
100
AcDbLine
 62
7
  6
CONTINUOUS
 10
6.8878183383
 20
10.5352834324
 11
6.8878183383
 21
10.5112834324
  0
LINE
  5
21D
100
AcDbEntity
  8
0
100
AcDbLine
 62
7
  6
CONTINUOUS
 10
6.8888183383
 20
10.4817278081
 11
6.8888183383
 21
10.4535258343
  0
LINE
  5
21E
100
AcDbEntity
  8
0
100
AcDbLine
 62
7
  6
CONTINUOUS
 10
6.9288183383
 20
10.4535258343
 11
6.9288183383
 21
10.5349297819
  0
LINE
  5
21F
100
AcDbEntity
  8
0
100
AcDbLine
 62
7
  6
CONTINUOUS
 10
6.9453183383
 20
10.4067278081
 11
6.9453183383
 21
10.4307278081
  0
LINE
  5
220
100
AcDbEntity
  8
0
100
AcDbLine
 62
7
  6
CONTINUOUS
 10
6.9453183383
 20
10.5577278081
 11
6.9453183383
 21
10.5757278081
  0
LINE
  5
221
100
AcDbEntity
  8
0
100
AcDbLine
 62
7
  6
CONTINUOUS
 10
7.7237788811
 20
10.3503918375
 11
7.4263495415
 21
9.8352291097
  0
LINE
  5
222
100
AcDbEntity
  8
0
100
AcDbLine
 62
7
  6
CONTINUOUS
 10
7.9567800806
 20
10.6967645288
 11
7.9076140106
 21
10.6624651655
  0
LINE
  5
223
100
AcDbEntity
  8
0
100
AcDbLine
 62
7
  6
CONTINUOUS
 10
6.2648183383
 20
10.2102278081
 11
6.4648183383
 21
10.2947278081
  0
LINE
  5
224
100
AcDbEntity
  8
0
100
AcDbLine
 62
7
  6
CONTINUOUS
 10
7.1853183383
 20
10.4307278081
 11
7.1853183383
 21
10.4067278081
  0
LINE
  5
225
100
AcDbEntity
  8
0
100
AcDbLine
 62
7
  6
CONTINUOUS
 10
7.2038183383
 20
10.5548278081
 11
7.2038183383
 21
10.4621881005
  0
LINE
  5
226
100
AcDbEntity
  8
0
100
AcDbLine
 62
7
  6
CONTINUOUS
 10
7.2398183383
 20
10.4621881005
 11
7.2398183383
 21
10.5548278081
  0
LINE
  5
227
100
AcDbEntity
  8
0
100
AcDbLine
 62
7
  6
CONTINUOUS
 10
7.2583183383
 20
10.4067278081
 11
7.2583183383
 21
10.4307278081
  0
LINE
  5
228
100
AcDbEntity
  8
0
100
AcDbLine
 62
9
  6
CONTINUOUS
 10
7.5840080872
 20
10.2957278081
 11
7.5840080872
 21
10.3410298768
  0
LINE
  5
229
100
AcDbEntity
  8
0
100
AcDbLine
 62
9
  6
CONTINUOUS
 10
7.5840080872
 20
10.6423932403
 11
7.5840080872
 21
10.6877278081
  0
LINE
  5
22A
100
AcDbEntity
  8
0
100
AcDbLine
 62
9
  6
CONTINUOUS
 10
7.6046335165
 20
10.3035849574
 11
7.6046335165
 21
10.4890106868
  0
LINE
  5
22B
100
AcDbEntity
  8
0
100
AcDbLine
 62
9
  6
CONTINUOUS
 10
7.6046335165
 20
10.4944101679
 11
7.6046335165
 21
10.6798706587
  0
LINE
  5
22C
100
AcDbEntity
  8
0
100
AcDbLine
 62
9
  6
CONTINUOUS
 10
7.8559581391
 20
10.6833713725
 11
7.8559581391
 21
10.3000842437
  0
LINE
  5
22D
100
AcDbEntity
  8
0
100
AcDbLine
 62
7
  6
CONTINUOUS
 10
7.8829320814
 20
10.6717278081
 11
7.8829320814
 21
10.3117278081
  0
LINE
  5
22E
100
AcDbEntity
  8
0
100
AcDbLine
 62
9
  6
CONTINUOUS
 10
7.9076140106
 20
10.6624651655
 11
7.9076140106
 21
10.3209904507
  0
LINE
  5
22F
100
AcDbEntity
  8
0
100
AcDbLine
 62
9
  6
CONTINUOUS
 10
7.9567800806
 20
10.2866910874
 11
7.9567800806
 21
10.6967645288
  0
LINE
  5
230
100
AcDbEntity
  8
0
100
AcDbLine
 62
7
  6
CONTINUOUS
 10
3.7908183383
 20
10.2102278081
 11
3.7708183383
 21
10.2302278081
  0
LINE
  5
231
100
AcDbEntity
  8
0
100
AcDbLine
 62
7
  6
CONTINUOUS
 10
6.6682871352
 20
9.8352291095
 11
6.4151186959
 21
10.2737297092
  0
LINE
  5
232
100
AcDbEntity
  8
0
100
AcDbLine
 62
7
  6
CONTINUOUS
 10
7.3063183383
 20
10.5542130895
 11
7.2973183383
 21
10.5757278081
  0
LINE
  5
233
100
AcDbEntity
  8
0
100
AcDbLine
 62
7
  6
CONTINUOUS
 10
14.849009512
 20
10.5147278081
 11
14.8663183383
 21
10.5196679024
  0
LINE
  5
234
100
AcDbEntity
  8
0
100
AcDbLine
 62
7
  6
CONTINUOUS
 10
15.8298183383
 20
10.7732278081
 11
15.6298183383
 21
10.6887278081
  0
LINE
  5
235
100
AcDbEntity
  8
0
100
AcDbLine
 62
7
  6
CONTINUOUS
 10
7.4263494697
 20
11.1482266308
 11
7.7237788811
 21
10.6330637787
  0
LINE
  5
236
100
AcDbEntity
  8
0
100
AcDbLine
 62
7
  6
CONTINUOUS
 10
14.1378565959
 20
10.2866910874
 11
14.1870226659
 21
10.3209904507
  0
LINE
  5
237
100
AcDbEntity
  8
0
100
AcDbLine
 62
7
  6
CONTINUOUS
 10
7.1373183383
 20
10.5542130895
 11
7.1458036197
 21
10.5457278081
  0
LINE
  5
238
100
AcDbEntity
  8
0
100
AcDbLine
 62
7
  6
CONTINUOUS
 10
10.6403183383
 20
9.732878345
 11
10.6403183383
 21
9.3372377272
  0
LINE
  5
239
100
AcDbEntity
  8
0
100
AcDbLine
 62
7
  6
CONTINUOUS
 10
10.7348183383
 20
9.2122377272
 11
10.7348183383
 21
3.6087720076
  0
LINE
  5
23A
100
AcDbEntity
  8
0
100
AcDbLine
 62
7
  6
CONTINUOUS
 10
10.7663183383
 20
11.6752377272
 11
10.7663183383
 21
11.6392377272
  0
LINE
  5
23B
100
AcDbEntity
  8
0
100
AcDbLine
 62
7
  6
CONTINUOUS
 10
10.8448183383
 20
11.3262377272
 11
10.8448183383
 21
11.1722377272
  0
LINE
  5
23C
100
AcDbEntity
  8
0
100
AcDbLine
 62
7
  6
CONTINUOUS
 10
10.8688183383
 20
11.5792377272
 11
10.8688183383
 21
11.5482377272
  0
LINE
  5
23D
100
AcDbEntity
  8
0
100
AcDbLine
 62
7
  6
CONTINUOUS
 10
11.0101596012
 20
3.2977789939
 11
11.0101596018
 21
3.3004012748
  0
LINE
  5
23E
100
AcDbEntity
  8
0
100
AcDbLine
 62
9
  6
CONTINUOUS
 10
10.7348183383
 20
7.1022377272
 11
11.3598183383
 21
7.1022377272
  0
LINE
  5
23F
100
AcDbEntity
  8
0
100
AcDbLine
 62
7
  6
CONTINUOUS
 10
11.2258183383
 20
11.5792377272
 11
11.2258183383
 21
11.5482377272
  0
LINE
  5
240
100
AcDbEntity
  8
0
100
AcDbLine
 62
7
  6
CONTINUOUS
 10
11.2498183383
 20
11.3262377272
 11
11.2498183383
 21
11.1722377272
  0
LINE
  5
241
100
AcDbEntity
  8
0
100
AcDbLine
 62
7
  6
CONTINUOUS
 10
11.3283183383
 20
11.6752377272
 11
11.3283183383
 21
11.6392377272
  0
LINE
  5
242
100
AcDbEntity
  8
0
100
AcDbLine
 62
7
  6
CONTINUOUS
 10
11.3598183383
 20
9.2122377272
 11
11.3598183383
 21
3.6071607379
  0
LINE
  5
243
100
AcDbEntity
  8
0
100
AcDbLine
 62
7
  6
CONTINUOUS
 10
11.4543183383
 20
9.732878345
 11
11.4543183383
 21
9.3372377272
  0
LINE
  5
244
100
AcDbEntity
  8
0
100
AcDbLine
 62
7
  6
CONTINUOUS
 10
7.9567800806
 20
10.2866910874
 11
7.9076140106
 21
10.3209904507
  0
LINE
  5
245
100
AcDbEntity
  8
0
100
AcDbLine
 62
7
  6
CONTINUOUS
 10
6.2648183383
 20
10.7732278081
 11
6.4648183383
 21
10.6887278081
  0
LINE
  5
246
100
AcDbEntity
  8
0
100
AcDbLine
 62
7
  6
CONTINUOUS
 10
14.3708577955
 20
10.6330637787
 11
14.6682871351
 21
11.1482265064
  0
LINE
  5
247
100
AcDbEntity
  8
0
100
AcDbLine
 62
7
  6
CONTINUOUS
 10
11.4543183383
 20
9.2122377272
 11
10.6403183383
 21
9.2122377272
  0
LINE
  5
248
100
AcDbEntity
  8
0
100
AcDbLine
 62
7
  6
CONTINUOUS
 10
15.207763275
 20
10.4659057316
 11
15.1944835282
 21
10.4439646824
  0
LINE
  5
249
100
AcDbEntity
  8
0
100
AcDbLine
 62
7
  6
CONTINUOUS
 10
11.4543183383
 20
9.3372377272
 11
10.6403183383
 21
9.3372377272
  0
LINE
  5
24A
100
AcDbEntity
  8
0
100
AcDbLine
 62
9
  6
CONTINUOUS
 10
11.4543183383
 20
9.732878345
 11
10.6403183383
 21
9.732878345
  0
LINE
  5
24B
100
AcDbEntity
  8
0
100
AcDbLine
 62
9
  6
CONTINUOUS
 10
10.6688183383
 20
9.7855921952
 11
11.4258183383
 21
9.7855921952
  0
LINE
  5
24C
100
AcDbEntity
  8
0
100
AcDbLine
 62
7
  6
CONTINUOUS
 10
15.4263476902
 20
9.8352278081
 11
14.6682889866
 21
9.8352278081
  0
LINE
  5
24D
100
AcDbEntity
  8
0
100
AcDbLine
 62
7
  6
CONTINUOUS
 10
7.4263476902
 20
9.8352278081
 11
6.6682889866
 21
9.8352278081
  0
LINE
  5
24E
100
AcDbEntity
  8
0
100
AcDbLine
 62
7
  6
CONTINUOUS
 10
15.6795179806
 20
10.2737297092
 11
15.4263495415
 21
9.8352291097
  0
LINE
  5
24F
100
AcDbEntity
  8
0
100
AcDbLine
 62
9
  6
CONTINUOUS
 10
11.4266584392
 20
9.89156026
 11
10.6679781952
 21
9.8915602849
  0
LINE
  5
250
100
AcDbEntity
  8
0
100
AcDbLine
 62
7
  6
CONTINUOUS
 10
18.3038183383
 20
10.2102278081
 11
18.2238183383
 21
10.2102278081
  0
LINE
  5
251
100
AcDbEntity
  8
0
100
AcDbLine
 62
7
  6
CONTINUOUS
 10
15.9348183383
 20
10.2102278081
 11
15.8298183383
 21
10.2102278081
  0
LINE
  5
252
100
AcDbEntity
  8
0
100
AcDbLine
 62
7
  6
CONTINUOUS
 10
3.7908183383
 20
10.2102278081
 11
3.8708183383
 21
10.2102278081
  0
LINE
  5
253
100
AcDbEntity
  8
0
100
AcDbLine
 62
7
  6
CONTINUOUS
 10
6.1598183383
 20
10.2102278081
 11
6.2648183383
 21
10.2102278081
  0
LINE
  5
254
100
AcDbEntity
  8
0
100
AcDbLine
 62
7
  6
CONTINUOUS
 10
15.6298183383
 20
10.2947278081
 11
15.5698183383
 21
10.2947278081
  0
LINE
  5
255
100
AcDbEntity
  8
0
100
AcDbLine
 62
7
  6
CONTINUOUS
 10
6.4648183383
 20
10.2947278081
 11
6.5248183383
 21
10.2947278081
  0
LINE
  5
256
100
AcDbEntity
  8
0
100
AcDbLine
 62
7
  6
CONTINUOUS
 10
7.5840080872
 20
10.2957278081
 11
7.5698183383
 21
10.2957278081
  0
LINE
  5
257
100
AcDbEntity
  8
0
100
AcDbLine
 62
7
  6
CONTINUOUS
 10
14.5106285893
 20
10.2957278081
 11
14.5248183383
 21
10.2957278081
  0
LINE
  5
258
100
AcDbEntity
  8
0
100
AcDbLine
 62
7
  6
CONTINUOUS
 10
6.7823183383
 20
10.4067278081
 11
6.8553183383
 21
10.4067278081
  0
LINE
  5
259
100
AcDbEntity
  8
0
100
AcDbLine
 62
7
  6
CONTINUOUS
 10
6.8723183383
 20
10.4067278081
 11
6.9453183383
 21
10.4067278081
  0
LINE
  5
25A
100
AcDbEntity
  8
0
100
AcDbLine
 62
7
  6
CONTINUOUS
 10
7.1853183383
 20
10.4067278081
 11
7.2583183383
 21
10.4067278081
  0
LINE
  5
25B
100
AcDbEntity
  8
0
100
AcDbLine
 62
7
  6
CONTINUOUS
 10
15.0573183383
 20
10.4067278081
 11
15.2067966813
 21
10.4067278081
  0
LINE
  5
25C
100
AcDbEntity
  8
0
100
AcDbLine
 62
7
  6
CONTINUOUS
 10
15.2373183383
 20
10.4067278081
 11
15.3218183383
 21
10.4067278081
  0
LINE
  5
25D
100
AcDbEntity
  8
0
100
AcDbLine
 62
9
  6
CONTINUOUS
 10
14.1378565959
 20
10.6967645288
 11
14.1378565959
 21
10.2866910874
  0
LINE
  5
25E
100
AcDbEntity
  8
0
100
AcDbLine
 62
9
  6
CONTINUOUS
 10
14.1870226659
 20
10.3209904507
 11
14.1870226659
 21
10.6624651655
  0
LINE
  5
25F
100
AcDbEntity
  8
0
100
AcDbLine
 62
7
  6
CONTINUOUS
 10
14.2117045952
 20
10.3117278081
 11
14.2117045952
 21
10.6717278081
  0
LINE
  5
260
100
AcDbEntity
  8
0
100
AcDbLine
 62
9
  6
CONTINUOUS
 10
14.2386785374
 20
10.3000842437
 11
14.2386785374
 21
10.6833713725
  0
LINE
  5
261
100
AcDbEntity
  8
0
100
AcDbLine
 62
9
  6
CONTINUOUS
 10
14.4900031601
 20
10.6798706587
 11
14.4900031601
 21
10.4944449294
  0
LINE
  5
262
100
AcDbEntity
  8
0
100
AcDbLine
 62
9
  6
CONTINUOUS
 10
14.4900031601
 20
10.4890454483
 11
14.4900031601
 21
10.3035849574
  0
LINE
  5
263
100
AcDbEntity
  8
0
100
AcDbLine
 62
9
  6
CONTINUOUS
 10
14.5106285893
 20
10.6877278081
 11
14.5106285893
 21
10.6424257394
  0
LINE
  5
264
100
AcDbEntity
  8
0
100
AcDbLine
 62
9
  6
CONTINUOUS
 10
14.5106285893
 20
10.3410623759
 11
14.5106285893
 21
10.2957278081
  0
LINE
  5
265
100
AcDbEntity
  8
0
100
AcDbLine
 62
7
  6
CONTINUOUS
 10
18.3038183383
 20
10.2102278081
 11
18.3238183383
 21
10.2302278081
  0
LINE
  5
266
100
AcDbEntity
  8
0
100
AcDbLine
 62
7
  6
CONTINUOUS
 10
15.1688183383
 20
10.4294984529
 11
15.1448183383
 21
10.4294984529
  0
LINE
  5
267
100
AcDbEntity
  8
0
100
AcDbLine
 62
7
  6
CONTINUOUS
 10
15.3174631264
 20
10.4307278081
 11
15.2896002186
 21
10.4307278081
  0
LINE
  5
268
100
AcDbEntity
  8
0
100
AcDbLine
 62
7
  6
CONTINUOUS
 10
6.8448183383
 20
10.4877278081
 11
6.8828183383
 21
10.4877278081
  0
LINE
  5
269
100
AcDbEntity
  8
0
100
AcDbLine
 62
7
  6
CONTINUOUS
 10
6.8818183383
 20
10.5052834324
 11
6.8458183383
 21
10.5052834324
  0
LINE
  5
26A
100
AcDbEntity
  8
0
100
AcDbLine
 62
7
  6
CONTINUOUS
 10
15.2896002186
 20
10.5577278081
 11
15.3174631264
 21
10.5577278081
  0
LINE
  5
26B
100
AcDbEntity
  8
0
100
AcDbLine
 62
7
  6
CONTINUOUS
 10
7.1750156038
 20
10.5578278081
 11
7.2008183383
 21
10.5578278081
  0
LINE
  5
26C
100
AcDbEntity
  8
0
100
AcDbLine
 62
7
  6
CONTINUOUS
 10
7.2428183383
 20
10.5578278081
 11
7.2686210728
 21
10.5578278081
  0
LINE
  5
26D
100
AcDbEntity
  8
0
100
AcDbLine
 62
7
  6
CONTINUOUS
 10
15.3218183383
 20
10.5757278081
 11
15.2373183383
 21
10.5757278081
  0
LINE
  5
26E
100
AcDbEntity
  8
0
100
AcDbLine
 62
7
  6
CONTINUOUS
 10
15.1363183383
 20
10.5757278081
 11
15.0573183383
 21
10.5757278081
  0
LINE
  5
26F
100
AcDbEntity
  8
0
100
AcDbLine
 62
7
  6
CONTINUOUS
 10
14.8503183383
 20
10.5757278081
 11
14.8323183383
 21
10.5757278081
  0
LINE
  5
270
100
AcDbEntity
  8
0
100
AcDbLine
 62
7
  6
CONTINUOUS
 10
7.2973183383
 20
10.5757278081
 11
7.1463183383
 21
10.5757278081
  0
LINE
  5
271
100
AcDbEntity
  8
0
100
AcDbLine
 62
7
  6
CONTINUOUS
 10
6.9453183383
 20
10.5757278081
 11
6.8723183383
 21
10.5757278081
  0
LINE
  5
272
100
AcDbEntity
  8
0
100
AcDbLine
 62
7
  6
CONTINUOUS
 10
6.8553183383
 20
10.5757278081
 11
6.7823183383
 21
10.5757278081
  0
LINE
  5
273
100
AcDbEntity
  8
0
100
AcDbLine
 62
7
  6
CONTINUOUS
 10
7.5840080872
 20
10.6877278081
 11
7.5698183383
 21
10.6877278081
  0
LINE
  5
274
100
AcDbEntity
  8
0
100
AcDbLine
 62
7
  6
CONTINUOUS
 10
14.5106285893
 20
10.6877278081
 11
14.5248183383
 21
10.6877278081
  0
LINE
  5
275
100
AcDbEntity
  8
0
100
AcDbLine
 62
7
  6
CONTINUOUS
 10
15.6298183383
 20
10.6887278081
 11
15.5698183383
 21
10.6887278081
  0
LINE
  5
276
100
AcDbEntity
  8
0
100
AcDbLine
 62
7
  6
CONTINUOUS
 10
6.4648183383
 20
10.6887278081
 11
6.5248183383
 21
10.6887278081
  0
LINE
  5
277
100
AcDbEntity
  8
0
100
AcDbLine
 62
7
  6
CONTINUOUS
 10
18.3038183383
 20
10.7732278081
 11
18.2238183383
 21
10.7732278081
  0
LINE
  5
278
100
AcDbEntity
  8
0
100
AcDbLine
 62
7
  6
CONTINUOUS
 10
15.9348183383
 20
10.7732278081
 11
15.8298183383
 21
10.7732278081
  0
LINE
  5
279
100
AcDbEntity
  8
0
100
AcDbLine
 62
7
  6
CONTINUOUS
 10
3.7908183383
 20
10.7732278081
 11
3.8708183383
 21
10.7732278081
  0
LINE
  5
27A
100
AcDbEntity
  8
0
100
AcDbLine
 62
7
  6
CONTINUOUS
 10
6.1598183383
 20
10.7732278081
 11
6.2648183383
 21
10.7732278081
  0
LINE
  5
27B
100
AcDbEntity
  8
0
100
AcDbLine
 62
7
  6
CONTINUOUS
 10
15.0573183383
 20
10.5757278081
 11
15.0573183383
 21
10.5577278081
  0
LINE
  5
27C
100
AcDbEntity
  8
0
100
AcDbLine
 62
7
  6
CONTINUOUS
 10
15.0573183383
 20
10.4307278081
 11
15.0573183383
 21
10.4067278081
  0
LINE
  5
27D
100
AcDbEntity
  8
0
100
AcDbLine
 62
7
  6
CONTINUOUS
 10
15.0788183383
 20
10.5289571633
 11
15.0788183383
 21
10.4594984529
  0
LINE
  5
27E
100
AcDbEntity
  8
0
100
AcDbLine
 62
7
  6
CONTINUOUS
 10
15.1148183383
 20
10.4594984529
 11
15.1148183383
 21
10.5289571633
  0
LINE
  5
27F
100
AcDbEntity
  8
0
100
AcDbLine
 62
7
  6
CONTINUOUS
 10
15.2067966813
 20
10.4067278081
 11
15.2163183383
 21
10.4607278081
  0
LINE
  5
280
100
AcDbEntity
  8
0
100
AcDbLine
 62
7
  6
CONTINUOUS
 10
6.6682889864
 20
11.1482278081
 11
7.4263474303
 21
11.1482278081
  0
LINE
  5
281
100
AcDbEntity
  8
0
100
AcDbLine
 62
7
  6
CONTINUOUS
 10
14.6682889864
 20
11.1482278081
 11
15.4263474303
 21
11.1482278081
  0
LINE
  5
282
100
AcDbEntity
  8
0
100
AcDbLine
 62
7
  6
CONTINUOUS
 10
10.8448183383
 20
11.1722377272
 11
11.2498183383
 21
11.1722377272
  0
LINE
  5
283
100
AcDbEntity
  8
0
100
AcDbLine
 62
9
  6
CONTINUOUS
 10
11.2498183383
 20
11.3262377272
 11
10.8448183383
 21
11.3262377272
  0
LINE
  5
284
100
AcDbEntity
  8
0
100
AcDbLine
 62
9
  6
CONTINUOUS
 10
10.8651964685
 20
11.3644413892
 11
11.2294402081
 21
11.3644413892
  0
LINE
  5
285
100
AcDbEntity
  8
0
100
AcDbLine
 62
9
  6
CONTINUOUS
 10
10.8757034065
 20
11.5331381059
 11
11.21893327
 21
11.5331381059
  0
LINE
  5
286
100
AcDbEntity
  8
0
100
AcDbLine
 62
9
  6
CONTINUOUS
 10
10.8688183383
 20
11.5482377272
 11
11.2258183383
 21
11.5482377272
  0
LINE
  5
287
100
AcDbEntity
  8
0
100
AcDbLine
 62
7
  6
CONTINUOUS
 10
15.4063183383
 20
10.4912278081
 11
15.406316859
 21
10.4917278081
  0
LINE
  5
288
100
AcDbEntity
  8
0
100
AcDbLine
 62
7
  6
CONTINUOUS
 10
15.1363183383
 20
10.5577278081
 11
15.1363183383
 21
10.5757278081
  0
LINE
  5
289
100
AcDbEntity
  8
0
100
AcDbLine
 62
7
  6
CONTINUOUS
 10
15.2373183383
 20
10.5757278081
 11
15.2373183383
 21
10.5577278081
  0
LINE
  5
28A
100
AcDbEntity
  8
0
100
AcDbLine
 62
7
  6
CONTINUOUS
 10
15.2373183383
 20
10.4307278081
 11
15.2373183383
 21
10.4067278081
  0
LINE
  5
28B
100
AcDbEntity
  8
0
100
AcDbLine
 62
7
  6
CONTINUOUS
 10
15.2473183383
 20
10.5416032926
 11
15.2473183383
 21
10.4468523236
  0
LINE
  5
28C
100
AcDbEntity
  8
0
100
AcDbLine
 62
7
  6
CONTINUOUS
 10
15.2836002186
 20
10.5517278081
 11
15.2836002186
 21
10.4367278081
  0
LINE
  5
28D
100
AcDbEntity
  8
0
100
AcDbLine
 62
7
  6
CONTINUOUS
 10
15.6298183383
 20
10.2947278081
 11
15.6298183383
 21
10.6887278081
  0
LINE
  5
28E
100
AcDbEntity
  8
0
100
AcDbLine
 62
7
  6
CONTINUOUS
 10
10.8263183383
 20
11.5792377272
 11
11.2683183383
 21
11.5792377272
  0
LINE
  5
28F
100
AcDbEntity
  8
0
100
AcDbLine
 62
9
  6
CONTINUOUS
 10
10.7663183383
 20
11.6392377272
 11
11.3283183383
 21
11.6392377272
  0
LINE
  5
290
100
AcDbEntity
  8
0
100
AcDbLine
 62
9
  6
CONTINUOUS
 10
11.3283183383
 20
11.6752377272
 11
10.7663183383
 21
11.6752377272
  0
LINE
  5
291
100
AcDbEntity
  8
0
100
AcDbLine
 62
7
  6
CONTINUOUS
 10
11.2683183383
 20
11.7352377272
 11
10.8263183383
 21
11.7352377272
  0
LINE
  5
292
100
AcDbEntity
  8
0
100
AcDbLine
 62
7
  6
CONTINUOUS
 10
11.1603617755
 20
11.8222377272
 11
10.934274901
 21
11.8222377272
  0
LINE
  5
293
100
AcDbEntity
  8
0
100
AcDbLine
 62
7
  6
CONTINUOUS
 10
15.8298183383
 20
10.2102278081
 11
15.6298183383
 21
10.2947278081
  0
LINE
  5
294
100
AcDbEntity
  8
0
100
AcDbLine
 62
7
  6
CONTINUOUS
 10
14.8663183383
 20
10.4606501103
 11
14.8497682267
 21
10.4677278081
  0
LINE
  5
295
100
AcDbEntity
  8
0
100
AcDbLine
 62
7
  6
CONTINUOUS
 10
14.1378565959
 20
10.6967645288
 11
14.1870226659
 21
10.6624651655
  0
LINE
  5
296
100
AcDbEntity
  8
0
100
AcDbLine
 62
7
  6
CONTINUOUS
 10
14.6682871352
 20
9.8352291095
 11
14.3708577955
 21
10.3503918375
  0
LINE
  5
297
100
AcDbEntity
  8
0
100
AcDbLine
 62
7
  6
CONTINUOUS
 10
14.8663183383
 20
10.5196679024
 11
14.8503183383
 21
10.5757278081
  0
LINE
  5
298
100
AcDbEntity
  8
0
100
AcDbLine
 62
7
  6
CONTINUOUS
 10
15.8298183383
 20
10.7732278081
 11
15.8298183383
 21
10.2102278081
  0
LINE
  5
299
100
AcDbEntity
  8
0
100
AcDbLine
 62
7
  6
CONTINUOUS
 10
15.9348183383
 20
10.2102278081
 11
15.9348183383
 21
10.7732278081
  0
LINE
  5
29A
100
AcDbEntity
  8
0
100
AcDbLine
 62
7
  6
CONTINUOUS
 10
15.2163183383
 20
10.4607278081
 11
15.207763275
 21
10.4659057316
  0
LINE
  5
29B
100
AcDbEntity
  8
0
100
AcDbLine
 62
7
  6
CONTINUOUS
 10
15.4263494697
 20
11.1482266308
 11
15.6795179806
 21
10.709725907
  0
LINE
  5
29C
100
AcDbEntity
  8
0
100
AcDbLine
 62
7
  6
CONTINUOUS
 10
18.2238183383
 20
10.7732278081
 11
18.2238183383
 21
10.2102278081
  0
LINE
  5
29D
100
AcDbEntity
  8
0
100
AcDbLine
 62
7
  6
CONTINUOUS
 10
18.3038183383
 20
10.2102278081
 11
18.3038183383
 21
10.7732278081
  0
LINE
  5
29E
100
AcDbEntity
  8
0
100
AcDbLine
 62
7
  6
CONTINUOUS
 10
18.3238183383
 20
10.2302278081
 11
18.3238183383
 21
10.7532278081
  0
LINE
  5
29F
100
AcDbEntity
  8
0
100
AcDbLine
 62
7
  6
CONTINUOUS
 10
18.3038183383
 20
10.7732278081
 11
18.3238183383
 21
10.7532278081
  0
ARC
  5
2A0
100
AcDbEntity
  8
0
100
AcDbCircle
 62
7
  6
CONTINUOUS
 10
11.045148654
 20
3.6101361678
 40
0.3128300617
100
AcDbArc
 50
174.074844027
 51
179.9972568289
  0
ARC
  5
2A1
100
AcDbEntity
  8
0
100
AcDbCircle
 62
7
  6
CONTINUOUS
 10
11.0451305614
 20
3.6018546014
 40
0.3128122118
100
AcDbArc
 50
174.256299811
 51
178.4872328913
  0
ARC
  5
2A2
100
AcDbEntity
  8
0
100
AcDbCircle
 62
7
  6
CONTINUOUS
 10
11.0466443199
 20
3.6105043775
 40
0.3122420093
100
AcDbArc
 50
263.0011444232
 51
263.2897995226
  0
ARC
  5
2A3
100
AcDbEntity
  8
0
100
AcDbCircle
 62
7
  6
CONTINUOUS
 10
11.0453847789
 20
3.601906801
 40
0.3115666997
100
AcDbArc
 50
180.5311693643
 51
188.5726690052
  0
ARC
  5
2A4
100
AcDbEntity
  8
0
100
AcDbCircle
 62
7
  6
CONTINUOUS
 10
11.045236946
 20
3.6018378968
 40
0.3114191023
100
AcDbArc
 50
176.766865926
 51
177.6658056351
  0
ARC
  5
2A5
100
AcDbEntity
  8
0
100
AcDbCircle
 62
7
  6
CONTINUOUS
 10
11.0456267273
 20
3.6070289679
 40
0.3110626149
100
AcDbArc
 50
214.1126492842
 51
225.4571276866
  0
ARC
  5
2A6
100
AcDbEntity
  8
0
100
AcDbCircle
 62
7
  6
CONTINUOUS
 10
11.0448736032
 20
3.6018526909
 40
0.3110554584
100
AcDbArc
 50
177.6658026059
 51
178.4999717062
  0
ARC
  5
2A7
100
AcDbEntity
  8
0
100
AcDbCircle
 62
7
  6
CONTINUOUS
 10
11.0443829282
 20
3.6018650478
 40
0.3105646258
100
AcDbArc
 50
178.7173876135
 51
179.2063453032
  0
ARC
  5
2A8
100
AcDbEntity
  8
0
100
AcDbCircle
 62
9
  6
CONTINUOUS
 10
11.0453596971
 20
3.6095642863
 40
0.310540172
100
AcDbArc
 50
180.0043070375
 51
180.7386330594
  0
ARC
  5
2A9
100
AcDbEntity
  8
0
100
AcDbCircle
 62
7
  6
CONTINUOUS
 10
11.043982756
 20
3.6018701932
 40
0.3101644201
100
AcDbArc
 50
179.3110093162
 51
179.7995767203
  0
ARC
  5
2AA
100
AcDbEntity
  8
0
100
AcDbCircle
 62
7
  6
CONTINUOUS
 10
11.0438690565
 20
3.6018717817
 40
0.3100507185
100
AcDbArc
 50
180.0516242032
 51
180.5272949038
  0
ARC
  5
2AB
100
AcDbEntity
  8
0
100
AcDbCircle
 62
7
  6
CONTINUOUS
 10
11.0446483299
 20
3.6030937563
 40
0.3098588612
100
AcDbArc
 50
193.2368763814
 51
203.5869016605
  0
ARC
  5
2AC
100
AcDbEntity
  8
0
100
AcDbCircle
 62
7
  6
CONTINUOUS
 10
11.0444522146
 20
3.6029451881
 40
0.309635437
100
AcDbArc
 50
182.5236820992
 51
188.3397764331
  0
ARC
  5
2AD
100
AcDbEntity
  8
0
100
AcDbCircle
 62
7
  6
CONTINUOUS
 10
11.0443762384
 20
3.6029333067
 40
0.3095585409
100
AcDbArc
 50
188.3396402077
 51
189.1967716447
  0
ARC
  5
2AE
100
AcDbEntity
  8
0
100
AcDbCircle
 62
7
  6
CONTINUOUS
 10
11.0442620894
 20
3.6087949946
 40
0.3094426083
100
AcDbArc
 50
180.0044877852
 51
180.5992254166
  0
ARC
  5
2AF
100
AcDbEntity
  8
0
100
AcDbCircle
 62
7
  6
CONTINUOUS
 10
11.0441945559
 20
3.606132302
 40
0.3093752411
100
AcDbArc
 50
180.3407154156
 51
180.7035580339
  0
ARC
  5
2B0
100
AcDbEntity
  8
0
100
AcDbCircle
 62
7
  6
CONTINUOUS
 10
11.0441948849
 20
3.6060101651
 40
0.3093057762
100
AcDbArc
 50
213.3019483605
 51
214.1051478733
  0
ARC
  5
2B1
100
AcDbEntity
  8
0
100
AcDbCircle
 62
7
  6
CONTINUOUS
 10
11.0441130281
 20
3.6061318122
 40
0.3092937118
100
AcDbArc
 50
180.0039923337
 51
180.3407144907
  0
ARC
  5
2B2
100
AcDbEntity
  8
0
100
AcDbCircle
 62
7
  6
CONTINUOUS
 10
11.0440909116
 20
3.602886446
 40
0.3092693924
100
AcDbArc
 50
189.1966501629
 51
190.7965258452
  0
ARC
  5
2B3
100
AcDbEntity
  8
0
100
AcDbCircle
 62
7
  6
CONTINUOUS
 10
11.0440024845
 20
3.6061318563
 40
0.3091831682
100
AcDbArc
 50
179.5113262151
 51
180.0040019293
  0
ARC
  5
2B4
100
AcDbEntity
  8
0
100
AcDbCircle
 62
7
  6
CONTINUOUS
 10
11.043481568
 20
3.6028917153
 40
0.3086633774
100
AcDbArc
 50
181.3010861077
 51
182.5216994078
  0
ARC
  5
2B5
100
AcDbEntity
  8
0
100
AcDbCircle
 62
7
  6
CONTINUOUS
 10
11.0434354222
 20
3.6027605228
 40
0.3086019178
100
AcDbArc
 50
190.7963574859
 51
192.7933280405
  0
ARC
  5
2B6
100
AcDbEntity
  8
0
100
AcDbCircle
 62
7
  6
CONTINUOUS
 10
11.0430433419
 20
3.6028809808
 40
0.3082250206
100
AcDbArc
 50
180.698142253
 51
181.300940875
  0
ARC
  5
2B7
100
AcDbEntity
  8
0
100
AcDbCircle
 62
7
  6
CONTINUOUS
 10
11.0429234633
 20
3.6026475543
 40
0.3080776537
100
AcDbArc
 50
193.0185339854
 51
193.2295503844
  0
ARC
  5
2B8
100
AcDbEntity
  8
0
100
AcDbCircle
 62
7
  6
CONTINUOUS
 10
11.0428885268
 20
3.6026393986
 40
0.308041778
100
AcDbArc
 50
192.7938831407
 51
193.0185198259
  0
ARC
  5
2B9
100
AcDbEntity
  8
0
100
AcDbCircle
 62
7
  6
CONTINUOUS
 10
11.0428377987
 20
3.6028758287
 40
0.3080194539
100
AcDbArc
 50
179.5100803757
 51
179.7498755142
  0
ARC
  5
2BA
100
AcDbEntity
  8
0
100
AcDbCircle
 62
7
  6
CONTINUOUS
 10
11.0427534232
 20
3.6028773404
 40
0.3079350791
100
AcDbArc
 50
180.226238437
 51
180.6981222352
  0
ARC
  5
2BB
100
AcDbEntity
  8
0
100
AcDbCircle
 62
7
  6
CONTINUOUS
 10
11.042696832
 20
3.60287644
 40
0.3078784859
100
AcDbArc
 50
179.7498747513
 51
179.9988847701
  0
ARC
  5
2BC
100
AcDbEntity
  8
0
100
AcDbCircle
 62
7
  6
CONTINUOUS
 10
11.0425872264
 20
3.6028764945
 40
0.3077688803
100
AcDbArc
 50
179.9988945045
 51
180.2262031277
  0
ARC
  5
2BD
100
AcDbEntity
  8
0
100
AcDbCircle
 62
7
  6
CONTINUOUS
 10
4.0483391716
 20
10.4917278081
 40
0.3735208333
100
AcDbArc
 50
137.9864211384
 51
222.0135788616
  0
ARC
  5
2BE
100
AcDbEntity
  8
0
100
AcDbCircle
 62
7
  6
CONTINUOUS
 10
7.1678183383
 20
10.4621881005
 40
0.036
100
AcDbArc
 50
299.0852950607
 51
360.0
  0
ARC
  5
2BF
100
AcDbEntity
  8
0
100
AcDbCircle
 62
7
  6
CONTINUOUS
 10
7.2758183383
 20
10.4621881005
 40
0.036
100
AcDbArc
 50
180.0
 51
240.9147049393
  0
ARC
  5
2C0
100
AcDbEntity
  8
0
100
AcDbCircle
 62
7
  6
CONTINUOUS
 10
6.7748183383
 20
10.4535258343
 40
0.024
100
AcDbArc
 50
288.2099568643
 51
360.0
  0
ARC
  5
2C1
100
AcDbEntity
  8
0
100
AcDbCircle
 62
7
  6
CONTINUOUS
 10
6.8628183383
 20
10.4535258343
 40
0.024
100
AcDbArc
 50
180.0
 51
251.7900431357
  0
ARC
  5
2C2
100
AcDbEntity
  8
0
100
AcDbCircle
 62
7
  6
CONTINUOUS
 10
6.8648183383
 20
10.4535258343
 40
0.024
100
AcDbArc
 50
288.2099568643
 51
360.0
  0
ARC
  5
2C3
100
AcDbEntity
  8
0
100
AcDbCircle
 62
7
  6
CONTINUOUS
 10
6.9528183383
 20
10.4535258343
 40
0.024
100
AcDbArc
 50
180.0
 51
251.7900431357
  0
ARC
  5
2C4
100
AcDbEntity
  8
0
100
AcDbCircle
 62
7
  6
CONTINUOUS
 10
7.0473183383
 20
10.4917278081
 40
1.18
100
AcDbArc
 50
193.5048975417
 51
348.8710849091
  0
ARC
  5
2C5
100
AcDbEntity
  8
0
100
AcDbCircle
 62
7
  6
CONTINUOUS
 10
7.0473183383
 20
10.4917278081
 40
1.18
100
AcDbArc
 50
11.1286550955
 51
166.4946065741
  0
ARC
  5
2C6
100
AcDbEntity
  8
0
100
AcDbCircle
 62
7
  6
CONTINUOUS
 10
7.0473183383
 20
10.4917278081
 40
1.0000026738
100
AcDbArc
 50
13.6396977771
 51
163.7571252905
  0
ARC
  5
2C7
100
AcDbEntity
  8
0
100
AcDbCircle
 62
7
  6
CONTINUOUS
 10
7.0473183383
 20
10.4917278081
 40
1.0000026738
100
AcDbArc
 50
196.2428747096
 51
346.3603022229
  0
ARC
  5
2C8
100
AcDbEntity
  8
0
100
AcDbCircle
 62
9
  6
CONTINUOUS
 10
7.0473183383
 20
10.4917278081
 40
0.8130026738
100
AcDbArc
 50
12.6416718384
 51
160.2916690823
  0
ARC
  5
2C9
100
AcDbEntity
  8
0
100
AcDbCircle
 62
9
  6
CONTINUOUS
 10
7.0473183383
 20
10.4917278081
 40
0.8130026738
100
AcDbArc
 50
199.7089318976
 51
347.3577269641
  0
ARC
  5
2CA
100
AcDbEntity
  8
0
100
AcDbCircle
 62
7
  6
CONTINUOUS
 10
7.0473183383
 20
10.4917278081
 40
0.741
100
AcDbArc
 50
122.6316076561
 51
160.6023681347
  0
ARC
  5
2CB
100
AcDbEntity
  8
0
100
AcDbCircle
 62
7
  6
CONTINUOUS
 10
7.0473183383
 20
10.4917278081
 40
0.741
100
AcDbArc
 50
62.6291242566
 51
117.3669832926
  0
ARC
  5
2CC
100
AcDbEntity
  8
0
100
AcDbCircle
 62
7
  6
CONTINUOUS
 10
7.0473183383
 20
10.4917278081
 40
0.741
100
AcDbArc
 50
11.4444572616
 51
57.3645520063
  0
ARC
  5
2CD
100
AcDbEntity
  8
0
100
AcDbCircle
 62
7
  6
CONTINUOUS
 10
7.0473183383
 20
10.4917278081
 40
0.741
100
AcDbArc
 50
302.6316076561
 51
348.5550587745
  0
ARC
  5
2CE
100
AcDbEntity
  8
0
100
AcDbCircle
 62
7
  6
CONTINUOUS
 10
7.0473183383
 20
10.4917278081
 40
0.741
100
AcDbArc
 50
242.6291242566
 51
297.3669832926
  0
ARC
  5
2CF
100
AcDbEntity
  8
0
100
AcDbCircle
 62
7
  6
CONTINUOUS
 10
7.0473183383
 20
10.4917278081
 40
0.741
100
AcDbArc
 50
199.398087132
 51
237.3645520063
  0
ARC
  5
2D0
100
AcDbEntity
  8
0
100
AcDbCircle
 62
7
  6
CONTINUOUS
 10
7.0473183383
 20
10.4917278081
 40
0.6515
100
AcDbArc
 50
13.1313488763
 51
161.0837692075
  0
ARC
  5
2D1
100
AcDbEntity
  8
0
100
AcDbCircle
 62
7
  6
CONTINUOUS
 10
7.0473183383
 20
10.4917278081
 40
0.6515
100
AcDbArc
 50
198.9162307925
 51
346.8686511237
  0
ARC
  5
2D2
100
AcDbEntity
  8
0
100
AcDbCircle
 62
9
  6
CONTINUOUS
 10
7.0473183383
 20
10.4917278081
 40
0.6146339942
100
AcDbArc
 50
198.737311262
 51
344.4659737881
  0
ARC
  5
2D3
100
AcDbEntity
  8
0
100
AcDbCircle
 62
9
  6
CONTINUOUS
 10
7.0473183383
 20
10.4917278081
 40
0.6146339942
100
AcDbArc
 50
15.5340262119
 51
161.262688738
  0
CIRCLE
  5
2D4
100
AcDbEntity
  8
0
100
AcDbCircle
 62
7
  6
CONTINUOUS
 10
7.0473183383
 20
10.4917278081
 40
0.5575
  0
CIRCLE
  5
2D5
100
AcDbEntity
  8
0
100
AcDbCircle
 62
7
  6
CONTINUOUS
 10
7.0473183383
 20
10.4917278081
 40
0.5291923153
  0
CIRCLE
  5
2D6
100
AcDbEntity
  8
0
100
AcDbCircle
 62
7
  6
CONTINUOUS
 10
7.0473183383
 20
10.4917278081
 40
0.5275
  0
CIRCLE
  5
2D7
100
AcDbEntity
  8
0
100
AcDbCircle
 62
7
  6
CONTINUOUS
 10
7.0473183383
 20
10.4917278081
 40
0.5052804212
  0
CIRCLE
  5
2D8
100
AcDbEntity
  8
0
100
AcDbCircle
 62
7
  6
CONTINUOUS
 10
7.0473183383
 20
10.4917278081
 40
0.4545099561
  0
CIRCLE
  5
2D9
100
AcDbEntity
  8
0
100
AcDbCircle
 62
7
  6
CONTINUOUS
 10
7.0473183383
 20
10.4917278081
 40
0.4275
  0
CIRCLE
  5
2DA
100
AcDbEntity
  8
0
100
AcDbCircle
 62
7
  6
CONTINUOUS
 10
7.0473183383
 20
10.4917278081
 40
0.4175
  0
CIRCLE
  5
2DB
100
AcDbEntity
  8
0
100
AcDbCircle
 62
9
  6
CONTINUOUS
 10
7.0473183383
 20
10.4917278081
 40
0.3951446396
  0
ARC
  5
2DC
100
AcDbEntity
  8
0
100
AcDbCircle
 62
7
  6
CONTINUOUS
 10
6.8448183383
 20
10.4817278081
 40
0.006
100
AcDbArc
 50
90.0
 51
180.0
  0
ARC
  5
2DD
100
AcDbEntity
  8
0
100
AcDbCircle
 62
7
  6
CONTINUOUS
 10
6.8828183383
 20
10.4817278081
 40
0.006
100
AcDbArc
 50
0.0
 51
90.0
  0
ARC
  5
2DE
100
AcDbEntity
  8
0
100
AcDbCircle
 62
7
  6
CONTINUOUS
 10
7.2686210728
 20
10.516515824
 40
0.0413119841
100
AcDbArc
 50
44.9999999999
 51
90.0
  0
ARC
  5
2DF
100
AcDbEntity
  8
0
100
AcDbCircle
 62
7
  6
CONTINUOUS
 10
7.1750156038
 20
10.516515824
 40
0.0413119841
100
AcDbArc
 50
90.0
 51
135.0
  0
ARC
  5
2E0
100
AcDbEntity
  8
0
100
AcDbCircle
 62
7
  6
CONTINUOUS
 10
6.7748183383
 20
10.5349297819
 40
0.024
100
AcDbArc
 50
0.0
 51
71.7900431357
  0
ARC
  5
2E1
100
AcDbEntity
  8
0
100
AcDbCircle
 62
7
  6
CONTINUOUS
 10
6.9528183383
 20
10.5349297819
 40
0.024
100
AcDbArc
 50
108.2099568643
 51
180.0
  0
ARC
  5
2E2
100
AcDbEntity
  8
0
100
AcDbCircle
 62
7
  6
CONTINUOUS
 10
6.8638183383
 20
10.5352834324
 40
0.024
100
AcDbArc
 50
0.0
 51
69.2576200455
  0
ARC
  5
2E3
100
AcDbEntity
  8
0
100
AcDbCircle
 62
7
  6
CONTINUOUS
 10
6.8638183383
 20
10.5352834324
 40
0.024
100
AcDbArc
 50
110.7423799545
 51
180.0
  0
ARC
  5
2E4
100
AcDbEntity
  8
0
100
AcDbCircle
 62
7
  6
CONTINUOUS
 10
6.8818183383
 20
10.5112834324
 40
0.006
100
AcDbArc
 50
270.0
 51
360.0
  0
ARC
  5
2E5
100
AcDbEntity
  8
0
100
AcDbCircle
 62
7
  6
CONTINUOUS
 10
6.8458183383
 20
10.5112834324
 40
0.006
100
AcDbArc
 50
180.0
 51
270.0
  0
ARC
  5
2E6
100
AcDbEntity
  8
0
100
AcDbCircle
 62
7
  6
CONTINUOUS
 10
7.2428183383
 20
10.5548278081
 40
0.003
100
AcDbArc
 50
90.0
 51
180.0
  0
ARC
  5
2E7
100
AcDbEntity
  8
0
100
AcDbCircle
 62
7
  6
CONTINUOUS
 10
7.2008183383
 20
10.5548278081
 40
0.003
100
AcDbArc
 50
0.0
 51
90.0
  0
ARC
  5
2E8
100
AcDbEntity
  8
0
100
AcDbCircle
 62
7
  6
CONTINUOUS
 10
11.0473181152
 20
10.4917280665
 40
0.7099997651
100
AcDbArc
 50
302.2952366532
 51
73.4284995057
  0
ARC
  5
2E9
100
AcDbEntity
  8
0
100
AcDbCircle
 62
7
  6
CONTINUOUS
 10
8.0998183383
 20
10.4917278081
 40
0.25
100
AcDbArc
 50
235.0995
 51
124.9005
  0
ARC
  5
2EA
100
AcDbEntity
  8
0
100
AcDbCircle
 62
7
  6
CONTINUOUS
 10
7.7283860602
 20
10.1647278081
 40
0.186
100
AcDbArc
 50
46.6958241996
 51
131.7081272482
  0
ARC
  5
2EB
100
AcDbEntity
  8
0
100
AcDbCircle
 62
7
  6
CONTINUOUS
 10
10.6343183383
 20
9.8383060454
 40
0.063
100
AcDbArc
 50
303.20382253
 51
57.7047672559
  0
ARC
  5
2EC
100
AcDbEntity
  8
0
100
AcDbCircle
 62
7
  6
CONTINUOUS
 10
10.7033183383
 20
9.732878345
 40
0.063
100
AcDbArc
 50
123.20382253
 51
180.0
  0
ARC
  5
2ED
100
AcDbEntity
  8
0
100
AcDbCircle
 62
7
  6
CONTINUOUS
 10
10.6403183383
 20
9.2747377272
 40
0.0625
100
AcDbArc
 50
90.0
 51
270.0
  0
ARC
  5
2EE
100
AcDbEntity
  8
0
100
AcDbCircle
 62
7
  6
CONTINUOUS
 10
7.584008084
 20
10.3267278081
 40
0.031
100
AcDbArc
 50
270.0
 51
311.7081482759
  0
ARC
  5
2EF
100
AcDbEntity
  8
0
100
AcDbCircle
 62
7
  6
CONTINUOUS
 10
7.8669320814
 20
10.3117278081
 40
0.016
100
AcDbArc
 50
226.6958241996
 51
360.0
  0
ARC
  5
2F0
100
AcDbEntity
  8
0
100
AcDbCircle
 62
7
  6
CONTINUOUS
 10
7.8984595621
 20
10.3078681006
 40
0.016
100
AcDbArc
 50
55.0994999999
 51
166.0407512247
  0
ARC
  5
2F1
100
AcDbEntity
  8
0
100
AcDbCircle
 62
7
  6
CONTINUOUS
 10
7.7283860602
 20
10.8187278081
 40
0.186
100
AcDbArc
 50
228.2918727518
 51
313.3041758004
  0
ARC
  5
2F2
100
AcDbEntity
  8
0
100
AcDbCircle
 62
7
  6
CONTINUOUS
 10
10.8059319695
 20
11.4528081203
 40
0.1064
100
AcDbArc
 50
303.8483853713
 51
49.0237155136
  0
ARC
  5
2F3
100
AcDbEntity
  8
0
100
AcDbCircle
 62
7
  6
CONTINUOUS
 10
10.9573183383
 20
11.7352377272
 40
0.09
100
AcDbArc
 50
104.835111582
 51
180.0
  0
ARC
  5
2F4
100
AcDbEntity
  8
0
100
AcDbCircle
 62
7
  6
CONTINUOUS
 10
10.8263183383
 20
11.6392377272
 40
0.06
100
AcDbArc
 50
180.0
 51
270.0
  0
ARC
  5
2F5
100
AcDbEntity
  8
0
100
AcDbCircle
 62
7
  6
CONTINUOUS
 10
10.8263183383
 20
11.6752377272
 40
0.06
100
AcDbArc
 50
90.0
 51
180.0
  0
ARC
  5
2F6
100
AcDbEntity
  8
0
100
AcDbCircle
 62
7
  6
CONTINUOUS
 10
10.8908183383
 20
11.3262377272
 40
0.046
100
AcDbArc
 50
123.8483853713
 51
180.0
  0
ARC
  5
2F7
100
AcDbEntity
  8
0
100
AcDbCircle
 62
7
  6
CONTINUOUS
 10
7.584008084
 20
10.6567278081
 40
0.031
100
AcDbArc
 50
48.2918517241
 51
90.0
  0
ARC
  5
2F8
100
AcDbEntity
  8
0
100
AcDbCircle
 62
7
  6
CONTINUOUS
 10
10.8888183383
 20
11.5482377272
 40
0.02
100
AcDbArc
 50
180.0
 51
229.0237155138
  0
ARC
  5
2F9
100
AcDbEntity
  8
0
100
AcDbCircle
 62
7
  6
CONTINUOUS
 10
7.8669320814
 20
10.6717278081
 40
0.016
100
AcDbArc
 50
0.0
 51
133.3041758004
  0
ARC
  5
2FA
100
AcDbEntity
  8
0
100
AcDbCircle
 62
7
  6
CONTINUOUS
 10
7.8984595621
 20
10.6755875156
 40
0.016
100
AcDbArc
 50
193.9592487754
 51
304.9005000001
  0
ARC
  5
2FB
100
AcDbEntity
  8
0
100
AcDbCircle
 62
7
  6
CONTINUOUS
 10
11.047349565
 20
3.6129569231
 40
0.3166071092
100
AcDbArc
 50
263.2597658455
 51
269.994348953
  0
ARC
  5
2FC
100
AcDbEntity
  8
0
100
AcDbCircle
 62
7
  6
CONTINUOUS
 10
11.0494147503
 20
3.6018498106
 40
0.3129036199
100
AcDbArc
 50
1.5136925676
 51
5.9249660314
  0
ARC
  5
2FD
100
AcDbEntity
  8
0
100
AcDbCircle
 62
7
  6
CONTINUOUS
 10
11.0496954639
 20
3.6101463244
 40
0.3126226201
100
AcDbArc
 50
0.0008835511
 51
5.7449981716
  0
ARC
  5
2FE
100
AcDbEntity
  8
0
100
AcDbCircle
 62
7
  6
CONTINUOUS
 10
11.0501473634
 20
3.6101531776
 40
0.3121707212
100
AcDbArc
 50
359.4182127277
 51
359.8528839769
  0
ARC
  5
2FF
100
AcDbEntity
  8
0
100
AcDbCircle
 62
7
  6
CONTINUOUS
 10
11.0493009021
 20
3.6019020378
 40
0.3115175446
100
AcDbArc
 50
351.539398697
 51
356.2124047226
  0
ARC
  5
300
100
AcDbEntity
  8
0
100
AcDbCircle
 62
7
  6
CONTINUOUS
 10
11.0483619156
 20
3.6070109214
 40
0.3113555802
100
AcDbArc
 50
320.230854811
 51
322.0316986938
  0
ARC
  5
301
100
AcDbEntity
  8
0
100
AcDbCircle
 62
7
  6
CONTINUOUS
 10
11.0485486396
 20
3.6045133089
 40
0.3112696943
100
AcDbArc
 50
334.8706303375
 51
359.9969217044
  0
ARC
  5
302
100
AcDbEntity
  8
0
100
AcDbCircle
 62
7
  6
CONTINUOUS
 10
11.0496386387
 20
3.6018902581
 40
0.3111797653
100
AcDbArc
 50
356.2502699281
 51
359.767925509
  0
ARC
  5
303
100
AcDbEntity
  8
0
100
AcDbCircle
 62
7
  6
CONTINUOUS
 10
11.0497630733
 20
3.6018526909
 40
0.3110554584
100
AcDbArc
 50
1.500028311
 51
2.3341973941
  0
ARC
  5
304
100
AcDbEntity
  8
0
100
AcDbCircle
 62
7
  6
CONTINUOUS
 10
11.0501508638
 20
3.6018630094
 40
0.3106675304
100
AcDbArc
 50
0.9865782749
 51
1.4242298205
  0
ARC
  5
305
100
AcDbEntity
  8
0
100
AcDbCircle
 62
7
  6
CONTINUOUS
 10
11.0504466995
 20
3.6018680467
 40
0.3103716518
100
AcDbArc
 50
0.4970769271
 51
0.9865888269
  0
ARC
  5
306
100
AcDbEntity
  8
0
100
AcDbCircle
 62
7
  6
CONTINUOUS
 10
11.0498207574
 20
3.6071556484
 40
0.309997574
100
AcDbArc
 50
359.514354374
 51
0.0007971282
  0
ARC
  5
307
100
AcDbEntity
  8
0
100
AcDbCircle
 62
7
  6
CONTINUOUS
 10
11.0508374889
 20
3.6018711764
 40
0.3099808494
100
AcDbArc
 50
0.0000320472
 51
0.392830201
  0
ARC
  5
308
100
AcDbEntity
  8
0
100
AcDbCircle
 62
7
  6
CONTINUOUS
 10
11.0500047507
 20
3.6045010867
 40
0.3098135829
100
AcDbArc
 50
359.999167552
 51
0.2455108921
  0
ARC
  5
309
100
AcDbEntity
  8
0
100
AcDbCircle
 62
9
  6
CONTINUOUS
 10
11.0508720026
 20
3.6095412199
 40
0.3089463357
100
AcDbArc
 50
359.5635952842
 51
359.9999694332
  0
ARC
  5
30A
100
AcDbEntity
  8
0
100
AcDbCircle
 62
7
  6
CONTINUOUS
 10
11.4603183383
 20
9.8383060454
 40
0.063
100
AcDbArc
 50
122.2952327441
 51
236.79617747
  0
ARC
  5
30B
100
AcDbEntity
  8
0
100
AcDbCircle
 62
7
  6
CONTINUOUS
 10
11.3913183383
 20
9.732878345
 40
0.063
100
AcDbArc
 50
0.0
 51
56.79617747
  0
ARC
  5
30C
100
AcDbEntity
  8
0
100
AcDbCircle
 62
7
  6
CONTINUOUS
 10
11.4543183383
 20
9.2747377272
 40
0.0625
100
AcDbArc
 50
270.0
 51
90.0
  0
ARC
  5
30D
100
AcDbEntity
  8
0
100
AcDbCircle
 62
7
  6
CONTINUOUS
 10
11.0473183383
 20
10.4917278081
 40
1.175
100
AcDbArc
 50
290.2843613853
 51
76.1783321734
  0
ARC
  5
30E
100
AcDbEntity
  8
0
100
AcDbCircle
 62
7
  6
CONTINUOUS
 10
11.0473183383
 20
10.4917278081
 40
1.175
100
AcDbArc
 50
103.8216678266
 51
249.7156386147
  0
ARC
  5
30F
100
AcDbEntity
  8
0
100
AcDbCircle
 62
9
  6
CONTINUOUS
 10
11.0473183383
 20
10.4917278081
 40
1.145
100
AcDbArc
 50
290.8500152009
 51
76.4201168544
  0
ARC
  5
310
100
AcDbEntity
  8
0
100
AcDbCircle
 62
9
  6
CONTINUOUS
 10
11.0473183383
 20
10.4917278081
 40
1.145
100
AcDbArc
 50
103.5794922309
 51
249.1499851838
  0
ARC
  5
311
100
AcDbEntity
  8
0
100
AcDbCircle
 62
7
  6
CONTINUOUS
 10
11.0473183383
 20
10.4917278081
 40
1.0675
100
AcDbArc
 50
292.4579816471
 51
80.4243539374
  0
ARC
  5
312
100
AcDbEntity
  8
0
100
AcDbCircle
 62
7
  6
CONTINUOUS
 10
11.0473183383
 20
10.4917278081
 40
1.0675
100
AcDbArc
 50
99.5759801521
 51
247.5414306731
  0
ARC
  5
313
100
AcDbEntity
  8
0
100
AcDbCircle
 62
7
  6
CONTINUOUS
 10
11.0473183383
 20
10.4917278081
 40
0.87
100
AcDbArc
 50
297.9536457857
 51
76.6409832571
  0
ARC
  5
314
100
AcDbEntity
  8
0
100
AcDbCircle
 62
7
  6
CONTINUOUS
 10
11.0473183383
 20
10.4917278081
 40
0.87
100
AcDbArc
 50
103.3570890577
 51
242.0467750217
  0
ARC
  5
315
100
AcDbEntity
  8
0
100
AcDbCircle
 62
7
  6
CONTINUOUS
 10
11.0473183383
 20
10.4917278081
 40
0.82
100
AcDbArc
 50
298.6193729961
 51
75.6796308194
  0
ARC
  5
316
100
AcDbEntity
  8
0
100
AcDbCircle
 62
7
  6
CONTINUOUS
 10
11.0473183383
 20
10.4917278081
 40
0.82
100
AcDbArc
 50
104.3209630617
 51
241.3813631274
  0
ARC
  5
317
100
AcDbEntity
  8
0
100
AcDbCircle
 62
7
  6
CONTINUOUS
 10
11.0473186905
 20
10.4917277698
 40
0.7100000773
100
AcDbArc
 50
106.5715037532
 51
237.7047416317
  0
CIRCLE
  5
318
100
AcDbEntity
  8
0
100
AcDbCircle
 62
7
  6
CONTINUOUS
 10
11.0473183383
 20
10.4917278081
 40
0.4635
  0
CIRCLE
  5
319
100
AcDbEntity
  8
0
100
AcDbCircle
 62
9
  6
CONTINUOUS
 10
11.0473183383
 20
10.4917278081
 40
0.346
  0
CIRCLE
  5
31A
100
AcDbEntity
  8
0
100
AcDbCircle
 62
7
  6
CONTINUOUS
 10
11.0473183383
 20
10.4917278081
 40
0.3125
  0
CIRCLE
  5
31B
100
AcDbEntity
  8
0
100
AcDbCircle
 62
9
  6
CONTINUOUS
 10
11.0473183383
 20
10.4917278081
 40
0.1279789985
  0
ARC
  5
31C
100
AcDbEntity
  8
0
100
AcDbCircle
 62
7
  6
CONTINUOUS
 10
13.9948183383
 20
10.4917278081
 40
0.25
100
AcDbArc
 50
55.0995
 51
304.9005
  0
ARC
  5
31D
100
AcDbEntity
  8
0
100
AcDbCircle
 62
7
  6
CONTINUOUS
 10
14.3662506164
 20
10.1647278081
 40
0.186
100
AcDbArc
 50
48.2918727518
 51
133.3041758004
  0
ARC
  5
31E
100
AcDbEntity
  8
0
100
AcDbCircle
 62
7
  6
CONTINUOUS
 10
14.5106285925
 20
10.3267278081
 40
0.031
100
AcDbArc
 50
228.2918517241
 51
270.0
  0
ARC
  5
31F
100
AcDbEntity
  8
0
100
AcDbCircle
 62
7
  6
CONTINUOUS
 10
14.2277045952
 20
10.3117278081
 40
0.016
100
AcDbArc
 50
180.0
 51
313.3041758004
  0
ARC
  5
320
100
AcDbEntity
  8
0
100
AcDbCircle
 62
7
  6
CONTINUOUS
 10
14.1961771144
 20
10.3078681006
 40
0.016
100
AcDbArc
 50
13.9592487753
 51
124.9005000001
  0
ARC
  5
321
100
AcDbEntity
  8
0
100
AcDbCircle
 62
7
  6
CONTINUOUS
 10
14.3662506164
 20
10.8187278081
 40
0.186
100
AcDbArc
 50
226.6958241996
 51
311.7081272482
  0
ARC
  5
322
100
AcDbEntity
  8
0
100
AcDbCircle
 62
7
  6
CONTINUOUS
 10
11.288704707
 20
11.4528081203
 40
0.1064
100
AcDbArc
 50
130.9762844864
 51
236.1516146287
  0
ARC
  5
323
100
AcDbEntity
  8
0
100
AcDbCircle
 62
7
  6
CONTINUOUS
 10
11.1373183383
 20
11.7352377272
 40
0.09
100
AcDbArc
 50
0.0
 51
75.164888418
  0
ARC
  5
324
100
AcDbEntity
  8
0
100
AcDbCircle
 62
7
  6
CONTINUOUS
 10
11.2683183383
 20
11.6392377272
 40
0.06
100
AcDbArc
 50
270.0
 51
360.0
  0
ARC
  5
325
100
AcDbEntity
  8
0
100
AcDbCircle
 62
7
  6
CONTINUOUS
 10
11.2683183383
 20
11.6752377272
 40
0.06
100
AcDbArc
 50
0.0
 51
90.0
  0
ARC
  5
326
100
AcDbEntity
  8
0
100
AcDbCircle
 62
7
  6
CONTINUOUS
 10
11.2038183383
 20
11.3262377272
 40
0.046
100
AcDbArc
 50
0.0
 51
56.1516146287
  0
ARC
  5
327
100
AcDbEntity
  8
0
100
AcDbCircle
 62
7
  6
CONTINUOUS
 10
14.5106285925
 20
10.6567278081
 40
0.031
100
AcDbArc
 50
90.0
 51
131.7081482759
  0
ARC
  5
328
100
AcDbEntity
  8
0
100
AcDbCircle
 62
7
  6
CONTINUOUS
 10
11.2058183383
 20
11.5482377272
 40
0.02
100
AcDbArc
 50
310.9762844862
 51
360.0
  0
ARC
  5
329
100
AcDbEntity
  8
0
100
AcDbCircle
 62
7
  6
CONTINUOUS
 10
14.2277045952
 20
10.6717278081
 40
0.016
100
AcDbArc
 50
46.6958241996
 51
180.0
  0
ARC
  5
32A
100
AcDbEntity
  8
0
100
AcDbCircle
 62
7
  6
CONTINUOUS
 10
14.1961771144
 20
10.6755875156
 40
0.016
100
AcDbArc
 50
235.0994999999
 51
346.0407512246
  0
ARC
  5
32B
100
AcDbEntity
  8
0
100
AcDbCircle
 62
7
  6
CONTINUOUS
 10
14.7877437352
 20
10.4547278081
 40
0.121
100
AcDbArc
 50
72.3178031512
 51
100.863388708
  0
ARC
  5
32C
100
AcDbEntity
  8
0
100
AcDbCircle
 62
7
  6
CONTINUOUS
 10
15.0488183383
 20
10.4594984529
 40
0.03
100
AcDbArc
 50
286.4592496283
 51
360.0
  0
ARC
  5
32D
100
AcDbEntity
  8
0
100
AcDbCircle
 62
7
  6
CONTINUOUS
 10
15.1688183383
 20
10.4594984529
 40
0.03
100
AcDbArc
 50
270.0
 51
328.815717175
  0
ARC
  5
32E
100
AcDbEntity
  8
0
100
AcDbCircle
 62
7
  6
CONTINUOUS
 10
15.1448183383
 20
10.4594984529
 40
0.03
100
AcDbArc
 50
180.0
 51
270.0
  0
ARC
  5
32F
100
AcDbEntity
  8
0
100
AcDbCircle
 62
7
  6
CONTINUOUS
 10
15.2293183383
 20
10.4468523236
 40
0.018
100
AcDbArc
 50
296.3877999613
 51
360.0
  0
ARC
  5
330
100
AcDbEntity
  8
0
100
AcDbCircle
 62
7
  6
CONTINUOUS
 10
15.2896002186
 20
10.4367278081
 40
0.006
100
AcDbArc
 50
180.0
 51
270.0
  0
ARC
  5
331
100
AcDbEntity
  8
0
100
AcDbCircle
 62
7
  6
CONTINUOUS
 10
14.7899166165
 20
10.4787278081
 40
0.048
100
AcDbArc
 50
201.6000344342
 51
256.3709027892
  0
ARC
  5
332
100
AcDbEntity
  8
0
100
AcDbCircle
 62
7
  6
CONTINUOUS
 10
14.7846121097
 20
10.4955919893
 40
0.0888641812
100
AcDbArc
 50
224.2338173193
 51
336.8459014309
  0
ARC
  5
333
100
AcDbEntity
  8
0
100
AcDbCircle
 62
7
  6
CONTINUOUS
 10
14.8243183383
 20
10.4923484372
 40
0.085
100
AcDbArc
 50
158.3999655658
 51
201.6000344342
  0
ARC
  5
334
100
AcDbEntity
  8
0
100
AcDbCircle
 62
7
  6
CONTINUOUS
 10
14.7806431746
 20
10.4917278081
 40
0.0833248363
100
AcDbArc
 50
100.863388708
 51
224.2338173193
  0
ARC
  5
335
100
AcDbEntity
  8
0
100
AcDbCircle
 62
7
  6
CONTINUOUS
 10
14.7819624998
 20
10.4955919893
 40
0.0697243244
100
AcDbArc
 50
15.9292215989
 51
31.2636680057
  0
ARC
  5
336
100
AcDbEntity
  8
0
100
AcDbCircle
 62
7
  6
CONTINUOUS
 10
14.7931230581
 20
10.4919522603
 40
0.061607623
100
AcDbArc
 50
256.3709027892
 51
336.8459014309
  0
ARC
  5
337
100
AcDbEntity
  8
0
100
AcDbCircle
 62
7
  6
CONTINUOUS
 10
14.7954474406
 20
10.5037792543
 40
0.0539485538
100
AcDbArc
 50
31.2636680057
 51
158.3999655658
  0
ARC
  5
338
100
AcDbEntity
  8
0
100
AcDbCircle
 62
7
  6
CONTINUOUS
 10
15.0473183383
 20
10.4917278081
 40
1.18
100
AcDbArc
 50
191.1286550955
 51
346.4946065741
  0
ARC
  5
339
100
AcDbEntity
  8
0
100
AcDbCircle
 62
7
  6
CONTINUOUS
 10
15.0473183383
 20
10.4917278081
 40
1.18
100
AcDbArc
 50
13.5048975417
 51
168.8710849091
  0
ARC
  5
33A
100
AcDbEntity
  8
0
100
AcDbCircle
 62
7
  6
CONTINUOUS
 10
15.0473183383
 20
10.4917278081
 40
1.0000026738
100
AcDbArc
 50
16.2428747096
 51
166.3603022229
  0
ARC
  5
33B
100
AcDbEntity
  8
0
100
AcDbCircle
 62
7
  6
CONTINUOUS
 10
15.0473183383
 20
10.4917278081
 40
1.0000026738
100
AcDbArc
 50
193.6396977771
 51
343.7571252904
  0
ARC
  5
33C
100
AcDbEntity
  8
0
100
AcDbCircle
 62
9
  6
CONTINUOUS
 10
15.0473183383
 20
10.4917278081
 40
0.8130026738
100
AcDbArc
 50
19.7089318976
 51
167.3577269641
  0
ARC
  5
33D
100
AcDbEntity
  8
0
100
AcDbCircle
 62
9
  6
CONTINUOUS
 10
15.0473183383
 20
10.4917278081
 40
0.8130026738
100
AcDbArc
 50
192.6416718384
 51
340.2916690823
  0
ARC
  5
33E
100
AcDbEntity
  8
0
100
AcDbCircle
 62
7
  6
CONTINUOUS
 10
15.0473183383
 20
10.4917278081
 40
0.741
100
AcDbArc
 50
122.6316076561
 51
168.5550587745
  0
ARC
  5
33F
100
AcDbEntity
  8
0
100
AcDbCircle
 62
7
  6
CONTINUOUS
 10
15.0473183383
 20
10.4917278081
 40
0.741
100
AcDbArc
 50
62.6291242566
 51
117.3669832926
  0
ARC
  5
340
100
AcDbEntity
  8
0
100
AcDbCircle
 62
7
  6
CONTINUOUS
 10
15.0473183383
 20
10.4917278081
 40
0.741
100
AcDbArc
 50
19.398087132
 51
57.3645520063
  0
ARC
  5
341
100
AcDbEntity
  8
0
100
AcDbCircle
 62
7
  6
CONTINUOUS
 10
15.0473183383
 20
10.4917278081
 40
0.741
100
AcDbArc
 50
302.6316076561
 51
340.6023681347
  0
ARC
  5
342
100
AcDbEntity
  8
0
100
AcDbCircle
 62
7
  6
CONTINUOUS
 10
15.0473183383
 20
10.4917278081
 40
0.741
100
AcDbArc
 50
242.6291242566
 51
297.3669832926
  0
ARC
  5
343
100
AcDbEntity
  8
0
100
AcDbCircle
 62
7
  6
CONTINUOUS
 10
15.0473183383
 20
10.4917278081
 40
0.741
100
AcDbArc
 50
191.4444572616
 51
237.3645520063
  0
ARC
  5
344
100
AcDbEntity
  8
0
100
AcDbCircle
 62
7
  6
CONTINUOUS
 10
15.0473183383
 20
10.4917278081
 40
0.6515
100
AcDbArc
 50
18.9162307925
 51
166.8686511237
  0
ARC
  5
345
100
AcDbEntity
  8
0
100
AcDbCircle
 62
7
  6
CONTINUOUS
 10
15.0473183383
 20
10.4917278081
 40
0.6515
100
AcDbArc
 50
193.1313488763
 51
341.0837692075
  0
ARC
  5
346
100
AcDbEntity
  8
0
100
AcDbCircle
 62
9
  6
CONTINUOUS
 10
15.0473183383
 20
10.4917278081
 40
0.6146339942
100
AcDbArc
 50
195.5340262119
 51
341.262688738
  0
ARC
  5
347
100
AcDbEntity
  8
0
100
AcDbCircle
 62
9
  6
CONTINUOUS
 10
15.0473183383
 20
10.4917278081
 40
0.6146339942
100
AcDbArc
 50
18.737311262
 51
164.4659737881
  0
CIRCLE
  5
348
100
AcDbEntity
  8
0
100
AcDbCircle
 62
7
  6
CONTINUOUS
 10
15.0473183383
 20
10.4917278081
 40
0.5575
  0
CIRCLE
  5
349
100
AcDbEntity
  8
0
100
AcDbCircle
 62
7
  6
CONTINUOUS
 10
15.0473183383
 20
10.4917278081
 40
0.5291923153
  0
CIRCLE
  5
34A
100
AcDbEntity
  8
0
100
AcDbCircle
 62
7
  6
CONTINUOUS
 10
15.0473183383
 20
10.4917278081
 40
0.5275
  0
CIRCLE
  5
34B
100
AcDbEntity
  8
0
100
AcDbCircle
 62
7
  6
CONTINUOUS
 10
15.0473183383
 20
10.4917278081
 40
0.5052804212
  0
CIRCLE
  5
34C
100
AcDbEntity
  8
0
100
AcDbCircle
 62
7
  6
CONTINUOUS
 10
15.0473183383
 20
10.4917278081
 40
0.4545099561
  0
CIRCLE
  5
34D
100
AcDbEntity
  8
0
100
AcDbCircle
 62
7
  6
CONTINUOUS
 10
15.0473183383
 20
10.4917278081
 40
0.4275
  0
CIRCLE
  5
34E
100
AcDbEntity
  8
0
100
AcDbCircle
 62
7
  6
CONTINUOUS
 10
15.0473183383
 20
10.4917278081
 40
0.4175
  0
CIRCLE
  5
34F
100
AcDbEntity
  8
0
100
AcDbCircle
 62
9
  6
CONTINUOUS
 10
15.0473183383
 20
10.4917278081
 40
0.3951446566
  0
ARC
  5
350
100
AcDbEntity
  8
0
100
AcDbCircle
 62
7
  6
CONTINUOUS
 10
15.3218183383
 20
10.4912278081
 40
0.0845
100
AcDbArc
 50
270.0
 51
360.0
  0
ARC
  5
351
100
AcDbEntity
  8
0
100
AcDbCircle
 62
7
  6
CONTINUOUS
 10
15.3218183383
 20
10.4912278081
 40
0.0845
100
AcDbArc
 50
0.3390302596
 51
90.0
  0
ARC
  5
352
100
AcDbEntity
  8
0
100
AcDbCircle
 62
7
  6
CONTINUOUS
 10
15.3174631264
 20
10.4787278081
 40
0.048
100
AcDbArc
 50
270.0
 51
341.5590861804
  0
ARC
  5
353
100
AcDbEntity
  8
0
100
AcDbCircle
 62
7
  6
CONTINUOUS
 10
15.2709792583
 20
10.4942278081
 40
0.097
100
AcDbArc
 50
341.5590861804
 51
18.4409138196
  0
ARC
  5
354
100
AcDbEntity
  8
0
100
AcDbCircle
 62
7
  6
CONTINUOUS
 10
18.0462975049
 20
10.4917278081
 40
0.3735208333
100
AcDbArc
 50
317.9864211384
 51
42.0135788616
  0
ARC
  5
355
100
AcDbEntity
  8
0
100
AcDbCircle
 62
7
  6
CONTINUOUS
 10
15.3174631264
 20
10.5097278081
 40
0.048
100
AcDbArc
 50
18.4409138196
 51
90.0
  0
ARC
  5
356
100
AcDbEntity
  8
0
100
AcDbCircle
 62
7
  6
CONTINUOUS
 10
15.1448183383
 20
10.5289571633
 40
0.03
100
AcDbArc
 50
106.4592496283
 51
180.0
  0
ARC
  5
357
100
AcDbEntity
  8
0
100
AcDbCircle
 62
7
  6
CONTINUOUS
 10
15.0488183383
 20
10.5289571633
 40
0.03
100
AcDbArc
 50
0.0
 51
73.5407503717
  0
ARC
  5
358
100
AcDbEntity
  8
0
100
AcDbCircle
 62
7
  6
CONTINUOUS
 10
15.2293183383
 20
10.5416032926
 40
0.018
100
AcDbArc
 50
0.0
 51
63.6122000388
  0
ARC
  5
359
100
AcDbEntity
  8
0
100
AcDbCircle
 62
7
  6
CONTINUOUS
 10
15.2896002186
 20
10.5517278081
 40
0.006
100
AcDbArc
 50
90.0
 51
180.0
  0
ARC
  5
35A
100
AcDbEntity
  8
0
100
AcDbCircle
 62
7
  6
CONTINUOUS
 10
14.8263183383
 20
10.5757278081
 40
0.006
100
AcDbArc
 50
252.3178031508
 51
360.0
  0
SPLINE
  5
35B
100
AcDbEntity
  8
0
100
AcDbSpline
 62
7
  6
CONTINUOUS
 70
0
 71
3
 72
11
 73
7
 74
0
 42
0.0000001
 43
0.0000001
 44
0.0000000001
 40
0.0
 40
0.0
 40
0.0
 40
0.0
 40
0.2895273334
 40
0.4992134133
 40
0.7088994931
 40
1.0
 40
1.0
 40
1.0
 40
1.0
 10
14.9236183383
 20
10.4917278081
 30
0.0
 10
14.9236183383
 20
10.5084515706
 30
0.0
 10
14.9262328306
 20
10.5372872819
 30
0.0
 10
14.9656925168
 20
10.5585139668
 30
0.0
 10
15.0047370977
 20
10.5371893746
 30
0.0
 10
15.0086183383
 20
10.5084396413
 30
0.0
 10
15.0086183383
 20
10.4917278081
 30
0.0
  0
SPLINE
  5
35C
100
AcDbEntity
  8
0
100
AcDbSpline
 62
7
  6
CONTINUOUS
 70
0
 71
3
 72
11
 73
7
 74
0
 42
0.0000001
 43
0.0000001
 44
0.0000000001
 40
0.0
 40
0.0
 40
0.0
 40
0.0
 40
0.2730403189
 40
0.4997214642
 40
0.7263919651
 40
1.0
 40
1.0
 40
1.0
 40
1.0
 10
14.8873183383
 20
10.4917280308
 30
0.0
 10
14.887319031
 20
10.4679372086
 30
0.0
 10
14.9004148548
 20
10.4243949122
 30
0.0
 10
14.9656513808
 20
10.3994329138
 30
0.0
 10
15.0307208336
 20
10.4244485659
 30
0.0
 10
15.0443190958
 20
10.4679410072
 30
0.0
 10
15.0443183383
 20
10.4917275937
 30
0.0
  0
SPLINE
  5
35D
100
AcDbEntity
  8
0
100
AcDbSpline
 62
7
  6
CONTINUOUS
 70
0
 71
3
 72
11
 73
7
 74
0
 42
0.0000001
 43
0.0000001
 44
0.0000000001
 40
0.0
 40
0.0
 40
0.0
 40
0.0
 40
0.2911005069
 40
0.5007865867
 40
0.7104726666
 40
1.0
 40
1.0
 40
1.0
 40
1.0
 10
15.0086183383
 20
10.4917278081
 30
0.0
 10
15.0086183383
 20
10.4750159749
 30
0.0
 10
15.0047370977
 20
10.4462662416
 30
0.0
 10
14.9656925168
 20
10.4249416494
 30
0.0
 10
14.9262328306
 20
10.4461683343
 30
0.0
 10
14.9236183383
 20
10.4750040455
 30
0.0
 10
14.9236183383
 20
10.4917278081
 30
0.0
  0
SPLINE
  5
35E
100
AcDbEntity
  8
0
100
AcDbSpline
 62
7
  6
CONTINUOUS
 70
0
 71
3
 72
11
 73
7
 74
0
 42
0.0000001
 43
0.0000001
 44
0.0000000001
 40
0.0
 40
0.0
 40
0.0
 40
0.0
 40
0.2736100635
 40
0.5003111614
 40
0.7269609786
 40
1.0
 40
1.0
 40
1.0
 40
1.0
 10
15.0443183383
 20
10.4917268418
 30
0.0
 10
15.0443177376
 20
10.5155138218
 30
0.0
 10
15.0307158129
 20
10.5590099203
 30
0.0
 10
14.965661812
 20
10.5840226347
 30
0.0
 10
14.9004097535
 20
10.5590580715
 30
0.0
 10
14.8873174936
 20
10.5155181992
 30
0.0
 10
14.8873183383
 20
10.4917272728
 30
0.0
  0
SPLINE
  5
35F
100
AcDbEntity
  8
0
100
AcDbSpline
 62
7
  6
CONTINUOUS
 70
0
 71
3
 72
11
 73
7
 74
0
 42
0.0000001
 43
0.0000001
 44
0.0000000001
 40
0.0
 40
0.0
 40
0.0
 40
0.0
 40
0.273039475
 40
0.4997206271
 40
0.7263911349
 40
1.0
 40
1.0
 40
1.0
 40
1.0
 10
6.9673183383
 20
10.4917278081
 30
0.0
 10
6.9673190757
 20
10.4679370602
 30
0.0
 10
6.9804149313
 20
10.4243948829
 30
0.0
 10
7.0456513808
 20
10.3994329138
 30
0.0
 10
7.1107209072
 20
10.4244485942
 30
0.0
 10
7.1243191404
 20
10.4679411502
 30
0.0
 10
7.1243183383
 20
10.4917278081
 30
0.0
  0
SPLINE
  5
360
100
AcDbEntity
  8
0
100
AcDbSpline
 62
7
  6
CONTINUOUS
 70
0
 71
3
 72
11
 73
7
 74
0
 42
0.0000001
 43
0.0000001
 44
0.0000000001
 40
0.0
 40
0.0
 40
0.0
 40
0.0
 40
0.2911005069
 40
0.5007865867
 40
0.7104726666
 40
1.0
 40
1.0
 40
1.0
 40
1.0
 10
7.0886183383
 20
10.4917278081
 30
0.0
 10
7.0886183383
 20
10.4750159749
 30
0.0
 10
7.0847370977
 20
10.4462662416
 30
0.0
 10
7.0456925168
 20
10.4249416494
 30
0.0
 10
7.0062328306
 20
10.4461683343
 30
0.0
 10
7.0036183383
 20
10.4750040455
 30
0.0
 10
7.0036183383
 20
10.4917278081
 30
0.0
  0
SPLINE
  5
361
100
AcDbEntity
  8
0
100
AcDbSpline
 62
7
  6
CONTINUOUS
 70
0
 71
3
 72
11
 73
7
 74
0
 42
0.0000001
 43
0.0000001
 44
0.0000000001
 40
0.0
 40
0.0
 40
0.0
 40
0.0
 40
0.2895273334
 40
0.4992134133
 40
0.7088994931
 40
1.0
 40
1.0
 40
1.0
 40
1.0
 10
7.0036183383
 20
10.4917278081
 30
0.0
 10
7.0036183383
 20
10.5084515706
 30
0.0
 10
7.0062328306
 20
10.5372872819
 30
0.0
 10
7.0456925168
 20
10.5585139668
 30
0.0
 10
7.0847370977
 20
10.5371893746
 30
0.0
 10
7.0886183383
 20
10.5084396413
 30
0.0
 10
7.0886183383
 20
10.4917278081
 30
0.0
  0
SPLINE
  5
362
100
AcDbEntity
  8
0
100
AcDbSpline
 62
7
  6
CONTINUOUS
 70
0
 71
3
 72
11
 73
7
 74
0
 42
0.0000001
 43
0.0000001
 44
0.0000000001
 40
0.0
 40
0.0
 40
0.0
 40
0.0
 40
0.2736079326
 40
0.5003103346
 40
0.7269614556
 40
1.0
 40
1.0
 40
1.0
 40
1.0
 10
7.1243183383
 20
10.4917278081
 30
0.0
 10
7.1243175361
 20
10.515514466
 30
0.0
 10
7.1107154813
 20
10.5590100478
 30
0.0
 10
7.045661812
 20
10.5840226347
 30
0.0
 10
6.9804099375
 20
10.5590581419
 30
0.0
 10
6.9673176009
 20
10.515518556
 30
0.0
 10
6.9673183383
 20
10.4917278081
 30
0.0
  0
SPLINE
  5
363
100
AcDbEntity
  8
0
100
AcDbSpline
 62
7
  6
CONTINUOUS
 70
0
 71
3
 72
28
 73
24
 74
0
 42
0.0000001
 43
0.0000001
 44
0.0000000001
 40
0.0
 40
0.0
 40
0.0
 40
0.0
 40
0.0625983504
 40
0.0939229908
 40
0.1252410496
 40
0.1878367547
 40
0.2504202059
 40
0.3129904368
 40
0.3755399134
 40
0.4068160614
 40
0.4380872114
 40
0.5005946332
 40
0.5630784681
 40
0.5943209408
 40
0.6255577247
 40
0.6879969055
 40
0.7192181698
 40
0.7504349263
 40
0.812837513
 40
0.8752267932
 40
0.9064269167
 40
0.937625204
 40
1.0
 40
1.0
 40
1.0
 40
1.0
 10
11.0473183383
 20
3.2963498154
 30
0.0
 10
11.0575540578
 20
3.2963498154
 30
0.0
 10
11.0729253254
 20
3.297099037
 30
0.0
 10
11.0932590445
 20
3.299579273
 30
0.0
 10
11.1134491186
 20
3.3030460028
 30
0.0
 10
11.1383295799
 20
3.309212214
 30
0.0
 10
11.1673141201
 20
3.3194734598
 30
0.0
 10
11.1951599566
 20
3.3324943095
 30
0.0
 10
11.217199222
 20
3.3455516339
 30
0.0
 10
11.2339963503
 20
3.3572372116
 30
0.0
 10
11.2501982141
 20
3.3697239896
 30
0.0
 10
11.2692775111
 20
3.3867839463
 30
0.0
 10
11.2865984445
 20
3.4056202777
 30
0.0
 10
11.2992983268
 20
3.421636733
 30
0.0
 10
11.3111959123
 20
3.4382478666
 30
0.0
 10
11.3218610384
 20
3.455709659
 30
0.0
 10
11.3312021325
 20
3.4738742353
 30
0.0
 10
11.3396415643
 20
3.4924691681
 30
0.0
 10
11.3484712612
 20
3.5164480218
 30
0.0
 10
11.3549116097
 20
3.541173077
 30
0.0
 10
11.3585963532
 20
3.5612497512
 30
0.0
 10
11.3612923865
 20
3.5814788792
 30
0.0
 10
11.3621984331
 20
3.5967847789
 30
0.0
 10
11.3623019914
 20
3.6069834183
 30
0.0
  0
LINE
  5
364
100
AcDbEntity
  8
0
100
AcDbLine
 62
7
  6
CONTINUOUS
 10
11.3623170555
 20
3.6093516305
 11
11.362318084
 21
3.6101511454
  0
LINE
  5
365
100
AcDbEntity
  8
0
100
AcDbLine
 62
7
  6
CONTINUOUS
 10
10.7323185926
 20
3.6101511453
 11
10.7323196282
 21
3.6093456395
  0
LINE
  5
366
100
AcDbEntity
  8
0
100
AcDbLine
 62
7
  6
CONTINUOUS
 10
10.7323196282
 20
3.6093456395
 11
10.7323225418
 21
3.6085797174
  0
SPLINE
  5
367
100
AcDbEntity
  8
0
100
AcDbSpline
 62
7
  6
CONTINUOUS
 70
0
 71
3
 72
29
 73
25
 74
0
 42
0.0000001
 43
0.0000001
 44
0.0000000001
 40
0.0
 40
0.0
 40
0.0
 40
0.0
 40
0.0623841733
 40
0.1247722314
 40
0.1871682495
 40
0.2183781919
 40
0.2495913889
 40
0.2808082832
 40
0.312029074
 40
0.3432540856
 40
0.3744837708
 40
0.4369416369
 40
0.4994202765
 40
0.530675687
 40
0.5619365943
 40
0.6244587044
 40
0.6557350421
 40
0.6870161135
 40
0.7495771113
 40
0.812157534
 40
0.874750285
 40
0.9373536373
 40
0.9686726503
 40
1.0
 40
1.0
 40
1.0
 40
1.0
 10
10.7323225418
 20
3.6085797174
 30
0.0
 10
10.732370122
 20
3.5991233146
 30
0.0
 10
10.7333254947
 20
3.580202857
 30
0.0
 10
10.7373224059
 20
3.5520773527
 30
0.0
 10
10.742767451
 20
3.529029538
 30
0.0
 10
10.7483598791
 20
3.5109486638
 30
0.0
 10
10.7531675053
 20
3.4975877267
 30
0.0
 10
10.7585758612
 20
3.4844570381
 30
0.0
 10
10.7645738014
 20
3.4715829659
 30
0.0
 10
10.771150737
 20
3.4589923548
 30
0.0
 10
10.7806717105
 20
3.4426190394
 30
0.0
 10
10.793950894
 20
3.4229800727
 30
0.0
 10
10.8089562663
 20
3.404621586
 30
0.0
 10
10.8219165743
 20
3.390792158
 30
0.0
 10
10.8354939023
 20
3.3775594477
 30
0.0
 10
10.8499583951
 20
3.3652583418
 30
0.0
 10
10.8652041804
 20
3.3539777944
 30
0.0
 10
10.8809496168
 20
3.3433943345
 30
0.0
 10
10.9015076665
 20
3.3315093896
 30
0.0
 10
10.9273640613
 20
3.3195321454
 30
0.0
 10
10.9541985336
 20
3.3099262421
 30
0.0
 10
10.9771997456
 20
3.3039672585
 30
0.0
 10
10.9958632838
 20
3.3004559435
 30
0.0
 10
11.005269546
 20
3.2991227435
 30
0.0
 10
11.0099851272
 20
3.2985623291
 30
0.0
  0
LINE
  5
368
100
AcDbEntity
  8
0
100
AcDbLine
 62
7
  6
CONTINUOUS
 10
11.0099851272
 20
3.2985623291
 11
11.0101899804
 21
3.2985380514
  0
SPLINE
  5
369
100
AcDbEntity
  8
0
100
AcDbSpline
 62
7
  6
CONTINUOUS
 70
0
 71
3
 72
45
 73
41
 74
0
 42
0.0000001
 43
0.0000001
 44
0.0000000001
 40
0.0
 40
0.0
 40
0.0
 40
0.0
 40
0.0312947931
 40
0.0626046378
 40
0.0782590471
 40
0.0939109564
 40
0.1252054541
 40
0.1564982293
 40
0.1877870649
 40
0.2190702157
 40
0.2503473916
 40
0.2659865044
 40
0.2816240486
 40
0.2972599343
 40
0.3128941582
 40
0.3441521626
 40
0.3597813753
 40
0.3754089539
 40
0.4066538256
 40
0.4378924393
 40
0.4691253699
 40
0.5003530625
 40
0.5315763051
 40
0.5627958054
 40
0.594012489
 40
0.6252272593
 40
0.6564410946
 40
0.6876550156
 40
0.7188699667
 40
0.7500869943
 40
0.7813069263
 40
0.8125307408
 40
0.8281470655
 40
0.8437646086
 40
0.8593835036
 40
0.8750037981
 40
0.9062432115
 40
0.9374889416
 40
0.9687411006
 40
1.0
 40
1.0
 40
1.0
 40
1.0
 10
11.0473183383
 20
3.1421862596
 30
0.0
 10
11.0357209377
 20
3.1421862596
 30
0.0
 10
11.0125119276
 20
3.1430560962
 30
0.0
 10
10.9836644072
 20
3.1463028186
 30
0.0
 10
10.9607826888
 20
3.1501898531
 30
0.0
 10
10.9380680508
 20
3.1549280925
 30
0.0
 10
10.910032755
 20
3.1624381989
 30
0.0
 10
10.8771659153
 20
3.1739385221
 30
0.0
 10
10.8452527147
 20
3.1878608024
 30
0.0
 10
10.8144775003
 20
3.2041298256
 30
0.0
 10
10.7899172489
 20
3.2195676713
 30
0.0
 10
10.7710119768
 20
3.2329908625
 30
0.0
 10
10.7572198101
 20
3.243581605
 30
0.0
 10
10.7438354675
 20
3.254680623
 30
0.0
 10
10.7265633291
 20
3.2701339576
 30
0.0
 10
10.7101732985
 20
3.2865473148
 30
0.0
 10
10.6947485588
 20
3.3038386973
 30
0.0
 10
10.6799873273
 20
3.3216941157
 30
0.0
 10
10.6628093379
 20
3.3450296541
 30
0.0
 10
10.6443630005
 20
3.3744936024
 30
0.0
 10
10.6281821551
 20
3.4052539043
 30
0.0
 10
10.6143625394
 20
3.4371384076
 30
0.0
 10
10.6029777657
 20
3.4699660081
 30
0.0
 10
10.5940970307
 20
3.5035533925
 30
0.0
 10
10.5877651671
 20
3.5377099582
 30
0.0
 10
10.5840236486
 20
3.5722442738
 30
0.0
 10
10.5828877686
 20
3.6069610765
 30
0.0
 10
10.5843697775
 20
3.6416649188
 30
0.0
 10
10.5884556624
 20
3.6761603511
 30
0.0
 10
10.5951276888
 20
3.7102526764
 30
0.0
 10
10.6043428457
 20
3.7437495573
 30
0.0
 10
10.6141034648
 20
3.7710127258
 30
0.0
 10
10.623121622
 20
3.7923343884
 30
0.0
 10
10.6304843185
 20
3.8080636878
 30
0.0
 10
10.6384339845
 20
3.8235062609
 30
0.0
 10
10.6497987626
 20
3.8436840234
 30
0.0
 10
10.6654182761
 20
3.8680878504
 30
0.0
 10
10.6863075066
 20
3.8958834043
 30
0.0
 10
10.7092270114
 20
3.9220383457
 30
0.0
 10
10.7257764972
 20
3.9382849888
 30
0.0
 10
10.7343411624
 20
3.9460848516
 30
0.0
  0
SPLINE
  5
36A
100
AcDbEntity
  8
0
100
AcDbSpline
 62
7
  6
CONTINUOUS
 70
0
 71
3
 72
45
 73
41
 74
0
 42
0.0000001
 43
0.0000001
 44
0.0000000001
 40
0.0
 40
0.0
 40
0.0
 40
0.0
 40
0.0312588867
 40
0.0625110331
 40
0.0937567507
 40
0.1249961524
 40
0.1406164414
 40
0.1562353308
 40
0.1718528687
 40
0.1874691887
 40
0.2186929943
 40
0.2499129191
 40
0.2811299405
 40
0.3123448874
 40
0.3435588051
 40
0.3747726396
 40
0.4059874099
 40
0.4372040957
 40
0.4684235989
 40
0.4996468463
 40
0.5308745444
 40
0.5621074821
 40
0.5933461032
 40
0.6245909832
 40
0.6402185659
 40
0.6558477829
 40
0.687105796
 40
0.7027400241
 40
0.718375914
 40
0.7340134623
 40
0.749652579
 40
0.7809297625
 40
0.8122129203
 40
0.843501762
 40
0.8747945415
 40
0.9060890426
 40
0.9217409533
 40
0.9373953638
 40
0.9687052087
 40
1.0
 40
1.0
 40
1.0
 40
1.0
 10
11.3602966513
 20
3.9460838149
 30
0.0
 10
11.3688612753
 20
3.9382839376
 30
0.0
 10
11.3854106818
 20
3.922037273
 30
0.0
 10
11.4083300582
 20
3.8958823019
 30
0.0
 10
11.4292191752
 20
3.86808674
 30
0.0
 10
11.4448385849
 20
3.8436829072
 30
0.0
 10
11.4562032908
 20
3.8235051507
 30
0.0
 10
11.4641529033
 20
3.8080625838
 30
0.0
 10
11.4715155412
 20
3.7923332898
 30
0.0
 10
11.4805336289
 20
3.7710116404
 30
0.0
 10
11.4902941698
 20
3.7437484945
 30
0.0
 10
11.4995092254
 20
3.7102516443
 30
0.0
 10
11.5061811721
 20
3.6761593592
 30
0.0
 10
11.5102669718
 20
3.6416639703
 30
0.0
 10
11.5117489129
 20
3.6069601765
 30
0.0
 10
11.5106129665
 20
3.5722434255
 30
0.0
 10
11.5068713911
 20
3.5377091642
 30
0.0
 10
11.5005394802
 20
3.5035526541
 30
0.0
 10
11.4916586993
 20
3.4699653279
 30
0.0
 10
11.4802738957
 20
3.4371377835
 30
0.0
 10
11.4664542461
 20
3.4052533403
 30
0.0
 10
11.4502733854
 20
3.3744930925
 30
0.0
 10
11.4318270271
 20
3.3450292041
 30
0.0
 10
11.4146490347
 20
3.3216937087
 30
0.0
 10
11.3998878001
 20
3.3038383264
 30
0.0
 10
11.3844630567
 20
3.2865469818
 30
0.0
 10
11.3680730319
 20
3.2701336553
 30
0.0
 10
11.3508008973
 20
3.2546803549
 30
0.0
 10
11.3374165591
 20
3.243581362
 30
0.0
 10
11.3236244
 20
3.2329906418
 30
0.0
 10
11.3047191397
 20
3.2195674793
 30
0.0
 10
11.280158904
 20
3.2041296714
 30
0.0
 10
11.2493837165
 20
3.1878606842
 30
0.0
 10
11.2174705457
 20
3.1739384399
 30
0.0
 10
11.1846037422
 20
3.162438144
 30
0.0
 10
11.156568479
 20
3.154928058
 30
0.0
 10
11.133853869
 20
3.150189831
 30
0.0
 10
11.1109721803
 20
3.146302807
 30
0.0
 10
11.0821246995
 20
3.1430560938
 30
0.0
 10
11.0589157222
 20
3.1421862596
 30
0.0
 10
11.0473183383
 20
3.1421862596
 30
0.0
  0
LINE
  5
36B
100
AcDbEntity
  8
0
100
AcDbLine
 62
7
  6
CONTINUOUS
 10
11.360138028
 20
3.5813238518
 11
11.3601522401
 21
3.5815395906
  0
LINE
  5
36C
100
AcDbEntity
  8
0
100
AcDbLine
 62
7
  6
CONTINUOUS
 10
11.3608158513
 20
3.6006298392
 11
11.3608175978
 21
3.6011939099
  0
LINE
  5
36D
100
AcDbEntity
  8
0
100
AcDbLine
 62
7
  6
CONTINUOUS
 10
11.3608175978
 20
3.6011939099
 11
11.3608183383
 21
3.6018713498
  0
LINE
  5
36E
100
AcDbEntity
  8
0
100
AcDbLine
 62
7
  6
CONTINUOUS
 10
11.3608110526
 20
3.6039964444
 11
11.3608066711
 21
3.6045606822
  0
LINE
  5
36F
100
AcDbEntity
  8
0
100
AcDbLine
 62
7
  6
CONTINUOUS
 10
11.3607224191
 20
3.6095846321
 11
11.3607119368
 21
3.6099953272
  0
LINE
  5
370
100
AcDbEntity
  8
0
100
AcDbLine
 62
7
  6
CONTINUOUS
 10
10.7339247398
 20
3.6099953271
 11
10.7339142541
 21
3.6095844975
  0
LINE
  5
371
100
AcDbEntity
  8
0
100
AcDbLine
 62
7
  6
CONTINUOUS
 10
10.7339142541
 20
3.6095844975
 11
10.7338961148
 21
3.6088167076
  0
LINE
  5
372
100
AcDbEntity
  8
0
100
AcDbLine
 62
7
  6
CONTINUOUS
 10
10.7338480966
 20
3.6061668165
 11
10.7338407613
 21
3.6055998789
  0
LINE
  5
373
100
AcDbEntity
  8
0
100
AcDbLine
 62
7
  6
CONTINUOUS
 10
10.7338202336
 20
3.6029551605
 11
10.7338187715
 21
3.6023894687
  0
LINE
  5
374
100
AcDbEntity
  8
0
100
AcDbLine
 62
7
  6
CONTINUOUS
 10
10.7338187715
 20
3.6023894687
 11
10.7338183383
 21
3.6018713498
  0
LINE
  5
375
100
AcDbEntity
  8
0
100
AcDbLine
 62
7
  6
CONTINUOUS
 10
10.7338183383
 20
3.6018713498
 11
10.7338184638
 21
3.6015924222
  0
SPLINE
  5
376
100
AcDbEntity
  8
0
100
AcDbSpline
 62
9
  6
CONTINUOUS
 70
0
 71
3
 72
38
 73
34
 74
0
 42
0.0000001
 43
0.0000001
 44
0.0000000001
 40
0.0
 40
0.0
 40
0.0
 40
0.0
 40
0.0313160084
 40
0.0626478503
 40
0.0939716319
 40
0.1252873134
 40
0.1878701584
 40
0.2504280921
 40
0.281715205
 40
0.312994565
 40
0.3442656249
 40
0.3755283387
 40
0.40678267
 40
0.4380289444
 40
0.4692674094
 40
0.5004987264
 40
0.5317234516
 40
0.5629425263
 40
0.5941567273
 40
0.625367195
 40
0.6565748445
 40
0.6877809531
 40
0.7189865255
 40
0.750192894
 40
0.7814010569
 40
0.8126122971
 40
0.8438275038
 40
0.8594393929
 40
0.8750526514
 40
0.9062788082
 40
0.9375117399
 40
0.9687519171
 40
1.0
 40
1.0
 40
1.0
 40
1.0
 10
11.0473183383
 20
3.2106770714
 30
0.0
 10
11.0379430718
 20
3.2106770714
 30
0.0
 10
11.0191812237
 20
3.2113346549
 30
0.0
 10
10.99118123
 20
3.2142790769
 30
0.0
 10
10.9634532727
 20
3.2191760312
 30
0.0
 10
10.9270566593
 20
3.2282635628
 30
0.0
 10
10.8828966279
 20
3.2443608329
 30
0.0
 10
10.841424408
 20
3.2664631718
 30
0.0
 10
10.8103761321
 20
3.2874659935
 30
0.0
 10
10.7882460384
 20
3.3048098908
 30
0.0
 10
10.7673936446
 20
3.323657923
 30
0.0
 10
10.7479173378
 20
3.3439148368
 30
0.0
 10
10.7299163076
 20
3.3654835967
 30
0.0
 10
10.7134760553
 20
3.3882555252
 30
0.0
 10
10.6986805762
 20
3.4121207812
 30
0.0
 10
10.6855996858
 20
3.4369599702
 30
0.0
 10
10.6743007525
 20
3.462652467
 30
0.0
 10
10.6648364993
 20
3.4890704708
 30
0.0
 10
10.6572563319
 20
3.5160850143
 30
0.0
 10
10.6515949124
 20
3.5435622946
 30
0.0
 10
10.6478826107
 20
3.5713676241
 30
0.0
 10
10.6461354257
 20
3.5993637344
 30
0.0
 10
10.6463640145
 20
3.6274130188
 30
0.0
 10
10.6485654325
 20
3.6553772734
 30
0.0
 10
10.6527304383
 20
3.6831190161
 30
0.0
 10
10.6588370415
 20
3.7105009413
 30
0.0
 10
10.6655202213
 20
3.7329093777
 30
0.0
 10
10.6718020963
 20
3.7505189263
 30
0.0
 10
10.6786997644
 20
3.767900052
 30
0.0
 10
10.6884647256
 20
3.7891584723
 30
0.0
 10
10.7019471125
 20
3.8137833775
 30
0.0
 10
10.7171287848
 20
3.8374055174
 30
0.0
 10
10.7283345048
 20
3.8524082535
 30
0.0
 10
10.7341919491
 20
3.8597024351
 30
0.0
  0
SPLINE
  5
377
100
AcDbEntity
  8
0
100
AcDbSpline
 62
9
  6
CONTINUOUS
 70
0
 71
3
 72
38
 73
34
 74
0
 42
0.0000001
 43
0.0000001
 44
0.0000000001
 40
0.0
 40
0.0
 40
0.0
 40
0.0
 40
0.0312481095
 40
0.0624882868
 40
0.0937211994
 40
0.1249473321
 40
0.1405605803
 40
0.15617246
 40
0.187387656
 40
0.2185988943
 40
0.2498070555
 40
0.2810134175
 40
0.3122189719
 40
0.3434250515
 40
0.3746326643
 40
0.4058430954
 40
0.4370572648
 40
0.4682763191
 40
0.4995010275
 40
0.5307323269
 40
0.5619707561
 40
0.59321697
 40
0.6244712128
 40
0.6557338225
 40
0.6870047821
 40
0.7182840718
 40
0.7495711513
 40
0.8121291893
 40
0.8747122207
 40
0.9060280292
 40
0.93735199
 40
0.968683965
 40
1.0
 40
1.0
 40
1.0
 40
1.0
 10
11.3604546541
 20
3.8596900714
 30
0.0
 10
11.366311712
 20
3.852395781
 30
0.0
 10
11.3775166722
 20
3.8373928798
 30
0.0
 10
11.3926971492
 20
3.8137705594
 30
0.0
 10
11.4061784226
 20
3.7891456252
 30
0.0
 10
11.4159424213
 20
3.767887235
 30
0.0
 10
11.4228393753
 20
3.7505061958
 30
0.0
 10
11.4291205541
 20
3.7328967585
 30
0.0
 10
11.4358028439
 20
3.7104884955
 30
0.0
 10
11.4419085088
 20
3.6831068736
 30
0.0
 10
11.4460725615
 20
3.6553654922
 30
0.0
 10
11.4482731583
 20
3.6274016784
 30
0.0
 10
11.4485009281
 20
3.5993528993
 30
0.0
 10
11.4467530643
 20
3.5713573534
 30
0.0
 10
11.4430400957
 20
3.5435526442
 30
0.0
 10
11.4373781589
 20
3.5160760091
 30
0.0
 10
11.4297974877
 20
3.4890621497
 30
0.0
 10
11.4203328778
 20
3.4626448227
 30
0.0
 10
11.4090336075
 20
3.4369530341
 30
0.0
 10
11.3959525203
 20
3.4121145334
 30
0.0
 10
11.3811568805
 20
3.3882500014
 30
0.0
 10
11.3647166122
 20
3.3654787651
 30
0.0
 10
11.3467156064
 20
3.3439107309
 30
0.0
 10
11.3272394668
 20
3.3236544673
 30
0.0
 10
11.3063872531
 20
3.3048070999
 30
0.0
 10
11.2842574453
 20
3.2874637439
 30
0.0
 10
11.2532095115
 20
3.2664615962
 30
0.0
 10
11.2117378108
 20
3.2443599007
 30
0.0
 10
11.1675783721
 20
3.2282630703
 30
0.0
 10
11.1311822262
 20
3.2191757929
 30
0.0
 10
11.1034546164
 20
3.214278974
 30
0.0
 10
11.0754550114
 20
3.2113346453
 30
0.0
 10
11.0566934473
 20
3.2106770714
 30
0.0
 10
11.0473183383
 20
3.2106770714
 30
0.0
  0
SPLINE
  5
378
100
AcDbEntity
  8
0
100
AcDbSpline
 62
7
  6
CONTINUOUS
 70
0
 71
3
 72
79
 73
75
 74
0
 42
0.0000001
 43
0.0000001
 44
0.0000000001
 40
0.0
 40
0.0
 40
0.0
 40
0.0
 40
0.0156222496
 40
0.0312446361
 40
0.0468670658
 40
0.062489202
 40
0.0781114958
 40
0.0937341701
 40
0.109356768
 40
0.1249792144
 40
0.1406016312
 40
0.156224169
 40
0.1718466762
 40
0.1874691837
 40
0.1952816827
 40
0.2030941846
 40
0.2109066776
 40
0.218719169
 40
0.2265316788
 40
0.2304380893
 40
0.2343444808
 40
0.2382508715
 40
0.2421573024
 40
0.2441105444
 40
0.246063775
 40
0.248016991
 40
0.2499702009
 40
0.2519234228
 40
0.2529000314
 40
0.2538766235
 40
0.2548532284
 40
0.2553415792
 40
0.2558299841
 40
0.2568066569
 40
0.257294808
 40
0.2577829049
 40
0.2587593767
 40
0.2597363104
 40
0.2607132105
 40
0.2616898605
 40
0.2626663951
 40
0.2636429237
 40
0.2655961003
 40
0.2675493797
 40
0.2695026692
 40
0.2714559116
 40
0.2734091253
 40
0.2773155607
 40
0.2812220276
 40
0.2851284884
 40
0.2890349422
 40
0.2968478481
 40
0.3046607616
 40
0.3124736739
 40
0.3202865845
 40
0.3280994947
 40
0.3437253
 40
0.3593511061
 40
0.3749769115
 40
0.3906027167
 40
0.406228522
 40
0.4374799968
 40
0.4687314716
 40
0.4999829464
 40
0.5312344209
 40
0.5624858955
 40
0.5937373705
 40
0.6249888451
 40
0.6874907048
 40
0.7499925668
 40
0.8124944267
 40
0.8749962827
 40
0.9374981428
 40
1.0
 40
1.0
 40
1.0
 40
1.0
 10
3.8708183383
 20
10.2102278081
 30
0.0
 10
3.8786509939
 20
10.2007501853
 30
0.0
 10
3.8950046535
 20
10.182352025
 30
0.0
 10
3.9214350511
 20
10.156579558
 30
0.0
 10
3.9496308309
 20
10.1327486132
 30
0.0
 10
3.9794503133
 20
10.1109839231
 30
0.0
 10
4.0107536121
 20
10.0914125289
 30
0.0
 10
4.0433743023
 20
10.0741256729
 30
0.0
 10
4.0771459261
 20
10.0592116667
 30
0.0
 10
4.111894145
 20
10.0467416707
 30
0.0
 10
4.147444509
 20
10.0367864555
 30
0.0
 10
4.1836144242
 20
10.0293913513
 30
0.0
 10
4.2202190645
 20
10.0245964344
 30
0.0
 10
4.2509342943
 20
10.0227882861
 30
0.0
 10
4.2755313127
 20
10.0226590223
 30
0.0
 10
4.2939731402
 20
10.0232208965
 30
0.0
 10
4.3123829377
 20
10.0244408096
 30
0.0
 10
4.3307373596
 20
10.0263175057
 30
0.0
 10
4.3459676818
 20
10.0284260519
 30
0.0
 10
4.3581002753
 20
10.0304381271
 30
0.0
 10
4.3671714948
 20
10.0321100723
 30
0.0
 10
4.3762112678
 20
10.0339442498
 30
0.0
 10
4.3837163871
 20
10.0356052682
 30
0.0
 10
4.3897022058
 20
10.0370130928
 30
0.0
 10
4.3941818281
 20
10.0381096624
 30
0.0
 10
4.3986511329
 20
10.0392474552
 30
0.0
 10
4.4031092836
 20
10.0404281774
 30
0.0
 10
4.4068153747
 20
10.04144556
 30
0.0
 10
4.4097759757
 20
10.0422747214
 30
0.0
 10
4.4119949625
 20
10.0429017611
 30
0.0
 10
4.4138412387
 20
10.0434345973
 30
0.0
 10
4.4153143817
 20
10.0438743985
 30
0.0
 10
4.4167843096
 20
10.0443249433
 30
0.0
 10
4.4182537205
 20
10.044776816
 30
0.0
 10
4.4197309898
 20
10.0452015169
 30
0.0
 10
4.4212160193
 20
10.0455976603
 30
0.0
 10
4.4230839878
 20
10.0460492139
 30
0.0
 10
4.4253338203
 20
10.046556253
 30
0.0
 10
4.427582517
 20
10.0470690856
 30
0.0
 10
4.4298262361
 20
10.0476019127
 30
0.0
 10
4.4320679278
 20
10.0481418613
 30
0.0
 10
4.4350572148
 20
10.048860154
 30
0.0
 10
4.4387968657
 20
10.04974592
 30
0.0
 10
4.4432869561
 20
10.0507987113
 30
0.0
 10
4.4477779392
 20
10.0518479145
 30
0.0
 10
4.4522686186
 20
10.0528981887
 30
0.0
 10
4.458256567
 20
10.0542965917
 30
0.0
 10
4.4657436479
 20
10.0560354084
 30
0.0
 10
4.4747319066
 20
10.0581058008
 30
0.0
 10
4.4837229415
 20
10.0601641647
 30
0.0
 10
4.4957149169
 20
10.0628913545
 30
0.0
 10
4.5107124207
 20
10.066267123
 30
0.0
 10
4.5287214491
 20
10.0702642511
 30
0.0
 10
4.5467421471
 20
10.0742084511
 30
0.0
 10
4.564774395
 20
10.0780995012
 30
0.0
 10
4.5888325727
 20
10.0832166039
 30
0.0
 10
4.618933488
 20
10.0894796995
 30
0.0
 10
4.6550982944
 20
10.0967820407
 30
0.0
 10
4.691305574
 20
10.1038708018
 30
0.0
 10
4.7275540766
 20
10.1107457199
 30
0.0
 10
4.7759385136
 20
10.1196267769
 30
0.0
 10
4.8365161575
 20
10.1301923277
 30
0.0
 10
4.9093536975
 20
10.1420117963
 30
0.0
 10
4.9823257459
 20
10.1529705685
 30
0.0
 10
5.0554220727
 20
10.1630671319
 30
0.0
 10
5.1286324904
 20
10.1722999397
 30
0.0
 10
5.2019469111
 20
10.1806678071
 30
0.0
 10
5.299822994
 20
10.1906700512
 30
0.0
 10
5.4223797909
 20
10.2010050096
 30
0.0
 10
5.5696976659
 20
10.2099312253
 30
0.0
 10
5.7171855925
 20
10.2153767951
 30
0.0
 10
5.8647610968
 20
10.2173377562
 30
0.0
 10
6.0123409355
 20
10.2158147016
 30
0.0
 10
6.1106782331
 20
10.2124770089
 30
0.0
 10
6.1598183383
 20
10.2102278081
 30
0.0
  0
SPLINE
  5
379
100
AcDbEntity
  8
0
100
AcDbSpline
 62
7
  6
CONTINUOUS
 70
0
 71
3
 72
79
 73
75
 74
0
 42
0.0000001
 43
0.0000001
 44
0.0000000001
 40
0.0
 40
0.0
 40
0.0
 40
0.0
 40
0.0156222496
 40
0.0312446361
 40
0.0468670658
 40
0.062489202
 40
0.0781114958
 40
0.0937341701
 40
0.109356768
 40
0.1249792144
 40
0.1406016312
 40
0.156224169
 40
0.1718466762
 40
0.1874691837
 40
0.1952816827
 40
0.2030941846
 40
0.2109066776
 40
0.218719169
 40
0.2265316788
 40
0.2304380893
 40
0.2343444808
 40
0.2382508715
 40
0.2421573024
 40
0.2441105444
 40
0.246063775
 40
0.248016991
 40
0.2499702009
 40
0.2519234228
 40
0.2529000314
 40
0.2538766235
 40
0.2548532284
 40
0.2553415792
 40
0.2558299841
 40
0.2568066569
 40
0.257294808
 40
0.2577829049
 40
0.2587593767
 40
0.2597363104
 40
0.2607132105
 40
0.2616898605
 40
0.2626663951
 40
0.2636429237
 40
0.2655961003
 40
0.2675493797
 40
0.2695026692
 40
0.2714559116
 40
0.2734091253
 40
0.2773155607
 40
0.2812220276
 40
0.2851284884
 40
0.2890349422
 40
0.2968478481
 40
0.3046607616
 40
0.3124736739
 40
0.3202865845
 40
0.3280994947
 40
0.3437253
 40
0.3593511061
 40
0.3749769115
 40
0.3906027167
 40
0.406228522
 40
0.4374799968
 40
0.4687314716
 40
0.4999829464
 40
0.5312344209
 40
0.5624858955
 40
0.5937373705
 40
0.6249888451
 40
0.6874907048
 40
0.7499925668
 40
0.8124944267
 40
0.8749962827
 40
0.9374981428
 40
1.0
 40
1.0
 40
1.0
 40
1.0
 10
3.8708183383
 20
10.7732278081
 30
0.0
 10
3.8786509939
 20
10.7827054309
 30
0.0
 10
3.8950046535
 20
10.8011035912
 30
0.0
 10
3.9214350511
 20
10.8268760582
 30
0.0
 10
3.9496308309
 20
10.850707003
 30
0.0
 10
3.9794503133
 20
10.872471693
 30
0.0
 10
4.0107536121
 20
10.8920430872
 30
0.0
 10
4.0433743023
 20
10.9093299433
 30
0.0
 10
4.0771459261
 20
10.9242439495
 30
0.0
 10
4.111894145
 20
10.9367139455
 30
0.0
 10
4.147444509
 20
10.9466691607
 30
0.0
 10
4.1836144242
 20
10.9540642649
 30
0.0
 10
4.2202190645
 20
10.9588591817
 30
0.0
 10
4.2509342943
 20
10.96066733
 30
0.0
 10
4.2755313127
 20
10.9607965939
 30
0.0
 10
4.2939731402
 20
10.9602347196
 30
0.0
 10
4.3123829377
 20
10.9590148066
 30
0.0
 10
4.3307373596
 20
10.9571381104
 30
0.0
 10
4.3459676818
 20
10.9550295643
 30
0.0
 10
4.3581002753
 20
10.9530174891
 30
0.0
 10
4.3671714948
 20
10.9513455439
 30
0.0
 10
4.3762112678
 20
10.9495113664
 30
0.0
 10
4.3837163871
 20
10.947850348
 30
0.0
 10
4.3897022058
 20
10.9464425234
 30
0.0
 10
4.3941818281
 20
10.9453459538
 30
0.0
 10
4.3986511329
 20
10.944208161
 30
0.0
 10
4.4031092836
 20
10.9430274387
 30
0.0
 10
4.4068153747
 20
10.9420100562
 30
0.0
 10
4.4097759757
 20
10.9411808948
 30
0.0
 10
4.4119949625
 20
10.9405538551
 30
0.0
 10
4.4138412387
 20
10.9400210189
 30
0.0
 10
4.4153143817
 20
10.9395812177
 30
0.0
 10
4.4167843096
 20
10.9391306729
 30
0.0
 10
4.4182537205
 20
10.9386788002
 30
0.0
 10
4.4197309898
 20
10.9382540993
 30
0.0
 10
4.4212160193
 20
10.9378579559
 30
0.0
 10
4.4230839878
 20
10.9374064023
 30
0.0
 10
4.4253338203
 20
10.9368993632
 30
0.0
 10
4.427582517
 20
10.9363865306
 30
0.0
 10
4.4298262361
 20
10.9358537035
 30
0.0
 10
4.4320679278
 20
10.9353137549
 30
0.0
 10
4.4350572148
 20
10.9345954622
 30
0.0
 10
4.4387968657
 20
10.9337096962
 30
0.0
 10
4.4432869561
 20
10.9326569048
 30
0.0
 10
4.4477779392
 20
10.9316077017
 30
0.0
 10
4.4522686186
 20
10.9305574275
 30
0.0
 10
4.458256567
 20
10.9291590245
 30
0.0
 10
4.4657436479
 20
10.9274202078
 30
0.0
 10
4.4747319066
 20
10.9253498154
 30
0.0
 10
4.4837229415
 20
10.9232914515
 30
0.0
 10
4.4957149169
 20
10.9205642617
 30
0.0
 10
4.5107124207
 20
10.9171884932
 30
0.0
 10
4.5287214491
 20
10.913191365
 30
0.0
 10
4.5467421471
 20
10.9092471651
 30
0.0
 10
4.564774395
 20
10.905356115
 30
0.0
 10
4.5888325727
 20
10.9002390123
 30
0.0
 10
4.618933488
 20
10.8939759167
 30
0.0
 10
4.6550982944
 20
10.8866735755
 30
0.0
 10
4.691305574
 20
10.8795848144
 30
0.0
 10
4.7275540766
 20
10.8727098963
 30
0.0
 10
4.7759385136
 20
10.8638288393
 30
0.0
 10
4.8365161575
 20
10.8532632885
 30
0.0
 10
4.9093536975
 20
10.8414438199
 30
0.0
 10
4.9823257459
 20
10.8304850477
 30
0.0
 10
5.0554220727
 20
10.8203884843
 30
0.0
 10
5.1286324904
 20
10.8111556765
 30
0.0
 10
5.2019469111
 20
10.8027878091
 30
0.0
 10
5.299822994
 20
10.792785565
 30
0.0
 10
5.4223797909
 20
10.7824506066
 30
0.0
 10
5.5696976659
 20
10.7735243909
 30
0.0
 10
5.7171855925
 20
10.7680788211
 30
0.0
 10
5.8647610968
 20
10.7661178599
 30
0.0
 10
6.0123409355
 20
10.7676409146
 30
0.0
 10
6.1106782331
 20
10.7709786073
 30
0.0
 10
6.1598183383
 20
10.7732278081
 30
0.0
  0
SPLINE
  5
37A
100
AcDbEntity
  8
0
100
AcDbSpline
 62
7
  6
CONTINUOUS
 70
0
 71
3
 72
79
 73
75
 74
0
 42
0.0000001
 43
0.0000001
 44
0.0000000001
 40
0.0
 40
0.0
 40
0.0
 40
0.0
 40
0.0156222496
 40
0.0312446361
 40
0.0468670658
 40
0.062489202
 40
0.0781114958
 40
0.0937341701
 40
0.109356768
 40
0.1249792144
 40
0.1406016312
 40
0.156224169
 40
0.1718466762
 40
0.1874691837
 40
0.1952816827
 40
0.2030941846
 40
0.2109066776
 40
0.218719169
 40
0.2265316788
 40
0.2304380893
 40
0.2343444808
 40
0.2382508715
 40
0.2421573024
 40
0.2441105444
 40
0.246063775
 40
0.248016991
 40
0.2499702009
 40
0.2519234228
 40
0.2529000314
 40
0.2538766235
 40
0.2548532284
 40
0.2553415792
 40
0.2558299841
 40
0.2568066569
 40
0.257294808
 40
0.2577829049
 40
0.2587593767
 40
0.2597363104
 40
0.2607132105
 40
0.2616898605
 40
0.2626663951
 40
0.2636429237
 40
0.2655961003
 40
0.2675493797
 40
0.2695026692
 40
0.2714559116
 40
0.2734091253
 40
0.2773155607
 40
0.2812220276
 40
0.2851284884
 40
0.2890349422
 40
0.2968478481
 40
0.3046607616
 40
0.3124736739
 40
0.3202865845
 40
0.3280994947
 40
0.3437253
 40
0.3593511061
 40
0.3749769115
 40
0.3906027167
 40
0.406228522
 40
0.4374799968
 40
0.4687314716
 40
0.4999829464
 40
0.5312344209
 40
0.5624858955
 40
0.5937373705
 40
0.6249888451
 40
0.6874907048
 40
0.7499925668
 40
0.8124944267
 40
0.8749962827
 40
0.9374981428
 40
1.0
 40
1.0
 40
1.0
 40
1.0
 10
18.2238183383
 20
10.7732278081
 30
0.0
 10
18.2159856826
 20
10.7827054309
 30
0.0
 10
18.1996320231
 20
10.8011035912
 30
0.0
 10
18.1732016254
 20
10.8268760582
 30
0.0
 10
18.1450058457
 20
10.850707003
 30
0.0
 10
18.1151863633
 20
10.872471693
 30
0.0
 10
18.0838830645
 20
10.8920430872
 30
0.0
 10
18.0512623743
 20
10.9093299433
 30
0.0
 10
18.0174907505
 20
10.9242439495
 30
0.0
 10
17.9827425315
 20
10.9367139455
 30
0.0
 10
17.9471921675
 20
10.9466691607
 30
0.0
 10
17.9110222523
 20
10.9540642649
 30
0.0
 10
17.8744176121
 20
10.9588591817
 30
0.0
 10
17.8437023823
 20
10.96066733
 30
0.0
 10
17.8191053639
 20
10.9607965939
 30
0.0
 10
17.8006635363
 20
10.9602347196
 30
0.0
 10
17.7822537389
 20
10.9590148066
 30
0.0
 10
17.763899317
 20
10.9571381104
 30
0.0
 10
17.7486689948
 20
10.9550295643
 30
0.0
 10
17.7365364013
 20
10.9530174891
 30
0.0
 10
17.7274651817
 20
10.9513455439
 30
0.0
 10
17.7184254088
 20
10.9495113664
 30
0.0
 10
17.7109202894
 20
10.947850348
 30
0.0
 10
17.7049344707
 20
10.9464425234
 30
0.0
 10
17.7004548485
 20
10.9453459538
 30
0.0
 10
17.6959855437
 20
10.944208161
 30
0.0
 10
17.6915273929
 20
10.9430274387
 30
0.0
 10
17.6878213018
 20
10.9420100562
 30
0.0
 10
17.6848607009
 20
10.9411808948
 30
0.0
 10
17.6826417141
 20
10.9405538551
 30
0.0
 10
17.6807954379
 20
10.9400210189
 30
0.0
 10
17.6793222949
 20
10.9395812177
 30
0.0
 10
17.677852367
 20
10.9391306729
 30
0.0
 10
17.676382956
 20
10.9386788002
 30
0.0
 10
17.6749056868
 20
10.9382540993
 30
0.0
 10
17.6734206573
 20
10.9378579559
 30
0.0
 10
17.6715526887
 20
10.9374064023
 30
0.0
 10
17.6693028563
 20
10.9368993632
 30
0.0
 10
17.6670541596
 20
10.9363865306
 30
0.0
 10
17.6648104405
 20
10.9358537035
 30
0.0
 10
17.6625687488
 20
10.9353137549
 30
0.0
 10
17.6595794617
 20
10.9345954622
 30
0.0
 10
17.6558398109
 20
10.9337096962
 30
0.0
 10
17.6513497205
 20
10.9326569048
 30
0.0
 10
17.6468587374
 20
10.9316077017
 30
0.0
 10
17.642368058
 20
10.9305574275
 30
0.0
 10
17.6363801096
 20
10.9291590245
 30
0.0
 10
17.6288930286
 20
10.9274202078
 30
0.0
 10
17.61990477
 20
10.9253498154
 30
0.0
 10
17.610913735
 20
10.9232914515
 30
0.0
 10
17.5989217597
 20
10.9205642617
 30
0.0
 10
17.5839242559
 20
10.9171884932
 30
0.0
 10
17.5659152275
 20
10.913191365
 30
0.0
 10
17.5478945295
 20
10.9092471651
 30
0.0
 10
17.5298622815
 20
10.905356115
 30
0.0
 10
17.5058041039
 20
10.9002390123
 30
0.0
 10
17.4757031886
 20
10.8939759167
 30
0.0
 10
17.4395383822
 20
10.8866735755
 30
0.0
 10
17.4033311025
 20
10.8795848144
 30
0.0
 10
17.3670825999
 20
10.8727098963
 30
0.0
 10
17.318698163
 20
10.8638288393
 30
0.0
 10
17.2581205191
 20
10.8532632885
 30
0.0
 10
17.185282979
 20
10.8414438199
 30
0.0
 10
17.1123109307
 20
10.8304850477
 30
0.0
 10
17.0392146039
 20
10.8203884843
 30
0.0
 10
16.9660041862
 20
10.8111556765
 30
0.0
 10
16.8926897655
 20
10.8027878091
 30
0.0
 10
16.7948136826
 20
10.792785565
 30
0.0
 10
16.6722568856
 20
10.7824506066
 30
0.0
 10
16.5249390107
 20
10.7735243909
 30
0.0
 10
16.3774510841
 20
10.7680788211
 30
0.0
 10
16.2298755797
 20
10.7661178599
 30
0.0
 10
16.082295741
 20
10.7676409146
 30
0.0
 10
15.9839584435
 20
10.7709786073
 30
0.0
 10
15.9348183383
 20
10.7732278081
 30
0.0
  0
SPLINE
  5
37B
100
AcDbEntity
  8
0
100
AcDbSpline
 62
7
  6
CONTINUOUS
 70
0
 71
3
 72
79
 73
75
 74
0
 42
0.0000001
 43
0.0000001
 44
0.0000000001
 40
0.0
 40
0.0
 40
0.0
 40
0.0
 40
0.0156222496
 40
0.0312446361
 40
0.0468670658
 40
0.062489202
 40
0.0781114958
 40
0.0937341701
 40
0.109356768
 40
0.1249792144
 40
0.1406016312
 40
0.156224169
 40
0.1718466762
 40
0.1874691837
 40
0.1952816827
 40
0.2030941846
 40
0.2109066776
 40
0.218719169
 40
0.2265316788
 40
0.2304380893
 40
0.2343444808
 40
0.2382508715
 40
0.2421573024
 40
0.2441105444
 40
0.246063775
 40
0.248016991
 40
0.2499702009
 40
0.2519234228
 40
0.2529000314
 40
0.2538766235
 40
0.2548532284
 40
0.2553415792
 40
0.2558299841
 40
0.2568066569
 40
0.257294808
 40
0.2577829049
 40
0.2587593767
 40
0.2597363104
 40
0.2607132105
 40
0.2616898605
 40
0.2626663951
 40
0.2636429237
 40
0.2655961003
 40
0.2675493797
 40
0.2695026692
 40
0.2714559116
 40
0.2734091253
 40
0.2773155607
 40
0.2812220276
 40
0.2851284884
 40
0.2890349422
 40
0.2968478481
 40
0.3046607616
 40
0.3124736739
 40
0.3202865845
 40
0.3280994947
 40
0.3437253
 40
0.3593511061
 40
0.3749769115
 40
0.3906027167
 40
0.406228522
 40
0.4374799968
 40
0.4687314716
 40
0.4999829464
 40
0.5312344209
 40
0.5624858955
 40
0.5937373705
 40
0.6249888451
 40
0.6874907048
 40
0.7499925668
 40
0.8124944267
 40
0.8749962827
 40
0.9374981428
 40
1.0
 40
1.0
 40
1.0
 40
1.0
 10
18.2238183383
 20
10.2102278081
 30
0.0
 10
18.2159856826
 20
10.2007501853
 30
0.0
 10
18.1996320231
 20
10.182352025
 30
0.0
 10
18.1732016254
 20
10.156579558
 30
0.0
 10
18.1450058457
 20
10.1327486132
 30
0.0
 10
18.1151863633
 20
10.1109839231
 30
0.0
 10
18.0838830645
 20
10.0914125289
 30
0.0
 10
18.0512623743
 20
10.0741256729
 30
0.0
 10
18.0174907505
 20
10.0592116667
 30
0.0
 10
17.9827425315
 20
10.0467416707
 30
0.0
 10
17.9471921675
 20
10.0367864555
 30
0.0
 10
17.9110222523
 20
10.0293913513
 30
0.0
 10
17.8744176121
 20
10.0245964344
 30
0.0
 10
17.8437023823
 20
10.0227882861
 30
0.0
 10
17.8191053639
 20
10.0226590223
 30
0.0
 10
17.8006635363
 20
10.0232208965
 30
0.0
 10
17.7822537389
 20
10.0244408096
 30
0.0
 10
17.763899317
 20
10.0263175057
 30
0.0
 10
17.7486689948
 20
10.0284260519
 30
0.0
 10
17.7365364013
 20
10.0304381271
 30
0.0
 10
17.7274651817
 20
10.0321100723
 30
0.0
 10
17.7184254088
 20
10.0339442498
 30
0.0
 10
17.7109202894
 20
10.0356052682
 30
0.0
 10
17.7049344707
 20
10.0370130928
 30
0.0
 10
17.7004548485
 20
10.0381096624
 30
0.0
 10
17.6959855437
 20
10.0392474552
 30
0.0
 10
17.6915273929
 20
10.0404281774
 30
0.0
 10
17.6878213018
 20
10.04144556
 30
0.0
 10
17.6848607009
 20
10.0422747214
 30
0.0
 10
17.6826417141
 20
10.0429017611
 30
0.0
 10
17.6807954379
 20
10.0434345973
 30
0.0
 10
17.6793222949
 20
10.0438743985
 30
0.0
 10
17.677852367
 20
10.0443249433
 30
0.0
 10
17.676382956
 20
10.044776816
 30
0.0
 10
17.6749056868
 20
10.0452015169
 30
0.0
 10
17.6734206573
 20
10.0455976603
 30
0.0
 10
17.6715526887
 20
10.0460492139
 30
0.0
 10
17.6693028563
 20
10.046556253
 30
0.0
 10
17.6670541596
 20
10.0470690856
 30
0.0
 10
17.6648104405
 20
10.0476019127
 30
0.0
 10
17.6625687488
 20
10.0481418613
 30
0.0
 10
17.6595794617
 20
10.048860154
 30
0.0
 10
17.6558398109
 20
10.04974592
 30
0.0
 10
17.6513497205
 20
10.0507987113
 30
0.0
 10
17.6468587374
 20
10.0518479145
 30
0.0
 10
17.642368058
 20
10.0528981887
 30
0.0
 10
17.6363801096
 20
10.0542965917
 30
0.0
 10
17.6288930286
 20
10.0560354084
 30
0.0
 10
17.61990477
 20
10.0581058008
 30
0.0
 10
17.610913735
 20
10.0601641647
 30
0.0
 10
17.5989217597
 20
10.0628913545
 30
0.0
 10
17.5839242559
 20
10.066267123
 30
0.0
 10
17.5659152275
 20
10.0702642511
 30
0.0
 10
17.5478945295
 20
10.0742084511
 30
0.0
 10
17.5298622815
 20
10.0780995012
 30
0.0
 10
17.5058041039
 20
10.0832166039
 30
0.0
 10
17.4757031886
 20
10.0894796995
 30
0.0
 10
17.4395383822
 20
10.0967820407
 30
0.0
 10
17.4033311025
 20
10.1038708018
 30
0.0
 10
17.3670825999
 20
10.1107457199
 30
0.0
 10
17.318698163
 20
10.1196267769
 30
0.0
 10
17.2581205191
 20
10.1301923277
 30
0.0
 10
17.185282979
 20
10.1420117963
 30
0.0
 10
17.1123109307
 20
10.1529705685
 30
0.0
 10
17.0392146039
 20
10.1630671319
 30
0.0
 10
16.9660041862
 20
10.1722999397
 30
0.0
 10
16.8926897655
 20
10.1806678071
 30
0.0
 10
16.7948136826
 20
10.1906700512
 30
0.0
 10
16.6722568856
 20
10.2010050096
 30
0.0
 10
16.5249390107
 20
10.2099312253
 30
0.0
 10
16.3774510841
 20
10.2153767951
 30
0.0
 10
16.2298755797
 20
10.2173377562
 30
0.0
 10
16.082295741
 20
10.2158147016
 30
0.0
 10
15.9839584435
 20
10.2124770089
 30
0.0
 10
15.9348183383
 20
10.2102278081
 30
0.0
  0
SPLINE
  5
37C
100
AcDbEntity
  8
0
100
AcDbSpline
 62
7
  6
CONTINUOUS
 70
0
 71
3
 72
13
 73
9
 74
0
 42
0.0000001
 43
0.0000001
 44
0.0000000001
 40
0.0
 40
0.0
 40
0.0
 40
0.0
 40
0.2500186605
 40
0.3750910004
 40
0.500140214
 40
0.6251712691
 40
0.750190098
 40
1.0
 40
1.0
 40
1.0
 40
1.0
 10
11.2938194751
 20
3.4154570547
 30
0.0
 10
11.3042652102
 20
3.4288423836
 30
0.0
 10
11.318328458
 20
3.4502600167
 30
0.0
 10
11.3333719499
 20
3.4807401539
 30
0.0
 10
11.3427526618
 20
3.5044593948
 30
0.0
 10
11.3501682168
 20
3.5288607783
 30
0.0
 10
11.3573518656
 20
3.5620638725
 30
0.0
 10
11.3596634084
 20
3.5875640685
 30
0.0
 10
11.3598071956
 20
3.6045281047
 30
0.0
  0
SPLINE
  5
37D
100
AcDbEntity
  8
0
100
AcDbSpline
 62
7
  6
CONTINUOUS
 70
0
 71
3
 72
21
 73
17
 74
0
 42
0.0000001
 43
0.0000001
 44
0.0000000001
 40
0.0
 40
0.0
 40
0.0
 40
0.0
 40
0.062376444
 40
0.1247598954
 40
0.1871563438
 40
0.2495649341
 40
0.3743017873
 40
0.4367669503
 40
0.499260538
 40
0.5617819516
 40
0.624332053
 40
0.6869064678
 40
0.7494993913
 40
0.8121209728
 40
0.8747876566
 40
1.0
 40
1.0
 40
1.0
 40
1.0
 10
10.7348364042
 20
3.6055587615
 30
0.0
 10
10.734933634
 20
3.5962620185
 30
0.0
 10
10.7359661727
 20
3.5776652043
 30
0.0
 10
10.7400218061
 20
3.550029871
 30
0.0
 10
10.746558231
 20
3.5228639091
 30
0.0
 10
10.7584805459
 20
3.4875921719
 30
0.0
 10
10.7751573841
 20
3.4540641186
 30
0.0
 10
10.7960873459
 20
3.4232441926
 30
0.0
 10
10.8138243694
 20
3.4015991325
 30
0.0
 10
10.8334371791
 20
3.3816242942
 30
0.0
 10
10.8547786416
 20
3.3634885293
 30
0.0
 10
10.8776634183
 20
3.3473256064
 30
0.0
 10
10.9019142374
 20
3.3332756087
 30
0.0
 10
10.9273414787
 20
3.3214454213
 30
0.0
 10
10.9625008496
 20
3.3087795449
 30
0.0
 10
10.9900738614
 20
3.3028630823
 30
0.0
 10
11.0085977815
 20
3.3005890128
 30
0.0
  0
SPLINE
  5
37E
100
AcDbEntity
  8
0
100
AcDbSpline
 62
9
  6
CONTINUOUS
 70
0
 71
3
 72
27
 73
23
 74
0
 42
0.0000001
 43
0.0000001
 44
0.0000000001
 40
0.0
 40
0.0
 40
0.0
 40
0.0
 40
0.0876026868
 40
0.1745851632
 40
0.2600666251
 40
0.3433109329
 40
0.4236685718
 40
0.5005130942
 40
0.5732465191
 40
0.641327635
 40
0.7043273725
 40
0.7338120379
 40
0.7619084168
 40
0.8138610755
 40
0.860168563
 40
0.9010711345
 40
0.9196859512
 40
0.9372093588
 40
0.9537950705
 40
0.9696347367
 40
0.984952401
 40
1.0
 40
1.0
 40
1.0
 40
1.0
 10
11.0473183383
 20
5.3062215815
 30
0.0
 10
11.0575216762
 20
5.3062215815
 30
0.0
 10
11.0778577351
 20
5.3058790827
 30
0.0
 10
11.1081155681
 20
5.3043534304
 30
0.0
 10
11.1377972165
 20
5.3018223556
 30
0.0
 10
11.1666024018
 20
5.2983135623
 30
0.0
 10
11.1942593314
 20
5.293861704
 30
0.0
 10
11.2205087268
 20
5.2885090004
 30
0.0
 10
11.245101459
 20
5.2823118224
 30
0.0
 10
11.2677998722
 20
5.2753221589
 30
0.0
 10
11.2853293784
 20
5.2687638943
 30
0.0
 10
11.2982007444
 20
5.26313648
 30
0.0
 10
11.3096834175
 20
5.2575721065
 30
0.0
 10
11.3225244441
 20
5.2503332549
 30
0.0
 10
11.3357546403
 20
5.2409106199
 30
0.0
 10
11.3447872172
 20
5.2324421859
 30
0.0
 10
11.3504618392
 20
5.2254753254
 30
0.0
 10
11.3538541404
 20
5.2203425995
 30
0.0
 10
11.35650667
 20
5.215149852
 30
0.0
 10
11.3584117781
 20
5.2099089297
 30
0.0
 10
11.3595608891
 20
5.2046347146
 30
0.0
 10
11.3598183383
 20
5.201092924
 30
0.0
 10
11.3598183383
 20
5.1993402867
 30
0.0
  0
SPLINE
  5
37F
100
AcDbEntity
  8
0
100
AcDbSpline
 62
9
  6
CONTINUOUS
 70
0
 71
3
 72
9
 73
5
 74
0
 42
0.0000001
 43
0.0000001
 44
0.0000000001
 40
0.0
 40
0.0
 40
0.0
 40
0.0
 40
0.4999023987
 40
1.0
 40
1.0
 40
1.0
 40
1.0
 10
11.0101596012
 20
3.3004012694
 30
0.0
 10
11.0163209575
 20
3.2996662881
 30
0.0
 10
11.0286971508
 20
3.2986144891
 30
0.0
 10
11.0411108763
 20
3.298230212
 30
0.0
 10
11.0473183383
 20
3.298230212
 30
0.0
  0
SPLINE
  5
380
100
AcDbEntity
  8
0
100
AcDbSpline
 62
7
  6
CONTINUOUS
 70
0
 71
3
 72
12
 73
8
 74
0
 42
0.0000001
 43
0.0000001
 44
0.0000000001
 40
0.0
 40
0.0
 40
0.0
 40
0.0
 40
0.2498366782
 40
0.4997332453
 40
0.6247940522
 40
0.7498820011
 40
1.0
 40
1.0
 40
1.0
 40
1.0
 10
10.7348426389
 20
3.6023334538
 30
0.0
 10
10.735022611
 20
3.5876776181
 30
0.0
 10
10.7374686773
 20
3.5583471831
 30
0.0
 10
10.7457117364
 20
3.5225005745
 30
0.0
 10
10.7552917768
 20
3.494748885
 30
0.0
 10
10.7668275318
 20
3.4677432077
 30
0.0
 10
10.7776241352
 20
3.4484493399
 30
0.0
 10
10.7856806151
 20
3.4361854453
 30
0.0
  0
SPLINE
  5
381
100
AcDbEntity
  8
0
100
AcDbSpline
 62
9
  6
CONTINUOUS
 70
0
 71
3
 72
21
 73
17
 74
0
 42
0.0000001
 43
0.0000001
 44
0.0000000001
 40
0.0
 40
0.0
 40
0.0
 40
0.0
 40
0.1246548323
 40
0.2493458918
 40
0.3117889568
 40
0.3742525588
 40
0.4367365678
 40
0.4992436985
 40
0.5617749774
 40
0.6243306957
 40
0.6869059317
 40
0.7494906972
 40
0.812095878
 40
0.874743461
 40
0.937413538
 40
1.0
 40
1.0
 40
1.0
 40
1.0
 10
11.3598093767
 20
3.6071880914
 30
0.0
 10
11.3596551819
 20
3.5869428327
 30
0.0
 10
11.3553606037
 20
3.5463712766
 30
0.0
 10
11.3401960571
 20
3.4977014313
 30
0.0
 10
11.3225847875
 20
3.4611269706
 30
0.0
 10
11.3067364149
 20
3.4350847878
 30
0.0
 10
11.2884199024
 20
3.4107050621
 30
0.0
 10
11.2677966653
 20
3.3882274456
 30
0.0
 10
11.2450774628
 20
3.3678534199
 30
0.0
 10
11.2204647531
 20
3.3497935704
 30
0.0
 10
11.1942076136
 20
3.3342047713
 30
0.0
 10
11.1665494224
 20
3.321243855
 30
0.0
 10
11.1377507521
 20
3.3110315604
 30
0.0
 10
11.1080804338
 20
3.303666707
 30
0.0
 10
11.0778403452
 20
3.2992278888
 30
0.0
 10
11.0574833342
 20
3.298230212
 30
0.0
 10
11.0473183383
 20
3.298230212
 30
0.0
  0
SPLINE
  5
382
100
AcDbEntity
  8
0
100
AcDbSpline
 62
9
  6
CONTINUOUS
 70
0
 71
3
 72
27
 73
23
 74
0
 42
0.0000001
 43
0.0000001
 44
0.0000000001
 40
0.0
 40
0.0
 40
0.0
 40
0.0
 40
0.015047599
 40
0.0303652633
 40
0.0462049295
 40
0.0627906412
 40
0.0803140488
 40
0.0989288655
 40
0.139831437
 40
0.1861389245
 40
0.2380915832
 40
0.2661879621
 40
0.2956726275
 40
0.358672365
 40
0.4267534809
 40
0.4994869058
 40
0.5763314282
 40
0.6566890671
 40
0.7399333749
 40
0.8254148368
 40
0.9123973132
 40
1.0
 40
1.0
 40
1.0
 40
1.0
 10
10.7348183383
 20
5.1993402867
 30
0.0
 10
10.7348183383
 20
5.201092924
 30
0.0
 10
10.7350757875
 20
5.2046347146
 30
0.0
 10
10.7362248985
 20
5.2099089297
 30
0.0
 10
10.7381300066
 20
5.215149852
 30
0.0
 10
10.7407825362
 20
5.2203425995
 30
0.0
 10
10.7441748373
 20
5.2254753254
 30
0.0
 10
10.7498494594
 20
5.2324421859
 30
0.0
 10
10.7588820363
 20
5.2409106199
 30
0.0
 10
10.7721122325
 20
5.2503332549
 30
0.0
 10
10.784953259
 20
5.2575721065
 30
0.0
 10
10.7964359322
 20
5.26313648
 30
0.0
 10
10.8093072982
 20
5.2687638943
 30
0.0
 10
10.8268368043
 20
5.2753221589
 30
0.0
 10
10.8495352176
 20
5.2823118224
 30
0.0
 10
10.8741279498
 20
5.2885090004
 30
0.0
 10
10.9003773452
 20
5.293861704
 30
0.0
 10
10.9280342748
 20
5.2983135623
 30
0.0
 10
10.95683946
 20
5.3018223556
 30
0.0
 10
10.9865211085
 20
5.3043534304
 30
0.0
 10
11.0167789415
 20
5.3058790827
 30
0.0
 10
11.0371150004
 20
5.3062215815
 30
0.0
 10
11.0473183383
 20
5.3062215815
 30
0.0
  0
SPLINE
  5
383
100
AcDbEntity
  8
0
100
AcDbSpline
 62
9
  6
CONTINUOUS
 70
0
 71
3
 72
21
 73
17
 74
0
 42
0.0000001
 43
0.0000001
 44
0.0000000001
 40
0.0
 40
0.0
 40
0.0
 40
0.0
 40
0.0624077137
 40
0.1248189622
 40
0.1872391293
 40
0.2496703305
 40
0.3744524584
 40
0.4369323975
 40
0.4994334205
 40
0.5619568144
 40
0.6245039243
 40
0.6870675456
 40
0.7496415659
 40
0.8122399705
 40
0.8748816367
 40
1.0
 40
1.0
 40
1.0
 40
1.0
 10
10.7348453295
 20
3.605561044
 30
0.0
 10
10.7349655929
 20
3.5962323693
 30
0.0
 10
10.7360468777
 20
3.5775742082
 30
0.0
 10
10.7401850372
 20
3.5498549732
 30
0.0
 10
10.7468101409
 20
3.5226139164
 30
0.0
 10
10.7588608986
 20
3.4872549342
 30
0.0
 10
10.7756745911
 20
3.4536572581
 30
0.0
 10
10.7967513618
 20
3.422791573
 30
0.0
 10
10.8145987289
 20
3.4011252015
 30
0.0
 10
10.8343239797
 20
3.38114333
 30
0.0
 10
10.8557756379
 20
3.3630121287
 30
0.0
 10
10.8787680707
 20
3.3468663112
 30
0.0
 10
10.9031242115
 20
3.3328484878
 30
0.0
 10
10.9286518929
 20
3.3210612361
 30
0.0
 10
10.9639324793
 20
3.3084694976
 30
0.0
 10
10.9915870946
 20
3.3026167629
 30
0.0
 10
11.0101596057
 20
3.3004012689
 30
0.0
  0
SPLINE
  5
384
100
AcDbEntity
  8
0
100
AcDbSpline
 62
9
  6
CONTINUOUS
 70
0
 71
3
 72
27
 73
23
 74
0
 42
0.0000001
 43
0.0000001
 44
0.0000000001
 40
0.0
 40
0.0
 40
0.0
 40
0.0
 40
0.0876026868
 40
0.1745851632
 40
0.2600666251
 40
0.3433109329
 40
0.4236685718
 40
0.5005130942
 40
0.5732465191
 40
0.641327635
 40
0.7043273725
 40
0.7338120379
 40
0.7619084168
 40
0.8138610755
 40
0.860168563
 40
0.9010711345
 40
0.9196859512
 40
0.9372093588
 40
0.9537950705
 40
0.9696347367
 40
0.984952401
 40
1.0
 40
1.0
 40
1.0
 40
1.0
 10
11.0473183383
 20
6.8027990917
 30
0.0
 10
11.0371150004
 20
6.8027990917
 30
0.0
 10
11.0167789415
 20
6.8024565929
 30
0.0
 10
10.9865211085
 20
6.8009309406
 30
0.0
 10
10.95683946
 20
6.7983998658
 30
0.0
 10
10.9280342748
 20
6.7948910725
 30
0.0
 10
10.9003773452
 20
6.7904392142
 30
0.0
 10
10.8741279498
 20
6.7850865106
 30
0.0
 10
10.8495352176
 20
6.7788893326
 30
0.0
 10
10.8268368043
 20
6.7718996691
 30
0.0
 10
10.8093072982
 20
6.7653414045
 30
0.0
 10
10.7964359322
 20
6.7597139902
 30
0.0
 10
10.784953259
 20
6.7541496167
 30
0.0
 10
10.7721122325
 20
6.7469107651
 30
0.0
 10
10.7588820363
 20
6.7374881301
 30
0.0
 10
10.7498494594
 20
6.7290196961
 30
0.0
 10
10.7441748373
 20
6.7220528356
 30
0.0
 10
10.7407825362
 20
6.7169201097
 30
0.0
 10
10.7381300066
 20
6.7117273622
 30
0.0
 10
10.7362248985
 20
6.7064864399
 30
0.0
 10
10.7350757875
 20
6.7012122248
 30
0.0
 10
10.7348183383
 20
6.6976704342
 30
0.0
 10
10.7348183383
 20
6.6959177969
 30
0.0
  0
SPLINE
  5
385
100
AcDbEntity
  8
0
100
AcDbSpline
 62
9
  6
CONTINUOUS
 70
0
 71
3
 72
27
 73
23
 74
0
 42
0.0000001
 43
0.0000001
 44
0.0000000001
 40
0.0
 40
0.0
 40
0.0
 40
0.0
 40
0.015047599
 40
0.0303652633
 40
0.0462049295
 40
0.0627906412
 40
0.0803140488
 40
0.0989288655
 40
0.139831437
 40
0.1861389245
 40
0.2380915832
 40
0.2661879621
 40
0.2956726275
 40
0.358672365
 40
0.4267534809
 40
0.4994869058
 40
0.5763314282
 40
0.6566890671
 40
0.7399333749
 40
0.8254148368
 40
0.9123973132
 40
1.0
 40
1.0
 40
1.0
 40
1.0
 10
11.3598183383
 20
6.6959177969
 30
0.0
 10
11.3598183383
 20
6.6976704342
 30
0.0
 10
11.3595608891
 20
6.7012122248
 30
0.0
 10
11.3584117781
 20
6.7064864399
 30
0.0
 10
11.35650667
 20
6.7117273622
 30
0.0
 10
11.3538541404
 20
6.7169201097
 30
0.0
 10
11.3504618392
 20
6.7220528356
 30
0.0
 10
11.3447872172
 20
6.7290196961
 30
0.0
 10
11.3357546403
 20
6.7374881301
 30
0.0
 10
11.3225244441
 20
6.7469107651
 30
0.0
 10
11.3096834175
 20
6.7541496167
 30
0.0
 10
11.2982007444
 20
6.7597139902
 30
0.0
 10
11.2853293784
 20
6.7653414045
 30
0.0
 10
11.2677998722
 20
6.7718996691
 30
0.0
 10
11.245101459
 20
6.7788893326
 30
0.0
 10
11.2205087268
 20
6.7850865106
 30
0.0
 10
11.1942593314
 20
6.7904392142
 30
0.0
 10
11.1666024018
 20
6.7948910725
 30
0.0
 10
11.1377972165
 20
6.7983998658
 30
0.0
 10
11.1081155681
 20
6.8009309406
 30
0.0
 10
11.0778577351
 20
6.8024565929
 30
0.0
 10
11.0575216762
 20
6.8027990917
 30
0.0
 10
11.0473183383
 20
6.8027990917
 30
0.0
  0
ENDSEC
  0
SECTION
  2
OBJECTS
  0
DICTIONARY
  5
C
100
AcDbDictionary
280
0
281
1
  3
ACAD_GROUP
350
D
  3
ACAD_MLINESTYLE
350
17
  3
ACAD_LAYOUT
350
1A
  3
ACAD_PLOTSETTINGS
350
19
  3
ACAD_PLOTSTYLENAME
350
E
  0
DICTIONARY
  5
D
102
{ACAD_REACTORS
330
C
102
}
100
AcDbDictionary
280
0
281
1
  0
ACDBDICTIONARYWDFLT
  5
E
102
{ACAD_REACTORS
330
C
102
}
100
AcDbDictionary
281
1
  3
Normal
350
F
100
AcDbDictionaryWithDefault
340
F
  0
DICTIONARY
  5
17
102
{ACAD_REACTORS
330
C
102
}
100
AcDbDictionary
280
0
281
1
  3
Standard
350
18
  0
DICTIONARY
  5
19
102
{ACAD_REACTORS
330
C
102
}
100
AcDbDictionary
281
1
  0
DICTIONARY
  5
1A
102
{ACAD_REACTORS
330
C
102
}
100
AcDbDictionary
281
1
  3
Model
350
386
  3
Layout1
350
387
  0
ACDBPLACEHOLDER
  5
F
102
{ACAD_REACTORS
330
E
102
}
  0
MLINESTYLE
  5
18
102
{ACAD_REACTORS
330
17
102
}
100
AcDbMlineStyle
  2
STANDARD
 70
0
  3

 62
256
 51
90.0
 52
90.0
 71
2
 49
0.5
 62
256
  6
BYLAYER
 49
-0.5
 62
256
  6
BYLAYER
  0
LAYOUT
  5
386
102
{ACAD_REACTORS
330
1A
102
}
100
AcDbPlotSettings
  1

  2
none_device
  4
ANSI_C_(22.00_x_17.00_Inches)
  6

 40
0.0
 41
0.0
 42
0.0
 43
0.0
 44
558.8
 45
431.8
 46
0.0
 47
0.0
 48
0.0
 49
0.0
140
0.0
141
0.0
142
1.0
143
1.0
 70
1024
 72
0
 73
0
 74
0
  7

 75
0
147
1.0
148
0.0
149
0.0
100
AcDbLayout
  1
Model
 70
0
 71
0
 10
0.0
 20
0.0
 11
22.0
 21
17.0
 12
0.0
 22
0.0
 32
0.0
 14
0.0
 24
0.0
 34
0.0
 15
0.0
 25
0.0
 35
0.0
146
0.0
 13
0.0
 23
0.0
 33
0.0
 16
1.0
 26
0.0
 36
0.0
 17
0.0
 27
1.0
 37
0.0
 76
0
330
202
345
0
346
0
  0
LAYOUT
  5
387
102
{ACAD_REACTORS
330
1A
102
}
100
AcDbPlotSettings
  1

  2
none_device
  4
ANSI_C_(22.00_x_17.00_Inches)
  6

 40
0.0
 41
0.0
 42
0.0
 43
0.0
 44
558.8
 45
431.8
 46
0.0
 47
0.0
 48
0.0
 49
0.0
140
0.0
141
0.0
142
1.0
143
1.0
 70
0
 72
0
 73
0
 74
0
  7

 75
0
147
1.0
148
0.0
149
0.0
100
AcDbLayout
  1
Layout1
 70
0
 71
1
 10
0.0
 20
0.0
 11
22.0
 21
17.0
 12
0.0
 22
0.0
 32
0.0
 14
0.0
 24
0.0
 34
0.0
 15
0.0
 25
0.0
 35
0.0
146
0.0
 13
0.0
 23
0.0
 33
0.0
 16
1.0
 26
0.0
 36
0.0
 17
0.0
 27
1.0
 37
0.0
 76
0
330
203
345
0
346
0
  0
ENDSEC
  0
EOF
