999
DXF file: 1033_TOP.dxf
999
Pro/ENGINEER 2023134 by Parametric Technology Corporation
  0
SECTION
  2
HEADER
  9
$ACADVER
  1
AC1032
  9
$DWGCODEPAGE
  3
ANSI_1252
  9
$EXTMAX
 10
22.0
 20
17.0
 30
0.0
  9
$EXTMIN
 10
0.0
 20
0.0
 30
0.0
  9
$LIMMIN
 10
0.0
 20
0.0
  9
$LIMMAX
 10
22.0
 20
17.0
  9
$VIEWCTR
 10
11.0
 20
8.5
  9
$VIEWSIZE
 40
17.0
  9
$CLAYER
  8
0
  9
$LTSCALE
 40
1.21
  9
$CELTYPE
  6
BYLAYER
  9
$DIMSCALE
 40
1.0
  9
$DIMASZ
 40
0.1
  9
$DIMEXO
 40
0.0625
  9
$DIMDLI
 40
0.836
  9
$DIMEXE
 40
0.125
  9
$DIMCEN
 40
0.198
  9
$DIMLFAC
 40
1.0
  9
$DIMBLK
  1
_FILLED
  9
$DIMALT
 70
1
  9
$DIMALTD
 70
2
  9
$DIMALTTD
 70
2
  9
$DIMALTF
 40
25.4
  9
$DIMTXT
 40
0.08
  9
$DIMTOL
 70
1
  9
$DIMLIM
 70
0
  9
$DIMTFAC
 40
1.0
  9
$DIMTP
 40
0.001
  9
$DIMTM
 40
0.001
  9
$DIMGAP
 40
0.09
  9
$DIMDSEP
 70
46
  9
$AUNITS
 70
0
  9
$PDMODE
 70
3
  9
$PDSIZE
 40
0.3125
  9
$HANDSEED
  5
288
  9
$TILEMODE
 70
1
  9
$MEASUREMENT
 70
0
  9
$INSUNITS
 70
1
  0
ENDSEC
  0
SECTION
  2
CLASSES
  0
CLASS
  1
ACDBDICTIONARYWDFLT
  2
AcDbDictionaryWithDefault
  3
AutoCAD 2000
 90
0
 91
1
280
0
281
0
  0
CLASS
  1
ACDBPLACEHOLDER
  2
AcDbPlaceHolder
  3
AutoCAD 2000
 90
0
 91
1
280
0
281
0
  0
CLASS
  1
LAYOUT
  2
AcDbLayout
  3
AutoCAD 2000
 90
0
 91
0
280
0
281
0
  0
ENDSEC
  0
SECTION
  2
TABLES
  0
TABLE
  2
VPORT
  5
8
100
AcDbSymbolTable
 70
2
  0
VPORT
  5
1F4
100
AcDbSymbolTableRecord
100
AcDbViewportTableRecord
  2
*ACTIVE
 70
0
 10
0.0
 20
0.0
 11
1.0
 21
1.0
 12
11.0
 22
8.5
 13
0.0
 23
0.0
 14
1.0
 24
1.0
 15
0.0
 25
0.0
 16
0.0
 26
0.0
 36
1.0
 17
0.0
 27
0.0
 37
0.0
 40
17.0
 41
1.2941176471
 42
50.0
 43
0.0
 44
0.0
 50
0.0
 51
0.0
 71
0
 72
100
 73
1
 74
1
 75
0
 76
0
 77
0
 78
0
  0
ENDTAB
  0
TABLE
  2
LTYPE
  5
5
100
AcDbSymbolTable
 70
6
  0
LTYPE
  5
14
100
AcDbSymbolTableRecord
100
AcDbLinetypeTableRecord
  2
BYBLOCK
 70
0
  3

 72
65
 73
0
 40
0.0
  0
LTYPE
  5
15
100
AcDbSymbolTableRecord
100
AcDbLinetypeTableRecord
  2
BYLAYER
 70
0
  3

 72
65
 73
0
 40
0.0
  0
LTYPE
  5
16
100
AcDbSymbolTableRecord
100
AcDbLinetypeTableRecord
  2
CONTINUOUS
 70
64
  3
Solid line
 72
65
 73
0
 40
0.0
  0
LTYPE
  5
1F5
100
AcDbSymbolTableRecord
100
AcDbLinetypeTableRecord
  2
CENTER
 70
64
  3
____ _ ____ _ ____ _ ____ _ ____ _ ____ _ ____
 72
65
 73
4
 40
0.6
 49
0.375
 74
0
 49
-0.075
 74
0
 49
0.075
 74
0
 49
-0.075
 74
0
  0
LTYPE
  5
1F6
100
AcDbSymbolTableRecord
100
AcDbLinetypeTableRecord
  2
HIDDEN
 70
64
  3
- - - - - - - - - - - - - - - - - - - -
 72
65
 73
2
 40
0.2
 49
0.1
 74
0
 49
-0.1
 74
0
  0
LTYPE
  5
1F7
100
AcDbSymbolTableRecord
100
AcDbLinetypeTableRecord
  2
PHANTOM
 70
64
  3
_____ _ _ _____ _ _ _____ _ _ _____
 72
65
 73
6
 40
0.8
 49
0.45
 74
0
 49
-0.05
 74
0
 49
0.1
 74
0
 49
-0.05
 74
0
 49
0.1
 74
0
 49
-0.05
 74
0
  0
LTYPE
  5
1F8
100
AcDbSymbolTableRecord
100
AcDbLinetypeTableRecord
  2
DOT
 70
64
  3
. . . . . . . . . . . . . . . . . . . .
 72
65
 73
2
 40
0.2
 49
0.1
 74
0
 49
-0.1
 74
0
  0
LTYPE
  5
1F9
100
AcDbSymbolTableRecord
100
AcDbLinetypeTableRecord
  2
DASHED
 70
64
  3
- - - - - - - - - - - - - - - - - - - -
 72
65
 73
2
 40
0.2
 49
0.1
 74
0
 49
-0.1
 74
0
  0
ENDTAB
  0
TABLE
  2
LAYER
  5
2
100
AcDbSymbolTable
 70
36
  0
LAYER
  5
10
100
AcDbSymbolTableRecord
100
AcDbLayerTableRecord
  2
0
 70
0
 62
7
  6
CONTINUOUS
370
-3
390
F
  0
LAYER
  5
1FA
100
AcDbSymbolTableRecord
100
AcDbLayerTableRecord
  2
DEFAULT_1
 70
0
 62
7
  6
CENTER
370
-3
390
F
  0
LAYER
  5
1FB
100
AcDbSymbolTableRecord
100
AcDbLayerTableRecord
  2
DEFAULT_2
 70
0
 62
8
  6
HIDDEN
370
-3
390
F
  0
LAYER
  5
1FC
100
AcDbSymbolTableRecord
100
AcDbLayerTableRecord
  2
DEFAULT_3
 70
0
 62
7
  6
PHANTOM
370
-3
390
F
  0
LAYER
  5
1FD
100
AcDbSymbolTableRecord
100
AcDbLayerTableRecord
  2
DEFAULT_COORDINATE_SYSTEM
 70
0
 62
7
  6
CONTINUOUS
370
-3
390
F
  0
LAYER
  5
1FE
100
AcDbSymbolTableRecord
100
AcDbLayerTableRecord
  2
DEFAULT_DATUM_AXES
 70
0
 62
7
  6
CONTINUOUS
370
-3
390
F
  0
LAYER
  5
1FF
100
AcDbSymbolTableRecord
100
AcDbLayerTableRecord
  2
DEFAULT_DATUM_PLANES
 70
0
 62
7
  6
CONTINUOUS
370
-3
390
F
  0
ENDTAB
  0
TABLE
  2
STYLE
  5
3
100
AcDbSymbolTable
 70
1
  0
STYLE
  5
11
100
AcDbSymbolTableRecord
100
AcDbTextStyleTableRecord
  2
STANDARD
 70
0
 40
0.0
 41
0.8
 50
0.0
 71
0
 42
0.2
  3
txt
  4

  0
STYLE
  5
200
100
AcDbSymbolTableRecord
100
AcDbTextStyleTableRecord
  2
TEXTSTYLE_1
 70
0
 40
0.0
 41
0.8
 50
0.0
 71
0
 42
0.2
  3
gdt
  4

  0
ENDTAB
  0
TABLE
  2
VIEW
  5
6
100
AcDbSymbolTable
 70
0
  0
ENDTAB
  0
TABLE
  2
UCS
  5
7
100
AcDbSymbolTable
 70
0
  0
ENDTAB
  0
TABLE
  2
APPID
  5
9
100
AcDbSymbolTable
 70
1
  0
APPID
  5
201
100
AcDbSymbolTableRecord
100
AcDbRegAppTableRecord
  2
ACAD
 70
0
  0
ENDTAB
  0
TABLE
  2
BLOCK_RECORD
  5
1
100
AcDbSymbolTable
 70
0
  0
BLOCK_RECORD
  5
202
100
AcDbSymbolTableRecord
100
AcDbBlockTableRecord
  2
*Model_Space
  0
BLOCK_RECORD
  5
203
100
AcDbSymbolTableRecord
100
AcDbBlockTableRecord
  2
*Paper_Space
  0
BLOCK_RECORD
  5
204
100
AcDbSymbolTableRecord
100
AcDbBlockTableRecord
  2
_FILLED
  0
ENDTAB
  0
TABLE
  2
DIMSTYLE
  5
A
100
AcDbSymbolTable
 70
1
100
AcDbDimStyleTable
 71
0
  0
DIMSTYLE
105
205
100
AcDbSymbolTableRecord
100
AcDbDimStyleTableRecord
  2
STANDARD
 70
0
  3

  4

 40
1.0
 41
0.1
 42
0.0625
 43
0.38
 44
0.125
 45
0.0
 46
0.0
 47
0.001
 48
0.001
140
0.08
141
0.09
142
0.0
143
25.4
144
1.0
145
0.0
146
1.0
147
0.09
 71
1
 72
0
 73
1
 74
1
 75
0
 76
0
 77
0
 78
4
 79
1
170
1
171
2
172
0
173
0
174
0
175
0
176
0
177
0
178
0
270
2
179
3
271
3
272
3
273
2
274
2
275
0
280
0
281
0
282
0
283
1
284
4
285
0
286
0
287
3
288
0
340
11
278
46
341
204
342
204
343
204
344
204
  0
ENDTAB
  0
ENDSEC
  0
SECTION
  2
BLOCKS
  0
BLOCK
  5
20
100
AcDbEntity
  8
0
100
AcDbBlockBegin
  2
*Model_Space
 70
0
 10
0.0
 20
0.0
 30
0.0
  3
*Model_Space
  1

  0
ENDBLK
  5
21
100
AcDbEntity
  8
0
100
AcDbBlockEnd
  0
BLOCK
  5
1C
100
AcDbEntity
  8
0
100
AcDbBlockBegin
  2
*Paper_Space
 70
0
 10
0.0
 20
0.0
 30
0.0
  3
*Paper_Space
  1

  0
ENDBLK
  5
1D
100
AcDbEntity
  8
0
100
AcDbBlockEnd
  0
BLOCK
  5
206
100
AcDbEntity
  8
0
100
AcDbBlockBegin
  2
_FILLED
 70
64
 10
0.0
 20
0.0
  3
_FILLED
  1

  0
SOLID
  5
207
100
AcDbEntity
  8
0
  6
BYBLOCK
 62
0
100
AcDbTrace
 10
0.0
 20
0.0
 11
-1.0
 21
0.2
 12
-1.0
 22
-0.2
 13
-1.0
 23
-0.2
  0
ENDBLK
  5
208
100
AcDbEntity
  8
0
  6
BYBLOCK
 62
0
100
AcDbBlockEnd
  0
ENDSEC
  0
SECTION
  2
ENTITIES
  0
LINE
  5
209
100
AcDbEntity
  8
0
100
AcDbLine
 62
7
  6
CONTINUOUS
 10
0.0
 20
0.0
 11
0.0
 21
17.0
  0
LINE
  5
20A
100
AcDbEntity
  8
0
100
AcDbLine
 62
7
  6
CONTINUOUS
 10
0.0
 20
0.0
 11
22.0
 21
0.0
  0
LINE
  5
20B
100
AcDbEntity
  8
0
100
AcDbLine
 62
7
  6
CONTINUOUS
 10
0.0
 20
17.0
 11
22.0
 21
17.0
  0
LINE
  5
20C
100
AcDbEntity
  8
0
100
AcDbLine
 62
7
  6
CONTINUOUS
 10
22.0
 20
0.0
 11
22.0
 21
17.0
  0
LINE
  5
20D
100
AcDbEntity
  8
0
100
AcDbLine
 62
7
  6
CONTINUOUS
 10
10.6934199437
 20
13.690242311
 11
10.7448689888
 21
13.763991416
  0
LINE
  5
20E
100
AcDbEntity
  8
0
100
AcDbLine
 62
7
  6
CONTINUOUS
 10
10.1418139077
 20
11.5335488024
 11
10.0150639077
 21
11.2335488024
  0
LINE
  5
20F
100
AcDbEntity
  8
0
100
AcDbLine
 62
7
  6
CONTINUOUS
 10
10.7073139077
 20
7.0935488024
 11
10.1673139077
 21
7.0935488024
  0
LINE
  5
210
100
AcDbEntity
  8
0
100
AcDbLine
 62
7
  6
CONTINUOUS
 10
10.7373139077
 20
7.1235488024
 11
10.1373139077
 21
7.1235488024
  0
LINE
  5
211
100
AcDbEntity
  8
0
100
AcDbLine
 62
7
  6
CONTINUOUS
 10
10.7373139077
 20
7.2135488024
 11
10.1373139077
 21
7.2135488024
  0
LINE
  5
212
100
AcDbEntity
  8
0
100
AcDbLine
 62
7
  6
CONTINUOUS
 10
9.6123115199
 20
10.6024274884
 11
9.6123115199
 21
11.33504019
  0
LINE
  5
213
100
AcDbEntity
  8
0
100
AcDbLine
 62
7
  6
CONTINUOUS
 10
10.167313908
 20
7.0935488021
 11
10.1373139081
 21
7.1235488021
  0
LINE
  5
214
100
AcDbEntity
  8
0
100
AcDbLine
 62
7
  6
CONTINUOUS
 10
9.7810615199
 20
10.4850497763
 11
9.7810615199
 21
3.3560965063
  0
LINE
  5
215
100
AcDbEntity
  8
0
100
AcDbLine
 62
7
  6
CONTINUOUS
 10
10.0150639077
 20
11.2335488024
 11
10.0150639077
 21
11.0760488024
  0
LINE
  5
216
100
AcDbEntity
  8
0
100
AcDbLine
 62
7
  6
CONTINUOUS
 10
10.9998139077
 20
7.9260488024
 11
9.8748139077
 21
7.9260488024
  0
LINE
  5
217
100
AcDbEntity
  8
0
100
AcDbLine
 62
7
  6
CONTINUOUS
 10
10.1373139077
 20
7.2135488024
 11
10.1373139077
 21
7.1235488024
  0
LINE
  5
218
100
AcDbEntity
  8
0
100
AcDbLine
 62
7
  6
CONTINUOUS
 10
10.1418139077
 20
11.6235488024
 11
10.1418139077
 21
11.5335488024
  0
LINE
  5
219
100
AcDbEntity
  8
0
100
AcDbLine
 62
7
  6
CONTINUOUS
 10
10.1433139077
 20
13.204833421
 11
10.1433139077
 21
13.1835488024
  0
LINE
  5
21A
100
AcDbEntity
  8
0
100
AcDbLine
 62
7
  6
CONTINUOUS
 10
10.7313139077
 20
13.204833421
 11
10.7313139077
 21
13.1835488024
  0
LINE
  5
21B
100
AcDbEntity
  8
0
100
AcDbLine
 62
7
  6
CONTINUOUS
 10
10.7328139077
 20
11.6235488024
 11
10.7328139077
 21
11.5335488024
  0
LINE
  5
21C
100
AcDbEntity
  8
0
100
AcDbLine
 62
7
  6
CONTINUOUS
 10
10.7373139077
 20
7.2135488024
 11
10.7373139077
 21
7.1235488024
  0
LINE
  5
21D
100
AcDbEntity
  8
0
100
AcDbLine
 62
7
  6
CONTINUOUS
 10
10.8595639077
 20
11.2335488024
 11
10.8595639077
 21
11.0760488024
  0
LINE
  5
21E
100
AcDbEntity
  8
0
100
AcDbLine
 62
7
  6
CONTINUOUS
 10
11.0935615199
 20
10.4850497763
 11
11.0935615199
 21
3.3560965063
  0
LINE
  5
21F
100
AcDbEntity
  8
0
100
AcDbLine
 62
7
  6
CONTINUOUS
 10
11.2623115199
 20
10.6024274884
 11
11.2623115199
 21
11.33504019
  0
LINE
  5
220
100
AcDbEntity
  8
0
100
AcDbLine
 62
7
  6
CONTINUOUS
 10
10.7073139073
 20
7.0935488021
 11
10.7373139073
 21
7.1235488021
  0
LINE
  5
221
100
AcDbEntity
  8
0
100
AcDbLine
 62
7
  6
CONTINUOUS
 10
10.7328139077
 20
11.5335488024
 11
10.8595639077
 21
11.2335488024
  0
LINE
  5
222
100
AcDbEntity
  8
0
100
AcDbLine
 62
7
  6
CONTINUOUS
 10
10.8595639077
 20
11.0760488024
 11
10.0150639077
 21
11.0760488024
  0
LINE
  5
223
100
AcDbEntity
  8
0
100
AcDbLine
 62
7
  6
CONTINUOUS
 10
10.8595639077
 20
11.2335488024
 11
10.0150639077
 21
11.2335488024
  0
LINE
  5
224
100
AcDbEntity
  8
0
100
AcDbLine
 62
7
  6
CONTINUOUS
 10
10.1812078716
 20
13.690242311
 11
10.1297588266
 21
13.763991416
  0
LINE
  5
225
100
AcDbEntity
  8
0
100
AcDbLine
 62
7
  6
CONTINUOUS
 10
10.7328139077
 20
11.5335488024
 11
10.1418139077
 21
11.5335488024
  0
LINE
  5
226
100
AcDbEntity
  8
0
100
AcDbLine
 62
7
  6
CONTINUOUS
 10
10.7328139077
 20
11.6235488024
 11
10.7282714685
 21
11.6235487423
  0
LINE
  5
227
100
AcDbEntity
  8
0
100
AcDbLine
 62
7
  6
CONTINUOUS
 10
10.1463565263
 20
11.6235487423
 11
10.1418139077
 21
11.6235488024
  0
LINE
  5
228
100
AcDbEntity
  8
0
100
AcDbLine
 62
7
  6
CONTINUOUS
 10
11.2998394049
 20
12.4183060782
 11
11.2721081613
 21
12.4178316465
  0
LINE
  5
229
100
AcDbEntity
  8
0
100
AcDbLine
 62
7
  6
CONTINUOUS
 10
11.2721081613
 20
12.4178316465
 11
11.2696405119
 21
12.4178316465
  0
LINE
  5
22A
100
AcDbEntity
  8
0
100
AcDbLine
 62
7
  6
CONTINUOUS
 10
9.6049883983
 20
12.4178316465
 11
9.6025148785
 21
12.4178316465
  0
LINE
  5
22B
100
AcDbEntity
  8
0
100
AcDbLine
 62
7
  6
CONTINUOUS
 10
9.5747836349
 20
12.4183060782
 11
9.6025148785
 21
12.4178316465
  0
LINE
  5
22C
100
AcDbEntity
  8
0
100
AcDbLine
 62
7
  6
CONTINUOUS
 10
10.9623352662
 20
13.1699351257
 11
10.8348261497
 21
13.1699351257
  0
LINE
  5
22D
100
AcDbEntity
  8
0
100
AcDbLine
 62
7
  6
CONTINUOUS
 10
10.0397968901
 20
13.1699351257
 11
9.9122877736
 21
13.1699351257
  0
LINE
  5
22E
100
AcDbEntity
  8
0
100
AcDbLine
 62
7
  6
CONTINUOUS
 10
10.7313139077
 20
13.1835488024
 11
10.7282714521
 21
13.1835487533
  0
LINE
  5
22F
100
AcDbEntity
  8
0
100
AcDbLine
 62
7
  6
CONTINUOUS
 10
10.1463565099
 20
13.1835487533
 11
10.1433139077
 21
13.1835488024
  0
LINE
  5
230
100
AcDbEntity
  8
0
100
AcDbLine
 62
7
  6
CONTINUOUS
 10
10.7313139077
 20
13.204833421
 11
10.6631442815
 21
13.2048332016
  0
LINE
  5
231
100
AcDbEntity
  8
0
100
AcDbLine
 62
7
  6
CONTINUOUS
 10
10.2114841881
 20
13.2048332016
 11
10.1433139077
 21
13.204833421
  0
LINE
  5
232
100
AcDbEntity
  8
0
100
AcDbLine
 62
7
  6
CONTINUOUS
 10
10.155099622
 20
13.2357715588
 11
10.4158310586
 21
13.2357712308
  0
LINE
  5
233
100
AcDbEntity
  8
0
100
AcDbLine
 62
7
  6
CONTINUOUS
 10
10.4587977348
 20
13.2357712308
 11
10.7195281934
 21
13.2357715588
  0
LINE
  5
234
100
AcDbEntity
  8
0
100
AcDbLine
 62
7
  6
CONTINUOUS
 10
10.1498485611
 20
13.6127585037
 11
10.7247792542
 21
13.6127585037
  0
LINE
  5
235
100
AcDbEntity
  8
0
100
AcDbLine
 62
7
  6
CONTINUOUS
 10
10.1673139077
 20
13.6532194171
 11
10.7073139077
 21
13.6532194171
  0
LINE
  5
236
100
AcDbEntity
  8
0
100
AcDbLine
 62
7
  6
CONTINUOUS
 10
10.1812078716
 20
13.690242311
 11
10.6934199437
 21
13.690242311
  0
LINE
  5
237
100
AcDbEntity
  8
0
100
AcDbLine
 62
7
  6
CONTINUOUS
 10
10.1297588266
 20
13.763991416
 11
10.7448689888
 21
13.763991416
  0
ARC
  5
238
100
AcDbEntity
  8
0
100
AcDbCircle
 62
7
  6
CONTINUOUS
 10
10.1928467327
 20
7.8187472353
 40
0.8140698052
100
AcDbArc
 50
311.976152454
 51
7.5741286839
  0
ARC
  5
239
100
AcDbEntity
  8
0
100
AcDbCircle
 62
7
  6
CONTINUOUS
 10
10.4371270703
 20
3.1569540542
 40
0.6540891089
100
AcDbArc
 50
247.2769742371
 51
270.0161570294
  0
ARC
  5
23A
100
AcDbEntity
  8
0
100
AcDbCircle
 62
7
  6
CONTINUOUS
 10
10.4371232223
 20
3.1560609828
 40
0.6534404068
100
AcDbArc
 50
247.0796491903
 51
270.0165104161
  0
ARC
  5
23B
100
AcDbEntity
  8
0
100
AcDbCircle
 62
7
  6
CONTINUOUS
 10
-7.96813894
 20
10.2986072685
 40
18.0
100
AcDbArc
 50
352.4258713164
 51
2.4754433172
  0
ARC
  5
23C
100
AcDbEntity
  8
0
100
AcDbCircle
 62
7
  6
CONTINUOUS
 10
9.9468139077
 20
13.4214003853
 40
0.279
100
AcDbArc
 50
318.2918697479
 51
43.3041758005
  0
ARC
  5
23D
100
AcDbEntity
  8
0
100
AcDbCircle
 62
7
  6
CONTINUOUS
 10
10.1898139077
 20
13.204833421
 40
0.0465
100
AcDbArc
 50
138.2918697479
 51
180.0
  0
ARC
  5
23E
100
AcDbEntity
  8
0
100
AcDbCircle
 62
7
  6
CONTINUOUS
 10
10.1673139077
 20
13.6292194171
 40
0.024
100
AcDbArc
 50
90.0
 51
223.3041758005
  0
ARC
  5
23F
100
AcDbEntity
  8
0
100
AcDbCircle
 62
7
  6
CONTINUOUS
 10
10.1615243464
 20
13.6765106382
 40
0.024
100
AcDbArc
 50
283.9592487754
 51
34.9005000001
  0
ARC
  5
240
100
AcDbEntity
  8
0
100
AcDbCircle
 62
7
  6
CONTINUOUS
 10
10.4373115199
 20
12.4035497763
 40
1.68375
100
AcDbArc
 50
299.342261111
 51
77.3464198178
  0
ARC
  5
241
100
AcDbEntity
  8
0
100
AcDbCircle
 62
7
  6
CONTINUOUS
 10
10.4373115199
 20
12.4035497763
 40
1.68375
100
AcDbArc
 50
102.6534057219
 51
240.657738889
  0
ARC
  5
242
100
AcDbEntity
  8
0
100
AcDbCircle
 62
7
  6
CONTINUOUS
 10
10.4373115199
 20
12.4035497763
 40
1.3986008231
100
AcDbArc
 50
102.7977794674
 51
233.848083356
  0
ARC
  5
243
100
AcDbEntity
  8
0
100
AcDbCircle
 62
7
  6
CONTINUOUS
 10
10.4373115199
 20
12.4035497763
 40
1.3986008231
100
AcDbArc
 50
306.1519166442
 51
77.2020462642
  0
ARC
  5
244
100
AcDbEntity
  8
0
100
AcDbCircle
 62
7
  6
CONTINUOUS
 10
10.4373115199
 20
12.4035497763
 40
1.3766949563
100
AcDbArc
 50
306.8194087115
 51
77.5692120747
  0
ARC
  5
245
100
AcDbEntity
  8
0
100
AcDbCircle
 62
7
  6
CONTINUOUS
 10
10.4373115199
 20
12.4035497763
 40
1.3766949563
100
AcDbArc
 50
102.4306112879
 51
233.1805912885
  0
ARC
  5
246
100
AcDbEntity
  8
0
100
AcDbCircle
 62
7
  6
CONTINUOUS
 10
10.4373115199
 20
12.4035497763
 40
1.35
100
AcDbArc
 50
101.9614015497
 51
251.7723682514
  0
ARC
  5
247
100
AcDbEntity
  8
0
100
AcDbCircle
 62
7
  6
CONTINUOUS
 10
10.4373115199
 20
12.4035497763
 40
1.35
100
AcDbArc
 50
288.2278453127
 51
78.0384183201
  0
ARC
  5
248
100
AcDbEntity
  8
0
100
AcDbCircle
 62
7
  6
CONTINUOUS
 10
10.4373115199
 20
12.4035497763
 40
1.2583928571
100
AcDbArc
 50
289.6065284532
 51
76.4933128779
  0
ARC
  5
249
100
AcDbEntity
  8
0
100
AcDbCircle
 62
7
  6
CONTINUOUS
 10
10.4373115199
 20
12.4035497763
 40
1.2583928571
100
AcDbArc
 50
103.506466834
 51
250.3937017219
  0
ARC
  5
24A
100
AcDbEntity
  8
0
100
AcDbCircle
 62
7
  6
CONTINUOUS
 10
10.4373115199
 20
12.4035497763
 40
1.2075006008
100
AcDbArc
 50
102.555091953
 51
250.2480596577
  0
ARC
  5
24B
100
AcDbEntity
  8
0
100
AcDbCircle
 62
7
  6
CONTINUOUS
 10
10.4373115199
 20
12.4035497763
 40
1.2075006008
100
AcDbArc
 50
289.7521493101
 51
77.4447073054
  0
ARC
  5
24C
100
AcDbEntity
  8
0
100
AcDbCircle
 62
7
  6
CONTINUOUS
 10
10.4373115199
 20
12.4035497763
 40
1.1622114406
100
AcDbArc
 50
101.8398404322
 51
250.370963931
  0
ARC
  5
24D
100
AcDbEntity
  8
0
100
AcDbCircle
 62
7
  6
CONTINUOUS
 10
10.4373115199
 20
12.4035497763
 40
1.1622114406
100
AcDbArc
 50
289.6292531798
 51
78.1599406487
  0
ARC
  5
24E
100
AcDbEntity
  8
0
100
AcDbCircle
 62
7
  6
CONTINUOUS
 10
10.4373115199
 20
12.4035497763
 40
0.8626541027
100
AcDbArc
 50
290.0330730942
 51
0.9801321969
  0
ARC
  5
24F
100
AcDbEntity
  8
0
100
AcDbCircle
 62
7
  6
CONTINUOUS
 10
10.4373115199
 20
12.4035497763
 40
0.8626541027
100
AcDbArc
 50
179.0198678031
 51
249.9672634691
  0
ARC
  5
250
100
AcDbEntity
  8
0
100
AcDbCircle
 62
7
  6
CONTINUOUS
 10
10.4373115199
 20
12.4035497763
 40
0.834918801
100
AcDbArc
 50
179.0198678031
 51
249.2714787227
  0
ARC
  5
251
100
AcDbEntity
  8
0
100
AcDbCircle
 62
7
  6
CONTINUOUS
 10
10.4373115199
 20
12.4035497763
 40
0.834918801
100
AcDbArc
 50
290.7288735434
 51
0.9801321969
  0
ARC
  5
252
100
AcDbEntity
  8
0
100
AcDbCircle
 62
7
  6
CONTINUOUS
 10
10.42587779
 20
12.8359519288
 40
0.5279995613
100
AcDbArc
 50
31.3329527348
 51
39.2380985859
  0
ARC
  5
253
100
AcDbEntity
  8
0
100
AcDbCircle
 62
7
  6
CONTINUOUS
 10
10.4373115199
 20
12.8235497763
 40
0.4875
100
AcDbArc
 50
42.9380095813
 51
53.0119345193
  0
ARC
  5
254
100
AcDbEntity
  8
0
100
AcDbCircle
 62
7
  6
CONTINUOUS
 10
10.4373115199
 20
12.8235497763
 40
0.4875
100
AcDbArc
 50
126.9872085953
 51
137.0627967521
  0
ARC
  5
255
100
AcDbEntity
  8
0
100
AcDbCircle
 62
7
  6
CONTINUOUS
 10
10.6817810826
 20
7.8187472353
 40
0.8140698052
100
AcDbArc
 50
172.4258713164
 51
228.0238475462
  0
ARC
  5
256
100
AcDbEntity
  8
0
100
AcDbCircle
 62
7
  6
CONTINUOUS
 10
10.4374959819
 20
3.156953981
 40
0.6540890351
100
AcDbArc
 50
269.9838418865
 51
292.7234537771
  0
ARC
  5
257
100
AcDbEntity
  8
0
100
AcDbCircle
 62
7
  6
CONTINUOUS
 10
10.437499829
 20
3.1560609079
 40
0.6534403316
100
AcDbArc
 50
269.9834885679
 51
292.9207933723
  0
ARC
  5
258
100
AcDbEntity
  8
0
100
AcDbCircle
 62
7
  6
CONTINUOUS
 10
10.4373139077
 20
7.3297988024
 40
0.32625
100
AcDbArc
 50
226.3971810274
 51
313.6028189727
  0
ARC
  5
259
100
AcDbEntity
  8
0
100
AcDbCircle
 62
7
  6
CONTINUOUS
 10
28.8427667553
 20
10.2986072686
 40
18.0
100
AcDbArc
 50
177.524556683
 51
187.5741286839
  0
CIRCLE
  5
25A
100
AcDbEntity
  8
0
100
AcDbCircle
 62
7
  6
CONTINUOUS
 10
10.4373144551
 20
12.4035484353
 40
0.8325
  0
CIRCLE
  5
25B
100
AcDbEntity
  8
0
100
AcDbCircle
 62
7
  6
CONTINUOUS
 10
10.4373149164
 20
12.4035481259
 40
0.786
  0
CIRCLE
  5
25C
100
AcDbEntity
  8
0
100
AcDbCircle
 62
7
  6
CONTINUOUS
 10
10.4373149676
 20
12.4035480916
 40
0.7646012284
  0
CIRCLE
  5
25D
100
AcDbEntity
  8
0
100
AcDbCircle
 62
7
  6
CONTINUOUS
 10
10.4373150181
 20
12.4035480576
 40
0.675
  0
CIRCLE
  5
25E
100
AcDbEntity
  8
0
100
AcDbCircle
 62
7
  6
CONTINUOUS
 10
10.4373151508
 20
12.4035479687
 40
0.645
  0
CIRCLE
  5
25F
100
AcDbEntity
  8
0
100
AcDbCircle
 62
7
  6
CONTINUOUS
 10
10.4373153237
 20
12.4035478527
 40
0.5735813437
  0
ARC
  5
260
100
AcDbEntity
  8
0
100
AcDbCircle
 62
7
  6
CONTINUOUS
 10
10.448747385
 20
12.8359498894
 40
0.5280025051
100
AcDbArc
 50
140.7618765651
 51
148.6677383854
  0
ARC
  5
261
100
AcDbEntity
  8
0
100
AcDbCircle
 62
7
  6
CONTINUOUS
 10
10.4373139077
 20
13.9785488024
 40
0.375
100
AcDbArc
 50
325.0995000001
 51
214.9005000001
  0
ARC
  5
262
100
AcDbEntity
  8
0
100
AcDbCircle
 62
7
  6
CONTINUOUS
 10
10.9278139077
 20
13.4214003853
 40
0.279
100
AcDbArc
 50
136.6958241996
 51
221.7081302522
  0
ARC
  5
263
100
AcDbEntity
  8
0
100
AcDbCircle
 62
7
  6
CONTINUOUS
 10
10.6848139077
 20
13.204833421
 40
0.0465
100
AcDbArc
 50
0.0
 51
41.7081302521
  0
ARC
  5
264
100
AcDbEntity
  8
0
100
AcDbCircle
 62
7
  6
CONTINUOUS
 10
10.7073139077
 20
13.6292194171
 40
0.024
100
AcDbArc
 50
316.6958241996
 51
90.0
  0
ARC
  5
265
100
AcDbEntity
  8
0
100
AcDbCircle
 62
7
  6
CONTINUOUS
 10
10.7131034689
 20
13.6765106382
 40
0.024
100
AcDbArc
 50
145.0995000001
 51
256.0407512247
  0
SPLINE
  5
266
100
AcDbEntity
  8
0
100
AcDbSpline
 62
7
  6
CONTINUOUS
 70
0
 71
3
 72
45
 73
41
 74
0
 42
0.0000001
 43
0.0000001
 44
0.0000000001
 40
0.0
 40
0.0
 40
0.0
 40
0.0
 40
0.0315281103
 40
0.0472935628
 40
0.0630566463
 40
0.0945715654
 40
0.1260736556
 40
0.1418208648
 40
0.1575634132
 40
0.18902813
 40
0.2204691822
 40
0.2518838534
 40
0.2832699171
 40
0.3146257145
 40
0.3459501776
 40
0.3772428294
 40
0.4085038155
 40
0.4397338921
 40
0.4709343963
 40
0.5021072412
 40
0.5332548635
 40
0.5643801701
 40
0.595486505
 40
0.6265775619
 40
0.6576573209
 40
0.6887299813
 40
0.7197998722
 40
0.7508713747
 40
0.7819488393
 40
0.8130365085
 40
0.8285878658
 40
0.8441432717
 40
0.8597031837
 40
0.8752680483
 40
0.906409464
 40
0.9375753787
 40
0.9531707374
 40
0.9687731386
 40
0.9843828255
 40
1.0
 40
1.0
 40
1.0
 40
1.0
 10
10.4373115199
 20
2.5146601222
 30
0.0
 10
10.4182607161
 20
2.5146601222
 30
0.0
 10
10.3896711606
 20
2.5156331987
 30
0.0
 10
10.3517018833
 20
2.5188710831
 30
0.0
 10
10.3138711562
 20
2.5233980963
 30
0.0
 10
10.26691754
 20
2.5314659594
 30
0.0
 10
10.2206315687
 20
2.5427111204
 30
0.0
 10
10.1841467622
 20
2.5535795921
 30
0.0
 10
10.1480757368
 20
2.5656798111
 30
0.0
 10
10.1038161351
 20
2.583097204
 30
0.0
 10
10.052295107
 20
2.6075666818
 30
0.0
 10
10.0026133162
 20
2.6354886969
 30
0.0
 10
9.9550114171
 20
2.6667311464
 30
0.0
 10
9.9097186152
 20
2.7011465674
 30
0.0
 10
9.8669540973
 20
2.7385719152
 30
0.0
 10
9.8269252673
 20
2.7788294507
 30
0.0
 10
9.7898268749
 20
2.8217274258
 30
0.0
 10
9.7558399449
 20
2.8670609208
 30
0.0
 10
9.7251308258
 20
2.914612753
 30
0.0
 10
9.6978502664
 20
2.964154457
 30
0.0
 10
9.6741325639
 20
3.0154473547
 30
0.0
 10
9.6540947849
 20
3.0682437037
 30
0.0
 10
9.6378360648
 20
3.1222879107
 30
0.0
 10
9.6254370096
 20
3.1773178281
 30
0.0
 10
9.6169591891
 20
3.2330660802
 30
0.0
 10
9.6124447642
 20
3.2892615173
 30
0.0
 10
9.6119161598
 20
3.3456304471
 30
0.0
 10
9.6153761466
 20
3.4018988456
 30
0.0
 10
9.6228069817
 20
3.4577909981
 30
0.0
 10
9.6322784787
 20
3.5038295171
 30
0.0
 10
9.6417912172
 20
3.5401931104
 30
0.0
 10
9.6498876242
 20
3.5672103646
 30
0.0
 10
9.6589341758
 20
3.5939330451
 30
0.0
 10
9.6722491012
 20
3.6291294475
 30
0.0
 10
9.6912148538
 20
3.6722373041
 30
0.0
 10
9.7131700469
 20
3.7139227258
 30
0.0
 10
9.7324612283
 20
3.7463009816
 30
0.0
 10
9.747783072
 20
3.7700819075
 30
0.0
 10
9.7639338876
 20
3.7933230147
 30
0.0
 10
9.7752389707
 20
3.8084358383
 30
0.0
 10
9.7810223578
 20
3.8158925659
 30
0.0
  0
SPLINE
  5
267
100
AcDbEntity
  8
0
100
AcDbSpline
 62
7
  6
CONTINUOUS
 70
0
 71
3
 72
45
 73
41
 74
0
 42
0.0000001
 43
0.0000001
 44
0.0000000001
 40
0.0
 40
0.0
 40
0.0
 40
0.0
 40
0.0156171676
 40
0.0312268479
 40
0.0468292425
 40
0.0624245948
 40
0.0935904972
 40
0.1247319014
 40
0.1402967606
 40
0.1558566678
 40
0.1714120689
 40
0.1869634218
 40
0.2180510831
 40
0.2491285413
 40
0.2802000389
 40
0.3112699264
 40
0.342342585
 40
0.3734223439
 40
0.4045134022
 40
0.4356197399
 40
0.4667450506
 40
0.4978926784
 40
0.5290655296
 40
0.5602660408
 40
0.5914961252
 40
0.6227571194
 40
0.6540497795
 40
0.6853742507
 40
0.716730056
 40
0.748116127
 40
0.7795308049
 40
0.8109718629
 40
0.8424365844
 40
0.8581791347
 40
0.8739263453
 40
0.9054284378
 40
0.9369433572
 40
0.9527064406
 40
0.9684718925
 40
1.0
 40
1.0
 40
1.0
 40
1.0
 10
11.0935985728
 20
3.8158952866
 30
0.0
 10
11.0993820008
 20
3.8084385733
 30
0.0
 10
11.1106871608
 20
3.7933257728
 30
0.0
 10
11.1268381002
 20
3.770084701
 30
0.0
 10
11.1421600633
 20
3.7463038023
 30
0.0
 10
11.1614514064
 20
3.7139255773
 30
0.0
 10
11.1834068005
 20
3.6722401806
 30
0.0
 10
11.2023727466
 20
3.6291323311
 30
0.0
 10
11.2156878363
 20
3.5939359283
 30
0.0
 10
11.2247344949
 20
3.5672132371
 30
0.0
 10
11.2328310255
 20
3.540195973
 30
0.0
 10
11.2423439028
 20
3.5038323527
 30
0.0
 10
11.2518155868
 20
3.4577937929
 30
0.0
 10
11.2592466281
 20
3.4019015712
 30
0.0
 10
11.2627068116
 20
3.3456330864
 30
0.0
 10
11.2621783898
 20
3.2892640538
 30
0.0
 10
11.2576641328
 20
3.2330684989
 30
0.0
 10
11.2491864637
 20
3.1773201156
 30
0.0
 10
11.2367875422
 20
3.1222900557
 30
0.0
 10
11.2205289365
 20
3.0682456969
 30
0.0
 10
11.2004912519
 20
3.0154491891
 30
0.0
 10
11.1767736237
 20
2.9641561281
 30
0.0
 10
11.1494931185
 20
2.9146142586
 30
0.0
 10
11.1187840335
 20
2.867062261
 30
0.0
 10
11.0847971182
 20
2.821728603
 30
0.0
 10
11.047698722
 20
2.7788304693
 30
0.0
 10
11.0076698707
 20
2.7385727819
 30
0.0
 10
10.9649053154
 20
2.7011472906
 30
0.0
 10
10.9196124613
 20
2.666731736
 30
0.0
 10
10.8720104969
 20
2.6354891645
 30
0.0
 10
10.8223286296
 20
2.60756704
 30
0.0
 10
10.7708075156
 20
2.5830974662
 30
0.0
 10
10.7265478352
 20
2.5656800058
 30
0.0
 10
10.6904767446
 20
2.5535797389
 30
0.0
 10
10.6539918713
 20
2.5427112262
 30
0.0
 10
10.6077058147
 20
2.5314660221
 30
0.0
 10
10.5607521104
 20
2.5233981285
 30
0.0
 10
10.5229213127
 20
2.5188710985
 30
0.0
 10
10.484951966
 20
2.5156332022
 30
0.0
 10
10.4563623581
 20
2.5146601222
 30
0.0
 10
10.4373115199
 20
2.5146601222
 30
0.0
  0
SPLINE
  5
268
100
AcDbEntity
  8
0
100
AcDbSpline
 62
7
  6
CONTINUOUS
 70
0
 71
3
 72
31
 73
27
 74
0
 42
0.0000001
 43
0.0000001
 44
0.0000000001
 40
0.0
 40
0.0
 40
0.0
 40
0.0
 40
0.0605846789
 40
0.1197626703
 40
0.1777674326
 40
0.2349183202
 40
0.2632868601
 40
0.2915842752
 40
0.319869247
 40
0.3482038802
 40
0.405275558
 40
0.4633384213
 40
0.4929237928
 40
0.5229539511
 40
0.5534918147
 40
0.5845914485
 40
0.6162790291
 40
0.6485875813
 40
0.6815228909
 40
0.7150750399
 40
0.7838974394
 40
0.8547096009
 40
0.8907231427
 40
0.9269822246
 40
0.9633911694
 40
1.0
 40
1.0
 40
1.0
 40
1.0
 10
9.7810322153
 20
10.4180876779
 30
0.0
 10
9.7759720634
 20
10.4199598074
 30
0.0
 10
9.7660182932
 20
10.4237953184
 30
0.0
 10
9.7514228199
 20
10.4299334387
 30
0.0
 10
9.7373174113
 20
10.4364273378
 30
0.0
 10
9.7259164861
 20
10.442213982
 30
0.0
 10
9.7170281605
 20
10.447087336
 30
0.0
 10
9.7104779411
 20
10.4508740358
 30
0.0
 10
9.7040245571
 20
10.4548180121
 30
0.0
 10
9.6955248147
 20
10.4603210955
 30
0.0
 10
9.6850869751
 20
10.4677026484
 30
0.0
 10
9.6750485223
 20
10.4758023153
 30
0.0
 10
9.6672502617
 20
10.4828064135
 30
0.0
 10
9.6614851042
 20
10.488397129
 30
0.0
 10
9.6558584912
 20
10.4943150306
 30
0.0
 10
9.6503930257
 20
10.5005798065
 30
0.0
 10
9.645120368
 20
10.5072109214
 30
0.0
 10
9.6400769694
 20
10.5142208329
 30
0.0
 10
9.6353031898
 20
10.521616345
 30
0.0
 10
9.6293113871
 20
10.5320766037
 30
0.0
 10
9.6227739817
 20
10.5460848735
 30
0.0
 10
9.617869087
 20
10.5609826282
 30
0.0
 10
9.6150281992
 20
10.5734115604
 30
0.0
 10
9.6134685032
 20
10.5829706867
 30
0.0
 10
9.6125223693
 20
10.5926626781
 30
0.0
 10
9.6123115199
 20
10.5991672887
 30
0.0
 10
9.6123115199
 20
10.6024274884
 30
0.0
  0
SPLINE
  5
269
100
AcDbEntity
  8
0
100
AcDbSpline
 62
7
  6
CONTINUOUS
 70
0
 71
3
 72
31
 73
27
 74
0
 42
0.0000001
 43
0.0000001
 44
0.0000000001
 40
0.0
 40
0.0
 40
0.0
 40
0.0
 40
0.036610728
 40
0.0730171794
 40
0.1092760989
 40
0.1452907593
 40
0.2161040466
 40
0.2849265309
 40
0.3184795005
 40
0.3514139061
 40
0.4153916644
 40
0.4464903428
 40
0.4770305584
 40
0.5070588572
 40
0.5366425333
 40
0.5658404553
 40
0.5947155226
 40
0.6233424492
 40
0.6517913871
 40
0.7084082304
 40
0.7650695314
 40
0.8222228848
 40
0.880229822
 40
0.9096552286
 40
0.9394089134
 40
1.0
 40
1.0
 40
1.0
 40
1.0
 10
11.2623115199
 20
10.6024274884
 30
0.0
 10
11.2623115199
 20
10.5991668389
 30
0.0
 10
11.2621007197
 20
10.5926617164
 30
0.0
 10
11.2611542988
 20
10.5829689745
 30
0.0
 10
11.2595942996
 20
10.5734091929
 30
0.0
 10
11.2567530189
 20
10.5609790401
 30
0.0
 10
11.2518471993
 20
10.5460798793
 30
0.0
 10
11.2453084817
 20
10.5320707123
 30
0.0
 10
11.239315749
 20
10.5216094772
 30
0.0
 10
11.2330113536
 20
10.5118436424
 30
0.0
 10
11.2261146432
 20
10.5027388999
 30
0.0
 10
11.2187574607
 20
10.4943071815
 30
0.0
 10
11.2131296278
 20
10.4883892116
 30
0.0
 10
11.2073642829
 20
10.4827980353
 30
0.0
 10
11.2014781279
 20
10.4775117838
 30
0.0
 10
11.1954865008
 20
10.4725045339
 30
0.0
 10
11.1893989118
 20
10.4677519503
 30
0.0
 10
11.1832180041
 20
10.4632336876
 30
0.0
 10
11.1748693569
 20
10.457501755
 30
0.0
 10
11.1641754642
 20
10.4507839842
 30
0.0
 10
11.1509377665
 20
10.4433461744
 30
0.0
 10
11.1372878135
 20
10.4364193541
 30
0.0
 10
11.1255885209
 20
10.4310319408
 30
0.0
 10
11.1160012111
 20
10.4269064104
 30
0.0
 10
11.1061372683
 20
10.4228448809
 30
0.0
 10
11.0986277681
 20
10.4199509709
 30
0.0
 10
11.093566648
 20
10.4180784742
 30
0.0
  0
SPLINE
  5
26A
100
AcDbEntity
  8
0
100
AcDbSpline
 62
7
  6
CONTINUOUS
 70
0
 71
3
 72
39
 73
35
 74
0
 42
0.0000001
 43
0.0000001
 44
0.0000000001
 40
0.0
 40
0.0
 40
0.0
 40
0.0
 40
0.0309042606
 40
0.061811883
 40
0.0927261815
 40
0.1236504207
 40
0.1545877604
 40
0.1855412206
 40
0.2165136796
 40
0.2475078149
 40
0.2785260875
 40
0.3095707361
 40
0.3406437231
 40
0.3717467383
 40
0.4028811885
 40
0.4340481551
 40
0.4652484165
 40
0.4964824311
 40
0.5277503149
 40
0.5590518759
 40
0.5903865927
 40
0.6217536162
 40
0.6531518093
 40
0.6845797238
 40
0.716035626
 40
0.7475175396
 40
0.7790232299
 40
0.8105501957
 40
0.8420958175
 40
0.8736574225
 40
0.9052315106
 40
0.9368150913
 40
0.9684076317
 40
1.0
 40
1.0
 40
1.0
 40
1.0
 10
11.0935614609
 20
3.3560965063
 30
0.0
 10
11.0935614609
 20
3.3455942015
 30
0.0
 10
11.0930342613
 20
3.3245846319
 30
0.0
 10
11.0906634826
 20
3.2931498576
 30
0.0
 10
11.0867185237
 20
3.2618659673
 30
0.0
 10
11.0812091094
 20
3.2308093509
 30
0.0
 10
11.0741481537
 20
3.200054637
 30
0.0
 10
11.0655529436
 20
3.1696759658
 30
0.0
 10
11.0554442506
 20
3.1397464859
 30
0.0
 10
11.0438461348
 20
3.1103384365
 30
0.0
 10
11.0307869015
 20
3.0815225459
 30
0.0
 10
11.0162979169
 20
3.0533682756
 30
0.0
 10
11.0004139406
 20
3.0259435604
 30
0.0
 10
10.9831735796
 20
2.9993142826
 30
0.0
 10
10.9646181617
 20
2.9735447251
 30
0.0
 10
10.9447924075
 20
2.948696986
 30
0.0
 10
10.9237443196
 20
2.924830726
 30
0.0
 10
10.9015243559
 20
2.9020036594
 30
0.0
 10
10.8781861943
 20
2.8802706567
 30
0.0
 10
10.8537861646
 20
2.8596839323
 30
0.0
 10
10.8283828272
 20
2.8402933452
 30
0.0
 10
10.8020375869
 20
2.8221453452
 30
0.0
 10
10.774813891
 20
2.8052836337
 30
0.0
 10
10.7467771855
 20
2.789749059
 30
0.0
 10
10.7179951952
 20
2.7755786953
 30
0.0
 10
10.6885371547
 20
2.762806814
 30
0.0
 10
10.6584739916
 20
2.7514643007
 30
0.0
 10
10.6278782424
 20
2.7415781159
 30
0.0
 10
10.5968234471
 20
2.7331723311
 30
0.0
 10
10.5653844984
 20
2.7262672573
 30
0.0
 10
10.5336373514
 20
2.7208791028
 30
0.0
 10
10.5016573633
 20
2.7170211006
 30
0.0
 10
10.4695235831
 20
2.7147029673
 30
0.0
 10
10.4480476668
 20
2.7141871434
 30
0.0
 10
10.4373115199
 20
2.7141871434
 30
0.0
  0
SPLINE
  5
26B
100
AcDbEntity
  8
0
100
AcDbSpline
 62
7
  6
CONTINUOUS
 70
0
 71
3
 72
51
 73
47
 74
0
 42
0.0000001
 43
0.0000001
 44
0.0000000001
 40
0.0
 40
0.0
 40
0.0
 40
0.0
 40
0.05807054
 40
0.114427236
 40
0.1689840784
 40
0.2216591356
 40
0.2723750872
 40
0.3210596404
 40
0.3676457919
 40
0.4120727868
 40
0.4542861691
 40
0.4942394417
 40
0.5318940667
 40
0.5672220962
 40
0.6002065031
 40
0.630845308
 40
0.6591530819
 40
0.6851676679
 40
0.6973361229
 40
0.7089591225
 40
0.7200510291
 40
0.7306291282
 40
0.7407144245
 40
0.7503323761
 40
0.7595129849
 40
0.7682913614
 40
0.7847981715
 40
0.7926408749
 40
0.8002823931
 40
0.8077871926
 40
0.8152236304
 40
0.8226619852
 40
0.8301724819
 40
0.8378233152
 40
0.8456786946
 40
0.8622197845
 40
0.8710190146
 40
0.8802225259
 40
0.8898651351
 40
0.8999765846
 40
0.9105820924
 40
0.9217024313
 40
0.9333547139
 40
0.9455531575
 40
0.9716293148
 40
1.0
 40
1.0
 40
1.0
 40
1.0
 10
10.0291644853
 20
10.6045657116
 30
0.0
 10
10.0213288581
 20
10.6034089961
 30
0.0
 10
10.0059028824
 20
10.6010332275
 30
0.0
 10
9.9831712896
 20
10.5972192659
 30
0.0
 10
9.9612203348
 20
10.5932131513
 30
0.0
 10
9.9400877343
 20
10.5890218275
 30
0.0
 10
9.9198097249
 20
10.5846525489
 30
0.0
 10
9.900421054
 20
10.5801129527
 30
0.0
 10
9.8819549105
 20
10.5754108515
 30
0.0
 10
9.8644428421
 20
10.5705545264
 30
0.0
 10
9.8479147154
 20
10.5655522804
 30
0.0
 10
9.8323985973
 20
10.560412977
 30
0.0
 10
9.8179207625
 20
10.5551453123
 30
0.0
 10
9.8045054691
 20
10.5497586234
 30
0.0
 10
9.7921751384
 20
10.5442618332
 30
0.0
 10
9.7809496966
 20
10.5386644713
 30
0.0
 10
9.7708478508
 20
10.5329754062
 30
0.0
 10
9.7632166621
 20
10.5280618546
 30
0.0
 10
9.7577113086
 20
10.5240794512
 30
0.0
 10
9.7539664266
 20
10.5211423831
 30
0.0
 10
9.7505146343
 20
10.5181895014
 30
0.0
 10
9.74735746
 20
10.5152218149
 30
0.0
 10
9.7444962985
 20
10.5122403081
 30
0.0
 10
9.7419323625
 20
10.5092462796
 30
0.0
 10
9.7396665555
 20
10.5062401393
 30
0.0
 10
9.7370982085
 20
10.5023001426
 30
0.0
 10
9.7350495715
 20
10.4982462446
 30
0.0
 10
9.7336120924
 20
10.4941210122
 30
0.0
 10
9.7328560867
 20
10.4910729647
 30
0.0
 10
9.7324055824
 20
10.4880209483
 30
0.0
 10
9.7322608872
 20
10.4849668212
 30
0.0
 10
9.7324222012
 20
10.4819127526
 30
0.0
 10
9.7328893103
 20
10.4788609086
 30
0.0
 10
9.733661875
 20
10.4758131396
 30
0.0
 10
9.7351219601
 20
10.4716877345
 30
0.0
 10
9.7371925336
 20
10.4676347698
 30
0.0
 10
9.7397819359
 20
10.4636958622
 30
0.0
 10
9.7420639804
 20
10.4606903317
 30
0.0
 10
9.7446440866
 20
10.4576969636
 30
0.0
 10
9.7475213577
 20
10.4547161756
 30
0.0
 10
9.750694574
 20
10.451749269
 30
0.0
 10
9.7541623259
 20
10.4487972196
 30
0.0
 10
9.7579230809
 20
10.4458610473
 30
0.0
 10
9.7634498092
 20
10.4418800758
 30
0.0
 10
9.7711070807
 20
10.4369685779
 30
0.0
 10
9.7775866378
 20
10.4333321169
 30
0.0
 10
9.7810057393
 20
10.4315200034
 30
0.0
  0
SPLINE
  5
26C
100
AcDbEntity
  8
0
100
AcDbSpline
 62
7
  6
CONTINUOUS
 70
0
 71
3
 72
51
 73
47
 74
0
 42
0.0000001
 43
0.0000001
 44
0.0000000001
 40
0.0
 40
0.0
 40
0.0
 40
0.0
 40
0.0283708482
 40
0.0544471696
 40
0.0666456957
 40
0.0782980607
 40
0.0894184818
 40
0.1000240712
 40
0.1101356017
 40
0.1197782906
 40
0.1289818799
 40
0.1377811858
 40
0.1543224176
 40
0.1621778613
 40
0.1698287532
 40
0.177339302
 40
0.1847777017
 40
0.1922141765
 40
0.1997190048
 40
0.2073605433
 40
0.2152032588
 40
0.2317100699
 40
0.2404884363
 40
0.249669029
 40
0.2592869588
 40
0.2693722284
 40
0.2799502964
 40
0.2910421682
 40
0.3026651296
 40
0.3148335435
 40
0.3408480404
 40
0.3691557182
 40
0.3997944224
 40
0.4327787265
 40
0.4681066526
 40
0.5057611756
 40
0.545714349
 40
0.5879276367
 40
0.6323545429
 40
0.6789406132
 40
0.7276250938
 40
0.7783409833
 40
0.8310159899
 40
0.8855727948
 40
0.9419294675
 40
1.0
 40
1.0
 40
1.0
 40
1.0
 10
11.0936173003
 20
10.4315200033
 30
0.0
 10
11.0970363815
 20
10.433332106
 30
0.0
 10
11.1035159022
 20
10.4369685454
 30
0.0
 10
11.111173134
 20
10.4418800117
 30
0.0
 10
11.1166998382
 20
10.4458609572
 30
0.0
 10
11.1204605797
 20
10.4487971108
 30
0.0
 10
11.1239283219
 20
10.4517491413
 30
0.0
 10
11.1271015322
 20
10.4547160288
 30
0.0
 10
11.129978801
 20
10.4576967976
 30
0.0
 10
11.1325589086
 20
10.4606901464
 30
0.0
 10
11.1348409583
 20
10.4636956576
 30
0.0
 10
11.1374303724
 20
10.4676345397
 30
0.0
 10
11.1395009651
 20
10.4716874776
 30
0.0
 10
11.1409610783
 20
10.4758128567
 30
0.0
 10
11.1417336674
 20
10.4788606061
 30
0.0
 10
11.1422008049
 20
10.4819124306
 30
0.0
 10
11.142362151
 20
10.4849664801
 30
0.0
 10
11.1422174919
 20
10.4880205882
 30
0.0
 10
11.1417670274
 20
10.4910725859
 30
0.0
 10
11.1410110653
 20
10.4941206149
 30
0.0
 10
11.1395736509
 20
10.4982458206
 30
0.0
 10
11.1375250848
 20
10.5022996957
 30
0.0
 10
11.1349568125
 20
10.5062396713
 30
0.0
 10
11.132691067
 20
10.5092457948
 30
0.0
 10
11.130127196
 20
10.5122398067
 30
0.0
 10
11.1272661029
 20
10.5152212972
 30
0.0
 10
11.1241090004
 20
10.5181889679
 30
0.0
 10
11.1206572834
 20
10.521141834
 30
0.0
 10
11.1169124801
 20
10.5240788871
 30
0.0
 10
11.1114072384
 20
10.5280612703
 30
0.0
 10
11.1037761973
 20
10.5329747985
 30
0.0
 10
11.0936745373
 20
10.5386638379
 30
0.0
 10
11.0824492932
 20
10.5442611764
 30
0.0
 10
11.0701191717
 20
10.5497579454
 30
0.0
 10
11.0567040982
 20
10.5551446157
 30
0.0
 10
11.0422264934
 20
10.5604122644
 30
0.0
 10
11.0267106146
 20
10.5655515547
 30
0.0
 10
11.010182736
 20
10.5705537903
 30
0.0
 10
10.9926709235
 20
10.5754101083
 30
0.0
 10
10.974205043
 20
10.5801122055
 30
0.0
 10
10.9548166413
 20
10.5846518011
 30
0.0
 10
10.9345389063
 20
10.5890210824
 30
0.0
 10
10.9134065847
 20
10.5932124124
 30
0.0
 10
10.8914559124
 20
10.5972185368
 30
0.0
 10
10.8687246044
 20
10.6010325119
 30
0.0
 10
10.8532988193
 20
10.6034082913
 30
0.0
 10
10.8454632877
 20
10.6045650129
 30
0.0
  0
SPLINE
  5
26D
100
AcDbEntity
  8
0
100
AcDbSpline
 62
7
  6
CONTINUOUS
 70
0
 71
3
 72
39
 73
35
 74
0
 42
0.0000001
 43
0.0000001
 44
0.0000000001
 40
0.0
 40
0.0
 40
0.0
 40
0.0
 40
0.0309042607
 40
0.0618118835
 40
0.0927261804
 40
0.1236504222
 40
0.1545877597
 40
0.18554122
 40
0.2165136819
 40
0.2475078123
 40
0.2785260887
 40
0.3095707373
 40
0.3406437201
 40
0.3717467418
 40
0.402881187
 40
0.4340481538
 40
0.4652484203
 40
0.4964824276
 40
0.5277503168
 40
0.5590518774
 40
0.5903865894
 40
0.6217536198
 40
0.6531518082
 40
0.6845797229
 40
0.716035627
 40
0.7475175412
 40
0.7790232328
 40
0.810550177
 40
0.8420958362
 40
0.8736574662
 40
0.9052313767
 40
0.9368150724
 40
0.9684080044
 40
1.0
 40
1.0
 40
1.0
 40
1.0
 10
11.0935614478
 20
3.4340633904
 30
0.0
 10
11.0935614478
 20
3.4235610857
 30
0.0
 10
11.093034282
 20
3.4025515147
 30
0.0
 10
11.0906634468
 20
3.3711167451
 30
0.0
 10
11.0867185293
 20
3.339832851
 30
0.0
 10
11.0812091232
 20
3.3087762313
 30
0.0
 10
11.074148089
 20
3.2780215383
 30
0.0
 10
11.065553016
 20
3.2476428274
 30
0.0
 10
11.0554441859
 20
3.2177133925
 30
0.0
 10
11.0438461141
 20
3.1883053308
 30
0.0
 10
11.0307869836
 20
3.1594893889
 30
0.0
 10
11.0162978015
 20
3.1313352226
 30
0.0
 10
11.0004140042
 20
3.1039104068
 30
0.0
 10
10.9831735797
 20
3.0772811642
 30
0.0
 10
10.9646180755
 20
3.0515116761
 30
0.0
 10
10.9447925149
 20
3.0266637795
 30
0.0
 10
10.9237442373
 20
3.0027976845
 30
0.0
 10
10.9015243525
 20
2.9799705495
 30
0.0
 10
10.8781862556
 20
2.9582374691
 30
0.0
 10
10.8537860686
 20
2.9376509362
 30
0.0
 10
10.8283828875
 20
2.9182601478
 30
0.0
 10
10.8020375769
 20
2.900112241
 30
0.0
 10
10.7748138429
 20
2.8832506019
 30
0.0
 10
10.7467772393
 20
2.8677158405
 30
0.0
 10
10.7179951557
 20
2.8535456609
 30
0.0
 10
10.688537157
 20
2.8407736918
 30
0.0
 10
10.6584740079
 20
2.8294311493
 30
0.0
 10
10.62787822
 20
2.8195450739
 30
0.0
 10
10.5968234467
 20
2.8111391561
 30
0.0
 10
10.5653845123
 20
2.8042341936
 30
0.0
 10
10.5336373907
 20
2.7988459846
 30
0.0
 10
10.5016572914
 20
2.7949879495
 30
0.0
 10
10.4695234603
 20
2.7926699091
 30
0.0
 10
10.44804754
 20
2.7921540274
 30
0.0
 10
10.4373115199
 20
2.7921540274
 30
0.0
  0
SPLINE
  5
26E
100
AcDbEntity
  8
0
100
AcDbSpline
 62
7
  6
CONTINUOUS
 70
0
 71
3
 72
11
 73
7
 74
0
 42
0.0000001
 43
0.0000001
 44
0.0000000001
 40
0.0
 40
0.0
 40
0.0
 40
0.0
 40
0.2424754237
 40
0.4910159123
 40
0.7439788765
 40
1.0
 40
1.0
 40
1.0
 40
1.0
 10
10.8348261497
 20
13.1699351257
 30
0.0
 10
10.8244747099
 20
13.1818760872
 30
0.0
 10
10.8023582642
 20
13.20508165
 30
0.0
 10
10.7656887373
 20
13.2369142856
 30
0.0
 10
10.7254333946
 20
13.2656231323
 30
0.0
 10
10.6966541403
 20
13.2822412417
 30
0.0
 10
10.681822695
 20
13.2898864637
 30
0.0
  0
SPLINE
  5
26F
100
AcDbEntity
  8
0
100
AcDbSpline
 62
7
  6
CONTINUOUS
 70
0
 71
3
 72
12
 73
8
 74
0
 42
0.0000001
 43
0.0000001
 44
0.0000000001
 40
0.0
 40
0.0
 40
0.0
 40
0.0
 40
0.25600323
 40
0.5089485436
 40
0.6338957135
 40
0.7575417322
 40
1.0
 40
1.0
 40
1.0
 40
1.0
 10
10.1928057329
 20
13.2898891754
 30
0.0
 10
10.1779737382
 20
13.2822438895
 30
0.0
 10
10.1491942888
 20
13.2656263338
 30
0.0
 10
10.1155019321
 20
13.2415976016
 30
0.0
 10
10.0903093999
 20
13.2207464007
 30
0.0
 10
10.0666445874
 20
13.1991831554
 30
0.0
 10
10.0501486554
 20
13.1818764357
 30
0.0
 10
10.0397968901
 20
13.1699351257
 30
0.0
  0
SPLINE
  5
270
100
AcDbEntity
  8
0
100
AcDbSpline
 62
7
  6
CONTINUOUS
 70
0
 71
3
 72
15
 73
11
 74
0
 42
0.0000001
 43
0.0000001
 44
0.0000000001
 40
0.0
 40
0.0
 40
0.0
 40
0.0
 40
0.0598194826
 40
0.1202864865
 40
0.2427744996
 40
0.3669184506
 40
0.4922673968
 40
0.6184799098
 40
0.7453027329
 40
1.0
 40
1.0
 40
1.0
 40
1.0
 10
9.9122877736
 20
13.1699351257
 30
0.0
 10
9.9172435581
 20
13.1746346895
 30
0.0
 10
9.9273871769
 20
13.1838985692
 30
0.0
 10
9.9485187841
 20
13.2018433609
 30
0.0
 10
9.976430148
 20
13.2231144063
 30
0.0
 10
10.0118759834
 20
13.2465618301
 30
0.0
 10
10.0491038204
 20
13.2679263154
 30
0.0
 10
10.0878324083
 20
13.2871301764
 30
0.0
 10
10.1411987616
 20
13.3098259099
 30
0.0
 10
10.1826845011
 20
13.3234754625
 30
0.0
 10
10.2107477709
 20
13.3310959746
 30
0.0
  0
SPLINE
  5
271
100
AcDbEntity
  8
0
100
AcDbSpline
 62
7
  6
CONTINUOUS
 70
0
 71
3
 72
15
 73
11
 74
0
 42
0.0000001
 43
0.0000001
 44
0.0000000001
 40
0.0
 40
0.0
 40
0.0
 40
0.0
 40
0.2546973186
 40
0.3815201468
 40
0.5077326525
 40
0.6330816381
 40
0.7572255532
 40
0.8797130144
 40
0.9401803001
 40
1.0
 40
1.0
 40
1.0
 40
1.0
 10
10.6638802974
 20
13.3310946212
 30
0.0
 10
10.6919430762
 20
13.3234739868
 30
0.0
 10
10.7334280816
 20
13.3098243811
 30
0.0
 10
10.7867935908
 20
13.2871289133
 30
0.0
 10
10.8255213738
 20
13.2679249138
 30
0.0
 10
10.8627487538
 20
13.2465610272
 30
0.0
 10
10.8981942998
 20
13.2231143327
 30
0.0
 10
10.9261035979
 20
13.2018415648
 30
0.0
 10
10.9472355592
 20
13.1838979057
 30
0.0
 10
10.9573795319
 20
13.1746346258
 30
0.0
 10
10.9623352662
 20
13.1699351257
 30
0.0
  0
SPLINE
  5
272
100
AcDbEntity
  8
0
100
AcDbSpline
 62
7
  6
CONTINUOUS
 70
0
 71
3
 72
23
 73
19
 74
0
 42
0.0000001
 43
0.0000001
 44
0.0000000001
 40
0.0
 40
0.0
 40
0.0
 40
0.0
 40
0.0599624648
 40
0.1201170908
 40
0.1805288741
 40
0.241262769
 40
0.3023653778
 40
0.3638718586
 40
0.4258058721
 40
0.4881780866
 40
0.5509861097
 40
0.614214741
 40
0.6778357971
 40
0.7418081761
 40
0.8060790369
 40
0.8705832258
 40
0.9352515623
 40
1.0
 40
1.0
 40
1.0
 40
1.0
 10
10.9623352662
 20
13.1699351257
 30
0.0
 10
10.9740737883
 20
13.1581212694
 30
0.0
 10
10.9969873585
 20
13.1338500243
 30
0.0
 10
11.029550989
 20
13.0956971226
 30
0.0
 10
11.0603320991
 20
13.0558203224
 30
0.0
 10
11.0893046406
 20
13.0142902525
 30
0.0
 10
11.1164176989
 20
12.9711634781
 30
0.0
 10
11.1416158557
 20
12.9265076971
 30
0.0
 10
11.1648364308
 20
12.8803971915
 30
0.0
 10
11.1860039184
 20
12.8329126745
 30
0.0
 10
11.2050414656
 20
12.7841485237
 30
0.0
 10
11.2218701369
 20
12.7342123651
 30
0.0
 10
11.2364115401
 20
12.6832263016
 30
0.0
 10
11.2485911738
 20
12.6313274634
 30
0.0
 10
11.2583422917
 20
12.5786684891
 30
0.0
 10
11.2656095769
 20
12.5254141029
 30
0.0
 10
11.2703494763
 20
12.4717435647
 30
0.0
 10
11.2718066649
 20
12.4358125193
 30
0.0
 10
11.2721081613
 20
12.4178316465
 30
0.0
  0
SPLINE
  5
273
100
AcDbEntity
  8
0
100
AcDbSpline
 62
7
  6
CONTINUOUS
 70
0
 71
3
 72
21
 73
17
 74
0
 42
0.0000001
 43
0.0000001
 44
0.0000000001
 40
0.0
 40
0.0
 40
0.0
 40
0.0
 40
0.0647549146
 40
0.1294297576
 40
0.1617121205
 40
0.1939449979
 40
0.2582224596
 40
0.3222013461
 40
0.3858288998
 40
0.4490639939
 40
0.511878429
 40
0.6361628028
 40
0.7587499699
 40
0.8194900683
 40
0.8799083046
 40
1.0
 40
1.0
 40
1.0
 40
1.0
 10
9.6025148785
 20
12.4178316465
 30
0.0
 10
9.6028165532
 20
12.435812469
 30
0.0
 10
9.6042769158
 20
12.4717429148
 30
0.0
 10
9.6082273509
 20
12.5164960784
 30
0.0
 10
9.6126548462
 20
12.5521028248
 30
0.0
 10
9.6179130568
 20
12.5874846741
 30
0.0
 10
9.6260325757
 20
12.6313274476
 30
0.0
 10
9.6382115578
 20
12.6832259638
 30
0.0
 10
9.652752615
 20
12.7342119844
 30
0.0
 10
9.6695816476
 20
12.7841489074
 30
0.0
 10
9.6948720548
 20
12.8489298165
 30
0.0
 10
9.7317664278
 20
12.9267686367
 30
0.0
 10
9.7755484448
 20
13.0002831687
 30
0.0
 10
9.8142907791
 20
13.0558213885
 30
0.0
 10
9.8552429824
 20
13.1088693371
 30
0.0
 10
9.8887799756
 20
13.1462775023
 30
0.0
 10
9.9122877736
 20
13.1699351257
 30
0.0
  0
SPLINE
  5
274
100
AcDbEntity
  8
0
100
AcDbSpline
 62
7
  6
CONTINUOUS
 70
0
 71
3
 72
15
 73
11
 74
0
 42
0.0000001
 43
0.0000001
 44
0.0000000001
 40
0.0
 40
0.0
 40
0.0
 40
0.0
 40
0.0928916215
 40
0.1957850817
 40
0.3085469025
 40
0.4308278125
 40
0.5619917581
 40
0.7012309926
 40
0.8476351629
 40
1.0
 40
1.0
 40
1.0
 40
1.0
 10
9.8964012409
 20
13.1776277221
 30
0.0
 10
9.8969511226
 20
13.1775743695
 30
0.0
 10
9.8981030443
 20
13.1773842245
 30
0.0
 10
9.8998758881
 20
13.1769015303
 30
0.0
 10
9.9017656109
 20
13.1762110489
 30
0.0
 10
9.9037544019
 20
13.1753194232
 30
0.0
 10
9.9058242474
 20
13.1742349745
 30
0.0
 10
9.9079558232
 20
13.1729673872
 30
0.0
 10
9.910128601
 20
13.1715287317
 30
0.0
 10
9.9115659762
 20
13.1704829958
 30
0.0
 10
9.9122877736
 20
13.1699351257
 30
0.0
  0
SPLINE
  5
275
100
AcDbEntity
  8
0
100
AcDbSpline
 62
7
  6
CONTINUOUS
 70
0
 71
3
 72
15
 73
11
 74
0
 42
0.0000001
 43
0.0000001
 44
0.0000000001
 40
0.0
 40
0.0
 40
0.0
 40
0.0
 40
0.0928916255
 40
0.1957850881
 40
0.3085469098
 40
0.4308278196
 40
0.5619917641
 40
0.7012309968
 40
0.847635165
 40
1.0
 40
1.0
 40
1.0
 40
1.0
 10
10.9782217989
 20
13.1776277221
 30
0.0
 10
10.9776719172
 20
13.1775743696
 30
0.0
 10
10.9765199954
 20
13.1773842246
 30
0.0
 10
10.9747471516
 20
13.1769015305
 30
0.0
 10
10.9728574287
 20
13.1762110492
 30
0.0
 10
10.9708686377
 20
13.1753194234
 30
0.0
 10
10.9687987921
 20
13.1742349747
 30
0.0
 10
10.9666672164
 20
13.1729673874
 30
0.0
 10
10.9644944387
 20
13.1715287318
 30
0.0
 10
10.9630570636
 20
13.1704829958
 30
0.0
 10
10.9623352662
 20
13.1699351257
 30
0.0
  0
SPLINE
  5
276
100
AcDbEntity
  8
0
100
AcDbSpline
 62
7
  6
CONTINUOUS
 70
0
 71
3
 72
15
 73
11
 74
0
 42
0.0000001
 43
0.0000001
 44
0.0000000001
 40
0.0
 40
0.0
 40
0.0
 40
0.0
 40
0.1036090078
 40
0.2172541185
 40
0.3392957541
 40
0.467756119
 40
0.600431794
 40
0.7349604513
 40
0.8689621701
 40
1.0
 40
1.0
 40
1.0
 40
1.0
 10
10.0622395476
 20
13.1467011453
 30
0.0
 10
10.0617542891
 20
13.1477199563
 30
0.0
 10
10.0606117812
 20
13.1497976195
 30
0.0
 10
10.0585453548
 20
13.1528658818
 30
0.0
 10
10.0560823892
 20
13.15597912
 30
0.0
 10
10.0532747633
 20
13.1590708895
 30
0.0
 10
10.0501816878
 20
13.1620754184
 30
0.0
 10
10.0468687948
 20
13.164928952
 30
0.0
 10
10.0434068363
 20
13.1675700929
 30
0.0
 10
10.0410077222
 20
13.1691795877
 30
0.0
 10
10.0397968901
 20
13.1699351257
 30
0.0
  0
SPLINE
  5
277
100
AcDbEntity
  8
0
100
AcDbSpline
 62
7
  6
CONTINUOUS
 70
0
 71
3
 72
15
 73
11
 74
0
 42
0.0000001
 43
0.0000001
 44
0.0000000001
 40
0.0
 40
0.0
 40
0.0
 40
0.0
 40
0.1036149736
 40
0.2172637804
 40
0.3393069487
 40
0.4677669702
 40
0.6004408402
 40
0.7349667202
 40
0.8689652504
 40
1.0
 40
1.0
 40
1.0
 40
1.0
 10
10.8123846222
 20
13.1467035224
 30
0.0
 10
10.8128699634
 20
13.1477222654
 30
0.0
 10
10.8140125842
 20
13.1497997664
 30
0.0
 10
10.8160790778
 20
13.1528677701
 30
0.0
 10
10.818542002
 20
13.1559807002
 30
0.0
 10
10.8213494889
 20
13.1590721321
 30
0.0
 10
10.824442342
 20
13.1620763141
 30
0.0
 10
10.8277549475
 20
13.164929512
 30
0.0
 10
10.8312165736
 20
13.1675703479
 30
0.0
 10
10.8336154434
 20
13.1691796664
 30
0.0
 10
10.8348261497
 20
13.1699351257
 30
0.0
  0
SPLINE
  5
278
100
AcDbEntity
  8
0
100
AcDbSpline
 62
7
  6
CONTINUOUS
 70
0
 71
3
 72
34
 73
30
 74
0
 42
0.0000001
 43
0.0000001
 44
0.0000000001
 40
0.0
 40
0.0
 40
0.0
 40
0.0
 40
0.1016828452
 40
0.198763844
 40
0.2909801213
 40
0.3780914619
 40
0.4598828584
 40
0.5361692729
 40
0.5722014918
 40
0.6068041162
 40
0.6399650959
 40
0.6716757394
 40
0.7019301044
 40
0.7307272717
 40
0.7580709546
 40
0.7839697061
 40
0.8084396722
 40
0.831504429
 40
0.8531964914
 40
0.8735608006
 40
0.8926555809
 40
0.9105556923
 40
0.9273569753
 40
0.9353840838
 40
0.9431832738
 40
0.9581704229
 40
0.9724978416
 40
0.98636665
 40
1.0
 40
1.0
 40
1.0
 40
1.0
 10
10.0293600561
 20
10.5919252015
 30
0.0
 10
10.0199271302
 20
10.5903687419
 30
0.0
 10
10.0015151324
 20
10.5871592952
 30
0.0
 10
9.9746612529
 20
10.5819177575
 30
0.0
 10
9.9492686614
 20
10.5763726367
 30
0.0
 10
9.9254171072
 20
10.5705418442
 30
0.0
 10
9.9031815772
 20
10.5644440306
 30
0.0
 10
9.8857391927
 20
10.5590589796
 30
0.0
 10
9.8726593606
 20
10.554613402
 30
0.0
 10
9.863483456
 20
10.5512880875
 30
0.0
 10
9.8547608855
 20
10.5479106847
 30
0.0
 10
9.8464984105
 20
10.5444839168
 30
0.0
 10
9.8387025155
 20
10.5410103271
 30
0.0
 10
9.8313792032
 20
10.5374927165
 30
0.0
 10
9.8245340626
 20
10.5339338969
 30
0.0
 10
9.81817241
 20
10.5303364003
 30
0.0
 10
9.8122989873
 20
10.526703073
 30
0.0
 10
9.8069181527
 20
10.5230366066
 30
0.0
 10
9.8020340245
 20
10.519339361
 30
0.0
 10
9.7976500973
 20
10.5156139979
 30
0.0
 10
9.7937695812
 20
10.5118626603
 30
0.0
 10
9.7903959194
 20
10.5080875208
 30
0.0
 10
9.7879731336
 20
10.5048755299
 30
0.0
 10
9.7863053003
 20
10.5022994022
 30
0.0
 10
9.7848538581
 20
10.4997909216
 30
0.0
 10
9.7833445729
 20
10.4966361724
 30
0.0
 10
9.7820293401
 20
10.4927841825
 30
0.0
 10
9.781238097
 20
10.4889207417
 30
0.0
 10
9.781061592
 20
10.4863316177
 30
0.0
 10
9.781061592
 20
10.4850497763
 30
0.0
  0
SPLINE
  5
279
100
AcDbEntity
  8
0
100
AcDbSpline
 62
7
  6
CONTINUOUS
 70
0
 71
3
 72
36
 73
32
 74
0
 42
0.0000001
 43
0.0000001
 44
0.0000000001
 40
0.0
 40
0.0
 40
0.0
 40
0.0
 40
0.1013748891
 40
0.1986779777
 40
0.2915307053
 40
0.379579668
 40
0.4625001264
 40
0.5019457645
 40
0.5400023898
 40
0.5766398736
 40
0.6118302185
 40
0.6455486089
 40
0.6777740178
 40
0.7084883246
 40
0.7376787095
 40
0.7653364041
 40
0.7914586774
 40
0.8160497185
 40
0.8391209811
 40
0.8606946788
 40
0.8808040883
 40
0.899497956
 40
0.9168437299
 40
0.9329317927
 40
0.9478822701
 40
0.9618492631
 40
0.9750266423
 40
0.9813951406
 40
0.9876570063
 40
0.9938467042
 40
1.0
 40
1.0
 40
1.0
 40
1.0
 10
10.0260505031
 20
10.7511227589
 30
0.0
 10
10.0107101056
 20
10.7492886915
 30
0.0
 10
9.9806760652
 20
10.7454309909
 30
0.0
 10
9.9367226749
 20
10.7389239161
 30
0.0
 10
9.8949171259
 20
10.7318355685
 30
0.0
 10
9.8554387491
 20
10.7241968937
 30
0.0
 10
9.8241190259
 20
10.7172908509
 30
0.0
 10
9.8003674019
 20
10.7114911716
 30
0.0
 10
9.7835356517
 20
10.7070972015
 30
0.0
 10
9.7674057728
 20
10.7025914406
 30
0.0
 10
9.7519949827
 20
10.6979786037
 30
0.0
 10
9.7373197383
 20
10.6932636281
 30
0.0
 10
9.723395625
 20
10.6884518204
 30
0.0
 10
9.7102374753
 20
10.6835480632
 30
0.0
 10
9.6978591459
 20
10.6785579256
 30
0.0
 10
9.6862736828
 20
10.6734865706
 30
0.0
 10
9.675493204
 20
10.6683393702
 30
0.0
 10
9.6655287807
 20
10.6631219299
 30
0.0
 10
9.6563907387
 20
10.6578392406
 30
0.0
 10
9.648088107
 20
10.6524969368
 30
0.0
 10
9.6406292196
 20
10.6470997516
 30
0.0
 10
9.6340213613
 20
10.6416524431
 30
0.0
 10
9.6282708966
 20
10.636159284
 30
0.0
 10
9.6233842768
 20
10.6306234619
 30
0.0
 10
9.6193672654
 20
10.6250478713
 30
0.0
 10
9.6162275859
 20
10.6194357787
 30
0.0
 10
9.6143278645
 20
10.6146755331
 30
0.0
 10
9.6132772285
 20
10.6108820837
 30
0.0
 10
9.6127202158
 20
10.6080655452
 30
0.0
 10
9.6123859773
 20
10.6052471821
 30
0.0
 10
9.6123116105
 20
10.6033652576
 30
0.0
 10
9.6123116105
 20
10.6024274884
 30
0.0
  0
SPLINE
  5
27A
100
AcDbEntity
  8
0
100
AcDbSpline
 62
7
  6
CONTINUOUS
 70
0
 71
3
 72
44
 73
40
 74
0
 42
0.0000001
 43
0.0000001
 44
0.0000000001
 40
0.0
 40
0.0
 40
0.0
 40
0.0
 40
0.0048506346
 40
0.0097652718
 40
0.0148053583
 40
0.0200275404
 40
0.0254824474
 40
0.0312141041
 40
0.0372596913
 40
0.0436502829
 40
0.0504115984
 40
0.057564332
 40
0.0651250813
 40
0.0731072101
 40
0.0815210179
 40
0.0903741834
 40
0.0996725365
 40
0.1094201339
 40
0.1196192164
 40
0.1302708979
 40
0.1529298323
 40
0.1773861848
 40
0.2036149041
 40
0.2315801024
 40
0.2612367612
 40
0.292532544
 40
0.3254078788
 40
0.3597974935
 40
0.395630681
 40
0.4328316261
 40
0.471320446
 40
0.5110128866
 40
0.5518212036
 40
0.5936543842
 40
0.6364182362
 40
0.7243473599
 40
0.8148099748
 40
0.9069756306
 40
1.0
 40
1.0
 40
1.0
 40
1.0
 10
11.0935614478
 20
4.9462889871
 30
0.0
 10
11.0935614478
 20
4.9474070809
 30
0.0
 10
11.0934276609
 20
4.9496602323
 30
0.0
 10
11.0928272771
 20
4.9530269942
 30
0.0
 10
11.0918281607
 20
4.9563870099
 30
0.0
 10
11.0904326092
 20
4.9597370407
 30
0.0
 10
11.088642724
 20
4.9630752125
 30
0.0
 10
11.0864604953
 20
4.966399758
 30
0.0
 10
11.083888171
 20
4.9697094235
 30
0.0
 10
11.0809276671
 20
4.9730028731
 30
0.0
 10
11.077580766
 20
4.9762785663
 30
0.0
 10
11.0738496059
 20
4.9795351033
 30
0.0
 10
11.0697363977
 20
4.9827709533
 30
0.0
 10
11.0652433862
 20
4.9859843278
 30
0.0
 10
11.0603731637
 20
4.9891735063
 30
0.0
 10
11.0551286093
 20
4.9923368132
 30
0.0
 10
11.049512697
 20
4.9954723745
 30
0.0
 10
11.0435286639
 20
4.9985782882
 30
0.0
 10
11.0371800972
 20
5.0016529123
 30
0.0
 10
11.0280446965
 20
5.0057938246
 30
0.0
 10
11.0157245819
 20
5.0108576425
 30
0.0
 10
10.9998424897
 20
5.0166625762
 30
0.0
 10
10.9826088373
 20
5.0223004018
 30
0.0
 10
10.9640646222
 20
5.0277574409
 30
0.0
 10
10.9442537263
 20
5.0330204648
 30
0.0
 10
10.9232233869
 20
5.0380764205
 30
0.0
 10
10.9010238918
 20
5.0429131139
 30
0.0
 10
10.8777084331
 20
5.0475186601
 30
0.0
 10
10.8533329537
 20
5.0518817778
 30
0.0
 10
10.8279560035
 20
5.0559919608
 30
0.0
 10
10.8016385819
 20
5.0598390475
 30
0.0
 10
10.7744439755
 20
5.0634137883
 30
0.0
 10
10.7464376239
 20
5.0667074618
 30
0.0
 10
10.7176868846
 20
5.0697120499
 30
0.0
 10
10.6780853219
 20
5.0733566407
 30
0.0
 10
10.627242059
 20
5.0771192299
 30
0.0
 10
10.5649562124
 20
5.0803473456
 30
0.0
 10
10.5014425211
 20
5.0822970289
 30
0.0
 10
10.4587540691
 20
5.0827310342
 30
0.0
 10
10.4373115199
 20
5.0827310342
 30
0.0
  0
SPLINE
  5
27B
100
AcDbEntity
  8
0
100
AcDbSpline
 62
7
  6
CONTINUOUS
 70
0
 71
3
 72
34
 73
30
 74
0
 42
0.0000001
 43
0.0000001
 44
0.0000000001
 40
0.0
 40
0.0
 40
0.0
 40
0.0
 40
0.0136334414
 40
0.0275023381
 40
0.0418298391
 40
0.0568170626
 40
0.0646162863
 40
0.0726434261
 40
0.089444764
 40
0.10734492
 40
0.1264397347
 40
0.1468040687
 40
0.1684961466
 40
0.1915609101
 40
0.2160308752
 40
0.2419296183
 40
0.2692732861
 40
0.2980704326
 40
0.3283247715
 40
0.3600353845
 40
0.39319633
 40
0.4277989171
 40
0.4638310965
 40
0.5401174282
 40
0.6219087419
 40
0.7090200059
 40
0.8012362192
 40
0.8983171734
 40
1.0
 40
1.0
 40
1.0
 40
1.0
 10
11.0935614478
 20
10.4850497763
 30
0.0
 10
11.0935614478
 20
10.4863316046
 30
0.0
 10
11.0933849465
 20
10.4889207015
 30
0.0
 10
11.0925937198
 20
10.4927841026
 30
0.0
 10
11.0912785141
 20
10.496636053
 30
0.0
 10
11.0897692595
 20
10.499790771
 30
0.0
 10
11.0883178465
 20
10.5022992269
 30
0.0
 10
11.0866500475
 20
10.5048753282
 30
0.0
 10
11.0842273115
 20
10.5080872867
 30
0.0
 10
11.0808537182
 20
10.5118623892
 30
0.0
 10
11.0769732805
 20
10.5156136905
 30
0.0
 10
11.0725894418
 20
10.519339018
 30
0.0
 10
11.067705412
 20
10.5230362288
 30
0.0
 10
11.0623246854
 20
10.5267026614
 30
0.0
 10
11.0564513802
 20
10.5303359557
 30
0.0
 10
11.0500898545
 20
10.5339334205
 30
0.0
 10
11.04324485
 20
10.5374922094
 30
0.0
 10
11.0359216827
 20
10.5410097905
 30
0.0
 10
11.0281259415
 20
10.5444833521
 30
0.0
 10
11.0198636287
 20
10.5479100932
 30
0.0
 10
11.0111412286
 20
10.5512874708
 30
0.0
 10
11.0019655024
 20
10.5546127615
 30
0.0
 10
10.9888859232
 20
10.5590583091
 30
0.0
 10
10.9714438724
 20
10.5644433273
 30
0.0
 10
10.9492087625
 20
10.5705411094
 30
0.0
 10
10.9253576524
 20
10.5763718782
 30
0.0
 10
10.8999655261
 20
10.5819169835
 30
0.0
 10
10.8731121298
 20
10.5871585143
 30
0.0
 10
10.8547004597
 20
10.5903679618
 30
0.0
 10
10.8452677
 20
10.5919244232
 30
0.0
  0
SPLINE
  5
27C
100
AcDbEntity
  8
0
100
AcDbSpline
 62
7
  6
CONTINUOUS
 70
0
 71
3
 72
44
 73
40
 74
0
 42
0.0000001
 43
0.0000001
 44
0.0000000001
 40
0.0
 40
0.0
 40
0.0
 40
0.0
 40
0.0930243694
 40
0.1851900252
 40
0.2756526401
 40
0.3635817638
 40
0.4063456158
 40
0.4481787964
 40
0.4889871134
 40
0.528679554
 40
0.5671683739
 40
0.604369319
 40
0.6402025065
 40
0.6745921212
 40
0.707467456
 40
0.7387632388
 40
0.7684198976
 40
0.7963850959
 40
0.8226138152
 40
0.8470701677
 40
0.8697291021
 40
0.8803807836
 40
0.8905798661
 40
0.9003274635
 40
0.9096258166
 40
0.9184789821
 40
0.9268927899
 40
0.9348749187
 40
0.942435668
 40
0.9495884016
 40
0.9563497171
 40
0.9627403087
 40
0.9687858959
 40
0.9745175526
 40
0.9799724596
 40
0.9851946417
 40
0.9902347282
 40
0.9951493654
 40
1.0
 40
1.0
 40
1.0
 40
1.0
 10
10.4373115199
 20
5.0827310342
 30
0.0
 10
10.4158689707
 20
5.0827310342
 30
0.0
 10
10.3731805187
 20
5.0822970289
 30
0.0
 10
10.3096668274
 20
5.0803473456
 30
0.0
 10
10.2473809808
 20
5.0771192299
 30
0.0
 10
10.1965377179
 20
5.0733566407
 30
0.0
 10
10.1569361553
 20
5.0697120499
 30
0.0
 10
10.1281854159
 20
5.0667074618
 30
0.0
 10
10.1001790643
 20
5.0634137883
 30
0.0
 10
10.0729844579
 20
5.0598390475
 30
0.0
 10
10.0466670363
 20
5.0559919608
 30
0.0
 10
10.0212900861
 20
5.0518817778
 30
0.0
 10
9.9969146067
 20
5.0475186601
 30
0.0
 10
9.973599148
 20
5.0429131139
 30
0.0
 10
9.9513996529
 20
5.0380764205
 30
0.0
 10
9.9303693135
 20
5.0330204648
 30
0.0
 10
9.9105584176
 20
5.0277574409
 30
0.0
 10
9.8920142025
 20
5.0223004018
 30
0.0
 10
9.8747805502
 20
5.0166625762
 30
0.0
 10
9.8588984579
 20
5.0108576425
 30
0.0
 10
9.8465783433
 20
5.0057938246
 30
0.0
 10
9.8374429426
 20
5.0016529123
 30
0.0
 10
9.8310943759
 20
4.9985782882
 30
0.0
 10
9.8251103428
 20
4.9954723745
 30
0.0
 10
9.8194944305
 20
4.9923368132
 30
0.0
 10
9.8142498761
 20
4.9891735063
 30
0.0
 10
9.8093796536
 20
4.9859843278
 30
0.0
 10
9.8048866422
 20
4.9827709533
 30
0.0
 10
9.8007734339
 20
4.9795351033
 30
0.0
 10
9.7970422738
 20
4.9762785663
 30
0.0
 10
9.7936953727
 20
4.9730028731
 30
0.0
 10
9.7907348688
 20
4.9697094235
 30
0.0
 10
9.7881625445
 20
4.966399758
 30
0.0
 10
9.7859803158
 20
4.9630752125
 30
0.0
 10
9.7841904306
 20
4.9597370407
 30
0.0
 10
9.7827948791
 20
4.9563870099
 30
0.0
 10
9.7817957627
 20
4.9530269942
 30
0.0
 10
9.7811953789
 20
4.9496602323
 30
0.0
 10
9.781061592
 20
4.9474070809
 30
0.0
 10
9.781061592
 20
4.9462889871
 30
0.0
  0
SPLINE
  5
27D
100
AcDbEntity
  8
0
100
AcDbSpline
 62
7
  6
CONTINUOUS
 70
0
 71
3
 72
39
 73
35
 74
0
 42
0.0000001
 43
0.0000001
 44
0.0000000001
 40
0.0
 40
0.0
 40
0.0
 40
0.0
 40
0.0315923683
 40
0.0631849087
 40
0.0947684894
 40
0.1263425775
 40
0.1579041825
 40
0.1894498043
 40
0.2209767701
 40
0.2524824604
 40
0.283964374
 40
0.3154202762
 40
0.3468481907
 40
0.3782463838
 40
0.4096134073
 40
0.4409481241
 40
0.4722496851
 40
0.5035175689
 40
0.5347515835
 40
0.5659518449
 40
0.5971188115
 40
0.6282532617
 40
0.6593562769
 40
0.6904292639
 40
0.7214739125
 40
0.7524921851
 40
0.7834863204
 40
0.8144587794
 40
0.8454122396
 40
0.8763495793
 40
0.9072738185
 40
0.938188117
 40
0.9690957394
 40
1.0
 40
1.0
 40
1.0
 40
1.0
 10
10.4373115199
 20
2.7141871434
 30
0.0
 10
10.426575373
 20
2.7141871434
 30
0.0
 10
10.4050994567
 20
2.7147029673
 30
0.0
 10
10.3729656765
 20
2.7170211006
 30
0.0
 10
10.3409856884
 20
2.7208791028
 30
0.0
 10
10.3092385414
 20
2.7262672573
 30
0.0
 10
10.2777995927
 20
2.7331723311
 30
0.0
 10
10.2467447974
 20
2.7415781159
 30
0.0
 10
10.2161490482
 20
2.7514643007
 30
0.0
 10
10.1860858851
 20
2.762806814
 30
0.0
 10
10.1566278446
 20
2.7755786953
 30
0.0
 10
10.1278458543
 20
2.789749059
 30
0.0
 10
10.0998091488
 20
2.8052836337
 30
0.0
 10
10.0725854529
 20
2.8221453452
 30
0.0
 10
10.0462402126
 20
2.8402933452
 30
0.0
 10
10.0208368752
 20
2.8596839323
 30
0.0
 10
9.9964368455
 20
2.8802706567
 30
0.0
 10
9.9730986839
 20
2.9020036594
 30
0.0
 10
9.9508787202
 20
2.924830726
 30
0.0
 10
9.9298306323
 20
2.948696986
 30
0.0
 10
9.9100048781
 20
2.9735447251
 30
0.0
 10
9.8914494602
 20
2.9993142826
 30
0.0
 10
9.8742090992
 20
3.0259435604
 30
0.0
 10
9.8583251229
 20
3.0533682756
 30
0.0
 10
9.8438361383
 20
3.0815225459
 30
0.0
 10
9.830776905
 20
3.1103384365
 30
0.0
 10
9.8191787893
 20
3.1397464859
 30
0.0
 10
9.8090700962
 20
3.1696759658
 30
0.0
 10
9.8004748861
 20
3.200054637
 30
0.0
 10
9.7934139304
 20
3.2308093509
 30
0.0
 10
9.7879045161
 20
3.2618659673
 30
0.0
 10
9.7839595573
 20
3.2931498576
 30
0.0
 10
9.7815887785
 20
3.3245846319
 30
0.0
 10
9.7810615789
 20
3.3455942015
 30
0.0
 10
9.7810615789
 20
3.3560965063
 30
0.0
  0
SPLINE
  5
27E
100
AcDbEntity
  8
0
100
AcDbSpline
 62
7
  6
CONTINUOUS
 70
0
 71
3
 72
39
 73
35
 74
0
 42
0.0000001
 43
0.0000001
 44
0.0000000001
 40
0.0
 40
0.0
 40
0.0
 40
0.0
 40
0.0315919956
 40
0.0631849276
 40
0.0947686233
 40
0.1263425338
 40
0.1579041638
 40
0.189449823
 40
0.2209767672
 40
0.2524824588
 40
0.283964373
 40
0.3154202771
 40
0.3468481918
 40
0.3782463802
 40
0.4096134106
 40
0.4409481226
 40
0.4722496832
 40
0.5035175724
 40
0.5347515797
 40
0.5659518462
 40
0.597118813
 40
0.6282532582
 40
0.6593562799
 40
0.6904292627
 40
0.7214739113
 40
0.7524921877
 40
0.7834863181
 40
0.81445878
 40
0.8454122403
 40
0.8763495778
 40
0.9072738196
 40
0.9381881165
 40
0.9690957393
 40
1.0
 40
1.0
 40
1.0
 40
1.0
 10
10.4373115199
 20
2.7921540274
 30
0.0
 10
10.4265754998
 20
2.7921540274
 30
0.0
 10
10.4050995796
 20
2.7926699091
 30
0.0
 10
10.3729657484
 20
2.7949879495
 30
0.0
 10
10.3409856491
 20
2.7988459846
 30
0.0
 10
10.3092385275
 20
2.8042341936
 30
0.0
 10
10.2777995931
 20
2.8111391561
 30
0.0
 10
10.2467448198
 20
2.8195450739
 30
0.0
 10
10.2161490319
 20
2.8294311493
 30
0.0
 10
10.1860858828
 20
2.8407736918
 30
0.0
 10
10.1566278841
 20
2.8535456609
 30
0.0
 10
10.1278458005
 20
2.8677158405
 30
0.0
 10
10.0998091969
 20
2.8832506019
 30
0.0
 10
10.0725854629
 20
2.900112241
 30
0.0
 10
10.0462401523
 20
2.9182601478
 30
0.0
 10
10.0208369713
 20
2.9376509362
 30
0.0
 10
9.9964367842
 20
2.9582374691
 30
0.0
 10
9.9730986873
 20
2.9799705495
 30
0.0
 10
9.9508788025
 20
3.0027976845
 30
0.0
 10
9.9298305249
 20
3.0266637795
 30
0.0
 10
9.9100049643
 20
3.0515116761
 30
0.0
 10
9.8914494601
 20
3.0772811642
 30
0.0
 10
9.8742090356
 20
3.1039104068
 30
0.0
 10
9.8583252383
 20
3.1313352226
 30
0.0
 10
9.8438360562
 20
3.1594893889
 30
0.0
 10
9.8307769257
 20
3.1883053308
 30
0.0
 10
9.8191788539
 20
3.2177133925
 30
0.0
 10
9.8090700238
 20
3.2476428274
 30
0.0
 10
9.8004749508
 20
3.2780215383
 30
0.0
 10
9.7934139166
 20
3.3087762313
 30
0.0
 10
9.7879045105
 20
3.339832851
 30
0.0
 10
9.783959593
 20
3.3711167451
 30
0.0
 10
9.7815887578
 20
3.4025515147
 30
0.0
 10
9.781061592
 20
3.4235610857
 30
0.0
 10
9.781061592
 20
3.4340633904
 30
0.0
  0
SPLINE
  5
27F
100
AcDbEntity
  8
0
100
AcDbSpline
 62
7
  6
CONTINUOUS
 70
0
 71
3
 72
36
 73
32
 74
0
 42
0.0000001
 43
0.0000001
 44
0.0000000001
 40
0.0
 40
0.0
 40
0.0
 40
0.0
 40
0.0061533212
 40
0.0123430443
 40
0.0186049345
 40
0.0249734565
 40
0.0381508796
 40
0.0521179106
 40
0.0670684195
 40
0.083156507
 40
0.1005022988
 40
0.119196178
 40
0.1393055929
 40
0.1608792905
 40
0.183950548
 40
0.2085415795
 40
0.2346638392
 40
0.2623215168
 40
0.2915118818
 40
0.3222261664
 40
0.3544515513
 40
0.3881699166
 40
0.4233602357
 40
0.4599976938
 40
0.4980542939
 40
0.537499908
 40
0.6204203245
 40
0.7084692574
 40
0.8013219729
 40
0.8986250721
 40
1.0
 40
1.0
 40
1.0
 40
1.0
 10
11.2623114293
 20
10.6024274884
 30
0.0
 10
11.2623114293
 20
10.6033652516
 30
0.0
 10
11.2622370635
 20
10.6052471641
 30
0.0
 10
11.2619028292
 20
10.6080655092
 30
0.0
 10
11.2613458236
 20
10.6108820298
 30
0.0
 10
11.2602952012
 20
10.6146754545
 30
0.0
 10
11.2583955045
 20
10.6194356692
 30
0.0
 10
11.2552558651
 20
10.6250477266
 30
0.0
 10
11.2512389047
 20
10.6306232827
 30
0.0
 10
11.2463523468
 20
10.636159071
 30
0.0
 10
11.2406019546
 20
10.641652197
 30
0.0
 10
11.2339941793
 20
10.6470994733
 30
0.0
 10
11.2265353854
 20
10.652496627
 30
0.0
 10
11.2182328574
 20
10.6578389005
 30
0.0
 10
11.209094929
 20
10.6631215606
 30
0.0
 10
11.1991306293
 20
10.6683389728
 30
0.0
 10
11.1883502835
 20
10.6734861464
 30
0.0
 10
11.1767649626
 20
10.678557476
 30
0.0
 10
11.1643867845
 20
10.6835475897
 30
0.0
 10
11.1512287946
 20
10.6884513246
 30
0.0
 10
11.1373048494
 20
10.6932631118
 30
0.0
 10
11.1226297809
 20
10.6979780686
 30
0.0
 10
11.1072191743
 20
10.7025908885
 30
0.0
 10
11.0910894859
 20
10.7070966345
 30
0.0
 10
11.0742579329
 20
10.7114905916
 30
0.0
 10
11.0505065841
 20
10.7172902564
 30
0.0
 10
11.0191872179
 20
10.7241962869
 30
0.0
 10
10.9797092832
 20
10.731834956
 30
0.0
 10
10.9379041913
 20
10.7389233075
 30
0.0
 10
10.893951269
 20
10.7454303963
 30
0.0
 10
10.8639175436
 20
10.7492881122
 30
0.0
 10
10.8485773046
 20
10.7511221889
 30
0.0
  0
SPLINE
  5
280
100
AcDbEntity
  8
0
100
AcDbSpline
 62
7
  6
CONTINUOUS
 70
0
 71
3
 72
39
 73
35
 74
0
 42
0.0000001
 43
0.0000001
 44
0.0000000001
 40
0.0
 40
0.0
 40
0.0
 40
0.0
 40
0.0309767128
 40
0.0619395765
 40
0.0928928288
 40
0.1238408397
 40
0.1547880535
 40
0.1857389196
 40
0.2166978335
 40
0.2476690919
 40
0.2786568333
 40
0.3096649732
 40
0.3406971556
 40
0.3717567182
 40
0.402846644
 40
0.4339695138
 40
0.4651274784
 40
0.4963222442
 40
0.5275550441
 40
0.5588266146
 40
0.5901371967
 40
0.6214865431
 40
0.6528739123
 40
0.6842980741
 40
0.715757341
 40
0.7472495867
 40
0.7787722682
 40
0.8103224666
 40
0.8418968748
 40
0.873492037
 40
0.9051041296
 40
0.936728392
 40
0.9683631738
 40
1.0
 40
1.0
 40
1.0
 40
1.0
 10
11.0936034694
 20
3.5104635665
 30
0.0
 10
11.0965724394
 20
3.4983865462
 30
0.0
 10
11.1018152119
 20
3.4740611849
 30
0.0
 10
11.1075621131
 20
3.4371918717
 30
0.0
 10
11.1111728084
 20
3.4000627406
 30
0.0
 10
11.1126355179
 20
3.3627937635
 30
0.0
 10
11.1119456837
 20
3.3255033383
 30
0.0
 10
11.1091053225
 20
3.2883104844
 30
0.0
 10
11.1041235481
 20
3.2513337714
 30
0.0
 10
11.0970163787
 20
3.2146910859
 30
0.0
 10
11.0878064699
 20
3.1784992448
 30
0.0
 10
11.0765230492
 20
3.142873682
 30
0.0
 10
11.0632022295
 20
3.1079279497
 30
0.0
 10
11.0478865889
 20
3.0737734105
 30
0.0
 10
11.0306249384
 20
3.0405189437
 30
0.0
 10
11.0114722135
 20
3.00827062
 30
0.0
 10
10.990489647
 20
2.977131144
 30
0.0
 10
10.9677441966
 20
2.9471997126
 30
0.0
 10
10.9433083275
 20
2.918571747
 30
0.0
 10
10.9172598913
 20
2.891338536
 30
0.0
 10
10.8896820697
 20
2.8655867296
 30
0.0
 10
10.8606627913
 20
2.8413983374
 30
0.0
 10
10.8302944852
 20
2.8188505002
 30
0.0
 10
10.7986739447
 20
2.7980150654
 30
0.0
 10
10.7659020391
 20
2.7789582655
 30
0.0
 10
10.7320832038
 20
2.7617407803
 30
0.0
 10
10.6973251456
 20
2.7464175701
 30
0.0
 10
10.6617386603
 20
2.7330374128
 30
0.0
 10
10.6254371786
 20
2.7216427459
 30
0.0
 10
10.5885362751
 20
2.7122699053
 30
0.0
 10
10.551153838
 20
2.7049490173
 30
0.0
 10
10.5134079275
 20
2.6997027628
 30
0.0
 10
10.4754211756
 20
2.6965487278
 30
0.0
 10
10.4500131512
 20
2.6958468758
 30
0.0
 10
10.4373115199
 20
2.6958468758
 30
0.0
  0
SPLINE
  5
281
100
AcDbEntity
  8
0
100
AcDbSpline
 62
7
  6
CONTINUOUS
 70
0
 71
3
 72
23
 73
19
 74
0
 42
0.0000001
 43
0.0000001
 44
0.0000000001
 40
0.0
 40
0.0
 40
0.0
 40
0.0
 40
0.0601438549
 40
0.1204619546
 40
0.1810150076
 40
0.2418670997
 40
0.303061574
 40
0.3646315922
 40
0.4266003886
 40
0.4889782627
 40
0.5517631189
 40
0.6149409023
 40
0.6784853584
 40
0.7423580901
 40
0.8065097214
 40
0.8708792379
 40
0.9354023059
 40
1.0
 40
1.0
 40
1.0
 40
1.0
 10
10.9782217989
 20
13.1776277221
 30
0.0
 10
10.9903488552
 20
13.1657828783
 30
0.0
 10
11.0140354552
 20
13.1414331422
 30
0.0
 10
11.0477437519
 20
13.1031077235
 30
0.0
 10
11.0796424233
 20
13.0630070864
 30
0.0
 10
11.1096940812
 20
13.0212005251
 30
0.0
 10
11.1378427527
 20
12.9777477438
 30
0.0
 10
11.1640235995
 20
12.9327173317
 30
0.0
 10
11.1881643208
 20
12.886184877
 30
0.0
 10
11.2101838629
 20
12.8382347116
 30
0.0
 10
11.229997406
 20
12.7889640234
 30
0.0
 10
11.2475186849
 20
12.7384839328
 30
0.0
 10
11.2626629433
 20
12.6869206167
 30
0.0
 10
11.2753502474
 20
12.634415724
 30
0.0
 10
11.2855087317
 20
12.5811266458
 30
0.0
 10
11.2930788413
 20
12.527223089
 30
0.0
 10
11.2980138165
 20
12.4728897281
 30
0.0
 10
11.2995279451
 20
12.4365106203
 30
0.0
 10
11.2998394049
 20
12.4183060782
 30
0.0
  0
SPLINE
  5
282
100
AcDbEntity
  8
0
100
AcDbSpline
 62
7
  6
CONTINUOUS
 70
0
 71
3
 72
16
 73
12
 74
0
 42
0.0000001
 43
0.0000001
 44
0.0000000001
 40
0.0
 40
0.0
 40
0.0
 40
0.0
 40
0.0598359055
 40
0.1203171468
 40
0.2428250211
 40
0.3669797155
 40
0.4923263613
 40
0.618522464
 40
0.7453141108
 40
0.872517038
 40
1.0
 40
1.0
 40
1.0
 40
1.0
 10
9.8964012409
 20
13.1776277221
 30
0.0
 10
9.9016751321
 20
13.182778684
 30
0.0
 10
9.9124785389
 20
13.1929349202
 30
0.0
 10
9.9350205531
 20
13.2126121646
 30
0.0
 10
9.9648644714
 20
13.2359344686
 30
0.0
 10
10.0028642148
 20
13.2616202067
 30
0.0
 10
10.0428675973
 20
13.2849711151
 30
0.0
 10
10.0845610899
 20
13.3058792935
 30
0.0
 10
10.1276672554
 20
13.3242809798
 30
0.0
 10
10.1719369889
 20
13.3401412619
 30
0.0
 10
10.2020586231
 20
13.3490038407
 30
0.0
 10
10.217245549
 20
13.3530096959
 30
0.0
  0
SPLINE
  5
283
100
AcDbEntity
  8
0
100
AcDbSpline
 62
7
  6
CONTINUOUS
 70
0
 71
3
 72
16
 73
12
 74
0
 42
0.0000001
 43
0.0000001
 44
0.0000000001
 40
0.0
 40
0.0
 40
0.0
 40
0.0
 40
0.1274829192
 40
0.2546858289
 40
0.3814775187
 40
0.5076737226
 40
0.6330205899
 40
0.7571750247
 40
0.8796819874
 40
0.9401636462
 40
1.0
 40
1.0
 40
1.0
 40
1.0
 10
10.6573829394
 20
13.3530082993
 30
0.0
 10
10.6725695928
 20
13.349002373
 30
0.0
 10
10.7026906794
 20
13.3401396609
 30
0.0
 10
10.7469596235
 20
13.3242793227
 30
0.0
 10
10.7900650815
 20
13.3058777651
 30
0.0
 10
10.8317579018
 20
13.2849697426
 30
0.0
 10
10.8717607378
 20
13.2616192962
 30
0.0
 10
10.9097597219
 20
13.2359338512
 30
0.0
 10
10.939602579
 20
13.2126113018
 30
0.0
 10
10.9621444615
 20
13.1929346247
 30
0.0
 10
10.9729479429
 20
13.1827786378
 30
0.0
 10
10.9782217989
 20
13.1776277221
 30
0.0
  0
SPLINE
  5
284
100
AcDbEntity
  8
0
100
AcDbSpline
 62
7
  6
CONTINUOUS
 70
0
 71
3
 72
22
 73
18
 74
0
 42
0.0000001
 43
0.0000001
 44
0.0000000001
 40
0.0
 40
0.0
 40
0.0
 40
0.0
 40
0.0646000802
 40
0.129125557
 40
0.1934975169
 40
0.2576515055
 40
0.3215266762
 40
0.385073573
 40
0.4482537559
 40
0.5110409668
 40
0.5734211764
 40
0.635392363
 40
0.6969649147
 40
0.7581616175
 40
0.8190158393
 40
0.8795723058
 40
1.0
 40
1.0
 40
1.0
 40
1.0
 10
9.5747836349
 20
12.4183060782
 30
0.0
 10
9.5750951711
 20
12.4365105988
 30
0.0
 10
9.5766086514
 20
12.4728896986
 30
0.0
 10
9.5815440714
 20
12.5272230033
 30
0.0
 10
9.5891143903
 20
12.5811264773
 30
0.0
 10
9.5992725416
 20
12.6344155981
 30
0.0
 10
9.6119600259
 20
12.6869204375
 30
0.0
 10
9.6271043269
 20
12.7384837457
 30
0.0
 10
9.6446256218
 20
12.788963827
 30
0.0
 10
9.6644391177
 20
12.8382345075
 30
0.0
 10
9.6864586058
 20
12.8861846957
 30
0.0
 10
9.7105992735
 20
12.9327171983
 30
0.0
 10
9.7367806325
 20
12.9777475312
 30
0.0
 10
9.7649287497
 20
13.0211999407
 30
0.0
 10
9.7949812994
 20
13.0630087679
 30
0.0
 10
9.837425796
 20
13.116363495
 30
0.0
 10
9.8721194906
 20
13.1539117118
 30
0.0
 10
9.8964012409
 20
13.1776277221
 30
0.0
  0
SPLINE
  5
285
100
AcDbEntity
  8
0
100
AcDbSpline
 62
7
  6
CONTINUOUS
 70
0
 71
3
 72
39
 73
35
 74
0
 42
0.0000001
 43
0.0000001
 44
0.0000000001
 40
0.0
 40
0.0
 40
0.0
 40
0.0
 40
0.0309767128
 40
0.0619395765
 40
0.0928928288
 40
0.1238408397
 40
0.1547880535
 40
0.1857389196
 40
0.2166978335
 40
0.2476690919
 40
0.2786568333
 40
0.3096649732
 40
0.3406971556
 40
0.3717567182
 40
0.402846644
 40
0.4339695138
 40
0.4651274784
 40
0.4963222442
 40
0.5275550441
 40
0.5588266146
 40
0.5901371967
 40
0.6214865431
 40
0.6528739123
 40
0.6842980741
 40
0.715757341
 40
0.7472495867
 40
0.7787722682
 40
0.8103224666
 40
0.8418968748
 40
0.873492037
 40
0.9051041296
 40
0.936728392
 40
0.9683631738
 40
1.0
 40
1.0
 40
1.0
 40
1.0
 10
9.7810195704
 20
3.5104635665
 30
0.0
 10
9.7780506004
 20
3.4983865462
 30
0.0
 10
9.7728078279
 20
3.4740611849
 30
0.0
 10
9.7670609267
 20
3.4371918717
 30
0.0
 10
9.7634502314
 20
3.4000627406
 30
0.0
 10
9.7619875219
 20
3.3627937635
 30
0.0
 10
9.7626773561
 20
3.3255033383
 30
0.0
 10
9.7655177173
 20
3.2883104844
 30
0.0
 10
9.7704994917
 20
3.2513337714
 30
0.0
 10
9.7776066611
 20
3.2146910859
 30
0.0
 10
9.7868165699
 20
3.1784992448
 30
0.0
 10
9.7980999906
 20
3.142873682
 30
0.0
 10
9.8114208103
 20
3.1079279497
 30
0.0
 10
9.826736451
 20
3.0737734105
 30
0.0
 10
9.8439981014
 20
3.0405189437
 30
0.0
 10
9.8631508263
 20
3.00827062
 30
0.0
 10
9.8841333928
 20
2.977131144
 30
0.0
 10
9.9068788432
 20
2.9471997126
 30
0.0
 10
9.9313147123
 20
2.918571747
 30
0.0
 10
9.9573631485
 20
2.891338536
 30
0.0
 10
9.9849409701
 20
2.8655867296
 30
0.0
 10
10.0139602485
 20
2.8413983374
 30
0.0
 10
10.0443285546
 20
2.8188505002
 30
0.0
 10
10.0759490951
 20
2.7980150654
 30
0.0
 10
10.1087210007
 20
2.7789582655
 30
0.0
 10
10.142539836
 20
2.7617407803
 30
0.0
 10
10.1772978942
 20
2.7464175701
 30
0.0
 10
10.2128843795
 20
2.7330374128
 30
0.0
 10
10.2491858612
 20
2.7216427459
 30
0.0
 10
10.2860867648
 20
2.7122699053
 30
0.0
 10
10.3234692018
 20
2.7049490173
 30
0.0
 10
10.3612151123
 20
2.6997027628
 30
0.0
 10
10.3992018642
 20
2.6965487278
 30
0.0
 10
10.4246098886
 20
2.6958468758
 30
0.0
 10
10.4373115199
 20
2.6958468758
 30
0.0
  0
ENDSEC
  0
SECTION
  2
OBJECTS
  0
DICTIONARY
  5
C
100
AcDbDictionary
280
0
281
1
  3
ACAD_GROUP
350
D
  3
ACAD_MLINESTYLE
350
17
  3
ACAD_LAYOUT
350
1A
  3
ACAD_PLOTSETTINGS
350
19
  3
ACAD_PLOTSTYLENAME
350
E
  0
DICTIONARY
  5
D
102
{ACAD_REACTORS
330
C
102
}
100
AcDbDictionary
280
0
281
1
  0
ACDBDICTIONARYWDFLT
  5
E
102
{ACAD_REACTORS
330
C
102
}
100
AcDbDictionary
281
1
  3
Normal
350
F
100
AcDbDictionaryWithDefault
340
F
  0
DICTIONARY
  5
17
102
{ACAD_REACTORS
330
C
102
}
100
AcDbDictionary
280
0
281
1
  3
Standard
350
18
  0
DICTIONARY
  5
19
102
{ACAD_REACTORS
330
C
102
}
100
AcDbDictionary
281
1
  0
DICTIONARY
  5
1A
102
{ACAD_REACTORS
330
C
102
}
100
AcDbDictionary
281
1
  3
Model
350
286
  3
Layout1
350
287
  0
ACDBPLACEHOLDER
  5
F
102
{ACAD_REACTORS
330
E
102
}
  0
MLINESTYLE
  5
18
102
{ACAD_REACTORS
330
17
102
}
100
AcDbMlineStyle
  2
STANDARD
 70
0
  3

 62
256
 51
90.0
 52
90.0
 71
2
 49
0.5
 62
256
  6
BYLAYER
 49
-0.5
 62
256
  6
BYLAYER
  0
LAYOUT
  5
286
102
{ACAD_REACTORS
330
1A
102
}
100
AcDbPlotSettings
  1

  2
none_device
  4
ANSI_C_(22.00_x_17.00_Inches)
  6

 40
0.0
 41
0.0
 42
0.0
 43
0.0
 44
558.8
 45
431.8
 46
0.0
 47
0.0
 48
0.0
 49
0.0
140
0.0
141
0.0
142
1.0
143
1.0
 70
1024
 72
0
 73
0
 74
0
  7

 75
0
147
1.0
148
0.0
149
0.0
100
AcDbLayout
  1
Model
 70
0
 71
0
 10
0.0
 20
0.0
 11
22.0
 21
17.0
 12
0.0
 22
0.0
 32
0.0
 14
0.0
 24
0.0
 34
0.0
 15
0.0
 25
0.0
 35
0.0
146
0.0
 13
0.0
 23
0.0
 33
0.0
 16
1.0
 26
0.0
 36
0.0
 17
0.0
 27
1.0
 37
0.0
 76
0
330
202
345
0
346
0
  0
LAYOUT
  5
287
102
{ACAD_REACTORS
330
1A
102
}
100
AcDbPlotSettings
  1

  2
none_device
  4
ANSI_C_(22.00_x_17.00_Inches)
  6

 40
0.0
 41
0.0
 42
0.0
 43
0.0
 44
558.8
 45
431.8
 46
0.0
 47
0.0
 48
0.0
 49
0.0
140
0.0
141
0.0
142
1.0
143
1.0
 70
0
 72
0
 73
0
 74
0
  7

 75
0
147
1.0
148
0.0
149
0.0
100
AcDbLayout
  1
Layout1
 70
0
 71
1
 10
0.0
 20
0.0
 11
22.0
 21
17.0
 12
0.0
 22
0.0
 32
0.0
 14
0.0
 24
0.0
 34
0.0
 15
0.0
 25
0.0
 35
0.0
146
0.0
 13
0.0
 23
0.0
 33
0.0
 16
1.0
 26
0.0
 36
0.0
 17
0.0
 27
1.0
 37
0.0
 76
0
330
203
345
0
346
0
  0
ENDSEC
  0
EOF
