999
DXF file: E:\BT Custom\CADOUTPUT\_FRONT.dxf
999
Pro/ENGINEER 2018400 by Parametric Technology Corporation
  0
SECTION
  2
HEADER
  9
$ACADVER
  1
AC1018
  9
$DWGCODEPAGE
  3
ANSI_1252
  9
$EXTMAX
 10
22.0
 20
17.0
 30
0.0
  9
$EXTMIN
 10
0.0
 20
0.0
 30
0.0
  9
$LIMMIN
 10
0.0
 20
0.0
  9
$LIMMAX
 10
22.0
 20
17.0
  9
$VIEWCTR
 10
11.0
 20
8.5
  9
$VIEWSIZE
 40
17.0
  9
$CLAYER
  8
0
  9
$LTSCALE
 40
1.21
  9
$CELTYPE
  6
BYLAYER
  9
$DIMSCALE
 40
1.0
  9
$DIMASZ
 40
0.1
  9
$DIMEXO
 40
0.0625
  9
$DIMDLI
 40
0.836
  9
$DIMEXE
 40
0.125
  9
$DIMCEN
 40
0.198
  9
$DIMLFAC
 40
1.0
  9
$DIMBLK
  1
_FILLED
  9
$DIMALT
 70
1
  9
$DIMALTD
 70
2
  9
$DIMALTTD
 70
2
  9
$DIMALTF
 40
25.4
  9
$DIMTXT
 40
0.08
  9
$DIMTOL
 70
1
  9
$DIMLIM
 70
0
  9
$DIMTFAC
 40
1.0
  9
$DIMTP
 40
0.001
  9
$DIMTM
 40
0.001
  9
$DIMGAP
 40
0.09
  9
$DIMDSEP
 70
46
  9
$AUNITS
 70
0
  9
$PDMODE
 70
3
  9
$PDSIZE
 40
0.06
  9
$HANDSEED
  5
3EC
  9
$TILEMODE
 70
1
  9
$MEASUREMENT
 70
0
  9
$INSUNITS
 70
1
  0
ENDSEC
  0
SECTION
  2
CLASSES
  0
CLASS
  1
ACDBDICTIONARYWDFLT
  2
AcDbDictionaryWithDefault
  3
AutoCAD 2000
 90
0
 91
1
280
0
281
0
  0
CLASS
  1
ACDBPLACEHOLDER
  2
AcDbPlaceHolder
  3
AutoCAD 2000
 90
0
 91
1
280
0
281
0
  0
CLASS
  1
LAYOUT
  2
AcDbLayout
  3
AutoCAD 2000
 90
0
 91
0
280
0
281
0
  0
ENDSEC
  0
SECTION
  2
TABLES
  0
TABLE
  2
VPORT
  5
8
100
AcDbSymbolTable
 70
2
  0
VPORT
  5
1F4
100
AcDbSymbolTableRecord
100
AcDbViewportTableRecord
  2
*ACTIVE
 70
0
 10
0.0
 20
0.0
 11
1.0
 21
1.0
 12
11.0
 22
8.5
 13
0.0
 23
0.0
 14
1.0
 24
1.0
 15
0.0
 25
0.0
 16
0.0
 26
0.0
 36
1.0
 17
0.0
 27
0.0
 37
0.0
 40
17.0
 41
1.2941176471
 42
50.0
 43
0.0
 44
0.0
 50
0.0
 51
0.0
 71
0
 72
100
 73
1
 74
1
 75
0
 76
0
 77
0
 78
0
  0
ENDTAB
  0
TABLE
  2
LTYPE
  5
5
100
AcDbSymbolTable
 70
6
  0
LTYPE
  5
14
100
AcDbSymbolTableRecord
100
AcDbLinetypeTableRecord
  2
BYBLOCK
 70
0
  3

 72
65
 73
0
 40
0.0
  0
LTYPE
  5
15
100
AcDbSymbolTableRecord
100
AcDbLinetypeTableRecord
  2
BYLAYER
 70
0
  3

 72
65
 73
0
 40
0.0
  0
LTYPE
  5
16
100
AcDbSymbolTableRecord
100
AcDbLinetypeTableRecord
  2
CONTINUOUS
 70
64
  3
Solid line
 72
65
 73
0
 40
0.0
  0
LTYPE
  5
1F5
100
AcDbSymbolTableRecord
100
AcDbLinetypeTableRecord
  2
CENTER
 70
64
  3
____ _ ____ _ ____ _ ____ _ ____ _ ____ _ ____
 72
65
 73
4
 40
0.6
 49
0.375
 74
0
 49
-0.075
 74
0
 49
0.075
 74
0
 49
-0.075
 74
0
  0
LTYPE
  5
1F6
100
AcDbSymbolTableRecord
100
AcDbLinetypeTableRecord
  2
HIDDEN
 70
64
  3
- - - - - - - - - - - - - - - - - - - -
 72
65
 73
2
 40
0.2
 49
0.1
 74
0
 49
-0.1
 74
0
  0
LTYPE
  5
1F7
100
AcDbSymbolTableRecord
100
AcDbLinetypeTableRecord
  2
PHANTOM
 70
64
  3
_____ _ _ _____ _ _ _____ _ _ _____
 72
65
 73
6
 40
0.8
 49
0.45
 74
0
 49
-0.05
 74
0
 49
0.1
 74
0
 49
-0.05
 74
0
 49
0.1
 74
0
 49
-0.05
 74
0
  0
LTYPE
  5
1F8
100
AcDbSymbolTableRecord
100
AcDbLinetypeTableRecord
  2
DOT
 70
64
  3
. . . . . . . . . . . . . . . . . . . .
 72
65
 73
2
 40
0.2
 49
0.1
 74
0
 49
-0.1
 74
0
  0
LTYPE
  5
1F9
100
AcDbSymbolTableRecord
100
AcDbLinetypeTableRecord
  2
DASHED
 70
64
  3
- - - - - - - - - - - - - - - - - - - -
 72
65
 73
2
 40
0.2
 49
0.1
 74
0
 49
-0.1
 74
0
  0
ENDTAB
  0
TABLE
  2
LAYER
  5
2
100
AcDbSymbolTable
 70
36
  0
LAYER
  5
10
100
AcDbSymbolTableRecord
100
AcDbLayerTableRecord
  2
0
 70
0
 62
7
  6
CONTINUOUS
370
-3
390
F
  0
LAYER
  5
1FA
100
AcDbSymbolTableRecord
100
AcDbLayerTableRecord
  2
DEFAULT_1
 70
0
 62
7
  6
CENTER
370
-3
390
F
  0
LAYER
  5
1FB
100
AcDbSymbolTableRecord
100
AcDbLayerTableRecord
  2
DEFAULT_2
 70
0
 62
8
  6
HIDDEN
370
-3
390
F
  0
LAYER
  5
1FC
100
AcDbSymbolTableRecord
100
AcDbLayerTableRecord
  2
DEFAULT_3
 70
0
 62
7
  6
PHANTOM
370
-3
390
F
  0
LAYER
  5
1FD
100
AcDbSymbolTableRecord
100
AcDbLayerTableRecord
  2
ALL_FEATURES
 70
0
 62
7
  6
CONTINUOUS
370
-3
390
F
  0
LAYER
  5
1FE
100
AcDbSymbolTableRecord
100
AcDbLayerTableRecord
  2
AXES_FEATURES
 70
0
 62
7
  6
CONTINUOUS
370
-3
390
F
  0
LAYER
  5
1FF
100
AcDbSymbolTableRecord
100
AcDbLayerTableRecord
  2
DIMENSIONS
 70
0
 62
7
  6
CONTINUOUS
370
-3
390
F
  0
ENDTAB
  0
TABLE
  2
STYLE
  5
3
100
AcDbSymbolTable
 70
1
  0
STYLE
  5
11
100
AcDbSymbolTableRecord
100
AcDbTextStyleTableRecord
  2
STANDARD
 70
0
 40
0.0
 41
0.8
 50
0.0
 71
0
 42
0.2
  3
txt
  4

  0
STYLE
  5
200
100
AcDbSymbolTableRecord
100
AcDbTextStyleTableRecord
  2
TEXTSTYLE_1
 70
0
 40
0.0
 41
0.8
 50
0.0
 71
0
 42
0.2
  3
gdt
  4

  0
ENDTAB
  0
TABLE
  2
VIEW
  5
6
100
AcDbSymbolTable
 70
0
  0
ENDTAB
  0
TABLE
  2
UCS
  5
7
100
AcDbSymbolTable
 70
0
  0
ENDTAB
  0
TABLE
  2
APPID
  5
9
100
AcDbSymbolTable
 70
1
  0
APPID
  5
201
100
AcDbSymbolTableRecord
100
AcDbRegAppTableRecord
  2
ACAD
 70
0
  0
ENDTAB
  0
TABLE
  2
BLOCK_RECORD
  5
1
100
AcDbSymbolTable
 70
0
  0
BLOCK_RECORD
  5
202
100
AcDbSymbolTableRecord
100
AcDbBlockTableRecord
  2
*Model_Space
  0
BLOCK_RECORD
  5
203
100
AcDbSymbolTableRecord
100
AcDbBlockTableRecord
  2
*Paper_Space
  0
BLOCK_RECORD
  5
204
100
AcDbSymbolTableRecord
100
AcDbBlockTableRecord
  2
_FILLED
  0
ENDTAB
  0
TABLE
  2
DIMSTYLE
  5
A
100
AcDbSymbolTable
 70
1
100
AcDbDimStyleTable
 71
0
  0
DIMSTYLE
105
205
100
AcDbSymbolTableRecord
100
AcDbDimStyleTableRecord
  2
STANDARD
 70
0
  3

  4

 40
1.0
 41
0.1
 42
0.0625
 43
0.38
 44
0.125
 45
0.0
 46
0.0
 47
0.001
 48
0.001
140
0.08
141
0.09
142
0.0
143
25.4
144
1.0
145
0.0
146
1.0
147
0.09
 71
1.0
 72
0.0
 73
1
 74
1
 75
0
 76
0
 77
0
 78
4
 79
1
170
1
171
2
172
0
173
0
174
0
175
0
176
0
177
0
178
0
270
2
179
3
271
3
272
3
273
2
274
2
275
0
280
0
281
0
282
0
283
1
284
4
285
0
286
0
287
3
288
0
340
11
278
46
341
204
342
204
343
204
344
204
  0
ENDTAB
  0
ENDSEC
  0
SECTION
  2
BLOCKS
  0
BLOCK
  5
20
100
AcDbEntity
  8
0
100
AcDbBlockBegin
  2
*Model_Space
 70
0
 10
0.0
 20
0.0
 30
0.0
  3
*Model_Space
  1

  0
ENDBLK
  5
21
100
AcDbEntity
  8
0
100
AcDbBlockEnd
  0
BLOCK
  5
1C
100
AcDbEntity
  8
0
100
AcDbBlockBegin
  2
*Paper_Space
 70
0
 10
0.0
 20
0.0
 30
0.0
  3
*Paper_Space
  1

  0
ENDBLK
  5
1D
100
AcDbEntity
  8
0
100
AcDbBlockEnd
  0
BLOCK
  5
206
100
AcDbEntity
  8
0
100
AcDbBlockBegin
  2
_FILLED
 70
64
 10
0.0
 20
0.0
  3
_FILLED
  1

  0
SOLID
  5
207
100
AcDbEntity
  8
0
  6
BYBLOCK
 62
0
100
AcDbTrace
 10
0.0
 20
0.0
 11
-1.0
 21
0.2
 12
-1.0
 22
-0.2
 13
-1.0
 23
-0.2
  0
ENDBLK
  5
208
100
AcDbEntity
  8
0
  6
BYBLOCK
 62
0
100
AcDbBlockEnd
  0
ENDSEC
  0
SECTION
  2
ENTITIES
  0
LINE
  5
209
100
AcDbEntity
  8
0
100
AcDbLine
 62
7
  6
CONTINUOUS
 10
3.6611923427
 20
9.2336687092
 11
3.6611923427
 21
8.7106702951
  0
LINE
  5
20A
100
AcDbEntity
  8
0
100
AcDbLine
 62
7
  6
CONTINUOUS
 10
3.6811923427
 20
9.2536695021
 11
3.6811923427
 21
8.6906695021
  0
LINE
  5
20B
100
AcDbEntity
  8
0
100
AcDbLine
 62
7
  6
CONTINUOUS
 10
3.7611923427
 20
8.6906695021
 11
3.7611923427
 21
9.2536695021
  0
LINE
  5
20C
100
AcDbEntity
  8
0
100
AcDbLine
 62
7
  6
CONTINUOUS
 10
3.6611923427
 20
8.7106695021
 11
3.6811923427
 21
8.6906695021
  0
LINE
  5
20D
100
AcDbEntity
  8
0
100
AcDbLine
 62
7
  6
CONTINUOUS
 10
6.0501923427
 20
9.2536695021
 11
6.0501923427
 21
8.6906695021
  0
LINE
  5
20E
100
AcDbEntity
  8
0
100
AcDbLine
 62
7
  6
CONTINUOUS
 10
6.1551923427
 20
8.6906695021
 11
6.1551923427
 21
9.2536695021
  0
LINE
  5
20F
100
AcDbEntity
  8
0
100
AcDbLine
 62
7
  6
CONTINUOUS
 10
6.1796320909
 20
7.2781130456
 11
6.1796314393
 21
7.0281695021
  0
LINE
  5
210
100
AcDbEntity
  8
0
100
AcDbLine
 62
7
  6
CONTINUOUS
 10
6.1966923427
 20
7.0281695021
 11
6.1966923427
 21
6.9661695021
  0
LINE
  5
211
100
AcDbEntity
  8
0
100
AcDbLine
 62
7
  6
CONTINUOUS
 10
3.6611923427
 20
9.2336695021
 11
3.6811923427
 21
9.2536695021
  0
LINE
  5
212
100
AcDbEntity
  8
0
100
AcDbLine
 62
7
  6
CONTINUOUS
 10
6.3551923427
 20
9.1691695021
 11
6.3551923427
 21
8.7751695021
  0
LINE
  5
213
100
AcDbEntity
  8
0
100
AcDbLine
 62
7
  6
CONTINUOUS
 10
6.4101923427
 20
9.3594535993
 11
6.4101923427
 21
9.2881695021
  0
LINE
  5
214
100
AcDbEntity
  8
0
100
AcDbLine
 62
7
  6
CONTINUOUS
 10
6.4151923427
 20
8.9071695021
 11
6.4151923427
 21
9.0371695021
  0
LINE
  5
215
100
AcDbEntity
  8
0
100
AcDbLine
 62
7
  6
CONTINUOUS
 10
6.5586611396
 20
7.2781147208
 11
6.558661891
 21
7.0281695021
  0
LINE
  5
216
100
AcDbEntity
  8
0
100
AcDbLine
 62
7
  6
CONTINUOUS
 10
6.5941923427
 20
8.6371695021
 11
6.5941923427
 21
8.2781695021
  0
LINE
  5
217
100
AcDbEntity
  8
0
100
AcDbLine
 62
7
  6
CONTINUOUS
 10
6.6726923427
 20
9.4491401317
 11
6.6726923427
 21
9.4479920848
  0
LINE
  5
218
100
AcDbEntity
  8
0
100
AcDbLine
 62
7
  6
CONTINUOUS
 10
6.6891923427
 20
9.4526517649
 11
6.6891923427
 21
9.4516383472
  0
LINE
  5
219
100
AcDbEntity
  8
0
100
AcDbLine
 62
7
  6
CONTINUOUS
 10
6.7291923427
 20
9.4576039178
 11
6.7291923427
 21
9.4586133999
  0
LINE
  5
21A
100
AcDbEntity
  8
0
100
AcDbLine
 62
7
  6
CONTINUOUS
 10
6.7456923427
 20
9.4588876516
 11
6.7456923427
 21
9.460027563
  0
LINE
  5
21B
100
AcDbEntity
  8
0
100
AcDbLine
 62
7
  6
CONTINUOUS
 10
6.7626923427
 20
9.4620551277
 11
6.7626923427
 21
9.4609167186
  0
LINE
  5
21C
100
AcDbEntity
  8
0
100
AcDbLine
 62
7
  6
CONTINUOUS
 10
6.7791923427
 20
9.464574684
 11
6.7791923427
 21
9.4635691068
  0
LINE
  5
21D
100
AcDbEntity
  8
0
100
AcDbLine
 62
7
  6
CONTINUOUS
 10
6.8191923427
 20
9.4671598215
 11
6.8191923427
 21
9.4681630626
  0
LINE
  5
21E
100
AcDbEntity
  8
0
100
AcDbLine
 62
7
  6
CONTINUOUS
 10
6.4085000275
 20
9.2571695021
 11
6.3801923427
 21
9.1771695021
  0
LINE
  5
21F
100
AcDbEntity
  8
0
100
AcDbLine
 62
7
  6
CONTINUOUS
 10
6.3801923427
 20
8.7671695021
 11
6.4101923427
 21
8.6881695021
  0
LINE
  5
220
100
AcDbEntity
  8
0
100
AcDbLine
 62
7
  6
CONTINUOUS
 10
6.8356923427
 20
9.4674747406
 11
6.8356923427
 21
9.468608321
  0
LINE
  5
221
100
AcDbEntity
  8
0
100
AcDbLine
 62
7
  6
CONTINUOUS
 10
6.8939923427
 20
9.4725536183
 11
6.8939923427
 21
9.4715532207
  0
LINE
  5
222
100
AcDbEntity
  8
0
100
AcDbLine
 62
7
  6
CONTINUOUS
 10
6.9789923427
 20
9.4726194209
 11
6.9789923427
 21
9.4716190658
  0
LINE
  5
223
100
AcDbEntity
  8
0
100
AcDbLine
 62
7
  6
CONTINUOUS
 10
7.0756923427
 20
9.4658116866
 11
7.0756923427
 21
9.4646760506
  0
LINE
  5
224
100
AcDbEntity
  8
0
100
AcDbLine
 62
7
  6
CONTINUOUS
 10
7.0941923427
 20
9.4649691648
 11
7.0941923427
 21
9.463963845
  0
LINE
  5
225
100
AcDbEntity
  8
0
100
AcDbLine
 62
7
  6
CONTINUOUS
 10
7.1301923427
 20
9.4598831068
 11
7.1301923427
 21
9.4608910933
  0
LINE
  5
226
100
AcDbEntity
  8
0
100
AcDbLine
 62
7
  6
CONTINUOUS
 10
7.1486923427
 20
9.4563937497
 11
7.1486923427
 21
9.4575355131
  0
LINE
  5
227
100
AcDbEntity
  8
0
100
AcDbLine
 62
7
  6
CONTINUOUS
 10
7.2811923427
 20
8.6371695021
 11
7.2811923427
 21
8.2781695021
  0
LINE
  5
228
100
AcDbEntity
  8
0
100
AcDbLine
 62
7
  6
CONTINUOUS
 10
7.3167216946
 20
7.2781147209
 11
7.3167227945
 21
7.0281695021
  0
LINE
  5
229
100
AcDbEntity
  8
0
100
AcDbLine
 62
7
  6
CONTINUOUS
 10
7.5788557824
 20
7.3946695021
 11
7.6957488268
 21
7.2781131808
  0
LINE
  5
22A
100
AcDbEntity
  8
0
100
AcDbLine
 62
7
  6
CONTINUOUS
 10
7.4781923427
 20
7.9437859409
 11
7.5523263369
 21
7.8378683137
  0
LINE
  5
22B
100
AcDbEntity
  8
0
100
AcDbLine
 62
7
  6
CONTINUOUS
 10
7.4601923427
 20
9.0371695021
 11
7.4601923427
 21
8.9071695021
  0
LINE
  5
22C
100
AcDbEntity
  8
0
100
AcDbLine
 62
7
  6
CONTINUOUS
 10
7.4651923427
 20
9.3594535993
 11
7.4651923427
 21
9.2881695021
  0
LINE
  5
22D
100
AcDbEntity
  8
0
100
AcDbLine
 62
9
  6
CONTINUOUS
 10
7.4743820885
 20
8.8334678359
 11
7.4743820885
 21
9.1108802276
  0
LINE
  5
22E
100
AcDbEntity
  8
0
100
AcDbLine
 62
9
  6
CONTINUOUS
 10
7.4950075136
 20
8.784026645
 11
7.4950075136
 21
9.1603123593
  0
LINE
  5
22F
100
AcDbEntity
  8
0
100
AcDbLine
 62
7
  6
CONTINUOUS
 10
7.6786923427
 20
7.0281695021
 11
7.6786923427
 21
6.9661695021
  0
LINE
  5
230
100
AcDbEntity
  8
0
100
AcDbLine
 62
7
  6
CONTINUOUS
 10
7.6957524105
 20
7.2781142608
 11
7.6957532462
 21
7.0281695021
  0
LINE
  5
231
100
AcDbEntity
  8
0
100
AcDbLine
 62
9
  6
CONTINUOUS
 10
7.7463321436
 20
8.7805259378
 11
7.7463321436
 21
9.1638130665
  0
LINE
  5
232
100
AcDbEntity
  8
0
100
AcDbLine
 62
7
  6
CONTINUOUS
 10
7.7733060859
 20
8.7921695021
 11
7.7733060859
 21
9.1521695021
  0
LINE
  5
233
100
AcDbEntity
  8
0
100
AcDbLine
 62
9
  6
CONTINUOUS
 10
7.7979880151
 20
9.1429068595
 11
7.7979880151
 21
8.8014321448
  0
LINE
  5
234
100
AcDbEntity
  8
0
100
AcDbLine
 62
9
  6
CONTINUOUS
 10
7.8471540851
 20
8.7671327814
 11
7.8471540851
 21
9.1772062229
  0
LINE
  5
235
100
AcDbEntity
  8
0
100
AcDbLine
 62
7
  6
CONTINUOUS
 10
6.4324119215
 20
9.381673178
 11
6.4101923427
 21
9.3594535993
  0
LINE
  5
236
100
AcDbEntity
  8
0
100
AcDbLine
 62
7
  6
CONTINUOUS
 10
7.466884658
 20
9.2571695021
 11
7.4951923427
 21
9.1771695021
  0
LINE
  5
237
100
AcDbEntity
  8
0
100
AcDbLine
 62
7
  6
CONTINUOUS
 10
7.4951923427
 20
8.7671695021
 11
7.4651923427
 21
8.6881695021
  0
LINE
  5
238
100
AcDbEntity
  8
0
100
AcDbLine
 62
7
  6
CONTINUOUS
 10
6.3971923427
 20
7.9437859409
 11
6.3230583485
 21
7.8378683137
  0
LINE
  5
239
100
AcDbEntity
  8
0
100
AcDbLine
 62
7
  6
CONTINUOUS
 10
5.7576923427
 20
6.5911695021
 11
8.1176923427
 21
6.5911695021
  0
LINE
  5
23A
100
AcDbEntity
  8
0
100
AcDbLine
 62
7
  6
CONTINUOUS
 10
9.9251923427
 20
6.5911695021
 11
11.9501923427
 21
6.5911695021
  0
LINE
  5
23B
100
AcDbEntity
  8
0
100
AcDbLine
 62
7
  6
CONTINUOUS
 10
13.7576923427
 20
6.5911695021
 11
16.1176923427
 21
6.5911695021
  0
LINE
  5
23C
100
AcDbEntity
  8
0
100
AcDbLine
 62
7
  6
CONTINUOUS
 10
6.4361923427
 20
9.2731695021
 11
6.4085000275
 21
9.2571695021
  0
LINE
  5
23D
100
AcDbEntity
  8
0
100
AcDbLine
 62
7
  6
CONTINUOUS
 10
5.9376923427
 20
6.7781695021
 11
7.9376923427
 21
6.7781695021
  0
LINE
  5
23E
100
AcDbEntity
  8
0
100
AcDbLine
 62
7
  6
CONTINUOUS
 10
13.9376923427
 20
6.7781695021
 11
15.9376923427
 21
6.7781695021
  0
LINE
  5
23F
100
AcDbEntity
  8
0
100
AcDbLine
 62
9
  6
CONTINUOUS
 10
11.9501923427
 20
6.8401369698
 11
11.6344325794
 21
6.8401369698
  0
LINE
  5
240
100
AcDbEntity
  8
0
100
AcDbLine
 62
9
  6
CONTINUOUS
 10
10.240952106
 20
6.8401369698
 11
9.9251923427
 21
6.8401369698
  0
LINE
  5
241
100
AcDbEntity
  8
0
100
AcDbLine
 62
7
  6
CONTINUOUS
 10
11.9126923427
 20
6.9111695021
 11
11.5924278532
 21
6.9111695021
  0
LINE
  5
242
100
AcDbEntity
  8
0
100
AcDbLine
 62
7
  6
CONTINUOUS
 10
10.2829568323
 20
6.9111695021
 11
9.9626923427
 21
6.9111695021
  0
LINE
  5
243
100
AcDbEntity
  8
0
100
AcDbLine
 62
7
  6
CONTINUOUS
 10
15.7506950166
 20
6.9661695021
 11
14.1246896689
 21
6.9661695021
  0
LINE
  5
244
100
AcDbEntity
  8
0
100
AcDbLine
 62
7
  6
CONTINUOUS
 10
7.7506950166
 20
6.9661695021
 11
6.1246896689
 21
6.9661695021
  0
LINE
  5
245
100
AcDbEntity
  8
0
100
AcDbLine
 62
7
  6
CONTINUOUS
 10
6.1796314393
 20
7.0281695021
 11
7.6957532462
 21
7.0281695021
  0
LINE
  5
246
100
AcDbEntity
  8
0
100
AcDbLine
 62
7
  6
CONTINUOUS
 10
14.1796314393
 20
7.0281695021
 11
15.6957532462
 21
7.0281695021
  0
LINE
  5
247
100
AcDbEntity
  8
0
100
AcDbLine
 62
7
  6
CONTINUOUS
 10
11.4326923427
 20
7.0911695021
 11
10.4426923427
 21
7.0911695021
  0
LINE
  5
248
100
AcDbEntity
  8
0
100
AcDbLine
 62
9
  6
CONTINUOUS
 10
11.4001923427
 20
7.1711695021
 11
10.4751923427
 21
7.1711695021
  0
LINE
  5
249
100
AcDbEntity
  8
0
100
AcDbLine
 62
7
  6
CONTINUOUS
 10
6.4361923427
 20
9.2731695021
 11
6.4101923427
 21
9.2881695021
  0
LINE
  5
24A
100
AcDbEntity
  8
0
100
AcDbLine
 62
7
  6
CONTINUOUS
 10
7.7979880151
 20
8.8014321448
 11
7.8471540851
 21
8.7671327814
  0
LINE
  5
24B
100
AcDbEntity
  8
0
100
AcDbLine
 62
7
  6
CONTINUOUS
 10
7.4429727639
 20
9.381673178
 11
7.4651923427
 21
9.3594535993
  0
LINE
  5
24C
100
AcDbEntity
  8
0
100
AcDbLine
 62
7
  6
CONTINUOUS
 10
6.2965289031
 20
7.3946695021
 11
6.179634882
 21
7.2781122069
  0
LINE
  5
24D
100
AcDbEntity
  8
0
100
AcDbLine
 62
7
  6
CONTINUOUS
 10
7.7979880151
 20
9.1429068595
 11
7.8471540851
 21
9.1772062229
  0
LINE
  5
24E
100
AcDbEntity
  8
0
100
AcDbLine
 62
7
  6
CONTINUOUS
 10
7.4391923427
 20
9.2731695021
 11
7.4651923427
 21
9.2881695021
  0
LINE
  5
24F
100
AcDbEntity
  8
0
100
AcDbLine
 62
7
  6
CONTINUOUS
 10
6.4831823866
 20
9.3981695021
 11
6.4324119215
 21
9.381673178
  0
LINE
  5
250
100
AcDbEntity
  8
0
100
AcDbLine
 62
9
  6
CONTINUOUS
 10
10.5104088365
 20
7.3352720662
 11
11.3649804298
 21
7.3352720662
  0
LINE
  5
251
100
AcDbEntity
  8
0
100
AcDbLine
 62
7
  6
CONTINUOUS
 10
11.3558607276
 20
7.3411695021
 11
10.5195284409
 21
7.3411695021
  0
LINE
  5
252
100
AcDbEntity
  8
0
100
AcDbLine
 62
9
  6
CONTINUOUS
 10
15.5788557824
 20
7.3946695021
 11
14.2965289031
 21
7.3946695021
  0
LINE
  5
253
100
AcDbEntity
  8
0
100
AcDbLine
 62
9
  6
CONTINUOUS
 10
7.5788557824
 20
7.3946695021
 11
6.2965289031
 21
7.3946695021
  0
LINE
  5
254
100
AcDbEntity
  8
0
100
AcDbLine
 62
7
  6
CONTINUOUS
 10
11.2836923427
 20
7.5291695021
 11
10.5916923427
 21
7.5291695021
  0
LINE
  5
255
100
AcDbEntity
  8
0
100
AcDbLine
 62
9
  6
CONTINUOUS
 10
6.3191923427
 20
7.6096695021
 11
7.5561923427
 21
7.6096695021
  0
LINE
  5
256
100
AcDbEntity
  8
0
100
AcDbLine
 62
9
  6
CONTINUOUS
 10
14.3191923427
 20
7.6096695021
 11
15.5561923427
 21
7.6096695021
  0
LINE
  5
257
100
AcDbEntity
  8
0
100
AcDbLine
 62
7
  6
CONTINUOUS
 10
11.0656713412
 20
7.6811695021
 11
10.8097133443
 21
7.6811695021
  0
LINE
  5
258
100
AcDbEntity
  8
0
100
AcDbLine
 62
9
  6
CONTINUOUS
 10
10.2295001452
 20
7.7519146422
 11
11.6458845403
 21
7.7519146422
  0
LINE
  5
259
100
AcDbEntity
  8
0
100
AcDbLine
 62
7
  6
CONTINUOUS
 10
6.5671923427
 20
8.6371695021
 11
6.4101923427
 21
8.6881695021
  0
LINE
  5
25A
100
AcDbEntity
  8
0
100
AcDbLine
 62
7
  6
CONTINUOUS
 10
6.3551923427
 20
9.1691695021
 11
6.1551923427
 21
9.2536695021
  0
LINE
  5
25B
100
AcDbEntity
  8
0
100
AcDbLine
 62
7
  6
CONTINUOUS
 10
7.4391923427
 20
9.2731695021
 11
7.466884658
 21
9.2571695021
  0
LINE
  5
25C
100
AcDbEntity
  8
0
100
AcDbLine
 62
7
  6
CONTINUOUS
 10
9.8723147386
 20
11.0591695021
 11
9.8723147386
 21
11.6691695021
  0
LINE
  5
25D
100
AcDbEntity
  8
0
100
AcDbLine
 62
7
  6
CONTINUOUS
 10
9.9251923427
 20
6.8401369698
 11
9.9251923427
 21
6.5911695021
  0
LINE
  5
25E
100
AcDbEntity
  8
0
100
AcDbLine
 62
7
  6
CONTINUOUS
 10
6.3551923427
 20
8.7751695021
 11
6.1551923427
 21
8.6906695021
  0
LINE
  5
25F
100
AcDbEntity
  8
0
100
AcDbLine
 62
9
  6
CONTINUOUS
 10
6.3230583485
 20
7.8378683137
 11
7.5523263369
 21
7.8378683137
  0
LINE
  5
260
100
AcDbEntity
  8
0
100
AcDbLine
 62
9
  6
CONTINUOUS
 10
14.3230583485
 20
7.8378683137
 11
15.5523263369
 21
7.8378683137
  0
LINE
  5
261
100
AcDbEntity
  8
0
100
AcDbLine
 62
9
  6
CONTINUOUS
 10
10.2808217393
 20
7.894510275
 11
11.5945629461
 21
7.894510275
  0
LINE
  5
262
100
AcDbEntity
  8
0
100
AcDbLine
 62
9
  6
CONTINUOUS
 10
15.4781923427
 20
7.9437859409
 11
14.3971923427
 21
7.9437859409
  0
LINE
  5
263
100
AcDbEntity
  8
0
100
AcDbLine
 62
9
  6
CONTINUOUS
 10
7.4781923427
 20
7.9437859409
 11
6.3971923427
 21
7.9437859409
  0
LINE
  5
264
100
AcDbEntity
  8
0
100
AcDbLine
 62
9
  6
CONTINUOUS
 10
15.3674320703
 20
8.2497687448
 11
14.5079526152
 21
8.2497687448
  0
LINE
  5
265
100
AcDbEntity
  8
0
100
AcDbLine
 62
9
  6
CONTINUOUS
 10
7.3674320703
 20
8.2497687448
 11
6.5079526152
 21
8.2497687448
  0
LINE
  5
266
100
AcDbEntity
  8
0
100
AcDbLine
 62
7
  6
CONTINUOUS
 10
15.3365412312
 20
8.2781695021
 11
14.5388434542
 21
8.2781695021
  0
LINE
  5
267
100
AcDbEntity
  8
0
100
AcDbLine
 62
7
  6
CONTINUOUS
 10
7.3365412312
 20
8.2781695021
 11
6.5388434542
 21
8.2781695021
  0
LINE
  5
268
100
AcDbEntity
  8
0
100
AcDbLine
 62
7
  6
CONTINUOUS
 10
10.2991642053
 20
11.0432445435
 11
10.2983232992
 21
11.0591695021
  0
LINE
  5
269
100
AcDbEntity
  8
0
100
AcDbLine
 62
7
  6
CONTINUOUS
 10
10.0703899294
 20
11.0591695021
 11
10.0703899294
 21
11.6691695021
  0
LINE
  5
26A
100
AcDbEntity
  8
0
100
AcDbLine
 62
7
  6
CONTINUOUS
 10
10.1776923427
 20
10.693430271
 11
10.1776923427
 21
10.1340026499
  0
LINE
  5
26B
100
AcDbEntity
  8
0
100
AcDbLine
 62
7
  6
CONTINUOUS
 10
10.2983232992
 20
11.0591695021
 11
10.2983232992
 21
11.6691695021
  0
LINE
  5
26C
100
AcDbEntity
  8
0
100
AcDbLine
 62
7
  6
CONTINUOUS
 10
10.4751923427
 20
7.0911695021
 11
10.4751923427
 21
7.1711695021
  0
LINE
  5
26D
100
AcDbEntity
  8
0
100
AcDbLine
 62
7
  6
CONTINUOUS
 10
10.3621034099
 20
10.0591695021
 11
10.2808217393
 21
7.894510275
  0
LINE
  5
26E
100
AcDbEntity
  8
0
100
AcDbLine
 62
7
  6
CONTINUOUS
 10
11.9276923427
 20
10.969602573
 11
11.7261611215
 21
10.7633107717
  0
LINE
  5
26F
100
AcDbEntity
  8
0
100
AcDbLine
 62
7
  6
CONTINUOUS
 10
7.3081923427
 20
8.6371695021
 11
7.4651923427
 21
8.6881695021
  0
LINE
  5
270
100
AcDbEntity
  8
0
100
AcDbLine
 62
7
  6
CONTINUOUS
 10
6.5672065993
 20
8.6371695021
 11
7.3081780862
 21
8.6371695021
  0
LINE
  5
271
100
AcDbEntity
  8
0
100
AcDbLine
 62
7
  6
CONTINUOUS
 10
14.5672065993
 20
8.6371695021
 11
15.3081780862
 21
8.6371695021
  0
LINE
  5
272
100
AcDbEntity
  8
0
100
AcDbLine
 62
7
  6
CONTINUOUS
 10
15.4651923427
 20
8.6881695021
 11
14.4101923427
 21
8.6881695021
  0
LINE
  5
273
100
AcDbEntity
  8
0
100
AcDbLine
 62
7
  6
CONTINUOUS
 10
7.4651923427
 20
8.6881695021
 11
6.4101923427
 21
8.6881695021
  0
LINE
  5
274
100
AcDbEntity
  8
0
100
AcDbLine
 62
7
  6
CONTINUOUS
 10
18.1941923427
 20
8.6906695021
 11
18.1141923427
 21
8.6906695021
  0
LINE
  5
275
100
AcDbEntity
  8
0
100
AcDbLine
 62
7
  6
CONTINUOUS
 10
15.8251923427
 20
8.6906695021
 11
15.7201923427
 21
8.6906695021
  0
LINE
  5
276
100
AcDbEntity
  8
0
100
AcDbLine
 62
7
  6
CONTINUOUS
 10
3.6811923427
 20
8.6906695021
 11
3.7611923427
 21
8.6906695021
  0
LINE
  5
277
100
AcDbEntity
  8
0
100
AcDbLine
 62
7
  6
CONTINUOUS
 10
6.0501923427
 20
8.6906695021
 11
6.1551923427
 21
8.6906695021
  0
LINE
  5
278
100
AcDbEntity
  8
0
100
AcDbLine
 62
7
  6
CONTINUOUS
 10
6.3801923427
 20
8.7671695021
 11
7.4951923427
 21
8.7671695021
  0
LINE
  5
279
100
AcDbEntity
  8
0
100
AcDbLine
 62
7
  6
CONTINUOUS
 10
14.3801923427
 20
8.7671695021
 11
15.4951923427
 21
8.7671695021
  0
LINE
  5
27A
100
AcDbEntity
  8
0
100
AcDbLine
 62
7
  6
CONTINUOUS
 10
15.5201923427
 20
8.7751695021
 11
15.4923281783
 21
8.7751695021
  0
LINE
  5
27B
100
AcDbEntity
  8
0
100
AcDbLine
 62
7
  6
CONTINUOUS
 10
6.3551923427
 20
8.7751695021
 11
6.38305701
 21
8.7751695021
  0
LINE
  5
27C
100
AcDbEntity
  8
0
100
AcDbLine
 62
7
  6
CONTINUOUS
 10
7.3922022989
 20
9.3981695021
 11
7.4429727639
 21
9.381673178
  0
LINE
  5
27D
100
AcDbEntity
  8
0
100
AcDbLine
 62
7
  6
CONTINUOUS
 10
10.7765191113
 20
11.0591695021
 11
10.7765191113
 21
11.6691695021
  0
LINE
  5
27E
100
AcDbEntity
  8
0
100
AcDbLine
 62
7
  6
CONTINUOUS
 10
14.8989923427
 20
9.4726865099
 11
14.8139923427
 21
9.4682277315
  0
LINE
  5
27F
100
AcDbEntity
  8
0
100
AcDbLine
 62
7
  6
CONTINUOUS
 10
15.5201923427
 20
9.1691695021
 11
15.4923276754
 21
9.1691695021
  0
LINE
  5
280
100
AcDbEntity
  8
0
100
AcDbLine
 62
7
  6
CONTINUOUS
 10
6.3551923427
 20
9.1691695021
 11
6.3830565069
 21
9.1691695021
  0
LINE
  5
281
100
AcDbEntity
  8
0
100
AcDbLine
 62
7
  6
CONTINUOUS
 10
15.4951923427
 20
9.1771695021
 11
14.3801923427
 21
9.1771695021
  0
LINE
  5
282
100
AcDbEntity
  8
0
100
AcDbLine
 62
7
  6
CONTINUOUS
 10
7.4951923427
 20
9.1771695021
 11
6.3801923427
 21
9.1771695021
  0
LINE
  5
283
100
AcDbEntity
  8
0
100
AcDbLine
 62
7
  6
CONTINUOUS
 10
18.1941923427
 20
9.2536695021
 11
18.1141923427
 21
9.2536695021
  0
LINE
  5
284
100
AcDbEntity
  8
0
100
AcDbLine
 62
7
  6
CONTINUOUS
 10
15.8251923427
 20
9.2536695021
 11
15.7201923427
 21
9.2536695021
  0
LINE
  5
285
100
AcDbEntity
  8
0
100
AcDbLine
 62
7
  6
CONTINUOUS
 10
3.6811923427
 20
9.2536695021
 11
3.7611923427
 21
9.2536695021
  0
LINE
  5
286
100
AcDbEntity
  8
0
100
AcDbLine
 62
7
  6
CONTINUOUS
 10
6.0501923427
 20
9.2536695021
 11
6.1551923427
 21
9.2536695021
  0
LINE
  5
287
100
AcDbEntity
  8
0
100
AcDbLine
 62
7
  6
CONTINUOUS
 10
6.4085000275
 20
9.2571695021
 11
7.466884658
 21
9.2571695021
  0
LINE
  5
288
100
AcDbEntity
  8
0
100
AcDbLine
 62
7
  6
CONTINUOUS
 10
14.4085000275
 20
9.2571695021
 11
15.466884658
 21
9.2571695021
  0
LINE
  5
289
100
AcDbEntity
  8
0
100
AcDbLine
 62
7
  6
CONTINUOUS
 10
6.4361923427
 20
9.2731695021
 11
7.4391923427
 21
9.2731695021
  0
LINE
  5
28A
100
AcDbEntity
  8
0
100
AcDbLine
 62
7
  6
CONTINUOUS
 10
14.4361923427
 20
9.2731695021
 11
15.4391923427
 21
9.2731695021
  0
LINE
  5
28B
100
AcDbEntity
  8
0
100
AcDbLine
 62
7
  6
CONTINUOUS
 10
6.4101923427
 20
9.2881695021
 11
7.4651923427
 21
9.2881695021
  0
LINE
  5
28C
100
AcDbEntity
  8
0
100
AcDbLine
 62
7
  6
CONTINUOUS
 10
14.4101923427
 20
9.2881695021
 11
15.4651923427
 21
9.2881695021
  0
LINE
  5
28D
100
AcDbEntity
  8
0
100
AcDbLine
 62
7
  6
CONTINUOUS
 10
7.0941923427
 20
9.4642468591
 11
7.1301923427
 21
9.460166872
  0
LINE
  5
28E
100
AcDbEntity
  8
0
100
AcDbLine
 62
7
  6
CONTINUOUS
 10
11.0988655742
 20
11.0591695021
 11
11.0988655742
 21
11.6691695021
  0
LINE
  5
28F
100
AcDbEntity
  8
0
100
AcDbLine
 62
7
  6
CONTINUOUS
 10
11.4001923427
 20
7.0911695021
 11
11.4001923427
 21
7.1711695021
  0
LINE
  5
290
100
AcDbEntity
  8
0
100
AcDbLine
 62
7
  6
CONTINUOUS
 10
11.5770613863
 20
11.0591695021
 11
11.5762204802
 21
11.0432443174
  0
LINE
  5
291
100
AcDbEntity
  8
0
100
AcDbLine
 62
7
  6
CONTINUOUS
 10
15.4651923427
 20
9.3594535993
 11
14.4101923427
 21
9.3594535993
  0
LINE
  5
292
100
AcDbEntity
  8
0
100
AcDbLine
 62
7
  6
CONTINUOUS
 10
7.4651923427
 20
9.3594535993
 11
6.4101923427
 21
9.3594535993
  0
LINE
  5
293
100
AcDbEntity
  8
0
100
AcDbLine
 62
7
  6
CONTINUOUS
 10
6.4324119215
 20
9.381673178
 11
7.4429727639
 21
9.381673178
  0
LINE
  5
294
100
AcDbEntity
  8
0
100
AcDbLine
 62
7
  6
CONTINUOUS
 10
14.4324119215
 20
9.381673178
 11
15.4429727639
 21
9.381673178
  0
LINE
  5
295
100
AcDbEntity
  8
0
100
AcDbLine
 62
7
  6
CONTINUOUS
 10
15.3922014359
 20
9.3981695021
 11
14.4831832496
 21
9.3981695021
  0
LINE
  5
296
100
AcDbEntity
  8
0
100
AcDbLine
 62
7
  6
CONTINUOUS
 10
7.3922014359
 20
9.3981695021
 11
6.4831832496
 21
9.3981695021
  0
LINE
  5
297
100
AcDbEntity
  8
0
100
AcDbLine
 62
9
  6
CONTINUOUS
 10
15.3328369993
 20
9.4219787954
 11
14.5425476862
 21
9.4219787954
  0
LINE
  5
298
100
AcDbEntity
  8
0
100
AcDbLine
 62
9
  6
CONTINUOUS
 10
6.5425477032
 20
9.4219789151
 11
7.3328369823
 21
9.4219789151
  0
LINE
  5
299
100
AcDbEntity
  8
0
100
AcDbLine
 62
7
  6
CONTINUOUS
 10
14.9691923427
 20
9.4718493203
 11
15.0051923427
 21
9.4706987332
  0
LINE
  5
29A
100
AcDbEntity
  8
0
100
AcDbLine
 62
7
  6
CONTINUOUS
 10
14.5671923427
 20
8.6371695021
 11
14.4101923427
 21
8.6881695021
  0
LINE
  5
29B
100
AcDbEntity
  8
0
100
AcDbLine
 62
7
  6
CONTINUOUS
 10
9.9476923427
 20
10.969602573
 11
10.149223564
 21
10.7633107717
  0
LINE
  5
29C
100
AcDbEntity
  8
0
100
AcDbLine
 62
7
  6
CONTINUOUS
 10
11.5132812755
 20
10.0591695021
 11
11.5945629461
 21
7.894510275
  0
LINE
  5
29D
100
AcDbEntity
  8
0
100
AcDbLine
 62
7
  6
CONTINUOUS
 10
11.5770613863
 20
11.0591695021
 11
11.5770613863
 21
11.6691695021
  0
LINE
  5
29E
100
AcDbEntity
  8
0
100
AcDbLine
 62
7
  6
CONTINUOUS
 10
11.6976923427
 20
10.693430271
 11
11.6976923427
 21
10.1340026499
  0
LINE
  5
29F
100
AcDbEntity
  8
0
100
AcDbLine
 62
7
  6
CONTINUOUS
 10
11.8049947561
 20
11.0591695021
 11
11.8049947561
 21
11.6691695021
  0
LINE
  5
2A0
100
AcDbEntity
  8
0
100
AcDbLine
 62
7
  6
CONTINUOUS
 10
11.9501923427
 20
6.8401369698
 11
11.9501923427
 21
6.5911695021
  0
LINE
  5
2A1
100
AcDbEntity
  8
0
100
AcDbLine
 62
7
  6
CONTINUOUS
 10
12.0030699469
 20
11.0591695021
 11
12.0030699469
 21
11.6691695021
  0
LINE
  5
2A2
100
AcDbEntity
  8
0
100
AcDbLine
 62
7
  6
CONTINUOUS
 10
14.4831823866
 20
9.3981695021
 11
14.4324119215
 21
9.381673178
  0
LINE
  5
2A3
100
AcDbEntity
  8
0
100
AcDbLine
 62
7
  6
CONTINUOUS
 10
10.1976923427
 20
10.0591695021
 11
11.6776923427
 21
10.0591695021
  0
LINE
  5
2A4
100
AcDbEntity
  8
0
100
AcDbLine
 62
9
  6
CONTINUOUS
 10
10.1776923427
 20
10.1340026499
 11
11.6976923427
 21
10.1340026499
  0
LINE
  5
2A5
100
AcDbEntity
  8
0
100
AcDbLine
 62
7
  6
CONTINUOUS
 10
15.1376923427
 20
9.4592093346
 11
15.1739742231
 21
9.4540503444
  0
LINE
  5
2A6
100
AcDbEntity
  8
0
100
AcDbLine
 62
9
  6
CONTINUOUS
 10
11.6976923427
 20
10.693430271
 11
10.1777068276
 21
10.693430271
  0
LINE
  5
2A7
100
AcDbEntity
  8
0
100
AcDbLine
 62
9
  6
CONTINUOUS
 10
10.149223564
 20
10.7633107717
 11
11.7261611215
 21
10.7633107717
  0
LINE
  5
2A8
100
AcDbEntity
  8
0
100
AcDbLine
 62
7
  6
CONTINUOUS
 10
15.3922022989
 20
9.3981695021
 11
15.4429727639
 21
9.381673178
  0
LINE
  5
2A9
100
AcDbEntity
  8
0
100
AcDbLine
 62
7
  6
CONTINUOUS
 10
15.5201923427
 20
8.7751695021
 11
15.7201923427
 21
8.6906695021
  0
LINE
  5
2AA
100
AcDbEntity
  8
0
100
AcDbLine
 62
7
  6
CONTINUOUS
 10
14.4361923427
 20
9.2731695021
 11
14.4085000275
 21
9.2571695021
  0
LINE
  5
2AB
100
AcDbEntity
  8
0
100
AcDbLine
 62
7
  6
CONTINUOUS
 10
15.5201923427
 20
9.1691695021
 11
15.7201923427
 21
9.2536695021
  0
LINE
  5
2AC
100
AcDbEntity
  8
0
100
AcDbLine
 62
7
  6
CONTINUOUS
 10
15.3081923427
 20
8.6371695021
 11
15.4651923427
 21
8.6881695021
  0
LINE
  5
2AD
100
AcDbEntity
  8
0
100
AcDbLine
 62
7
  6
CONTINUOUS
 10
9.8723147386
 20
11.0591695021
 11
10.0703899294
 21
11.0591695021
  0
LINE
  5
2AE
100
AcDbEntity
  8
0
100
AcDbLine
 62
7
  6
CONTINUOUS
 10
10.2983232992
 20
11.0591695021
 11
10.7765191113
 21
11.0591695021
  0
LINE
  5
2AF
100
AcDbEntity
  8
0
100
AcDbLine
 62
7
  6
CONTINUOUS
 10
11.0988655742
 20
11.0591695021
 11
11.5770613863
 21
11.0591695021
  0
LINE
  5
2B0
100
AcDbEntity
  8
0
100
AcDbLine
 62
7
  6
CONTINUOUS
 10
11.8049947561
 20
11.0591695021
 11
12.0030699469
 21
11.0591695021
  0
LINE
  5
2B1
100
AcDbEntity
  8
0
100
AcDbLine
 62
7
  6
CONTINUOUS
 10
14.4361923427
 20
9.2731695021
 11
14.4101923427
 21
9.2881695021
  0
LINE
  5
2B2
100
AcDbEntity
  8
0
100
AcDbLine
 62
7
  6
CONTINUOUS
 10
14.0773966704
 20
9.1429068595
 11
14.0282306004
 21
9.1772062229
  0
LINE
  5
2B3
100
AcDbEntity
  8
0
100
AcDbLine
 62
7
  6
CONTINUOUS
 10
15.5788557824
 20
7.3946695021
 11
15.6957488268
 21
7.2781131808
  0
LINE
  5
2B4
100
AcDbEntity
  8
0
100
AcDbLine
 62
7
  6
CONTINUOUS
 10
14.4324119215
 20
9.381673178
 11
14.4101923427
 21
9.3594535993
  0
LINE
  5
2B5
100
AcDbEntity
  8
0
100
AcDbLine
 62
7
  6
CONTINUOUS
 10
14.0773966704
 20
8.8014321448
 11
14.0282306004
 21
8.7671327814
  0
LINE
  5
2B6
100
AcDbEntity
  8
0
100
AcDbLine
 62
7
  6
CONTINUOUS
 10
15.4391923427
 20
9.2731695021
 11
15.4651923427
 21
9.2881695021
  0
LINE
  5
2B7
100
AcDbEntity
  8
0
100
AcDbLine
 62
9
  6
CONTINUOUS
 10
12.0030699469
 20
11.6691695021
 11
11.8049947561
 21
11.6691695021
  0
LINE
  5
2B8
100
AcDbEntity
  8
0
100
AcDbLine
 62
9
  6
CONTINUOUS
 10
11.5770613863
 20
11.6691695021
 11
11.0988655742
 21
11.6691695021
  0
LINE
  5
2B9
100
AcDbEntity
  8
0
100
AcDbLine
 62
9
  6
CONTINUOUS
 10
10.7765191113
 20
11.6691695021
 11
10.2983232992
 21
11.6691695021
  0
LINE
  5
2BA
100
AcDbEntity
  8
0
100
AcDbLine
 62
9
  6
CONTINUOUS
 10
10.0703899294
 20
11.6691695021
 11
9.8723147386
 21
11.6691695021
  0
LINE
  5
2BB
100
AcDbEntity
  8
0
100
AcDbLine
 62
7
  6
CONTINUOUS
 10
11.8651923427
 20
11.8191695021
 11
10.0101923427
 21
11.8191695021
  0
LINE
  5
2BC
100
AcDbEntity
  8
0
100
AcDbLine
 62
9
  6
CONTINUOUS
 10
10.0285559097
 20
11.8791695021
 11
11.8468287758
 21
11.8791695021
  0
LINE
  5
2BD
100
AcDbEntity
  8
0
100
AcDbLine
 62
7
  6
CONTINUOUS
 10
15.4391923427
 20
9.2731695021
 11
15.466884658
 21
9.2571695021
  0
LINE
  5
2BE
100
AcDbEntity
  8
0
100
AcDbLine
 62
9
  6
CONTINUOUS
 10
14.0282306004
 20
9.1772062229
 11
14.0282306004
 21
8.7671327814
  0
LINE
  5
2BF
100
AcDbEntity
  8
0
100
AcDbLine
 62
9
  6
CONTINUOUS
 10
14.0773966704
 20
8.8014321448
 11
14.0773966704
 21
9.1429068595
  0
LINE
  5
2C0
100
AcDbEntity
  8
0
100
AcDbLine
 62
7
  6
CONTINUOUS
 10
14.1020785996
 20
9.1521695021
 11
14.1020785996
 21
8.7921695021
  0
LINE
  5
2C1
100
AcDbEntity
  8
0
100
AcDbLine
 62
9
  6
CONTINUOUS
 10
14.1290525419
 20
8.7805259378
 11
14.1290525419
 21
9.1638130665
  0
LINE
  5
2C2
100
AcDbEntity
  8
0
100
AcDbLine
 62
7
  6
CONTINUOUS
 10
15.4781923427
 20
7.9437859409
 11
15.5523263369
 21
7.8378683137
  0
LINE
  5
2C3
100
AcDbEntity
  8
0
100
AcDbLine
 62
7
  6
CONTINUOUS
 10
14.3801923427
 20
8.7671695021
 11
14.4101923427
 21
8.6881695021
  0
LINE
  5
2C4
100
AcDbEntity
  8
0
100
AcDbLine
 62
7
  6
CONTINUOUS
 10
14.1796320909
 20
7.2781130456
 11
14.1796314393
 21
7.0281695021
  0
LINE
  5
2C5
100
AcDbEntity
  8
0
100
AcDbLine
 62
7
  6
CONTINUOUS
 10
14.1966923427
 20
7.0281695021
 11
14.1966923427
 21
6.9661695021
  0
LINE
  5
2C6
100
AcDbEntity
  8
0
100
AcDbLine
 62
9
  6
CONTINUOUS
 10
14.3803771718
 20
9.1603123593
 11
14.3803771718
 21
8.784026645
  0
LINE
  5
2C7
100
AcDbEntity
  8
0
100
AcDbLine
 62
9
  6
CONTINUOUS
 10
14.401002597
 20
9.1108711495
 11
14.401002597
 21
8.8334587632
  0
LINE
  5
2C8
100
AcDbEntity
  8
0
100
AcDbLine
 62
7
  6
CONTINUOUS
 10
14.4101923427
 20
9.3594535993
 11
14.4101923427
 21
9.2881695021
  0
LINE
  5
2C9
100
AcDbEntity
  8
0
100
AcDbLine
 62
7
  6
CONTINUOUS
 10
14.4151923427
 20
8.9071695021
 11
14.4151923427
 21
9.0371695021
  0
LINE
  5
2CA
100
AcDbEntity
  8
0
100
AcDbLine
 62
7
  6
CONTINUOUS
 10
14.5586611396
 20
7.2781147208
 11
14.558661891
 21
7.0281695021
  0
LINE
  5
2CB
100
AcDbEntity
  8
0
100
AcDbLine
 62
7
  6
CONTINUOUS
 10
14.5941923427
 20
8.6371695021
 11
14.5941923427
 21
8.2781695021
  0
LINE
  5
2CC
100
AcDbEntity
  8
0
100
AcDbLine
 62
7
  6
CONTINUOUS
 10
14.6296923427
 20
9.441253851
 11
14.6296923427
 21
9.4422735198
  0
LINE
  5
2CD
100
AcDbEntity
  8
0
100
AcDbLine
 62
9
  6
CONTINUOUS
 10
14.6356613602
 20
9.4431619286
 11
14.6356613602
 21
9.4421422136
  0
LINE
  5
2CE
100
AcDbEntity
  8
0
100
AcDbLine
 62
7
  6
CONTINUOUS
 10
14.4085000275
 20
9.2571695021
 11
14.3801923427
 21
9.1771695021
  0
LINE
  5
2CF
100
AcDbEntity
  8
0
100
AcDbLine
 62
7
  6
CONTINUOUS
 10
14.3971923427
 20
7.9437859409
 11
14.3230583485
 21
7.8378683137
  0
LINE
  5
2D0
100
AcDbEntity
  8
0
100
AcDbLine
 62
7
  6
CONTINUOUS
 10
14.2965289031
 20
7.3946695021
 11
14.179634882
 21
7.2781122069
  0
LINE
  5
2D1
100
AcDbEntity
  8
0
100
AcDbLine
 62
7
  6
CONTINUOUS
 10
15.4429727639
 20
9.381673178
 11
15.4651923427
 21
9.3594535993
  0
LINE
  5
2D2
100
AcDbEntity
  8
0
100
AcDbLine
 62
9
  6
CONTINUOUS
 10
14.668980108
 20
9.4485444733
 11
14.668980108
 21
9.4475283262
  0
LINE
  5
2D3
100
AcDbEntity
  8
0
100
AcDbLine
 62
7
  6
CONTINUOUS
 10
14.7401422312
 20
9.4603471548
 11
14.7401422312
 21
9.4593388115
  0
LINE
  5
2D4
100
AcDbEntity
  8
0
100
AcDbLine
 62
7
  6
CONTINUOUS
 10
14.8139923427
 20
9.4682277315
 11
14.8139923427
 21
9.4672245324
  0
LINE
  5
2D5
100
AcDbEntity
  8
0
100
AcDbLine
 62
7
  6
CONTINUOUS
 10
14.8989923427
 20
9.4726865099
 11
14.8989923427
 21
9.4716861981
  0
LINE
  5
2D6
100
AcDbEntity
  8
0
100
AcDbLine
 62
7
  6
CONTINUOUS
 10
14.9476923427
 20
9.4719369642
 11
14.9476923427
 21
9.4708058184
  0
LINE
  5
2D7
100
AcDbEntity
  8
0
100
AcDbLine
 62
7
  6
CONTINUOUS
 10
14.9691923427
 20
9.4725144916
 11
14.9691923427
 21
9.4715140688
  0
LINE
  5
2D8
100
AcDbEntity
  8
0
100
AcDbLine
 62
7
  6
CONTINUOUS
 10
15.0051923427
 20
9.4703632325
 11
15.0051923427
 21
9.4713643986
  0
LINE
  5
2D9
100
AcDbEntity
  8
0
100
AcDbLine
 62
9
  6
CONTINUOUS
 10
15.0351923427
 20
9.4688496263
 11
15.0351923427
 21
9.4678468309
  0
LINE
  5
2DA
100
AcDbEntity
  8
0
100
AcDbLine
 62
9
  6
CONTINUOUS
 10
15.0591923427
 20
9.4661453056
 11
15.0591923427
 21
9.4671492056
  0
LINE
  5
2DB
100
AcDbEntity
  8
0
100
AcDbLine
 62
9
  6
CONTINUOUS
 10
15.0848575327
 20
9.4654313023
 11
15.0848575327
 21
9.4644262837
  0
LINE
  5
2DC
100
AcDbEntity
  8
0
100
AcDbLine
 62
7
  6
CONTINUOUS
 10
15.0981372794
 20
9.4646305251
 11
15.0981372794
 21
9.4636249843
  0
LINE
  5
2DD
100
AcDbEntity
  8
0
100
AcDbLine
 62
7
  6
CONTINUOUS
 10
15.1276923427
 20
9.4602759649
 11
15.1276923427
 21
9.4591362352
  0
LINE
  5
2DE
100
AcDbEntity
  8
0
100
AcDbLine
 62
7
  6
CONTINUOUS
 10
15.1376923427
 20
9.4595628191
 11
15.1376923427
 21
9.4585539609
  0
LINE
  5
2DF
100
AcDbEntity
  8
0
100
AcDbLine
 62
7
  6
CONTINUOUS
 10
15.1739742231
 20
9.4530624648
 11
15.1739742231
 21
9.4550621673
  0
LINE
  5
2E0
100
AcDbEntity
  8
0
100
AcDbLine
 62
9
  6
CONTINUOUS
 10
15.1799742231
 20
9.452909885
 11
15.1799742231
 21
9.4518966383
  0
LINE
  5
2E1
100
AcDbEntity
  8
0
100
AcDbLine
 62
9
  6
CONTINUOUS
 10
15.2078371309
 20
9.4472217402
 11
15.2078371309
 21
9.4482380915
  0
LINE
  5
2E2
100
AcDbEntity
  8
0
100
AcDbLine
 62
9
  6
CONTINUOUS
 10
15.2533723487
 20
9.4404353586
 11
15.2533723487
 21
9.4394137793
  0
LINE
  5
2E3
100
AcDbEntity
  8
0
100
AcDbLine
 62
7
  6
CONTINUOUS
 10
15.2583532627
 20
9.4386285977
 11
15.2583532627
 21
9.4396507057
  0
LINE
  5
2E4
100
AcDbEntity
  8
0
100
AcDbLine
 62
7
  6
CONTINUOUS
 10
15.2811923427
 20
8.6371695021
 11
15.2811923427
 21
8.2781695021
  0
LINE
  5
2E5
100
AcDbEntity
  8
0
100
AcDbLine
 62
7
  6
CONTINUOUS
 10
15.3167216946
 20
7.2781147209
 11
15.3167227945
 21
7.0281695021
  0
LINE
  5
2E6
100
AcDbEntity
  8
0
100
AcDbLine
 62
7
  6
CONTINUOUS
 10
15.4601923427
 20
9.0371695021
 11
15.4601923427
 21
8.9071695021
  0
LINE
  5
2E7
100
AcDbEntity
  8
0
100
AcDbLine
 62
7
  6
CONTINUOUS
 10
15.4651923427
 20
9.3594535993
 11
15.4651923427
 21
9.2881695021
  0
LINE
  5
2E8
100
AcDbEntity
  8
0
100
AcDbLine
 62
7
  6
CONTINUOUS
 10
15.5201923427
 20
8.7751695021
 11
15.5201923427
 21
9.1691695021
  0
LINE
  5
2E9
100
AcDbEntity
  8
0
100
AcDbLine
 62
7
  6
CONTINUOUS
 10
15.6786923427
 20
7.0281695021
 11
15.6786923427
 21
6.9661695021
  0
LINE
  5
2EA
100
AcDbEntity
  8
0
100
AcDbLine
 62
7
  6
CONTINUOUS
 10
15.6957524105
 20
7.2781142608
 11
15.6957532462
 21
7.0281695021
  0
LINE
  5
2EB
100
AcDbEntity
  8
0
100
AcDbLine
 62
7
  6
CONTINUOUS
 10
15.4951923427
 20
8.7671695021
 11
15.4651923427
 21
8.6881695021
  0
LINE
  5
2EC
100
AcDbEntity
  8
0
100
AcDbLine
 62
7
  6
CONTINUOUS
 10
15.466884658
 20
9.2571695021
 11
15.4951923427
 21
9.1771695021
  0
LINE
  5
2ED
100
AcDbEntity
  8
0
100
AcDbLine
 62
7
  6
CONTINUOUS
 10
15.7201923427
 20
9.2536695021
 11
15.7201923427
 21
8.6906695021
  0
LINE
  5
2EE
100
AcDbEntity
  8
0
100
AcDbLine
 62
7
  6
CONTINUOUS
 10
15.8251923427
 20
8.6906695021
 11
15.8251923427
 21
9.2536695021
  0
LINE
  5
2EF
100
AcDbEntity
  8
0
100
AcDbLine
 62
7
  6
CONTINUOUS
 10
18.2141923427
 20
9.2336695021
 11
18.1941923427
 21
9.2536695021
  0
LINE
  5
2F0
100
AcDbEntity
  8
0
100
AcDbLine
 62
7
  6
CONTINUOUS
 10
18.2141923427
 20
8.7106695021
 11
18.1941923427
 21
8.6906695021
  0
LINE
  5
2F1
100
AcDbEntity
  8
0
100
AcDbLine
 62
7
  6
CONTINUOUS
 10
18.1141923427
 20
9.2536695021
 11
18.1141923427
 21
8.6906695021
  0
LINE
  5
2F2
100
AcDbEntity
  8
0
100
AcDbLine
 62
7
  6
CONTINUOUS
 10
18.1941923427
 20
8.6906695021
 11
18.1941923427
 21
9.2536695021
  0
LINE
  5
2F3
100
AcDbEntity
  8
0
100
AcDbLine
 62
7
  6
CONTINUOUS
 10
18.2141923427
 20
8.7106702951
 11
18.2141923427
 21
9.2336687092
  0
ARC
  5
2F4
100
AcDbEntity
  8
0
100
AcDbCircle
 62
7
  6
CONTINUOUS
 10
6.9376923427
 20
7.9224961101
 40
1.550673392
100
AcDbArc
 50
75.2370022574
 51
82.8689275621
  0
ARC
  5
2F5
100
AcDbEntity
  8
0
100
AcDbCircle
 62
7
  6
CONTINUOUS
 10
6.9376923427
 20
7.9224961101
 40
1.550673392
100
AcDbArc
 50
84.2076250178
 51
87.1537590823
  0
ARC
  5
2F6
100
AcDbEntity
  8
0
100
AcDbCircle
 62
7
  6
CONTINUOUS
 10
6.9376923427
 20
7.9224961101
 40
1.550673392
100
AcDbArc
 50
92.9572314749
 51
94.3827253199
  0
ARC
  5
2F7
100
AcDbEntity
  8
0
100
AcDbCircle
 62
7
  6
CONTINUOUS
 10
6.9376923427
 20
7.9224961101
 40
1.550673392
100
AcDbArc
 50
99.221579184
 51
104.7629977426
  0
ARC
  5
2F8
100
AcDbEntity
  8
0
100
AcDbCircle
 62
7
  6
CONTINUOUS
 10
6.9376923427
 20
7.9224961101
 40
1.550673392
100
AcDbArc
 50
88.982551472
 51
91.6148836456
  0
ARC
  5
2F9
100
AcDbEntity
  8
0
100
AcDbCircle
 62
7
  6
CONTINUOUS
 10
6.9376923427
 20
7.9224961101
 40
1.550668233
100
AcDbArc
 50
96.0895835634
 51
97.5036217175
  0
ARC
  5
2FA
100
AcDbEntity
  8
0
100
AcDbCircle
 62
7
  6
CONTINUOUS
 10
6.9376923427
 20
7.9224961101
 40
1.549673392
100
AcDbArc
 50
94.3855590149
 51
95.8722942812
  0
ARC
  5
2FB
100
AcDbEntity
  8
0
100
AcDbCircle
 62
7
  6
CONTINUOUS
 10
6.9376923427
 20
7.9224961101
 40
1.549673392
100
AcDbArc
 50
97.7326581455
 51
99.2275818147
  0
ARC
  5
2FC
100
AcDbEntity
  8
0
100
AcDbCircle
 62
7
  6
CONTINUOUS
 10
6.9376923427
 20
7.9224961101
 40
1.5483420064
100
AcDbArc
 50
82.1676580455
 51
84.8865797045
  0
ARC
  5
2FD
100
AcDbEntity
  8
0
100
AcDbCircle
 62
7
  6
CONTINUOUS
 10
6.9376923427
 20
7.9224961101
 40
1.5483420064
100
AcDbArc
 50
97.1232192299
 51
99.8547367444
  0
ARC
  5
2FE
100
AcDbEntity
  8
0
100
AcDbCircle
 62
7
  6
CONTINUOUS
 10
6.9376923427
 20
7.9224961101
 40
1.5483420064
100
AcDbArc
 50
93.7772047905
 51
96.4896726718
  0
ARC
  5
2FF
100
AcDbEntity
  8
0
100
AcDbCircle
 62
7
  6
CONTINUOUS
 10
6.8405546937
 20
8.6590838455
 40
0.8077030998
100
AcDbArc
 50
97.4954166748
 51
97.711231367
  0
ARC
  5
300
100
AcDbEntity
  8
0
100
AcDbCircle
 62
7
  6
CONTINUOUS
 10
5.8851534407
 20
8.3021728307
 40
0.625
100
AcDbArc
 50
325.0110095299
 51
355.1903004544
  0
ARC
  5
301
100
AcDbEntity
  8
0
100
AcDbCircle
 62
7
  6
CONTINUOUS
 10
6.4901674638
 20
7.7209050989
 40
0.2039751211
100
AcDbArc
 50
145.0110095297
 51
213.0478355063
  0
ARC
  5
302
100
AcDbEntity
  8
0
100
AcDbCircle
 62
7
  6
CONTINUOUS
 10
7.3852172217
 20
7.7209050989
 40
0.2039751211
100
AcDbArc
 50
326.9521644937
 51
34.9889904703
  0
ARC
  5
303
100
AcDbEntity
  8
0
100
AcDbCircle
 62
7
  6
CONTINUOUS
 10
5.9448284538
 20
6.5911695021
 40
0.1871361111
100
AcDbArc
 50
92.1854050713
 51
180.0
  0
ARC
  5
304
100
AcDbEntity
  8
0
100
AcDbCircle
 62
7
  6
CONTINUOUS
 10
6.1246896689
 20
6.7791695021
 40
0.187
100
AcDbArc
 50
90.0
 51
180.3063960032
  0
ARC
  5
305
100
AcDbEntity
  8
0
100
AcDbCircle
 62
7
  6
CONTINUOUS
 10
6.1754178091
 20
7.5161304776
 40
0.1715245336
100
AcDbArc
 50
314.9173576842
 51
33.0478355064
  0
ARC
  5
306
100
AcDbEntity
  8
0
100
AcDbCircle
 62
7
  6
CONTINUOUS
 10
6.5388434542
 20
8.2471695021
 40
0.031
100
AcDbArc
 50
90.0
 51
175.1903004544
  0
ARC
  5
307
100
AcDbEntity
  8
0
100
AcDbCircle
 62
7
  6
CONTINUOUS
 10
7.3365412312
 20
8.2471695021
 40
0.031
100
AcDbArc
 50
4.8096995456
 51
90.0
  0
ARC
  5
308
100
AcDbEntity
  8
0
100
AcDbCircle
 62
7
  6
CONTINUOUS
 10
6.9782580235
 20
11.8833268464
 40
2.4123887959
100
AcDbArc
 50
270.1890884576
 51
270.535022755
  0
ARC
  5
309
100
AcDbEntity
  8
0
100
AcDbCircle
 62
7
  6
CONTINUOUS
 10
6.887222787
 20
11.3884290308
 40
1.9175897764
100
AcDbArc
 50
269.5309533687
 51
269.9671836252
  0
ARC
  5
30A
100
AcDbEntity
  8
0
100
AcDbCircle
 62
7
  6
CONTINUOUS
 10
7.131005336
 20
10.2722048487
 40
0.8082878976
100
AcDbArc
 50
266.0760517993
 51
266.775515262
  0
ARC
  5
30B
100
AcDbEntity
  8
0
100
AcDbCircle
 62
7
  6
CONTINUOUS
 10
3.9387131761
 20
8.9721695021
 40
0.3735208333
100
AcDbArc
 50
137.9864211384
 51
222.0135788616
  0
ARC
  5
30C
100
AcDbEntity
  8
0
100
AcDbCircle
 62
7
  6
CONTINUOUS
 10
6.5501923427
 20
9.3929692704
 40
0.03
100
AcDbArc
 50
104.7629977427
 51
169.8876303082
  0
ARC
  5
30D
100
AcDbEntity
  8
0
100
AcDbCircle
 62
7
  6
CONTINUOUS
 10
7.3251923427
 20
9.3929692704
 40
0.03
100
AcDbArc
 50
10.1123696918
 51
75.2370022573
  0
ARC
  5
30E
100
AcDbEntity
  8
0
100
AcDbCircle
 62
7
  6
CONTINUOUS
 10
10.9376923427
 20
5.553753703
 40
6.3904157991
100
AcDbArc
 50
81.821031102
 51
98.178968898
  0
ARC
  5
30F
100
AcDbEntity
  8
0
100
AcDbCircle
 62
7
  6
CONTINUOUS
 10
10.6136723347
 20
6.9616374993
 40
1.3
100
AcDbArc
 50
357.7751307225
 51
37.4382101819
  0
ARC
  5
310
100
AcDbEntity
  8
0
100
AcDbCircle
 62
7
  6
CONTINUOUS
 10
10.8464719365
 20
6.4082744624
 40
0.9
100
AcDbArc
 50
11.7251268757
 51
49.3560828237
  0
ARC
  5
311
100
AcDbEntity
  8
0
100
AcDbCircle
 62
7
  6
CONTINUOUS
 10
7.9902312448
 20
8.3021728307
 40
0.625
100
AcDbArc
 50
184.8096995456
 51
214.9889904701
  0
ARC
  5
312
100
AcDbEntity
  8
0
100
AcDbCircle
 62
7
  6
CONTINUOUS
 10
10.8751923427
 20
7.1711695021
 40
0.4
100
AcDbArc
 50
155.7790568907
 51
180.0
  0
ARC
  5
313
100
AcDbEntity
  8
0
100
AcDbCircle
 62
7
  6
CONTINUOUS
 10
10.0309977979
 20
7.9038910159
 40
0.25
100
AcDbArc
 50
322.5617898181
 51
357.849587733
  0
ARC
  5
314
100
AcDbEntity
  8
0
100
AcDbCircle
 62
7
  6
CONTINUOUS
 10
10.8097133443
 20
7.4931695021
 40
0.188
100
AcDbArc
 50
90.0
 51
168.9602855859
  0
ARC
  5
315
100
AcDbEntity
  8
0
100
AcDbCircle
 62
7
  6
CONTINUOUS
 10
7.9305562316
 20
6.5911695021
 40
0.1871361111
100
AcDbArc
 50
0.0
 51
87.8145949287
  0
ARC
  5
316
100
AcDbEntity
  8
0
100
AcDbCircle
 62
7
  6
CONTINUOUS
 10
7.7506950166
 20
6.7791695021
 40
0.187
100
AcDbArc
 50
359.6936039968
 51
90.0
  0
ARC
  5
317
100
AcDbEntity
  8
0
100
AcDbCircle
 62
7
  6
CONTINUOUS
 10
7.6187600646
 20
8.6451695021
 40
0.186
100
AcDbArc
 50
46.6958241998
 51
131.7081302521
  0
ARC
  5
318
100
AcDbEntity
  8
0
100
AcDbCircle
 62
7
  6
CONTINUOUS
 10
7.6999668764
 20
7.5161304776
 40
0.1715245336
100
AcDbArc
 50
146.9521644936
 51
225.0826423158
  0
ARC
  5
319
100
AcDbEntity
  8
0
100
AcDbCircle
 62
7
  6
CONTINUOUS
 10
10.5916923427
 20
7.4116695021
 40
0.1175
100
AcDbArc
 50
90.0
 51
224.6487594058
  0
ARC
  5
31A
100
AcDbEntity
  8
0
100
AcDbCircle
 62
7
  6
CONTINUOUS
 10
10.0112172848
 20
6.8401369698
 40
0.0860249421
100
AcDbArc
 50
124.338423378
 51
180.0
  0
ARC
  5
31B
100
AcDbEntity
  8
0
100
AcDbCircle
 62
7
  6
CONTINUOUS
 10
10.5195239579
 20
7.3311695021
 40
0.01
100
AcDbArc
 50
90.0
 51
155.7790568908
  0
ARC
  5
31C
100
AcDbEntity
  8
0
100
AcDbCircle
 62
7
  6
CONTINUOUS
 10
7.7763594559
 20
9.2187569944
 40
2.7892914415
100
AcDbArc
 50
38.8808295249
 51
41.2856606117
  0
ARC
  5
31D
100
AcDbEntity
  8
0
100
AcDbCircle
 62
7
  6
CONTINUOUS
 10
8.1893191474
 20
8.9215563935
 40
0.7396944966
100
AcDbArc
 50
160.1272100901
 51
161.1775465785
  0
ARC
  5
31E
100
AcDbEntity
  8
0
100
AcDbCircle
 62
7
  6
CONTINUOUS
 10
8.1865017933
 20
9.0217975437
 40
0.7367100392
100
AcDbArc
 50
198.7941938359
 51
199.8698344067
  0
ARC
  5
31F
100
AcDbEntity
  8
0
100
AcDbCircle
 62
7
  6
CONTINUOUS
 10
7.9901923427
 20
8.9721695021
 40
0.25
100
AcDbArc
 50
235.0995
 51
124.9005
  0
ARC
  5
320
100
AcDbEntity
  8
0
100
AcDbCircle
 62
7
  6
CONTINUOUS
 10
7.6187600646
 20
9.2991695021
 40
0.186
100
AcDbArc
 50
228.2918697479
 51
313.3041758002
  0
ARC
  5
321
100
AcDbEntity
  8
0
100
AcDbCircle
 62
7
  6
CONTINUOUS
 10
10.0101923427
 20
11.6691695021
 40
0.15
100
AcDbArc
 50
90.0
 51
114.6243183522
  0
ARC
  5
322
100
AcDbEntity
  8
0
100
AcDbCircle
 62
7
  6
CONTINUOUS
 10
10.3276923427
 20
10.1340026499
 40
0.15
100
AcDbArc
 50
180.0
 51
209.9264348665
  0
ARC
  5
323
100
AcDbEntity
  8
0
100
AcDbCircle
 62
7
  6
CONTINUOUS
 10
10.0776923427
 20
10.693430271
 40
0.1
100
AcDbArc
 50
0.0
 51
44.3312080467
  0
ARC
  5
324
100
AcDbEntity
  8
0
100
AcDbCircle
 62
7
  6
CONTINUOUS
 10
7.4743820885
 20
9.1371695021
 40
0.031
100
AcDbArc
 50
48.2918697478
 51
58.6688114185
  0
ARC
  5
325
100
AcDbEntity
  8
0
100
AcDbCircle
 62
7
  6
CONTINUOUS
 10
7.4743820885
 20
8.8071695021
 40
0.031
100
AcDbArc
 50
301.3353575732
 51
311.7081302522
  0
ARC
  5
326
100
AcDbEntity
  8
0
100
AcDbCircle
 62
7
  6
CONTINUOUS
 10
10.0328456949
 20
11.8493228543
 40
0.0301533521
100
AcDbArc
 50
98.1789688981
 51
270.0
  0
ARC
  5
327
100
AcDbEntity
  8
0
100
AcDbCircle
 62
7
  6
CONTINUOUS
 10
7.7888335666
 20
9.1560292096
 40
0.016
100
AcDbArc
 50
193.9592487751
 51
304.9005
  0
ARC
  5
328
100
AcDbEntity
  8
0
100
AcDbCircle
 62
7
  6
CONTINUOUS
 10
7.7888335666
 20
8.7883097946
 40
0.016
100
AcDbArc
 50
55.0995
 51
166.0407512249
  0
ARC
  5
329
100
AcDbEntity
  8
0
100
AcDbCircle
 62
7
  6
CONTINUOUS
 10
7.7573060859
 20
8.7921695021
 40
0.016
100
AcDbArc
 50
226.6958241997
 51
359.9999999958
  0
ARC
  5
32A
100
AcDbEntity
  8
0
100
AcDbCircle
 62
7
  6
CONTINUOUS
 10
7.7573060859
 20
9.1521695021
 40
0.016
100
AcDbArc
 50
0.0000000042
 51
133.3041758003
  0
ARC
  5
32B
100
AcDbEntity
  8
0
100
AcDbCircle
 62
7
  6
CONTINUOUS
 10
17.9530662571
 20
-9.5833798199
 40
19.3120172426
100
AcDbArc
 50
99.5956853916
 51
99.7553566034
  0
ARC
  5
32C
100
AcDbEntity
  8
0
100
AcDbCircle
 62
7
  6
CONTINUOUS
 10
14.0990265948
 20
9.2187558456
 40
2.7892932253
100
AcDbArc
 50
138.7143401574
 51
141.119169706
  0
ARC
  5
32D
100
AcDbEntity
  8
0
100
AcDbCircle
 62
7
  6
CONTINUOUS
 10
11.2617123508
 20
6.9616374993
 40
1.3
100
AcDbArc
 50
142.5617898182
 51
182.2248692774
  0
ARC
  5
32E
100
AcDbEntity
  8
0
100
AcDbCircle
 62
7
  6
CONTINUOUS
 10
11.028912749
 20
6.4082744624
 40
0.9
100
AcDbArc
 50
130.6439171763
 51
168.2748731243
  0
ARC
  5
32F
100
AcDbEntity
  8
0
100
AcDbCircle
 62
7
  6
CONTINUOUS
 10
13.6860685634
 20
9.0227815562
 40
0.7396912928
100
AcDbArc
 50
340.1272094608
 51
341.1775556657
  0
ARC
  5
330
100
AcDbEntity
  8
0
100
AcDbCircle
 62
7
  6
CONTINUOUS
 10
13.6888846793
 20
8.9225420832
 40
0.7367081468
100
AcDbArc
 50
18.7941726244
 51
19.8698311157
  0
ARC
  5
331
100
AcDbEntity
  8
0
100
AcDbCircle
 62
7
  6
CONTINUOUS
 10
13.8851534407
 20
8.3021728307
 40
0.625
100
AcDbArc
 50
325.0110095299
 51
355.1903004544
  0
ARC
  5
332
100
AcDbEntity
  8
0
100
AcDbCircle
 62
7
  6
CONTINUOUS
 10
11.0001923427
 20
7.1711695021
 40
0.4
100
AcDbArc
 50
0.0
 51
24.2209431093
  0
ARC
  5
333
100
AcDbEntity
  8
0
100
AcDbCircle
 62
7
  6
CONTINUOUS
 10
11.8443868875
 20
7.9038910159
 40
0.25
100
AcDbArc
 50
182.150412267
 51
217.4382101819
  0
ARC
  5
334
100
AcDbEntity
  8
0
100
AcDbCircle
 62
7
  6
CONTINUOUS
 10
13.8851923427
 20
8.9721695021
 40
0.25
100
AcDbArc
 50
55.0995
 51
304.9005
  0
ARC
  5
335
100
AcDbEntity
  8
0
100
AcDbCircle
 62
7
  6
CONTINUOUS
 10
11.0656713412
 20
7.4931695021
 40
0.188
100
AcDbArc
 50
11.0397144141
 51
89.9999999999
  0
ARC
  5
336
100
AcDbEntity
  8
0
100
AcDbCircle
 62
7
  6
CONTINUOUS
 10
13.9448284538
 20
6.5911695021
 40
0.1871361111
100
AcDbArc
 50
92.1854050713
 51
180.0
  0
ARC
  5
337
100
AcDbEntity
  8
0
100
AcDbCircle
 62
7
  6
CONTINUOUS
 10
14.1246896689
 20
6.7791695021
 40
0.187
100
AcDbArc
 50
90.0
 51
180.3063960032
  0
ARC
  5
338
100
AcDbEntity
  8
0
100
AcDbCircle
 62
7
  6
CONTINUOUS
 10
14.2566246208
 20
9.2991695021
 40
0.186
100
AcDbArc
 50
226.6958241998
 51
311.7081302521
  0
ARC
  5
339
100
AcDbEntity
  8
0
100
AcDbCircle
 62
7
  6
CONTINUOUS
 10
14.2566246208
 20
8.6451695021
 40
0.186
100
AcDbArc
 50
48.2918697479
 51
133.3041758002
  0
ARC
  5
33A
100
AcDbEntity
  8
0
100
AcDbCircle
 62
7
  6
CONTINUOUS
 10
14.1754178091
 20
7.5161304776
 40
0.1715245336
100
AcDbArc
 50
314.9173576842
 51
33.0478355064
  0
ARC
  5
33B
100
AcDbEntity
  8
0
100
AcDbCircle
 62
7
  6
CONTINUOUS
 10
11.5476923427
 20
10.1340026499
 40
0.15
100
AcDbArc
 50
330.0735651335
 51
360.0
  0
ARC
  5
33C
100
AcDbEntity
  8
0
100
AcDbCircle
 62
7
  6
CONTINUOUS
 10
11.2836923427
 20
7.4116695021
 40
0.1175
100
AcDbArc
 50
315.3512405942
 51
90.0
  0
ARC
  5
33D
100
AcDbEntity
  8
0
100
AcDbCircle
 62
7
  6
CONTINUOUS
 10
11.8641674007
 20
6.8401369698
 40
0.0860249421
100
AcDbArc
 50
0.0
 51
55.661576622
  0
ARC
  5
33E
100
AcDbEntity
  8
0
100
AcDbCircle
 62
7
  6
CONTINUOUS
 10
14.401002597
 20
9.1371695021
 40
0.031
100
AcDbArc
 50
121.335360728
 51
131.7081302522
  0
ARC
  5
33F
100
AcDbEntity
  8
0
100
AcDbCircle
 62
7
  6
CONTINUOUS
 10
14.401002597
 20
8.8071695021
 40
0.031
100
AcDbArc
 50
228.2918697478
 51
238.6688101961
  0
ARC
  5
340
100
AcDbEntity
  8
0
100
AcDbCircle
 62
7
  6
CONTINUOUS
 10
14.0865511189
 20
9.1560292096
 40
0.016
100
AcDbArc
 50
235.0995
 51
346.0407512249
  0
ARC
  5
341
100
AcDbEntity
  8
0
100
AcDbCircle
 62
7
  6
CONTINUOUS
 10
14.0865511189
 20
8.7883097946
 40
0.016
100
AcDbArc
 50
13.9592487751
 51
124.9005
  0
ARC
  5
342
100
AcDbEntity
  8
0
100
AcDbCircle
 62
7
  6
CONTINUOUS
 10
14.1180785996
 20
8.7921695021
 40
0.016
100
AcDbArc
 50
180.0000000042
 51
313.3041758003
  0
ARC
  5
343
100
AcDbEntity
  8
0
100
AcDbCircle
 62
7
  6
CONTINUOUS
 10
14.1180785996
 20
9.1521695021
 40
0.016
100
AcDbArc
 50
46.6958241997
 51
179.9999999958
  0
ARC
  5
344
100
AcDbEntity
  8
0
100
AcDbCircle
 62
7
  6
CONTINUOUS
 10
11.3558607276
 20
7.3311695021
 40
0.01
100
AcDbArc
 50
24.2209431092
 51
90.0
  0
ARC
  5
345
100
AcDbEntity
  8
0
100
AcDbCircle
 62
7
  6
CONTINUOUS
 10
11.8651923427
 20
11.6691695021
 40
0.15
100
AcDbArc
 50
65.3756816478
 51
90.0
  0
ARC
  5
346
100
AcDbEntity
  8
0
100
AcDbCircle
 62
7
  6
CONTINUOUS
 10
11.7976923427
 20
10.693430271
 40
0.1
100
AcDbArc
 50
135.6687919533
 51
180.0
  0
ARC
  5
347
100
AcDbEntity
  8
0
100
AcDbCircle
 62
7
  6
CONTINUOUS
 10
11.8425389906
 20
11.8493228543
 40
0.0301533521
100
AcDbArc
 50
270.0
 51
81.8210311019
  0
ARC
  5
348
100
AcDbEntity
  8
0
100
AcDbCircle
 62
7
  6
CONTINUOUS
 10
14.9376923427
 20
7.9224994867
 40
1.5506700155
100
AcDbArc
 50
103.0445666344
 51
104.7630312681
  0
ARC
  5
349
100
AcDbEntity
  8
0
100
AcDbCircle
 62
7
  6
CONTINUOUS
 10
14.9376923427
 20
7.9224994867
 40
1.5506700155
100
AcDbArc
 50
95.9223882245
 51
96.704432601
  0
ARC
  5
34A
100
AcDbEntity
  8
0
100
AcDbCircle
 62
7
  6
CONTINUOUS
 10
14.9376923427
 20
7.9224994867
 40
1.5506700155
100
AcDbArc
 50
100.5070286788
 51
101.2405411246
  0
ARC
  5
34B
100
AcDbEntity
  8
0
100
AcDbCircle
 62
7
  6
CONTINUOUS
 10
14.9376923427
 20
7.9224994867
 40
1.5506700155
100
AcDbArc
 50
88.836024953
 51
90.1108472106
  0
ARC
  5
34C
100
AcDbEntity
  8
0
100
AcDbCircle
 62
7
  6
CONTINUOUS
 10
14.9376923427
 20
7.9224994867
 40
1.5506700155
100
AcDbArc
 50
84.2280819996
 51
87.505151011
  0
ARC
  5
34D
100
AcDbEntity
  8
0
100
AcDbCircle
 62
7
  6
CONTINUOUS
 10
14.9376923427
 20
7.9224994867
 40
1.5506700155
100
AcDbArc
 50
82.589547494
 51
83.7418701747
  0
ARC
  5
34E
100
AcDbEntity
  8
0
100
AcDbCircle
 62
7
  6
CONTINUOUS
 10
14.9376923427
 20
7.9224994867
 40
1.5506700155
100
AcDbArc
 50
75.2369687319
 51
76.6120403141
  0
ARC
  5
34F
100
AcDbEntity
  8
0
100
AcDbCircle
 62
7
  6
CONTINUOUS
 10
14.9376923427
 20
7.9224994867
 40
1.5506700155
100
AcDbArc
 50
78.2452599138
 51
81.2354682493
  0
ARC
  5
350
100
AcDbEntity
  8
0
100
AcDbCircle
 62
7
  6
CONTINUOUS
 10
14.9376923427
 20
7.9224994867
 40
1.5496700155
100
AcDbArc
 50
77.4925274144
 51
78.0591795779
  0
ARC
  5
351
100
AcDbEntity
  8
0
100
AcDbCircle
 62
7
  6
CONTINUOUS
 10
14.9376923427
 20
7.9224994867
 40
1.5496700155
100
AcDbArc
 50
101.4639028364
 51
102.1588703004
  0
ARC
  5
352
100
AcDbEntity
  8
0
100
AcDbCircle
 62
7
  6
CONTINUOUS
 10
14.9376923427
 20
7.9224994867
 40
1.549469747
100
AcDbArc
 50
79.9593632588
 51
81.0040654587
  0
ARC
  5
353
100
AcDbEntity
  8
0
100
AcDbCircle
 62
7
  6
CONTINUOUS
 10
14.9376923427
 20
7.9224994867
 40
1.5494208609
100
AcDbArc
 50
85.5024540677
 51
86.3921798126
  0
ARC
  5
354
100
AcDbEntity
  8
0
100
AcDbCircle
 62
7
  6
CONTINUOUS
 10
14.9376923427
 20
7.9224994867
 40
1.5484689719
100
AcDbArc
 50
79.9528066769
 51
80.9982030894
  0
ARC
  5
355
100
AcDbEntity
  8
0
100
AcDbCircle
 62
7
  6
CONTINUOUS
 10
14.9376923427
 20
7.9224994867
 40
1.5484200542
100
AcDbArc
 50
85.49954113
 51
86.3898448421
  0
ARC
  5
356
100
AcDbEntity
  8
0
100
AcDbCircle
 62
7
  6
CONTINUOUS
 10
14.9376923427
 20
7.9224994867
 40
1.5483386247
100
AcDbArc
 50
84.0880697177
 51
89.6299506004
  0
ARC
  5
357
100
AcDbEntity
  8
0
100
AcDbCircle
 62
7
  6
CONTINUOUS
 10
14.9376923427
 20
7.9224994867
 40
1.5483386247
100
AcDbArc
 50
79.7882367111
 51
82.9513497128
  0
ARC
  5
358
100
AcDbEntity
  8
0
100
AcDbCircle
 62
7
  6
CONTINUOUS
 10
14.4901674638
 20
7.7209050989
 40
0.2039751211
100
AcDbArc
 50
145.0110095297
 51
213.0478355063
  0
ARC
  5
359
100
AcDbEntity
  8
0
100
AcDbCircle
 62
7
  6
CONTINUOUS
 10
15.3852172217
 20
7.7209050989
 40
0.2039751211
100
AcDbArc
 50
326.9521644937
 51
34.9889904703
  0
ARC
  5
35A
100
AcDbEntity
  8
0
100
AcDbCircle
 62
7
  6
CONTINUOUS
 10
15.9305562316
 20
6.5911695021
 40
0.1871361111
100
AcDbArc
 50
0.0
 51
87.8145949287
  0
ARC
  5
35B
100
AcDbEntity
  8
0
100
AcDbCircle
 62
7
  6
CONTINUOUS
 10
15.7506950166
 20
6.7791695021
 40
0.187
100
AcDbArc
 50
359.6936039968
 51
90.0
  0
ARC
  5
35C
100
AcDbEntity
  8
0
100
AcDbCircle
 62
7
  6
CONTINUOUS
 10
15.6999668764
 20
7.5161304776
 40
0.1715245336
100
AcDbArc
 50
146.9521644936
 51
225.0826423158
  0
ARC
  5
35D
100
AcDbEntity
  8
0
100
AcDbCircle
 62
7
  6
CONTINUOUS
 10
14.8987789876
 20
8.1577550474
 40
1.3122163765
100
AcDbArc
 50
96.2161682461
 51
96.9435981609
  0
ARC
  5
35E
100
AcDbEntity
  8
0
100
AcDbCircle
 62
7
  6
CONTINUOUS
 10
14.9687779947
 20
8.3316493009
 40
1.1403421762
100
AcDbArc
 50
83.0535751546
 51
83.4864024216
  0
ARC
  5
35F
100
AcDbEntity
  8
0
100
AcDbCircle
 62
7
  6
CONTINUOUS
 10
15.9902312448
 20
8.3021728307
 40
0.625
100
AcDbArc
 50
184.8096995456
 51
214.9889904701
  0
ARC
  5
360
100
AcDbEntity
  8
0
100
AcDbCircle
 62
7
  6
CONTINUOUS
 10
15.0664507641
 20
9.0497587259
 40
0.4160800944
100
AcDbArc
 50
85.6324201264
 51
86.2425603754
  0
ARC
  5
361
100
AcDbEntity
  8
0
100
AcDbCircle
 62
7
  6
CONTINUOUS
 10
15.0664504779
 20
9.0490222414
 40
0.4158118419
100
AcDbArc
 50
85.6295574429
 51
86.2409395049
  0
ARC
  5
362
100
AcDbEntity
  8
0
100
AcDbCircle
 62
7
  6
CONTINUOUS
 10
15.0664916302
 20
9.0503840646
 40
0.4154534218
100
AcDbArc
 50
86.2425325358
 51
86.8541357137
  0
ARC
  5
363
100
AcDbEntity
  8
0
100
AcDbCircle
 62
7
  6
CONTINUOUS
 10
15.0664925414
 20
9.0496605975
 40
0.4151721015
100
AcDbArc
 50
86.2409563147
 51
86.8529666115
  0
ARC
  5
364
100
AcDbEntity
  8
0
100
AcDbCircle
 62
7
  6
CONTINUOUS
 10
15.0665226639
 20
9.0509418315
 40
0.4148947924
100
AcDbArc
 50
86.8541878827
 51
87.4671824251
  0
ARC
  5
365
100
AcDbEntity
  8
0
100
AcDbCircle
 62
7
  6
CONTINUOUS
 10
15.0665219918
 20
9.050194017
 40
0.4146378696
100
AcDbArc
 50
86.8529834797
 51
87.4655190196
  0
ARC
  5
366
100
AcDbEntity
  8
0
100
AcDbCircle
 62
7
  6
CONTINUOUS
 10
15.2033297447
 20
9.6000711059
 40
0.1500038441
100
AcDbArc
 50
259.8700391318
 51
261.0426335457
  0
ARC
  5
367
100
AcDbEntity
  8
0
100
AcDbCircle
 62
7
  6
CONTINUOUS
 10
15.1070501083
 20
9.4155172874
 40
0.0481110923
100
AcDbArc
 50
94.2193312532
 51
101.8497569202
  0
ARC
  5
368
100
AcDbEntity
  8
0
100
AcDbCircle
 62
7
  6
CONTINUOUS
 10
15.1069007063
 20
9.417013394
 40
0.0466080646
100
AcDbArc
 50
90.2561443685
 51
94.1714846588
  0
ARC
  5
369
100
AcDbEntity
  8
0
100
AcDbCircle
 62
7
  6
CONTINUOUS
 10
14.5388434542
 20
8.2471695021
 40
0.031
100
AcDbArc
 50
90.0
 51
175.1903004544
  0
ARC
  5
36A
100
AcDbEntity
  8
0
100
AcDbCircle
 62
7
  6
CONTINUOUS
 10
15.3365412312
 20
8.2471695021
 40
0.031
100
AcDbArc
 50
4.8096995456
 51
90.0
  0
ARC
  5
36B
100
AcDbEntity
  8
0
100
AcDbCircle
 62
7
  6
CONTINUOUS
 10
15.3251923427
 20
9.3929691552
 40
0.03
100
AcDbArc
 50
10.1125936866
 51
75.2369687317
  0
ARC
  5
36C
100
AcDbEntity
  8
0
100
AcDbCircle
 62
7
  6
CONTINUOUS
 10
14.5501923427
 20
9.3929691552
 40
0.03
100
AcDbArc
 50
104.7630312683
 51
169.8874063134
  0
ARC
  5
36D
100
AcDbEntity
  8
0
100
AcDbCircle
 62
7
  6
CONTINUOUS
 10
17.9366715094
 20
8.9721695021
 40
0.3735208333
100
AcDbArc
 50
317.9864211384
 51
42.0135788616
  0
ARC
  5
36E
100
AcDbEntity
  8
0
100
AcDbCircle
 62
7
  6
CONTINUOUS
 10
14.6446450995
 20
14.1985560592
 40
4.7343953012
100
AcDbArc
 50
273.0815452893
 51
273.2370102629
  0
ARC
  5
36F
100
AcDbEntity
  8
0
100
AcDbCircle
 62
7
  6
CONTINUOUS
 10
14.7964939281
 20
11.4968691794
 40
2.0284448276
100
AcDbArc
 50
273.2637898454
 51
273.5244800196
  0
ARC
  5
370
100
AcDbEntity
  8
0
100
AcDbCircle
 62
7
  6
CONTINUOUS
 10
14.7069149697
 20
11.4037140547
 40
1.9401513654
100
AcDbArc
 50
272.5010828239
 51
272.9414572725
  0
ARC
  5
371
100
AcDbEntity
  8
0
100
AcDbCircle
 62
7
  6
CONTINUOUS
 10
14.8567095353
 20
10.5348234261
 40
1.0645173434
100
AcDbArc
 50
273.472811852
 51
274.1909701424
  0
ARC
  5
372
100
AcDbEntity
  8
0
100
AcDbCircle
 62
7
  6
CONTINUOUS
 10
14.9429348182
 20
10.4777124849
 40
1.0057867783
100
AcDbArc
 50
270.2710187658
 51
270.7712465198
  0
SPLINE
  5
373
100
AcDbEntity
  8
0
100
AcDbSpline
 62
7
  6
CONTINUOUS
 70
0
 71
3
 72
11
 73
7
 74
0
 42
0.0000001
 43
0.0000001
 44
0.0000000001
 40
0.0
 40
0.0
 40
0.0
 40
0.0
 40
0.2326538662
 40
0.4802803609
 40
0.7379522233
 40
1.0
 40
1.0
 40
1.0
 40
1.0
 10
11.5762205717
 20
11.7356951319
 30
0.0
 10
11.5762198355
 20
11.7305355073
 30
0.0
 10
11.5763593478
 20
11.7198844539
 30
0.0
 10
11.5767082978
 20
11.7035225874
 30
0.0
 10
11.5769819323
 20
11.6865069876
 30
0.0
 10
11.5770613863
 20
11.6749810031
 30
0.0
 10
11.5770613863
 20
11.6691695021
 30
0.0
  0
SPLINE
  5
374
100
AcDbEntity
  8
0
100
AcDbSpline
 62
7
  6
CONTINUOUS
 70
0
 71
3
 72
11
 73
7
 74
0
 42
0.0000001
 43
0.0000001
 44
0.0000000001
 40
0.0
 40
0.0
 40
0.0
 40
0.0
 40
0.2620300159
 40
0.5197023434
 40
0.7673431887
 40
1.0
 40
1.0
 40
1.0
 40
1.0
 10
10.2983232992
 20
11.6691695021
 30
0.0
 10
10.2983232992
 20
11.6749806239
 30
0.0
 10
10.2984029679
 20
11.686506252
 30
0.0
 10
10.2986763105
 20
11.703521835
 30
0.0
 10
10.2990255349
 20
11.7198841283
 30
0.0
 10
10.2991653466
 20
11.7305355957
 30
0.0
 10
10.29916424
 20
11.7356952987
 30
0.0
  0
SPLINE
  5
375
100
AcDbEntity
  8
0
100
AcDbSpline
 62
7
  6
CONTINUOUS
 70
0
 71
3
 72
17
 73
13
 74
0
 42
0.0000001
 43
0.0000001
 44
0.0000000001
 40
0.0
 40
0.0
 40
0.0
 40
0.0
 40
0.0984997464
 40
0.1965005949
 40
0.2930556002
 40
0.3873024716
 40
0.4782822739
 40
0.5647895054
 40
0.6455581296
 40
0.7194279625
 40
0.9304075596
 40
1.0
 40
1.0
 40
1.0
 40
1.0
 10
9.8723147386
 20
11.6691695021
 30
0.0
 10
9.8723147386
 20
11.6745212869
 30
0.0
 10
9.8728349361
 20
11.6852043895
 30
0.0
 10
9.8751151526
 20
11.7009862872
 30
0.0
 10
9.8788467809
 20
11.7162522973
 30
0.0
 10
9.8838598197
 20
11.7307418322
 30
0.0
 10
9.8899720953
 20
11.7442039902
 30
0.0
 10
9.896890236
 20
11.7564319753
 30
0.0
 10
9.9043254151
 20
11.7672424343
 30
0.0
 10
9.9168762712
 20
11.7826490257
 30
0.0
 10
9.9314056976
 20
11.7956660146
 30
0.0
 10
9.9443883396
 20
11.8036932666
 30
0.0
 10
9.9476923427
 20
11.8055284036
 30
0.0
  0
SPLINE
  5
376
100
AcDbEntity
  8
0
100
AcDbSpline
 62
7
  6
CONTINUOUS
 70
0
 71
3
 72
24
 73
20
 74
0
 42
0.0000001
 43
0.0000001
 44
0.0000000001
 40
0.0
 40
0.0
 40
0.0
 40
0.0
 40
0.0043112973
 40
0.0172897001
 40
0.0390114589
 40
0.069559078
 40
0.1090642455
 40
0.1576148451
 40
0.2149852212
 40
0.2809751663
 40
0.354824632
 40
0.4355455621
 40
0.4781669419
 40
0.5220584654
 40
0.6129771065
 40
0.7071756493
 40
0.803683915
 40
0.9016086831
 40
1.0
 40
1.0
 40
1.0
 40
1.0
 10
11.9276923427
 20
11.8055284036
 30
0.0
 10
11.9278984894
 20
11.8054168666
 30
0.0
 10
11.9287220115
 20
11.8049638171
 30
0.0
 10
11.9305560554
 20
11.8038984776
 30
0.0
 10
11.9335910389
 20
11.8020621463
 30
0.0
 10
11.9377719521
 20
11.7993371147
 30
0.0
 10
11.9430056667
 20
11.7955670974
 30
0.0
 10
11.9491762445
 20
11.7906180439
 30
0.0
 10
11.956084729
 20
11.7843134394
 30
0.0
 10
11.9634779988
 20
11.7765363821
 30
0.0
 10
11.9710680642
 20
11.7672385507
 30
0.0
 10
11.9771446755
 20
11.7583899732
 30
0.0
 10
11.9818004023
 20
11.7505784606
 30
0.0
 10
11.9863757399
 20
11.7420840194
 30
0.0
 10
11.9915297764
 20
11.7307305189
 30
0.0
 10
11.9965397944
 20
11.7162407298
 30
0.0
 10
12.0002717354
 20
11.7009754267
 30
0.0
 10
12.0025490818
 20
11.6851971033
 30
0.0
 10
12.0030699469
 20
11.6745183063
 30
0.0
 10
12.0030699469
 20
11.6691695021
 30
0.0
  0
SPLINE
  5
377
100
AcDbEntity
  8
0
100
AcDbSpline
 62
7
  6
CONTINUOUS
 70
0
 71
3
 72
39
 73
35
 74
0
 42
0.0000001
 43
0.0000001
 44
0.0000000001
 40
0.0
 40
0.0
 40
0.0
 40
0.0
 40
0.0394030312
 40
0.0788879675
 40
0.1183730079
 40
0.1578294393
 40
0.197273141
 40
0.236727045
 40
0.2761605541
 40
0.2958531775
 40
0.3155105349
 40
0.3546633615
 40
0.3934844801
 40
0.431767661
 40
0.4693612263
 40
0.541629387
 40
0.5759973415
 40
0.6089472545
 40
0.6403317722
 40
0.6700374462
 40
0.697947242
 40
0.723981096
 40
0.7481044805
 40
0.7703400586
 40
0.7908493866
 40
0.8099744258
 40
0.8282872106
 40
0.8466445931
 40
0.8660364877
 40
0.8873757612
 40
0.9112553882
 40
0.9380119198
 40
0.9676769825
 40
1.0
 40
1.0
 40
1.0
 40
1.0
 10
11.8049947561
 20
11.6691695021
 30
0.0
 10
11.8049947561
 20
11.6737948411
 30
0.0
 10
11.8044909967
 20
11.6830627053
 30
0.0
 10
11.8022455223
 20
11.6968015419
 30
0.0
 10
11.7985104177
 20
11.7102217131
 30
0.0
 10
11.7933125102
 20
11.7231403087
 30
0.0
 10
11.7867123556
 20
11.7353991943
 30
0.0
 10
11.7787684962
 20
11.7468285894
 30
0.0
 10
11.7711458805
 20
11.7555678081
 30
0.0
 10
11.7645204989
 20
11.762025471
 30
0.0
 10
11.7575813919
 20
11.7680949566
 30
0.0
 10
11.7483825104
 20
11.7749646174
 30
0.0
 10
11.7367101645
 20
11.7820707496
 30
0.0
 10
11.724620663
 20
11.78803438
 30
0.0
 10
11.7084554849
 20
11.7944814265
 30
0.0
 10
11.6921211614
 20
11.7991301755
 30
0.0
 10
11.6760352233
 20
11.802270051
 30
0.0
 10
11.6645640169
 20
11.8039324133
 30
0.0
 10
11.6535736288
 20
11.8050073497
 30
0.0
 10
11.6431357861
 20
11.8055335652
 30
0.0
 10
11.6333126047
 20
11.8055661073
 30
0.0
 10
11.6241552931
 20
11.8050891734
 30
0.0
 10
11.6157111609
 20
11.8040679968
 30
0.0
 10
11.6080131492
 20
11.8024736894
 30
0.0
 10
11.6010927949
 20
11.8002056506
 30
0.0
 10
11.5949829813
 20
11.7971450615
 30
0.0
 10
11.5897321019
 20
11.7931584925
 30
0.0
 10
11.5853939077
 20
11.7881458348
 30
0.0
 10
11.5819994457
 20
11.7820470488
 30
0.0
 10
11.5795254077
 20
11.7748464935
 30
0.0
 10
11.5778231466
 20
11.7665545268
 30
0.0
 10
11.576789833
 20
11.7571758959
 30
0.0
 10
11.5762938131
 20
11.7467665397
 30
0.0
 10
11.5762211131
 20
11.7394893809
 30
0.0
 10
11.5762205717
 20
11.7356951319
 30
0.0
  0
SPLINE
  5
378
100
AcDbEntity
  8
0
100
AcDbSpline
 62
7
  6
CONTINUOUS
 70
0
 71
3
 72
30
 73
26
 74
0
 42
0.0000001
 43
0.0000001
 44
0.0000000001
 40
0.0
 40
0.0
 40
0.0
 40
0.0
 40
0.0813579753
 40
0.1627145896
 40
0.2435885734
 40
0.3233527337
 40
0.4011369386
 40
0.47578943
 40
0.5115235688
 40
0.5459443848
 40
0.5788838837
 40
0.6102089658
 40
0.6398461367
 40
0.6678039307
 40
0.6941822628
 40
0.719169979
 40
0.7430283707
 40
0.7660584769
 40
0.7885664965
 40
0.8108376484
 40
0.8331137324
 40
0.8555858073
 40
0.9016040919
 40
0.9496497689
 40
1.0
 40
1.0
 40
1.0
 40
1.0
 10
10.0703899294
 20
11.0591695021
 30
0.0
 10
10.0765385322
 20
11.0537682282
 30
0.0
 10
10.0890153319
 20
11.0431678737
 30
0.0
 10
10.1082706886
 20
11.028003605
 30
0.0
 10
10.128033326
 20
11.0137750962
 30
0.0
 10
10.1482020204
 20
11.0007722402
 30
0.0
 10
10.1686076793
 20
10.9893696927
 30
0.0
 10
10.1858401526
 20
10.9814651232
 30
0.0
 10
10.1995245014
 20
10.9764518974
 30
0.0
 10
10.2094653782
 20
10.9734723004
 30
0.0
 10
10.2191565882
 20
10.9712801537
 30
0.0
 10
10.2285167041
 20
10.969928851
 30
0.0
 10
10.2374627192
 20
10.9694544671
 30
0.0
 10
10.2459160936
 20
10.9698726079
 30
0.0
 10
10.2538076101
 20
10.9711772097
 30
0.0
 10
10.261081191
 20
10.9733397292
 30
0.0
 10
10.2676974869
 20
10.9763099584
 30
0.0
 10
10.2736345544
 20
10.9800234727
 30
0.0
 10
10.2788878383
 20
10.9844066099
 30
0.0
 10
10.2834690772
 20
10.9893823339
 30
0.0
 10
10.2874001342
 20
10.9948789953
 30
0.0
 10
10.291847058
 20
11.0028720146
 30
0.0
 10
10.2959209743
 20
11.0139448935
 30
0.0
 10
10.298631919
 20
11.0282656344
 30
0.0
 10
10.2991641431
 20
11.0381777725
 30
0.0
 10
10.2991642597
 20
11.043242673
 30
0.0
  0
SPLINE
  5
379
100
AcDbEntity
  8
0
100
AcDbSpline
 62
7
  6
CONTINUOUS
 70
0
 71
3
 72
21
 73
17
 74
0
 42
0.0000001
 43
0.0000001
 44
0.0000000001
 40
0.0
 40
0.0
 40
0.0
 40
0.0
 40
0.1143910108
 40
0.1741407521
 40
0.2357520946
 40
0.2993213028
 40
0.3648128984
 40
0.4319268609
 40
0.4999999114
 40
0.5680728646
 40
0.6351868982
 40
0.700678385
 40
0.7642475594
 40
0.8258589489
 40
0.8856087475
 40
1.0
 40
1.0
 40
1.0
 40
1.0
 10
10.7765191113
 20
11.0591695021
 30
0.0
 10
10.7851360827
 20
11.0474087839
 30
0.0
 10
10.7998268597
 20
11.0305687051
 30
0.0
 10
10.8225692927
 20
11.0108750535
 30
0.0
 10
10.8419258655
 20
10.9973402935
 30
0.0
 10
10.8633560862
 20
10.9857567167
 30
0.0
 10
10.8867546863
 20
10.9767322932
 30
0.0
 10
10.9117607259
 20
10.9709367903
 30
0.0
 10
10.9376922972
 20
10.9689310841
 30
0.0
 10
10.9636238768
 20
10.970936782
 30
0.0
 10
10.9886299061
 20
10.9767322556
 30
0.0
 10
11.0120284987
 20
10.9857566733
 30
0.0
 10
11.0334587173
 20
10.9973402277
 30
0.0
 10
11.0528153053
 20
11.0108749819
 30
0.0
 10
11.0755577828
 20
11.0305686499
 30
0.0
 10
11.0902485846
 20
11.047408759
 30
0.0
 10
11.0988655742
 20
11.0591695021
 30
0.0
  0
SPLINE
  5
37A
100
AcDbEntity
  8
0
100
AcDbSpline
 62
7
  6
CONTINUOUS
 70
0
 71
3
 72
43
 73
39
 74
0
 42
0.0000001
 43
0.0000001
 44
0.0000000001
 40
0.0
 40
0.0
 40
0.0
 40
0.0
 40
0.0330338295
 40
0.065838131
 40
0.0980621029
 40
0.1295049349
 40
0.1601100417
 40
0.1899668335
 40
0.2046884579
 40
0.2193181597
 40
0.2484842921
 40
0.2631317254
 40
0.2778691624
 40
0.3077417898
 40
0.3383021942
 40
0.3695852757
 40
0.4015409962
 40
0.4340326187
 40
0.4668953704
 40
0.4999524253
 40
0.533009371
 40
0.5658782653
 40
0.5983832356
 40
0.6303473695
 40
0.6616443802
 40
0.692221329
 40
0.7221067104
 40
0.7368512932
 40
0.7515057673
 40
0.7806830932
 40
0.7953163652
 40
0.8100404569
 40
0.8399007279
 40
0.8705062197
 40
0.9019457402
 40
0.9341651503
 40
0.9669668199
 40
1.0
 40
1.0
 40
1.0
 40
1.0
 10
11.0988655742
 20
11.6691695021
 30
0.0
 10
11.0988655742
 20
11.6745170256
 30
0.0
 10
11.0984415309
 20
11.6851801142
 30
0.0
 10
11.0965034096
 20
11.7009542438
 30
0.0
 10
11.0932204308
 20
11.7162457169
 30
0.0
 10
11.08852296
 20
11.7307972062
 30
0.0
 10
11.0823228714
 20
11.7443617482
 30
0.0
 10
11.0758411612
 20
11.7547125316
 30
0.0
 10
11.0699031701
 20
11.7622463743
 30
0.0
 10
11.0634950055
 20
11.7692325523
 30
0.0
 10
11.0563381257
 20
11.7754798941
 30
0.0
 10
11.0485740335
 20
11.7809264201
 30
0.0
 10
11.0403552128
 20
11.7858866402
 30
0.0
 10
11.0293458206
 20
11.7911447359
 30
0.0
 10
11.0153118917
 20
11.7960603663
 30
0.0
 10
11.0005722615
 20
11.7997780018
 30
0.0
 10
10.9852977249
 20
11.8024569792
 30
0.0
 10
10.9696423065
 20
11.8042698161
 30
0.0
 10
10.953739285
 20
11.8053063133
 30
0.0
 10
10.9377157495
 20
11.8056392145
 30
0.0
 10
10.9216907811
 20
11.8053131677
 30
0.0
 10
10.9057854148
 20
11.8042668113
 30
0.0
 10
10.8901239393
 20
11.8024681374
 30
0.0
 10
10.874843605
 20
11.7997867984
 30
0.0
 10
10.8600986187
 20
11.7960653753
 30
0.0
 10
10.8460565383
 20
11.791152356
 30
0.0
 10
10.8350402065
 20
11.7858944053
 30
0.0
 10
10.8268190526
 20
11.7809295564
 30
0.0
 10
10.819052053
 20
11.7754801123
 30
0.0
 10
10.8118917067
 20
11.7692315074
 30
0.0
 10
10.8054801014
 20
11.7622446855
 30
0.0
 10
10.7995403467
 20
11.7547101998
 30
0.0
 10
10.7930599221
 20
11.744357324
 30
0.0
 10
10.7868601213
 20
11.730792673
 30
0.0
 10
10.7821631172
 20
11.7162422718
 30
0.0
 10
10.778881105
 20
11.7009523388
 30
0.0
 10
10.7769432282
 20
11.6851794762
 30
0.0
 10
10.7765191113
 20
11.6745169205
 30
0.0
 10
10.7765191113
 20
11.6691695021
 30
0.0
  0
SPLINE
  5
37B
100
AcDbEntity
  8
0
100
AcDbSpline
 62
7
  6
CONTINUOUS
 70
0
 71
3
 72
38
 73
34
 74
0
 42
0.0000001
 43
0.0000001
 44
0.0000000001
 40
0.0
 40
0.0
 40
0.0
 40
0.0
 40
0.0323248383
 40
0.061989367
 40
0.0887478803
 40
0.1126255567
 40
0.1339563234
 40
0.1533401565
 40
0.1716925388
 40
0.190003102
 40
0.209117373
 40
0.2296140924
 40
0.2518451238
 40
0.2759588048
 40
0.3019857822
 40
0.3298945257
 40
0.3595959491
 40
0.3909868582
 40
0.4583008787
 40
0.4939196125
 40
0.5306465732
 40
0.5682553073
 40
0.6065571498
 40
0.6454017141
 40
0.6845726554
 40
0.7042365595
 40
0.7239342911
 40
0.7633760166
 40
0.802836392
 40
0.8422818514
 40
0.8817368976
 40
0.9212212777
 40
1.0
 40
1.0
 40
1.0
 40
1.0
 10
10.29916424
 20
11.7356952987
 30
0.0
 10
10.2991634263
 20
11.7394893779
 30
0.0
 10
10.2990902683
 20
11.7467659474
 30
0.0
 10
10.2985941953
 20
11.7571746101
 30
0.0
 10
10.2975627543
 20
11.7665523735
 30
0.0
 10
10.2958627537
 20
11.7748429851
 30
0.0
 10
10.2933884602
 20
11.782040473
 30
0.0
 10
10.2899961441
 20
11.7881362167
 30
0.0
 10
10.2856648043
 20
11.7931515487
 30
0.0
 10
10.2804160608
 20
11.7971369516
 30
0.0
 10
10.2743094057
 20
11.8001954311
 30
0.0
 10
10.2673936619
 20
11.8024635213
 30
0.0
 10
10.2597018762
 20
11.8040686498
 30
0.0
 10
10.2512602312
 20
11.8050858622
 30
0.0
 10
10.2421060828
 20
11.8055592805
 30
0.0
 10
10.2322853363
 20
11.8055412128
 30
0.0
 10
10.2218481082
 20
11.805009646
 30
0.0
 10
10.206845326
 20
11.8035383715
 30
0.0
 10
10.1912668263
 20
11.8009154637
 30
0.0
 10
10.1753708819
 20
11.7968801474
 30
0.0
 10
10.1630707965
 20
11.7929420878
 30
0.0
 10
10.1507785725
 20
11.7880427763
 30
0.0
 10
10.1386854013
 20
11.7820753536
 30
0.0
 10
10.1270086162
 20
11.7749654787
 30
0.0
 10
10.1178051857
 20
11.7680945415
 30
0.0
 10
10.1108630726
 20
11.7620245815
 30
0.0
 10
10.1042361652
 20
11.755566433
 30
0.0
 10
10.0966140675
 20
11.7468252134
 30
0.0
 10
10.0886703525
 20
11.7353949967
 30
0.0
 10
10.0820699818
 20
11.723137592
 30
0.0
 10
10.0768732629
 20
11.7102174095
 30
0.0
 10
10.071901327
 20
11.6923589068
 30
0.0
 10
10.0703899294
 20
11.6784160362
 30
0.0
 10
10.0703899294
 20
11.6691695021
 30
0.0
  0
SPLINE
  5
37C
100
AcDbEntity
  8
0
100
AcDbSpline
 62
7
  6
CONTINUOUS
 70
0
 71
3
 72
30
 73
26
 74
0
 42
0.0000001
 43
0.0000001
 44
0.0000000001
 40
0.0
 40
0.0
 40
0.0
 40
0.0
 40
0.0503501105
 40
0.0983957565
 40
0.1444140062
 40
0.166886098
 40
0.1891621812
 40
0.2114333345
 40
0.2339413561
 40
0.2569715638
 40
0.2808299408
 40
0.3058175815
 40
0.3321959429
 40
0.3601537663
 40
0.3897908847
 40
0.4211158975
 40
0.4540554916
 40
0.4884762847
 40
0.5242102531
 40
0.5988626985
 40
0.6766468488
 40
0.7564110556
 40
0.837285082
 40
0.9186418762
 40
1.0
 40
1.0
 40
1.0
 40
1.0
 10
11.5762204276
 20
11.0432426746
 30
0.0
 10
11.5762205431
 20
11.0381777863
 30
0.0
 10
11.5767527681
 20
11.0282656636
 30
0.0
 10
11.5794636998
 20
11.0139449398
 30
0.0
 10
11.5835376046
 20
11.0028720618
 30
0.0
 10
11.587984523
 20
10.9948790415
 30
0.0
 10
11.5919155765
 20
10.9893823758
 30
0.0
 10
11.596496807
 20
10.9844066437
 30
0.0
 10
11.6017500965
 20
10.9800234955
 30
0.0
 10
11.6076871739
 20
10.9763099813
 30
0.0
 10
11.6143034617
 20
10.9733397307
 30
0.0
 10
11.6215770406
 20
10.9711772245
 30
0.0
 10
11.6294685525
 20
10.9698726093
 30
0.0
 10
11.6379219282
 20
10.9694544674
 30
0.0
 10
11.6468679338
 20
10.9699288481
 30
0.0
 10
11.6562280489
 20
10.9712801398
 30
0.0
 10
11.6659192573
 20
10.9734722947
 30
0.0
 10
11.6758601294
 20
10.9764518727
 30
0.0
 10
11.6895444541
 20
10.9814650952
 30
0.0
 10
11.7067769082
 20
10.9893696402
 30
0.0
 10
11.7271825649
 20
11.0007721813
 30
0.0
 10
11.747351267
 20
11.0137750318
 30
0.0
 10
11.7671139299
 20
11.0280035517
 30
0.0
 10
11.7863693187
 20
11.0431678404
 30
0.0
 10
11.798846142
 20
11.0537682184
 30
0.0
 10
11.8049947561
 20
11.0591695021
 30
0.0
  0
LINE
  5
37D
100
AcDbEntity
  8
0
100
AcDbLine
 62
7
  6
CONTINUOUS
 10
15.2853774559
 20
9.4331121112
 11
15.2722011232
 21
9.4355101552
  0
LINE
  5
37E
100
AcDbEntity
  8
0
100
AcDbLine
 62
7
  6
CONTINUOUS
 10
14.5876923427
 20
9.433154145
 11
14.5984544169
 21
9.4350527764
  0
LINE
  5
37F
100
AcDbEntity
  8
0
100
AcDbLine
 62
7
  6
CONTINUOUS
 10
14.5984544169
 20
9.4350527764
 11
14.6113150172
 21
9.4373185049
  0
LINE
  5
380
100
AcDbEntity
  8
0
100
AcDbLine
 62
7
  6
CONTINUOUS
 10
14.6113150172
 20
9.4373185049
 11
14.631469499
 21
9.4408491768
  0
LINE
  5
381
100
AcDbEntity
  8
0
100
AcDbLine
 62
7
  6
CONTINUOUS
 10
14.631469499
 20
9.4408491768
 11
14.6430342788
 21
9.4428626382
  0
LINE
  5
382
100
AcDbEntity
  8
0
100
AcDbLine
 62
7
  6
CONTINUOUS
 10
14.6430342788
 20
9.4428626382
 11
14.6552916138
 21
9.4449886065
  0
LINE
  5
383
100
AcDbEntity
  8
0
100
AcDbLine
 62
7
  6
CONTINUOUS
 10
14.6552916138
 20
9.4449886065
 11
14.6691741976
 21
9.4473872892
  0
LINE
  5
384
100
AcDbEntity
  8
0
100
AcDbLine
 62
7
  6
CONTINUOUS
 10
14.6691741976
 20
9.4473872892
 11
14.6808063238
 21
9.4493899446
  0
LINE
  5
385
100
AcDbEntity
  8
0
100
AcDbLine
 62
7
  6
CONTINUOUS
 10
14.733859263
 20
9.4584351227
 11
14.7409267788
 21
9.4596258935
  0
LINE
  5
386
100
AcDbEntity
  8
0
100
AcDbLine
 62
7
  6
CONTINUOUS
 10
14.7409267788
 20
9.4596258935
 11
14.7470174051
 21
9.4606475596
  0
LINE
  5
387
100
AcDbEntity
  8
0
100
AcDbLine
 62
7
  6
CONTINUOUS
 10
14.7470174051
 20
9.4606475596
 11
14.7522636169
 21
9.4615228151
  0
LINE
  5
388
100
AcDbEntity
  8
0
100
AcDbLine
 62
7
  6
CONTINUOUS
 10
14.7522636169
 20
9.4615228151
 11
14.7566923427
 21
9.4622561797
  0
LINE
  5
389
100
AcDbEntity
  8
0
100
AcDbLine
 62
7
  6
CONTINUOUS
 10
14.7776923487
 20
9.4648929186
 11
14.7915798154
 21
9.4654108833
  0
LINE
  5
38A
100
AcDbEntity
  8
0
100
AcDbLine
 62
7
  6
CONTINUOUS
 10
14.8064749353
 20
9.4661188612
 11
14.8159336543
 21
9.4666048766
  0
LINE
  5
38B
100
AcDbEntity
  8
0
100
AcDbLine
 62
7
  6
CONTINUOUS
 10
14.8159336543
 20
9.4666048766
 11
14.8266569815
 21
9.4671654345
  0
LINE
  5
38C
100
AcDbEntity
  8
0
100
AcDbLine
 62
7
  6
CONTINUOUS
 10
14.8266569815
 20
9.4671654345
 11
14.8868073098
 21
9.4703454616
  0
LINE
  5
38D
100
AcDbEntity
  8
0
100
AcDbLine
 62
7
  6
CONTINUOUS
 10
14.8868073098
 20
9.4703454616
 11
14.8991528685
 21
9.4710065181
  0
LINE
  5
38E
100
AcDbEntity
  8
0
100
AcDbLine
 62
7
  6
CONTINUOUS
 10
14.9345055472
 20
9.4731525943
 11
14.9346923428
 21
9.4731666002
  0
SPLINE
  5
38F
100
AcDbEntity
  8
0
100
AcDbSpline
 62
7
  6
CONTINUOUS
 70
0
 71
3
 72
69
 73
65
 74
0
 42
0.0000001
 43
0.0000001
 44
0.0000000001
 40
0.0
 40
0.0
 40
0.0
 40
0.0
 40
0.0625069941
 40
0.125013991
 40
0.187520984
 40
0.2500279807
 40
0.3125349797
 40
0.3750419762
 40
0.4062960193
 40
0.4375500628
 40
0.4688041059
 40
0.5000581489
 40
0.5313121921
 40
0.5625662354
 40
0.5938202788
 40
0.6094473683
 40
0.6250744577
 40
0.6407015474
 40
0.6563286377
 40
0.6719557272
 40
0.6797692796
 40
0.6875828323
 40
0.6953963868
 40
0.7032099424
 40
0.7110234904
 40
0.7188370451
 40
0.7227438331
 40
0.7266505896
 40
0.7286039638
 40
0.7305573667
 40
0.7325108168
 40
0.7344642567
 40
0.7364175938
 40
0.7383708176
 40
0.7393475478
 40
0.7403245281
 40
0.7413015422
 40
0.7422780942
 40
0.7432543851
 40
0.7442311382
 40
0.7452079698
 40
0.746184655
 40
0.7471613274
 40
0.7481380162
 40
0.7500913987
 40
0.7520447691
 40
0.7539981456
 40
0.7579048993
 40
0.7618116512
 40
0.765718363
 40
0.7696250755
 40
0.7735318071
 40
0.781344959
 40
0.7891580925
 40
0.7969712275
 40
0.8125950214
 40
0.8282188129
 40
0.843842604
 40
0.8594664258
 40
0.8750901266
 40
0.9063178485
 40
0.9375454198
 40
0.9687727153
 40
1.0
 40
1.0
 40
1.0
 40
1.0
 10
15.8251923427
 20
9.2536695021
 30
0.0
 10
15.8743324479
 20
9.2514203013
 30
0.0
 10
15.9726697455
 20
9.2480826087
 30
0.0
 10
16.1202495842
 20
9.246559554
 30
0.0
 10
16.2678250885
 20
9.2485205151
 30
0.0
 10
16.4153130152
 20
9.2539660849
 30
0.0
 10
16.5626308901
 20
9.2628923006
 30
0.0
 10
16.685187687
 20
9.2732272591
 30
0.0
 10
16.78306377
 20
9.2832295032
 30
0.0
 10
16.8563781906
 20
9.2915973706
 30
0.0
 10
16.9295886083
 20
9.3008301784
 30
0.0
 10
17.0026849352
 20
9.3109267418
 30
0.0
 10
17.0756569835
 20
9.321885514
 30
0.0
 10
17.1484945235
 20
9.3337049826
 30
0.0
 10
17.2090721674
 20
9.3442705333
 30
0.0
 10
17.2574566044
 20
9.3531515904
 30
0.0
 10
17.293705107
 20
9.3600265085
 30
0.0
 10
17.3299123866
 20
9.3671152695
 30
0.0
 10
17.366077193
 20
9.3744176107
 30
0.0
 10
17.3961781083
 20
9.3806807066
 30
0.0
 10
17.420236286
 20
9.3857978087
 30
0.0
 10
17.4382685337
 20
9.3896888603
 30
0.0
 10
17.4562892328
 20
9.3936330548
 30
0.0
 10
17.4742982572
 20
9.3976302033
 30
0.0
 10
17.4922952799
 20
9.4016810502
 30
0.0
 10
17.507282698
 20
9.4051013484
 30
0.0
 10
17.5192670317
 20
9.4078619074
 30
0.0
 10
17.5267541139
 20
9.4096007191
 30
0.0
 10
17.532742063
 20
9.4109991194
 30
0.0
 10
17.5372327397
 20
9.4120494045
 30
0.0
 10
17.541723733
 20
9.4130985662
 30
0.0
 10
17.5462137852
 20
9.4141515124
 30
0.0
 10
17.5507014612
 20
9.4152138424
 30
0.0
 10
17.5544367283
 20
9.4161175663
 30
0.0
 10
17.5574281472
 20
9.416828292
 30
0.0
 10
17.5596768853
 20
9.4173409603
 30
0.0
 10
17.5619266118
 20
9.4178484168
 30
0.0
 10
17.5641684135
 20
9.4183887419
 30
0.0
 10
17.5663902561
 20
9.4190061072
 30
0.0
 10
17.5685933587
 20
9.4196865872
 30
0.0
 10
17.570799861
 20
9.4203569524
 30
0.0
 10
17.5730157874
 20
9.420995328
 30
0.0
 10
17.5752346873
 20
9.4216226468
 30
0.0
 10
17.5781953168
 20
9.4224517166
 30
0.0
 10
17.5819013929
 20
9.4234691457
 30
0.0
 10
17.5863595526
 20
9.4246498465
 30
0.0
 10
17.5923185895
 20
9.4261669403
 30
0.0
 10
17.5997933191
 20
9.4279599148
 30
0.0
 10
17.6087994046
 20
9.429953041
 30
0.0
 10
17.6178391887
 20
9.4317872431
 30
0.0
 10
17.6269104042
 20
9.4334591818
 30
0.0
 10
17.6390430044
 20
9.4354712588
 30
0.0
 10
17.6542732826
 20
9.4375798068
 30
0.0
 10
17.6726278847
 20
9.4394564915
 30
0.0
 10
17.697171437
 20
9.4410829708
 30
0.0
 10
17.7279373555
 20
9.4414707437
 30
0.0
 10
17.7647909289
 20
9.4393008038
 30
0.0
 10
17.8013961656
 20
9.4345060878
 30
0.0
 10
17.8375672241
 20
9.4271104113
 30
0.0
 10
17.884945832
 20
9.4138437714
 30
0.0
 10
17.942215764
 20
9.3909579512
 30
0.0
 10
18.0063026396
 20
9.3540082487
 30
0.0
 10
18.0644514853
 20
9.3082964877
 30
0.0
 10
18.0985369491
 20
9.2726127473
 30
0.0
 10
18.1141923427
 20
9.2536695021
 30
0.0
  0
LINE
  5
390
100
AcDbEntity
  8
0
100
AcDbLine
 62
7
  6
CONTINUOUS
 10
15.2121923427
 20
9.4463112358
 11
15.2533776747
 21
9.4388775114
  0
LINE
  5
391
100
AcDbEntity
  8
0
100
AcDbLine
 62
7
  6
CONTINUOUS
 10
15.2533776747
 20
9.4388775114
 11
15.254861469
 21
9.4386091686
  0
LINE
  5
392
100
AcDbEntity
  8
0
100
AcDbLine
 62
7
  6
CONTINUOUS
 10
15.254861469
 20
9.4386091686
 11
15.2723824203
 21
9.4354380001
  0
LINE
  5
393
100
AcDbEntity
  8
0
100
AcDbLine
 62
7
  6
CONTINUOUS
 10
15.2723824203
 20
9.4354380001
 11
15.2856004977
 21
9.4330437433
  0
LINE
  5
394
100
AcDbEntity
  8
0
100
AcDbLine
 62
7
  6
CONTINUOUS
 10
15.2856004977
 20
9.4330437433
 11
15.2966923383
 21
9.431034728
  0
SPLINE
  5
395
100
AcDbEntity
  8
0
100
AcDbSpline
 62
7
  6
CONTINUOUS
 70
0
 71
3
 72
69
 73
65
 74
0
 42
0.0000001
 43
0.0000001
 44
0.0000000001
 40
0.0
 40
0.0
 40
0.0
 40
0.0
 40
0.0625069941
 40
0.125013991
 40
0.187520984
 40
0.2500279807
 40
0.3125349797
 40
0.3750419762
 40
0.4062960193
 40
0.4375500628
 40
0.4688041059
 40
0.5000581489
 40
0.5313121921
 40
0.5625662354
 40
0.5938202788
 40
0.6094473683
 40
0.6250744577
 40
0.6407015474
 40
0.6563286377
 40
0.6719557272
 40
0.6797692796
 40
0.6875828323
 40
0.6953963868
 40
0.7032099424
 40
0.7110234904
 40
0.7188370451
 40
0.7227438331
 40
0.7266505896
 40
0.7286039638
 40
0.7305573667
 40
0.7325108168
 40
0.7344642567
 40
0.7364175938
 40
0.7383708176
 40
0.7393475478
 40
0.7403245281
 40
0.7413015422
 40
0.7422780942
 40
0.7432543851
 40
0.7442311382
 40
0.7452079698
 40
0.746184655
 40
0.7471613274
 40
0.7481380162
 40
0.7500913987
 40
0.7520447691
 40
0.7539981456
 40
0.7579048993
 40
0.7618116512
 40
0.765718363
 40
0.7696250755
 40
0.7735318071
 40
0.781344959
 40
0.7891580925
 40
0.7969712275
 40
0.8125950214
 40
0.8282188129
 40
0.843842604
 40
0.8594664258
 40
0.8750901266
 40
0.9063178485
 40
0.9375454198
 40
0.9687727153
 40
1.0
 40
1.0
 40
1.0
 40
1.0
 10
15.8251923427
 20
8.6906695021
 30
0.0
 10
15.8743324479
 20
8.6929187029
 30
0.0
 10
15.9726697455
 20
8.6962563956
 30
0.0
 10
16.1202495842
 20
8.6977794503
 30
0.0
 10
16.2678250885
 20
8.6958184892
 30
0.0
 10
16.4153130152
 20
8.6903729194
 30
0.0
 10
16.5626308901
 20
8.6814467037
 30
0.0
 10
16.685187687
 20
8.6711117452
 30
0.0
 10
16.78306377
 20
8.6611095011
 30
0.0
 10
16.8563781906
 20
8.6527416337
 30
0.0
 10
16.9295886083
 20
8.6435088259
 30
0.0
 10
17.0026849352
 20
8.6334122625
 30
0.0
 10
17.0756569835
 20
8.6224534903
 30
0.0
 10
17.1484945235
 20
8.6106340217
 30
0.0
 10
17.2090721674
 20
8.600068471
 30
0.0
 10
17.2574566044
 20
8.5911874139
 30
0.0
 10
17.293705107
 20
8.5843124958
 30
0.0
 10
17.3299123866
 20
8.5772237348
 30
0.0
 10
17.366077193
 20
8.5699213936
 30
0.0
 10
17.3961781083
 20
8.5636582977
 30
0.0
 10
17.420236286
 20
8.5585411955
 30
0.0
 10
17.4382685337
 20
8.554650144
 30
0.0
 10
17.4562892328
 20
8.5507059495
 30
0.0
 10
17.4742982572
 20
8.546708801
 30
0.0
 10
17.4922952799
 20
8.5426579541
 30
0.0
 10
17.507282698
 20
8.5392376559
 30
0.0
 10
17.5192670317
 20
8.5364770969
 30
0.0
 10
17.5267541139
 20
8.5347382852
 30
0.0
 10
17.532742063
 20
8.5333398849
 30
0.0
 10
17.5372327397
 20
8.5322895998
 30
0.0
 10
17.541723733
 20
8.5312404381
 30
0.0
 10
17.5462137852
 20
8.5301874919
 30
0.0
 10
17.5507014612
 20
8.5291251619
 30
0.0
 10
17.5544367283
 20
8.5282214379
 30
0.0
 10
17.5574281472
 20
8.5275107123
 30
0.0
 10
17.5596768853
 20
8.526998044
 30
0.0
 10
17.5619266118
 20
8.5264905875
 30
0.0
 10
17.5641684135
 20
8.5259502624
 30
0.0
 10
17.5663902561
 20
8.525332897
 30
0.0
 10
17.5685933587
 20
8.5246524171
 30
0.0
 10
17.570799861
 20
8.5239820519
 30
0.0
 10
17.5730157874
 20
8.5233436763
 30
0.0
 10
17.5752346873
 20
8.5227163575
 30
0.0
 10
17.5781953168
 20
8.5218872876
 30
0.0
 10
17.5819013929
 20
8.5208698586
 30
0.0
 10
17.5863595526
 20
8.5196891578
 30
0.0
 10
17.5923185895
 20
8.518172064
 30
0.0
 10
17.5997933191
 20
8.5163790895
 30
0.0
 10
17.6087994046
 20
8.5143859633
 30
0.0
 10
17.6178391887
 20
8.5125517612
 30
0.0
 10
17.6269104042
 20
8.5108798224
 30
0.0
 10
17.6390430044
 20
8.5088677454
 30
0.0
 10
17.6542732826
 20
8.5067591975
 30
0.0
 10
17.6726278847
 20
8.5048825128
 30
0.0
 10
17.697171437
 20
8.5032560334
 30
0.0
 10
17.7279373555
 20
8.5028682606
 30
0.0
 10
17.7647909289
 20
8.5050382005
 30
0.0
 10
17.8013961656
 20
8.5098329165
 30
0.0
 10
17.8375672241
 20
8.517228593
 30
0.0
 10
17.884945832
 20
8.5304952329
 30
0.0
 10
17.942215764
 20
8.553381053
 30
0.0
 10
18.0063026396
 20
8.5903307555
 30
0.0
 10
18.0644514853
 20
8.6360425166
 30
0.0
 10
18.0985369491
 20
8.671726257
 30
0.0
 10
18.1141923427
 20
8.6906695021
 30
0.0
  0
SPLINE
  5
396
100
AcDbEntity
  8
0
100
AcDbSpline
 62
7
  6
CONTINUOUS
 70
0
 71
3
 72
10
 73
6
 74
0
 42
0.0000001
 43
0.0000001
 44
0.0000000001
 40
0.0
 40
0.0
 40
0.0
 40
0.0
 40
0.3965961428
 40
0.7157366063
 40
1.0
 40
1.0
 40
1.0
 40
1.0
 10
15.4601923427
 20
8.9071695021
 30
0.0
 10
15.4625519837
 20
8.8882016193
 30
0.0
 10
15.4686316221
 20
8.854172713
 30
0.0
 10
15.4811443593
 20
8.8075947201
 30
0.0
 10
15.4904641361
 20
8.7800279176
 30
0.0
 10
15.4951923427
 20
8.7671695021
 30
0.0
  0
LINE
  5
397
100
AcDbEntity
  8
0
100
AcDbLine
 62
7
  6
CONTINUOUS
 10
14.3801923427
 20
8.7671695021
 11
14.3817109922
 21
8.7713360952
  0
SPLINE
  5
398
100
AcDbEntity
  8
0
100
AcDbSpline
 62
7
  6
CONTINUOUS
 70
0
 71
3
 72
10
 73
6
 74
0
 42
0.0000001
 43
0.0000001
 44
0.0000000001
 40
0.0
 40
0.0
 40
0.0
 40
0.0
 40
0.4080325242
 40
0.6866336968
 40
1.0
 40
1.0
 40
1.0
 40
1.0
 10
14.3862033458
 20
8.7841301471
 30
0.0
 10
14.3917600425
 20
8.8004286203
 30
0.0
 10
14.4001538607
 20
8.8282010376
 30
0.0
 10
14.4095661484
 20
8.869358894
 30
0.0
 10
14.4135597621
 20
8.8940460651
 30
0.0
 10
14.4151923427
 20
8.9071695021
 30
0.0
  0
SPLINE
  5
399
100
AcDbEntity
  8
0
100
AcDbSpline
 62
7
  6
CONTINUOUS
 70
0
 71
3
 72
10
 73
6
 74
0
 42
0.0000001
 43
0.0000001
 44
0.0000000001
 40
0.0
 40
0.0
 40
0.0
 40
0.0
 40
0.3127996045
 40
0.5911322114
 40
1.0
 40
1.0
 40
1.0
 40
1.0
 10
14.4151923427
 20
9.0371695021
 30
0.0
 10
14.4135670903
 20
9.0502340314
 30
0.0
 10
14.4095940619
 20
9.0748206358
 30
0.0
 10
14.4002234921
 20
9.1158716068
 30
0.0
 10
14.3918586151
 20
9.1435963591
 30
0.0
 10
14.3863130446
 20
9.1598869142
 30
0.0
  0
LINE
  5
39A
100
AcDbEntity
  8
0
100
AcDbLine
 62
7
  6
CONTINUOUS
 10
14.3817345437
 20
9.172937688
 11
14.3801923427
 21
9.1771695021
  0
SPLINE
  5
39B
100
AcDbEntity
  8
0
100
AcDbSpline
 62
7
  6
CONTINUOUS
 70
0
 71
3
 72
32
 73
28
 74
0
 42
0.0000001
 43
0.0000001
 44
0.0000000001
 40
0.0
 40
0.0
 40
0.0
 40
0.0
 40
0.0000737609
 40
0.0002948633
 40
0.0006630433
 40
0.0011780373
 40
0.0026474118
 40
0.0047008782
 40
0.0073363286
 40
0.0105516569
 40
0.0143447578
 40
0.0187135274
 40
0.029169663
 40
0.0419000104
 40
0.0568654579
 40
0.0740200505
 40
0.0933179703
 40
0.1147135613
 40
0.1636070051
 40
0.2202624266
 40
0.2842159955
 40
0.3549962374
 40
0.4321038269
 40
0.5150452069
 40
0.603337691
 40
0.7940865332
 40
1.0
 40
1.0
 40
1.0
 40
1.0
 10
15.4951923427
 20
9.1771695021
 30
0.0
 10
15.4951902309
 20
9.1771666415
 30
0.0
 10
15.4951874218
 20
9.1771521615
 30
0.0
 10
15.4951742697
 20
9.1771232978
 30
0.0
 10
15.4951569711
 20
9.1770727401
 30
0.0
 10
15.495116978
 20
9.1769667367
 30
0.0
 10
15.4950501958
 20
9.1767838115
 30
0.0
 10
15.4949475155
 20
9.17650531
 30
0.0
 10
15.4948164424
 20
9.1761475128
 30
0.0
 10
15.4946567295
 20
9.1757109195
 30
0.0
 10
15.4944687966
 20
9.1751956692
 30
0.0
 10
15.4941619435
 20
9.174352252
 30
0.0
 10
15.4937094792
 20
9.1731033517
 30
0.0
 10
15.4930859063
 20
9.1713731288
 30
0.0
 10
15.4923581432
 20
9.1693372232
 30
0.0
 10
15.4915313402
 20
9.1670005155
 30
0.0
 10
15.4906107518
 20
9.1643682043
 30
0.0
 10
15.4892014111
 20
9.1602859793
 30
0.0
 10
15.4872424824
 20
9.1544883739
 30
0.0
 10
15.484709365
 20
9.1467196728
 30
0.0
 10
15.4819588177
 20
9.1379127812
 30
0.0
 10
15.4790518677
 20
9.1281227853
 30
0.0
 10
15.4760567116
 20
9.1174055101
 30
0.0
 10
15.4730413721
 20
9.105819108
 30
0.0
 10
15.4689800201
 20
9.0888474217
 30
0.0
 10
15.4643023518
 20
9.0659336084
 30
0.0
 10
15.461417749
 20
9.0470198831
 30
0.0
 10
15.4601923427
 20
9.0371695021
 30
0.0
  0
LINE
  5
39C
100
AcDbEntity
  8
0
100
AcDbLine
 62
7
  6
CONTINUOUS
 10
14.8139923427
 20
9.4672245324
 11
14.8176056252
 21
9.467205376
  0
LINE
  5
39D
100
AcDbEntity
  8
0
100
AcDbLine
 62
7
  6
CONTINUOUS
 10
15.1009895882
 20
9.4632954662
 11
15.0981372794
 21
9.4636249843
  0
LINE
  5
39E
100
AcDbEntity
  8
0
100
AcDbLine
 62
7
  6
CONTINUOUS
 10
14.6356613602
 20
9.4421422136
 11
14.629739469
 21
9.4412613351
  0
LINE
  5
39F
100
AcDbEntity
  8
0
100
AcDbLine
 62
7
  6
CONTINUOUS
 10
15.1276923427
 20
9.4592675749
 11
15.1329952069
 21
9.4587562389
  0
LINE
  5
3A0
100
AcDbEntity
  8
0
100
AcDbLine
 62
7
  6
CONTINUOUS
 10
15.1329952069
 20
9.4587562389
 11
15.1376923427
 21
9.4585539609
  0
LINE
  5
3A1
100
AcDbEntity
  8
0
100
AcDbLine
 62
7
  6
CONTINUOUS
 10
15.1739742231
 20
9.4530624648
 11
15.1769468414
 21
9.4524056202
  0
LINE
  5
3A2
100
AcDbEntity
  8
0
100
AcDbLine
 62
7
  6
CONTINUOUS
 10
15.2078371309
 20
9.4472217402
 11
15.2122605369
 21
9.446439567
  0
LINE
  5
3A3
100
AcDbEntity
  8
0
100
AcDbLine
 62
7
  6
CONTINUOUS
 10
15.2122605369
 20
9.446439567
 11
15.2227243607
 21
9.4446020035
  0
LINE
  5
3A4
100
AcDbEntity
  8
0
100
AcDbLine
 62
7
  6
CONTINUOUS
 10
15.2227243607
 20
9.4446020035
 11
15.2533723487
 21
9.4394137793
  0
LINE
  5
3A5
100
AcDbEntity
  8
0
100
AcDbLine
 62
7
  6
CONTINUOUS
 10
15.0591923427
 20
9.4661453948
 11
15.0848575327
 21
9.464426145
  0
LINE
  5
3A6
100
AcDbEntity
  8
0
100
AcDbLine
 62
7
  6
CONTINUOUS
 10
14.7401422312
 20
9.4603471548
 11
14.668980108
 21
9.4485444733
  0
LINE
  5
3A7
100
AcDbEntity
  8
0
100
AcDbLine
 62
7
  6
CONTINUOUS
 10
15.2533723487
 20
9.4404354281
 11
15.2583210409
 21
9.4396596246
  0
LINE
  5
3A8
100
AcDbEntity
  8
0
100
AcDbLine
 62
7
  6
CONTINUOUS
 10
14.668980108
 20
9.4485444733
 11
14.6356613602
 21
9.4431618862
  0
LINE
  5
3A9
100
AcDbEntity
  8
0
100
AcDbLine
 62
7
  6
CONTINUOUS
 10
14.6356613602
 20
9.4431619286
 11
14.6296945974
 21
9.4422740681
  0
SPLINE
  5
3AA
100
AcDbEntity
  8
0
100
AcDbSpline
 62
7
  6
CONTINUOUS
 70
0
 71
3
 72
19
 73
15
 74
0
 42
0.0000001
 43
0.0000001
 44
0.0000000001
 40
0.0
 40
0.0
 40
0.0
 40
0.0
 40
0.1249812586
 40
0.1874945218
 40
0.2500014986
 40
0.3749635293
 40
0.4374820435
 40
0.5000000002
 40
0.5625179568
 40
0.6250364711
 40
0.7499985016
 40
0.8125054783
 40
0.8750187414
 40
1.0
 40
1.0
 40
1.0
 40
1.0
 10
15.3167216946
 20
7.2781147209
 30
0.0
 10
15.2872073064
 20
7.2928294132
 30
0.0
 10
15.2421247118
 20
7.3133796625
 30
0.0
 10
15.1803327137
 20
7.3365522421
 30
0.0
 10
15.1174257532
 20
7.3564663647
 30
0.0
 10
15.052801868
 20
7.3707738584
 30
0.0
 10
14.9871949905
 20
7.378123344
 30
0.0
 10
14.9376923427
 20
7.38000409
 30
0.0
 10
14.8881896948
 20
7.3781233441
 30
0.0
 10
14.8225828174
 20
7.3707738588
 30
0.0
 10
14.7579589323
 20
7.3564663648
 30
0.0
 10
14.6950519718
 20
7.3365522422
 30
0.0
 10
14.6332599738
 20
7.3133796625
 30
0.0
 10
14.5881773793
 20
7.2928294131
 30
0.0
 10
14.5586629911
 20
7.2781147208
 30
0.0
  0
SPLINE
  5
3AB
100
AcDbEntity
  8
0
100
AcDbSpline
 62
7
  6
CONTINUOUS
 70
0
 71
3
 72
25
 73
21
 74
0
 42
0.0000001
 43
0.0000001
 44
0.0000000001
 40
0.0
 40
0.0
 40
0.0
 40
0.0
 40
0.0699586784
 40
0.1378540025
 40
0.2035054589
 40
0.2667891902
 40
0.3277288803
 40
0.3865435442
 40
0.41530736
 40
0.4437433437
 40
0.5000002478
 40
0.5562571532
 40
0.5846931358
 40
0.6134569503
 40
0.6722716129
 40
0.7332113155
 40
0.7964950779
 40
0.862146441
 40
0.930041498
 40
1.0
 40
1.0
 40
1.0
 40
1.0
 10
15.6957524105
 20
7.2781142608
 30
0.0
 10
15.6884735687
 20
7.2853721352
 30
0.0
 10
15.67382156
 20
7.2993700622
 30
0.0
 10
15.6511207103
 20
7.3188568392
 30
0.0
 10
15.6279878185
 20
7.3362536401
 30
0.0
 10
15.6044103725
 20
7.3512342167
 30
0.0
 10
15.5803881363
 20
7.363430149
 30
0.0
 10
15.5598734542
 20
7.3710489782
 30
0.0
 10
15.5433663191
 20
7.3753517875
 30
0.0
 10
15.5269694606
 20
7.3784207831
 30
0.0
 10
15.5062380323
 20
7.380012263
 30
0.0
 10
15.4855066051
 20
7.3784207797
 30
0.0
 10
15.4691097452
 20
7.3753517928
 30
0.0
 10
15.4526026101
 20
7.3710489861
 30
0.0
 10
15.4320879185
 20
7.3634301778
 30
0.0
 10
15.408065686
 20
7.3512342184
 30
0.0
 10
15.3844882826
 20
7.3362535915
 30
0.0
 10
15.3613553759
 20
7.3188568997
 30
0.0
 10
15.3386544088
 20
7.2993703822
 30
0.0
 10
15.3240023714
 20
7.285372575
 30
0.0
 10
15.316723546
 20
7.2781147209
 30
0.0
  0
LINE
  5
3AC
100
AcDbEntity
  8
0
100
AcDbLine
 62
7
  6
CONTINUOUS
 10
14.9691923427
 20
9.4725144975
 11
14.9675872759
 21
9.4723146702
  0
LINE
  5
3AD
100
AcDbEntity
  8
0
100
AcDbLine
 62
7
  6
CONTINUOUS
 10
14.9675872759
 20
9.4723146702
 11
14.9564730951
 21
9.472016826
  0
SPLINE
  5
3AE
100
AcDbEntity
  8
0
100
AcDbSpline
 62
7
  6
CONTINUOUS
 70
0
 71
3
 72
25
 73
21
 74
0
 42
0.0000001
 43
0.0000001
 44
0.0000000001
 40
0.0
 40
0.0
 40
0.0
 40
0.0
 40
0.0699584181
 40
0.1378533891
 40
0.2035046681
 40
0.2667883427
 40
0.3277279697
 40
0.3865425499
 40
0.4153063272
 40
0.4437422746
 40
0.4999991112
 40
0.5562559643
 40
0.5846919213
 40
0.613455714
 40
0.6722703475
 40
0.7332099675
 40
0.7964936129
 40
0.8621452206
 40
0.9300410379
 40
1.0
 40
1.0
 40
1.0
 40
1.0
 10
14.5586611396
 20
7.2781147208
 30
0.0
 10
14.5513823073
 20
7.2853725818
 30
0.0
 10
14.5367302555
 20
7.2993704008
 30
0.0
 10
14.5140292657
 20
7.3188569329
 30
0.0
 10
14.4908963394
 20
7.3362536392
 30
0.0
 10
14.4673189102
 20
7.3512342697
 30
0.0
 10
14.4432966536
 20
7.3634302285
 30
0.0
 10
14.4227819416
 20
7.3710490371
 30
0.0
 10
14.4062747861
 20
7.3753518202
 30
0.0
 10
14.3898779105
 20
7.3784208042
 30
0.0
 10
14.3691464588
 20
7.3800122626
 30
0.0
 10
14.34841501
 20
7.3784207597
 30
0.0
 10
14.3320181327
 20
7.3753517486
 30
0.0
 10
14.315510985
 20
7.3710488867
 30
0.0
 10
14.2949962972
 20
7.3634299956
 30
0.0
 10
14.2709740274
 20
7.3512340722
 30
0.0
 10
14.2473964758
 20
7.336253546
 30
0.0
 10
14.2242635838
 20
7.318856488
 30
0.0
 10
14.2015629485
 20
7.2993691503
 30
0.0
 10
14.1869109779
 20
7.2853709649
 30
0.0
 10
14.1796320909
 20
7.2781130456
 30
0.0
  0
SPLINE
  5
3AF
100
AcDbEntity
  8
0
100
AcDbSpline
 62
7
  6
CONTINUOUS
 70
0
 71
3
 72
23
 73
19
 74
0
 42
0.0000001
 43
0.0000001
 44
0.0000000001
 40
0.0
 40
0.0
 40
0.0
 40
0.0
 40
0.2081513119
 40
0.4014208985
 40
0.5739776729
 40
0.6511296862
 40
0.7215535287
 40
0.7847888738
 40
0.8404699152
 40
0.8882565343
 40
0.9278101737
 40
0.958833277
 40
0.9711007238
 40
0.9811909761
 40
0.9890967352
 40
0.9948185259
 40
0.9983840706
 40
1.0
 40
1.0
 40
1.0
 40
1.0
 10
14.9476923427
 20
9.4709361585
 30
0.0
 10
14.9491860413
 20
9.4709438968
 30
0.0
 10
14.952066624
 20
9.470963927
 30
0.0
 10
14.9561853207
 20
9.4710090044
 30
0.0
 10
14.9593638088
 20
9.4710591997
 30
0.0
 10
14.9616606319
 20
9.4711067104
 30
0.0
 10
14.9631729893
 20
9.4711436994
 30
0.0
 10
14.964531153
 20
9.4711831644
 30
0.0
 10
14.9657267082
 20
9.4712247835
 30
0.0
 10
14.9667521692
 20
9.4712681832
 30
0.0
 10
14.9676003192
 20
9.4713129713
 30
0.0
 10
14.9681936495
 20
9.4713536039
 30
0.0
 10
14.9685749327
 20
9.4713879672
 30
0.0
 10
14.9687913235
 20
9.471412178
 30
0.0
 10
14.9689585553
 20
9.4714350951
 30
0.0
 10
14.9690829036
 20
9.4714603114
 30
0.0
 10
14.9691523323
 20
9.4714787862
 30
0.0
 10
14.9691923427
 20
9.4715024729
 30
0.0
 10
14.9691923427
 20
9.471514069
 30
0.0
  0
LINE
  5
3B0
100
AcDbEntity
  8
0
100
AcDbLine
 62
7
  6
CONTINUOUS
 10
15.0848575327
 20
9.4654311118
 11
15.0591923427
 21
9.4671492424
  0
LINE
  5
3B1
100
AcDbEntity
  8
0
100
AcDbLine
 62
7
  6
CONTINUOUS
 10
15.2533723487
 20
9.4404353586
 11
15.222782678
 21
9.4456099225
  0
LINE
  5
3B2
100
AcDbEntity
  8
0
100
AcDbLine
 62
7
  6
CONTINUOUS
 10
15.222782678
 20
9.4456099225
 11
15.2124370256
 21
9.4474253173
  0
LINE
  5
3B3
100
AcDbEntity
  8
0
100
AcDbLine
 62
7
  6
CONTINUOUS
 10
15.2124370256
 20
9.4474253173
 11
15.2078371309
 21
9.4482380915
  0
LINE
  5
3B4
100
AcDbEntity
  8
0
100
AcDbLine
 62
7
  6
CONTINUOUS
 10
15.1799742231
 20
9.452909885
 11
15.1739742231
 21
9.4540749402
  0
SPLINE
  5
3B5
100
AcDbEntity
  8
0
100
AcDbSpline
 62
7
  6
CONTINUOUS
 70
0
 71
3
 72
17
 73
13
 74
0
 42
0.0000001
 43
0.0000001
 44
0.0000000001
 40
0.0
 40
0.0
 40
0.0
 40
0.0
 40
0.1798239303
 40
0.3539276485
 40
0.5167046438
 40
0.662978972
 40
0.7880440267
 40
0.8878791969
 40
0.9272991426
 40
0.9592803221
 40
0.9835735605
 40
1.0
 40
1.0
 40
1.0
 40
1.0
 10
15.0351923427
 20
9.468849758
 30
0.0
 10
15.0334078668
 20
9.4689622722
 30
0.0
 10
15.0298960709
 20
9.4691899912
 30
0.0
 10
15.0247704518
 20
9.4695420362
 30
0.0
 10
15.0199790463
 20
9.4698911178
 30
0.0
 10
15.0156755111
 20
9.4702256878
 30
0.0
 10
15.0119978382
 20
9.4705350508
 30
0.0
 10
15.0093808016
 20
9.4707778535
 30
0.0
 10
15.0076875247
 20
9.4709560451
 30
0.0
 10
15.0067423237
 20
9.4710661317
 30
0.0
 10
15.0060260312
 20
9.4711629272
 30
0.0
 10
15.0056261657
 20
9.4712284143
 30
0.0
 10
15.0054665237
 20
9.4712629308
 30
0.0
  0
LINE
  5
3B6
100
AcDbEntity
  8
0
100
AcDbLine
 62
7
  6
CONTINUOUS
 10
15.0054665237
 20
9.4712629308
 11
15.0051923427
 21
9.4713646578
  0
LINE
  5
3B7
100
AcDbEntity
  8
0
100
AcDbLine
 62
7
  6
CONTINUOUS
 10
14.6356613602
 20
9.4421421398
 11
14.668980108
 21
9.4475283262
  0
LINE
  5
3B8
100
AcDbEntity
  8
0
100
AcDbLine
 62
7
  6
CONTINUOUS
 10
15.2583215009
 20
9.4386384274
 11
15.2577961002
 21
9.4387277811
  0
LINE
  5
3B9
100
AcDbEntity
  8
0
100
AcDbLine
 62
7
  6
CONTINUOUS
 10
15.2577961002
 20
9.4387277811
 11
15.2533723487
 21
9.4394138352
  0
LINE
  5
3BA
100
AcDbEntity
  8
0
100
AcDbLine
 62
7
  6
CONTINUOUS
 10
14.668980108
 20
9.4475283262
 11
14.7022121605
 21
9.4530573199
  0
SPLINE
  5
3BB
100
AcDbEntity
  8
0
100
AcDbSpline
 62
7
  6
CONTINUOUS
 70
0
 71
3
 72
19
 73
15
 74
0
 42
0.0000001
 43
0.0000001
 44
0.0000000001
 40
0.0
 40
0.0
 40
0.0
 40
0.0
 40
0.0053510325
 40
0.0185201119
 40
0.0400732238
 40
0.0700038984
 40
0.1082310339
 40
0.1546435318
 40
0.2090164456
 40
0.2710541486
 40
0.4169266993
 40
0.5897420133
 40
0.7856570911
 40
1.0
 40
1.0
 40
1.0
 40
1.0
 10
15.1376923427
 20
9.4595628191
 30
0.0
 10
15.1376923427
 20
9.4595449007
 30
0.0
 10
15.1376127831
 20
9.4595190183
 30
0.0
 10
15.1374965055
 20
9.4595080549
 30
0.0
 10
15.1372706143
 20
9.4594973761
 30
0.0
 10
15.1369742902
 20
9.4594999673
 30
0.0
 10
15.1365891945
 20
9.4595109768
 30
0.0
 10
15.136124765
 20
9.4595329333
 30
0.0
 10
15.1355802808
 20
9.4595649607
 30
0.0
 10
15.1347041028
 20
9.4596246217
 30
0.0
 10
15.1334330981
 20
9.4597251306
 30
0.0
 10
15.1317166309
 20
9.459877166
 30
0.0
 10
15.1297730221
 20
9.4600631717
 30
0.0
 10
15.1284062467
 20
9.4602018086
 30
0.0
 10
15.1276923427
 20
9.4602759649
 30
0.0
  0
SPLINE
  5
3BC
100
AcDbEntity
  8
0
100
AcDbSpline
 62
7
  6
CONTINUOUS
 70
0
 71
3
 72
26
 73
22
 74
0
 42
0.0000001
 43
0.0000001
 44
0.0000000001
 40
0.0
 40
0.0
 40
0.0
 40
0.0
 40
0.0006075337
 40
0.0016747673
 40
0.0054929122
 40
0.0116462111
 40
0.0201456454
 40
0.0309829354
 40
0.0441442935
 40
0.0596078597
 40
0.0773297709
 40
0.1193517329
 40
0.1698142277
 40
0.2282720974
 40
0.2941135638
 40
0.3666894465
 40
0.4453355784
 40
0.5293185578
 40
0.6178845455
 40
0.8054860101
 40
1.0
 40
1.0
 40
1.0
 40
1.0
 10
15.0051923427
 20
9.4703634117
 30
0.0
 10
15.0051923427
 20
9.4703573104
 30
0.0
 10
15.0052044146
 20
9.4703425247
 30
0.0
 10
15.0052526509
 20
9.4703177095
 30
0.0
 10
15.0053601756
 20
9.4702848737
 30
0.0
 10
15.0055406543
 20
9.4702450747
 30
0.0
 10
15.0057929859
 20
9.4701998354
 30
0.0
 10
15.006115452
 20
9.4701502149
 30
0.0
 10
15.0065081328
 20
9.4700963123
 30
0.0
 10
15.0069699604
 20
9.4700384491
 30
0.0
 10
15.007720192
 20
9.4699511228
 30
0.0
 10
15.0088208386
 20
9.4698346878
 30
0.0
 10
15.0103296167
 20
9.4696881734
 30
0.0
 10
15.0120775296
 20
9.4695296776
 30
0.0
 10
15.0140474534
 20
9.4693606963
 30
0.0
 10
15.0162200995
 20
9.4691829961
 30
0.0
 10
15.0185749626
 20
9.4689983764
 30
0.0
 10
15.0210904794
 20
9.4688085128
 30
0.0
 10
15.0246977903
 20
9.4685456686
 30
0.0
 10
15.0294134248
 20
9.468219324
 30
0.0
 10
15.0332427823
 20
9.4679699384
 30
0.0
 10
15.0351923427
 20
9.467846899
 30
0.0
  0
LINE
  5
3BD
100
AcDbEntity
  8
0
100
AcDbLine
 62
7
  6
CONTINUOUS
 10
14.8989923427
 20
9.4726865099
 11
14.8939847822
 21
9.472205776
  0
SPLINE
  5
3BE
100
AcDbEntity
  8
0
100
AcDbSpline
 62
7
  6
CONTINUOUS
 70
0
 71
3
 72
19
 73
15
 74
0
 42
0.0000001
 43
0.0000001
 44
0.0000000001
 40
0.0
 40
0.0
 40
0.0
 40
0.0
 40
0.1068644346
 40
0.2696770236
 40
0.4664107329
 40
0.6649604445
 40
0.7537622423
 40
0.8315142875
 40
0.8944410321
 40
0.9402710357
 40
0.9704590952
 40
0.9882836461
 40
0.9971471239
 40
1.0
 40
1.0
 40
1.0
 40
1.0
 10
14.8939847822
 20
9.472205776
 30
0.0
 10
14.8911410273
 20
9.4719738533
 30
0.0
 10
14.8839579511
 20
9.4714735187
 30
0.0
 10
14.8715291635
 20
9.4707016747
 30
0.0
 10
14.8566528883
 20
9.4698455489
 30
0.0
 10
14.8437434519
 20
9.4692149314
 30
0.0
 10
14.8340052126
 20
9.4687793284
 30
0.0
 10
14.8278836162
 20
9.4685227552
 30
0.0
 10
14.8229073619
 20
9.4683387335
 30
0.0
 10
14.8191990393
 20
9.4682331714
 30
0.0
 10
14.8166938499
 20
9.4681924701
 30
0.0
 10
14.8151750989
 20
9.4681900072
 30
0.0
 10
14.8143866388
 20
9.4682074274
 30
0.0
 10
14.8140739526
 20
9.4682205783
 30
0.0
 10
14.8139980718
 20
9.4682272046
 30
0.0
  0
LINE
  5
3BF
100
AcDbEntity
  8
0
100
AcDbLine
 62
7
  6
CONTINUOUS
 10
6.7291923427
 20
9.4590558124
 11
6.7321767367
 21
9.4594828184
  0
LINE
  5
3C0
100
AcDbEntity
  8
0
100
AcDbLine
 62
7
  6
CONTINUOUS
 10
6.7731923427
 20
9.4644143047
 11
6.7791923427
 21
9.4650153867
  0
LINE
  5
3C1
100
AcDbEntity
  8
0
100
AcDbLine
 62
7
  6
CONTINUOUS
 10
6.8576923427
 20
9.4711045076
 11
6.87152479
 21
9.4709035099
  0
LINE
  5
3C2
100
AcDbEntity
  8
0
100
AcDbLine
 62
7
  6
CONTINUOUS
 10
6.8861244803
 20
9.470839569
 11
6.8954105975
 21
9.4708349263
  0
LINE
  5
3C3
100
AcDbEntity
  8
0
100
AcDbLine
 62
7
  6
CONTINUOUS
 10
6.8954105975
 20
9.4708349263
 11
6.9059892548
 21
9.4708396291
  0
LINE
  5
3C4
100
AcDbEntity
  8
0
100
AcDbLine
 62
7
  6
CONTINUOUS
 10
6.9059892548
 20
9.4708396291
 11
6.9299565308
 21
9.4708584573
  0
LINE
  5
3C5
100
AcDbEntity
  8
0
100
AcDbLine
 62
7
  6
CONTINUOUS
 10
6.9299565308
 20
9.4708584573
 11
6.9423581295
 21
9.4708723263
  0
LINE
  5
3C6
100
AcDbEntity
  8
0
100
AcDbLine
 62
7
  6
CONTINUOUS
 10
6.9423581295
 20
9.4708723263
 11
6.9663306702
 21
9.4709071946
  0
LINE
  5
3C7
100
AcDbEntity
  8
0
100
AcDbLine
 62
7
  6
CONTINUOUS
 10
6.9663306702
 20
9.4709071946
 11
6.9790742927
 21
9.4709308649
  0
LINE
  5
3C8
100
AcDbEntity
  8
0
100
AcDbLine
 62
7
  6
CONTINUOUS
 10
6.9790742927
 20
9.4709308649
 11
6.9862194135
 21
9.4709511877
  0
LINE
  5
3C9
100
AcDbEntity
  8
0
100
AcDbLine
 62
7
  6
CONTINUOUS
 10
7.0007843623
 20
9.4710432257
 11
7.0146923427
 21
9.4712565721
  0
SPLINE
  5
3CA
100
AcDbEntity
  8
0
100
AcDbSpline
 62
7
  6
CONTINUOUS
 70
0
 71
3
 72
69
 73
65
 74
0
 42
0.0000001
 43
0.0000001
 44
0.0000000001
 40
0.0
 40
0.0
 40
0.0
 40
0.0
 40
0.0625069941
 40
0.125013991
 40
0.187520984
 40
0.2500279807
 40
0.3125349797
 40
0.3750419762
 40
0.4062960193
 40
0.4375500628
 40
0.4688041059
 40
0.5000581489
 40
0.5313121921
 40
0.5625662354
 40
0.5938202788
 40
0.6094473683
 40
0.6250744577
 40
0.6407015474
 40
0.6563286377
 40
0.6719557272
 40
0.6797692796
 40
0.6875828323
 40
0.6953963868
 40
0.7032099424
 40
0.7110234904
 40
0.7188370451
 40
0.7227438331
 40
0.7266505896
 40
0.7286039638
 40
0.7305573667
 40
0.7325108168
 40
0.7344642567
 40
0.7364175938
 40
0.7383708176
 40
0.7393475478
 40
0.7403245281
 40
0.7413015422
 40
0.7422780942
 40
0.7432543851
 40
0.7442311382
 40
0.7452079698
 40
0.746184655
 40
0.7471613274
 40
0.7481380162
 40
0.7500913987
 40
0.7520447691
 40
0.7539981456
 40
0.7579048993
 40
0.7618116512
 40
0.765718363
 40
0.7696250755
 40
0.7735318071
 40
0.781344959
 40
0.7891580925
 40
0.7969712275
 40
0.8125950214
 40
0.8282188129
 40
0.843842604
 40
0.8594664258
 40
0.8750901266
 40
0.9063178485
 40
0.9375454198
 40
0.9687727153
 40
1.0
 40
1.0
 40
1.0
 40
1.0
 10
6.0501923427
 20
9.2536695021
 30
0.0
 10
6.0010522376
 20
9.2514203013
 30
0.0
 10
5.90271494
 20
9.2480826087
 30
0.0
 10
5.7551351013
 20
9.246559554
 30
0.0
 10
5.607559597
 20
9.2485205151
 30
0.0
 10
5.4600716703
 20
9.2539660849
 30
0.0
 10
5.3127537954
 20
9.2628923006
 30
0.0
 10
5.1901969985
 20
9.2732272591
 30
0.0
 10
5.0923209155
 20
9.2832295032
 30
0.0
 10
5.0190064948
 20
9.2915973706
 30
0.0
 10
4.9457960771
 20
9.3008301784
 30
0.0
 10
4.8726997503
 20
9.3109267418
 30
0.0
 10
4.799727702
 20
9.321885514
 30
0.0
 10
4.726890162
 20
9.3337049826
 30
0.0
 10
4.666312518
 20
9.3442705333
 30
0.0
 10
4.6179280811
 20
9.3531515904
 30
0.0
 10
4.5816795785
 20
9.3600265085
 30
0.0
 10
4.5454722988
 20
9.3671152695
 30
0.0
 10
4.5093074925
 20
9.3744176107
 30
0.0
 10
4.4792065772
 20
9.3806807066
 30
0.0
 10
4.4551483994
 20
9.3857978087
 30
0.0
 10
4.4371161518
 20
9.3896888603
 30
0.0
 10
4.4190954527
 20
9.3936330548
 30
0.0
 10
4.4010864283
 20
9.3976302033
 30
0.0
 10
4.3830894056
 20
9.4016810502
 30
0.0
 10
4.3681019875
 20
9.4051013484
 30
0.0
 10
4.3561176538
 20
9.4078619074
 30
0.0
 10
4.3486305716
 20
9.4096007191
 30
0.0
 10
4.3426426225
 20
9.4109991194
 30
0.0
 10
4.3381519458
 20
9.4120494045
 30
0.0
 10
4.3336609524
 20
9.4130985662
 30
0.0
 10
4.3291709003
 20
9.4141515124
 30
0.0
 10
4.3246832243
 20
9.4152138424
 30
0.0
 10
4.3209479572
 20
9.4161175663
 30
0.0
 10
4.3179565383
 20
9.416828292
 30
0.0
 10
4.3157078002
 20
9.4173409603
 30
0.0
 10
4.3134580737
 20
9.4178484168
 30
0.0
 10
4.311216272
 20
9.4183887419
 30
0.0
 10
4.3089944294
 20
9.4190061072
 30
0.0
 10
4.3067913268
 20
9.4196865872
 30
0.0
 10
4.3045848245
 20
9.4203569524
 30
0.0
 10
4.3023688981
 20
9.420995328
 30
0.0
 10
4.3001499982
 20
9.4216226468
 30
0.0
 10
4.2971893687
 20
9.4224517166
 30
0.0
 10
4.2934832926
 20
9.4234691457
 30
0.0
 10
4.2890251329
 20
9.4246498465
 30
0.0
 10
4.2830660959
 20
9.4261669403
 30
0.0
 10
4.2755913663
 20
9.4279599148
 30
0.0
 10
4.2665852809
 20
9.429953041
 30
0.0
 10
4.2575454967
 20
9.4317872431
 30
0.0
 10
4.2484742812
 20
9.4334591818
 30
0.0
 10
4.2363416811
 20
9.4354712588
 30
0.0
 10
4.2211114029
 20
9.4375798068
 30
0.0
 10
4.2027568008
 20
9.4394564915
 30
0.0
 10
4.1782132485
 20
9.4410829708
 30
0.0
 10
4.14744733
 20
9.4414707437
 30
0.0
 10
4.1105937566
 20
9.4393008038
 30
0.0
 10
4.0739885198
 20
9.4345060878
 30
0.0
 10
4.0378174614
 20
9.4271104113
 30
0.0
 10
3.9904388535
 20
9.4138437714
 30
0.0
 10
3.9331689215
 20
9.3909579512
 30
0.0
 10
3.8690820458
 20
9.3540082487
 30
0.0
 10
3.8109332002
 20
9.3082964877
 30
0.0
 10
3.7768477364
 20
9.2726127473
 30
0.0
 10
3.7611923427
 20
9.2536695021
 30
0.0
  0
SPLINE
  5
3CB
100
AcDbEntity
  8
0
100
AcDbSpline
 62
7
  6
CONTINUOUS
 70
0
 71
3
 72
69
 73
65
 74
0
 42
0.0000001
 43
0.0000001
 44
0.0000000001
 40
0.0
 40
0.0
 40
0.0
 40
0.0
 40
0.0625069941
 40
0.125013991
 40
0.187520984
 40
0.2500279807
 40
0.3125349797
 40
0.3750419762
 40
0.4062960193
 40
0.4375500628
 40
0.4688041059
 40
0.5000581489
 40
0.5313121921
 40
0.5625662354
 40
0.5938202788
 40
0.6094473683
 40
0.6250744577
 40
0.6407015474
 40
0.6563286377
 40
0.6719557272
 40
0.6797692796
 40
0.6875828323
 40
0.6953963868
 40
0.7032099424
 40
0.7110234904
 40
0.7188370451
 40
0.7227438331
 40
0.7266505896
 40
0.7286039638
 40
0.7305573667
 40
0.7325108168
 40
0.7344642567
 40
0.7364175938
 40
0.7383708176
 40
0.7393475478
 40
0.7403245281
 40
0.7413015422
 40
0.7422780942
 40
0.7432543851
 40
0.7442311382
 40
0.7452079698
 40
0.746184655
 40
0.7471613274
 40
0.7481380162
 40
0.7500913987
 40
0.7520447691
 40
0.7539981456
 40
0.7579048993
 40
0.7618116512
 40
0.765718363
 40
0.7696250755
 40
0.7735318071
 40
0.781344959
 40
0.7891580925
 40
0.7969712275
 40
0.8125950214
 40
0.8282188129
 40
0.843842604
 40
0.8594664258
 40
0.8750901266
 40
0.9063178485
 40
0.9375454198
 40
0.9687727153
 40
1.0
 40
1.0
 40
1.0
 40
1.0
 10
6.0501923427
 20
8.6906695021
 30
0.0
 10
6.0010522376
 20
8.6929187029
 30
0.0
 10
5.90271494
 20
8.6962563956
 30
0.0
 10
5.7551351013
 20
8.6977794503
 30
0.0
 10
5.607559597
 20
8.6958184892
 30
0.0
 10
5.4600716703
 20
8.6903729194
 30
0.0
 10
5.3127537954
 20
8.6814467037
 30
0.0
 10
5.1901969985
 20
8.6711117452
 30
0.0
 10
5.0923209155
 20
8.6611095011
 30
0.0
 10
5.0190064948
 20
8.6527416337
 30
0.0
 10
4.9457960771
 20
8.6435088259
 30
0.0
 10
4.8726997503
 20
8.6334122625
 30
0.0
 10
4.799727702
 20
8.6224534903
 30
0.0
 10
4.726890162
 20
8.6106340217
 30
0.0
 10
4.666312518
 20
8.600068471
 30
0.0
 10
4.6179280811
 20
8.5911874139
 30
0.0
 10
4.5816795785
 20
8.5843124958
 30
0.0
 10
4.5454722988
 20
8.5772237348
 30
0.0
 10
4.5093074925
 20
8.5699213936
 30
0.0
 10
4.4792065772
 20
8.5636582977
 30
0.0
 10
4.4551483994
 20
8.5585411955
 30
0.0
 10
4.4371161518
 20
8.554650144
 30
0.0
 10
4.4190954527
 20
8.5507059495
 30
0.0
 10
4.4010864283
 20
8.546708801
 30
0.0
 10
4.3830894056
 20
8.5426579541
 30
0.0
 10
4.3681019875
 20
8.5392376559
 30
0.0
 10
4.3561176538
 20
8.5364770969
 30
0.0
 10
4.3486305716
 20
8.5347382852
 30
0.0
 10
4.3426426225
 20
8.5333398849
 30
0.0
 10
4.3381519458
 20
8.5322895998
 30
0.0
 10
4.3336609524
 20
8.5312404381
 30
0.0
 10
4.3291709003
 20
8.5301874919
 30
0.0
 10
4.3246832243
 20
8.5291251619
 30
0.0
 10
4.3209479572
 20
8.5282214379
 30
0.0
 10
4.3179565383
 20
8.5275107123
 30
0.0
 10
4.3157078002
 20
8.526998044
 30
0.0
 10
4.3134580737
 20
8.5264905875
 30
0.0
 10
4.311216272
 20
8.5259502624
 30
0.0
 10
4.3089944294
 20
8.525332897
 30
0.0
 10
4.3067913268
 20
8.5246524171
 30
0.0
 10
4.3045848245
 20
8.5239820519
 30
0.0
 10
4.3023688981
 20
8.5233436763
 30
0.0
 10
4.3001499982
 20
8.5227163575
 30
0.0
 10
4.2971893687
 20
8.5218872876
 30
0.0
 10
4.2934832926
 20
8.5208698586
 30
0.0
 10
4.2890251329
 20
8.5196891578
 30
0.0
 10
4.2830660959
 20
8.518172064
 30
0.0
 10
4.2755913663
 20
8.5163790895
 30
0.0
 10
4.2665852809
 20
8.5143859633
 30
0.0
 10
4.2575454967
 20
8.5125517612
 30
0.0
 10
4.2484742812
 20
8.5108798224
 30
0.0
 10
4.2363416811
 20
8.5088677454
 30
0.0
 10
4.2211114029
 20
8.5067591975
 30
0.0
 10
4.2027568008
 20
8.5048825128
 30
0.0
 10
4.1782132485
 20
8.5032560334
 30
0.0
 10
4.14744733
 20
8.5028682606
 30
0.0
 10
4.1105937566
 20
8.5050382005
 30
0.0
 10
4.0739885198
 20
8.5098329165
 30
0.0
 10
4.0378174614
 20
8.517228593
 30
0.0
 10
3.9904388535
 20
8.5304952329
 30
0.0
 10
3.9331689215
 20
8.553381053
 30
0.0
 10
3.8690820458
 20
8.5903307555
 30
0.0
 10
3.8109332002
 20
8.6360425166
 30
0.0
 10
3.7768477364
 20
8.671726257
 30
0.0
 10
3.7611923427
 20
8.6906695021
 30
0.0
  0
SPLINE
  5
3CC
100
AcDbEntity
  8
0
100
AcDbSpline
 62
7
  6
CONTINUOUS
 70
0
 71
3
 72
35
 73
31
 74
0
 42
0.0000001
 43
0.0000001
 44
0.0000000001
 40
0.0
 40
0.0
 40
0.0
 40
0.0
 40
0.2058991876
 40
0.3034731645
 40
0.3966396317
 40
0.4849315873
 40
0.5678750434
 40
0.6449853981
 40
0.7157680698
 40
0.7797242877
 40
0.8363833357
 40
0.8618310468
 40
0.885279411
 40
0.9066763007
 40
0.9259757093
 40
0.9431316991
 40
0.9580981689
 40
0.9708288912
 40
0.981285249
 40
0.9856541913
 40
0.9894474873
 40
0.9926630191
 40
0.9952986675
 40
0.997352312
 40
0.99816022
 40
0.9988218312
 40
0.9993368803
 40
0.9997051019
 40
0.9999262303
 40
1.0
 40
1.0
 40
1.0
 40
1.0
 10
6.4151923427
 20
9.0371695021
 30
0.0
 10
6.413967005
 20
9.0470193324
 30
0.0
 10
6.411759503
 20
9.0614906717
 30
0.0
 10
6.4081568827
 20
9.0802700863
 30
0.0
 10
6.4053103897
 20
9.0934180694
 30
0.0
 10
6.4023443468
 20
9.1058150422
 30
0.0
 10
6.3993290019
 20
9.1174018003
 30
0.0
 10
6.396333727
 20
9.1281195669
 30
0.0
 10
6.3934267095
 20
9.1379100801
 30
0.0
 10
6.3906760853
 20
9.1467175131
 30
0.0
 10
6.3884931826
 20
9.1534120166
 30
0.0
 10
6.3868756616
 20
9.158236583
 30
0.0
 10
6.3857834317
 20
9.1614443469
 30
0.0
 10
6.3847743281
 20
9.1643672813
 30
0.0
 10
6.3838536439
 20
9.1669998119
 30
0.0
 10
6.383026734
 20
9.1693367172
 30
0.0
 10
6.3822988873
 20
9.1713727666
 30
0.0
 10
6.3816752995
 20
9.1731030937
 30
0.0
 10
6.3812228346
 20
9.1743520515
 30
0.0
 10
6.380915974
 20
9.1751955104
 30
0.0
 10
6.380728021
 20
9.1757107875
 30
0.0
 10
6.3805683154
 20
9.1761474294
 30
0.0
 10
6.3804371651
 20
9.1765052098
 30
0.0
 10
6.3803456434
 20
9.1767539224
 30
0.0
 10
6.3802870643
 20
9.1769133176
 30
0.0
 10
6.3802536845
 20
9.1770030255
 30
0.0
 10
6.380228587
 20
9.1770730183
 30
0.0
 10
6.3802085285
 20
9.1771226566
 30
0.0
 10
6.3802002271
 20
9.1771531557
 30
0.0
 10
6.3801923888
 20
9.1771659462
 30
0.0
 10
6.3801923427
 20
9.1771695021
 30
0.0
  0
LINE
  5
3CD
100
AcDbEntity
  8
0
100
AcDbLine
 62
7
  6
CONTINUOUS
 10
7.4951923427
 20
9.1771695021
 11
7.4936737028
 21
9.173002936
  0
SPLINE
  5
3CE
100
AcDbEntity
  8
0
100
AcDbSpline
 62
7
  6
CONTINUOUS
 70
0
 71
3
 72
10
 73
6
 74
0
 42
0.0000001
 43
0.0000001
 44
0.0000000001
 40
0.0
 40
0.0
 40
0.0
 40
0.0
 40
0.4080322955
 40
0.6866335426
 40
1.0
 40
1.0
 40
1.0
 40
1.0
 10
7.4891813704
 20
9.1602089473
 30
0.0
 10
7.4836246705
 20
9.1439104718
 30
0.0
 10
7.4752308444
 20
9.1161380409
 30
0.0
 10
7.4658185447
 20
9.0749801546
 30
0.0
 10
7.4618249254
 20
9.0502929555
 30
0.0
 10
7.4601923427
 20
9.0371695021
 30
0.0
  0
SPLINE
  5
3CF
100
AcDbEntity
  8
0
100
AcDbSpline
 62
7
  6
CONTINUOUS
 70
0
 71
3
 72
10
 73
6
 74
0
 42
0.0000001
 43
0.0000001
 44
0.0000000001
 40
0.0
 40
0.0
 40
0.0
 40
0.0
 40
0.3128000169
 40
0.591132824
 40
1.0
 40
1.0
 40
1.0
 40
1.0
 10
7.4601923427
 20
8.9071695021
 30
0.0
 10
7.4618176007
 20
8.8941049289
 30
0.0
 10
7.4657906443
 20
8.8695182489
 30
0.0
 10
7.475161246
 20
8.8284671965
 30
0.0
 10
7.4835261449
 20
8.8007424069
 30
0.0
 10
7.4890717244
 20
8.7844518448
 30
0.0
  0
LINE
  5
3D0
100
AcDbEntity
  8
0
100
AcDbLine
 62
7
  6
CONTINUOUS
 10
7.4936501635
 20
8.771401256
 11
7.4951923427
 21
8.7671695021
  0
SPLINE
  5
3D1
100
AcDbEntity
  8
0
100
AcDbSpline
 62
7
  6
CONTINUOUS
 70
0
 71
3
 72
22
 73
18
 74
0
 42
0.0000001
 43
0.0000001
 44
0.0000000001
 40
0.0
 40
0.0
 40
0.0
 40
0.0
 40
0.0047006931
 40
0.0187130406
 40
0.0418991152
 40
0.0740186218
 40
0.114711468
 40
0.1636042388
 40
0.2202589038
 40
0.2842116372
 40
0.3549909701
 40
0.4320975825
 40
0.5150379224
 40
0.6033293082
 40
0.6965019104
 40
0.7940890515
 40
1.0
 40
1.0
 40
1.0
 40
1.0
 10
6.3801923427
 20
8.7671695021
 30
0.0
 10
6.3801141366
 20
8.7669568195
 30
0.0
 10
6.3808062423
 20
8.7688348507
 30
0.0
 10
6.3811327526
 20
8.7697419521
 30
0.0
 10
6.3824747833
 20
8.7734442056
 30
0.0
 10
6.383935495
 20
8.7775605766
 30
0.0
 10
6.3858945313
 20
8.7831962385
 30
0.0
 10
6.388139115
 20
8.7898422438
 30
0.0
 10
6.3906762931
 20
8.7976219611
 30
0.0
 10
6.3934255342
 20
8.8064253089
 30
0.0
 10
6.3963328986
 20
8.8162164113
 30
0.0
 10
6.3993279125
 20
8.8269333645
 30
0.0
 10
6.4023433763
 20
8.8385198273
 30
0.0
 10
6.405309608
 20
8.8509168406
 30
0.0
 10
6.4081562583
 20
8.8640657211
 30
0.0
 10
6.4117588391
 20
8.8828466546
 30
0.0
 10
6.4139669354
 20
8.8973191125
 30
0.0
 10
6.4151923427
 20
8.9071695021
 30
0.0
  0
SPLINE
  5
3D2
100
AcDbEntity
  8
0
100
AcDbSpline
 62
7
  6
CONTINUOUS
 70
0
 71
3
 72
23
 73
19
 74
0
 42
0.0000001
 43
0.0000001
 44
0.0000000001
 40
0.0
 40
0.0
 40
0.0
 40
0.0
 40
0.001747588
 40
0.0053719166
 40
0.0110625405
 40
0.0188507013
 40
0.0287407109
 40
0.0407287988
 40
0.0709691186
 40
0.1094724745
 40
0.1560233378
 40
0.2103784393
 40
0.2722927949
 40
0.3415011217
 40
0.4176812067
 40
0.5896252013
 40
0.7851110806
 40
1.0
 40
1.0
 40
1.0
 40
1.0
 10
7.1301923427
 20
9.4598831068
 30
0.0
 10
7.1301923427
 20
9.4598721433
 30
0.0
 10
7.1302237142
 20
9.4598471169
 30
0.0
 10
7.1302828284
 20
9.4598196131
 30
0.0
 10
7.1303856243
 20
9.4597816151
 30
0.0
 10
7.1305250161
 20
9.4597391851
 30
0.0
 10
7.1307048817
 20
9.4596899513
 30
0.0
 10
7.1310219072
 20
9.4596105474
 30
0.0
 10
7.1315160321
 20
9.459498679
 30
0.0
 10
7.1322239548
 20
9.4593504767
 30
0.0
 10
7.1330819347
 20
9.4591806887
 30
0.0
 10
7.1340854803
 20
9.4589902355
 30
0.0
 10
7.1352299525
 20
9.4587800861
 30
0.0
 10
7.1365101779
 20
9.4585512214
 30
0.0
 10
7.1384712281
 20
9.4582083674
 30
0.0
 10
7.1412149707
 20
9.4577424976
 30
0.0
 10
7.1448194182
 20
9.4571476763
 30
0.0
 10
7.1473610946
 20
9.4567378762
 30
0.0
 10
7.1486923427
 20
9.4565253217
 30
0.0
  0
SPLINE
  5
3D3
100
AcDbEntity
  8
0
100
AcDbSpline
 62
7
  6
CONTINUOUS
 70
0
 71
3
 72
22
 73
18
 74
0
 42
0.0000001
 43
0.0000001
 44
0.0000000001
 40
0.0
 40
0.0
 40
0.0
 40
0.0
 40
0.216205157
 40
0.412837364
 40
0.5856123536
 40
0.6618891041
 40
0.7310300749
 40
0.7927665534
 40
0.8468303844
 40
0.8929553599
 40
0.9309362239
 40
0.9606640221
 40
0.9820475139
 40
0.9895909987
 40
0.9950371314
 40
0.9984228204
 40
1.0
 40
1.0
 40
1.0
 40
1.0
 10
7.0756923427
 20
9.464807047
 30
0.0
 10
7.0770254571
 20
9.4647170935
 30
0.0
 10
7.0795712737
 20
9.4645493435
 30
0.0
 10
7.0831834099
 20
9.4643251472
 30
0.0
 10
7.0859332407
 20
9.4641675993
 30
0.0
 10
7.0878970064
 20
9.464065249
 30
0.0
 10
7.0891757435
 20
9.4640037047
 30
0.0
 10
7.0903176089
 20
9.4639543017
 30
0.0
 10
7.0913176488
 20
9.4639172236
 30
0.0
 10
7.0921711268
 20
9.463892554
 30
0.0
 10
7.0928747189
 20
9.4638804313
 30
0.0
 10
7.0934248687
 20
9.46388015
 30
0.0
 10
7.0937882908
 20
9.4638908066
 30
0.0
 10
7.0939988889
 20
9.4639062539
 30
0.0
 10
7.0941013278
 20
9.4639218471
 30
0.0
 10
7.0941600547
 20
9.463933552
 30
0.0
 10
7.0941923427
 20
9.4639540104
 30
0.0
 10
7.0941923427
 20
9.4639637573
 30
0.0
  0
SPLINE
  5
3D4
100
AcDbEntity
  8
0
100
AcDbSpline
 62
7
  6
CONTINUOUS
 70
0
 71
3
 72
19
 73
15
 74
0
 42
0.0000001
 43
0.0000001
 44
0.0000000001
 40
0.0
 40
0.0
 40
0.0
 40
0.0
 40
0.1249812586
 40
0.1874945218
 40
0.2500014986
 40
0.3749635293
 40
0.4374820435
 40
0.5000000002
 40
0.5625179568
 40
0.6250364711
 40
0.7499985016
 40
0.8125054783
 40
0.8750187414
 40
1.0
 40
1.0
 40
1.0
 40
1.0
 10
7.3167216946
 20
7.2781147209
 30
0.0
 10
7.2872073064
 20
7.2928294132
 30
0.0
 10
7.2421247118
 20
7.3133796625
 30
0.0
 10
7.1803327137
 20
7.3365522421
 30
0.0
 10
7.1174257532
 20
7.3564663647
 30
0.0
 10
7.052801868
 20
7.3707738584
 30
0.0
 10
6.9871949905
 20
7.378123344
 30
0.0
 10
6.9376923427
 20
7.38000409
 30
0.0
 10
6.8881896948
 20
7.3781233441
 30
0.0
 10
6.8225828174
 20
7.3707738588
 30
0.0
 10
6.7579589323
 20
7.3564663648
 30
0.0
 10
6.6950519718
 20
7.3365522422
 30
0.0
 10
6.6332599738
 20
7.3133796625
 30
0.0
 10
6.5881773793
 20
7.2928294131
 30
0.0
 10
6.5586629911
 20
7.2781147208
 30
0.0
  0
SPLINE
  5
3D5
100
AcDbEntity
  8
0
100
AcDbSpline
 62
7
  6
CONTINUOUS
 70
0
 71
3
 72
25
 73
21
 74
0
 42
0.0000001
 43
0.0000001
 44
0.0000000001
 40
0.0
 40
0.0
 40
0.0
 40
0.0
 40
0.0699586784
 40
0.1378540025
 40
0.2035054589
 40
0.2667891902
 40
0.3277288803
 40
0.3865435442
 40
0.41530736
 40
0.4437433437
 40
0.5000002478
 40
0.5562571532
 40
0.5846931358
 40
0.6134569503
 40
0.6722716129
 40
0.7332113155
 40
0.7964950779
 40
0.862146441
 40
0.930041498
 40
1.0
 40
1.0
 40
1.0
 40
1.0
 10
7.6957524105
 20
7.2781142608
 30
0.0
 10
7.6884735687
 20
7.2853721352
 30
0.0
 10
7.67382156
 20
7.2993700622
 30
0.0
 10
7.6511207103
 20
7.3188568392
 30
0.0
 10
7.6279878185
 20
7.3362536401
 30
0.0
 10
7.6044103725
 20
7.3512342167
 30
0.0
 10
7.5803881363
 20
7.363430149
 30
0.0
 10
7.5598734542
 20
7.3710489782
 30
0.0
 10
7.5433663191
 20
7.3753517875
 30
0.0
 10
7.5269694606
 20
7.3784207831
 30
0.0
 10
7.5062380323
 20
7.380012263
 30
0.0
 10
7.4855066051
 20
7.3784207797
 30
0.0
 10
7.4691097452
 20
7.3753517928
 30
0.0
 10
7.4526026101
 20
7.3710489861
 30
0.0
 10
7.4320879185
 20
7.3634301778
 30
0.0
 10
7.408065686
 20
7.3512342184
 30
0.0
 10
7.3844882826
 20
7.3362535915
 30
0.0
 10
7.3613553759
 20
7.3188568997
 30
0.0
 10
7.3386544088
 20
7.2993703822
 30
0.0
 10
7.3240023714
 20
7.285372575
 30
0.0
 10
7.316723546
 20
7.2781147209
 30
0.0
  0
LINE
  5
3D6
100
AcDbEntity
  8
0
100
AcDbLine
 62
7
  6
CONTINUOUS
 10
7.0941923427
 20
9.4649690346
 11
7.0919568728
 21
9.4649047518
  0
LINE
  5
3D7
100
AcDbEntity
  8
0
100
AcDbLine
 62
7
  6
CONTINUOUS
 10
7.0919568728
 20
9.4649047518
 11
7.0855406186
 21
9.4651966177
  0
SPLINE
  5
3D8
100
AcDbEntity
  8
0
100
AcDbSpline
 62
7
  6
CONTINUOUS
 70
0
 71
3
 72
25
 73
21
 74
0
 42
0.0000001
 43
0.0000001
 44
0.0000000001
 40
0.0
 40
0.0
 40
0.0
 40
0.0
 40
0.0699584181
 40
0.1378533891
 40
0.2035046681
 40
0.2667883427
 40
0.3277279697
 40
0.3865425499
 40
0.4153063272
 40
0.4437422746
 40
0.4999991112
 40
0.5562559643
 40
0.5846919213
 40
0.613455714
 40
0.6722703475
 40
0.7332099675
 40
0.7964936129
 40
0.8621452206
 40
0.9300410379
 40
1.0
 40
1.0
 40
1.0
 40
1.0
 10
6.5586611396
 20
7.2781147208
 30
0.0
 10
6.5513823073
 20
7.2853725818
 30
0.0
 10
6.5367302555
 20
7.2993704008
 30
0.0
 10
6.5140292657
 20
7.3188569329
 30
0.0
 10
6.4908963394
 20
7.3362536392
 30
0.0
 10
6.4673189102
 20
7.3512342697
 30
0.0
 10
6.4432966536
 20
7.3634302285
 30
0.0
 10
6.4227819416
 20
7.3710490371
 30
0.0
 10
6.4062747861
 20
7.3753518202
 30
0.0
 10
6.3898779105
 20
7.3784208042
 30
0.0
 10
6.3691464588
 20
7.3800122626
 30
0.0
 10
6.34841501
 20
7.3784207597
 30
0.0
 10
6.3320181327
 20
7.3753517486
 30
0.0
 10
6.315510985
 20
7.3710488867
 30
0.0
 10
6.2949962972
 20
7.3634299956
 30
0.0
 10
6.2709740274
 20
7.3512340722
 30
0.0
 10
6.2473964758
 20
7.336253546
 30
0.0
 10
6.2242635838
 20
7.318856488
 30
0.0
 10
6.2015629485
 20
7.2993691503
 30
0.0
 10
6.1869109779
 20
7.2853709649
 30
0.0
 10
6.1796320909
 20
7.2781130456
 30
0.0
  0
LINE
  5
3D9
100
AcDbEntity
  8
0
100
AcDbLine
 62
7
  6
CONTINUOUS
 10
6.7791923427
 20
9.464574684
 11
6.7748067392
 21
9.4637128107
  0
LINE
  5
3DA
100
AcDbEntity
  8
0
100
AcDbLine
 62
7
  6
CONTINUOUS
 10
6.7748067392
 20
9.4637128107
 11
6.7626923427
 21
9.4620551277
  0
LINE
  5
3DB
100
AcDbEntity
  8
0
100
AcDbLine
 62
7
  6
CONTINUOUS
 10
6.9789923427
 20
9.4726194209
 11
6.9748773989
 21
9.4724252359
  0
SPLINE
  5
3DC
100
AcDbEntity
  8
0
100
AcDbSpline
 62
7
  6
CONTINUOUS
 70
0
 71
3
 72
18
 73
14
 74
0
 42
0.0000001
 43
0.0000001
 44
0.0000000001
 40
0.0
 40
0.0
 40
0.0
 40
0.0
 40
0.0961076851
 40
0.2501339144
 40
0.4414688064
 40
0.6404431352
 40
0.8117394132
 40
0.8788837726
 40
0.9293213061
 40
0.963565951
 40
0.9845303075
 40
0.9956574875
 40
1.0
 40
1.0
 40
1.0
 40
1.0
 10
6.9748773989
 20
9.4724252359
 30
0.0
 10
6.9722883307
 20
9.4723396383
 30
0.0
 10
6.9655472378
 20
9.4722038141
 30
0.0
 10
6.9536486969
 20
9.4720723939
 30
0.0
 10
6.9389768919
 20
9.4719709769
 30
0.0
 10
6.9238392846
 20
9.4719975919
 30
0.0
 10
6.9120494462
 20
9.4720812697
 30
0.0
 10
6.9042636358
 20
9.4721802669
 30
0.0
 10
6.9001720883
 20
9.472263931
 30
0.0
 10
6.897325853
 20
9.4723530671
 30
0.0
 10
6.8955395347
 20
9.4724342641
 30
0.0
 10
6.8945595904
 20
9.4724983874
 30
0.0
 10
6.894144098
 20
9.4725348702
 30
0.0
 10
6.8940279034
 20
9.4725489779
 30
0.0
  0
SPLINE
  5
3DD
100
AcDbEntity
  8
0
100
AcDbSpline
 62
7
  6
CONTINUOUS
 70
0
 71
3
 72
22
 73
18
 74
0
 42
0.0000001
 43
0.0000001
 44
0.0000000001
 40
0.0
 40
0.0
 40
0.0
 40
0.0
 40
0.0016976621
 40
0.005216852
 40
0.0108639977
 40
0.0186827426
 40
0.040829728
 40
0.0715738239
 40
0.1107788773
 40
0.1582839579
 40
0.2137862329
 40
0.2768970238
 40
0.3472251743
 40
0.4243788053
 40
0.5974492395
 40
0.7912602956
 40
1.0
 40
1.0
 40
1.0
 40
1.0
 10
6.7291923427
 20
9.4576039178
 30
0.0
 10
6.7291923427
 20
9.4575945331
 30
0.0
 10
6.7292214936
 20
9.4575741059
 30
0.0
 10
6.7292773894
 20
9.4575641628
 30
0.0
 10
6.7293722299
 20
9.4575514279
 30
0.0
 10
6.729568032
 20
9.4575424542
 30
0.0
 10
6.7299044498
 20
9.4575431481
 30
0.0
 10
6.7304129501
 20
9.457561046
 30
0.0
 10
6.7310614545
 20
9.4575959414
 30
0.0
 10
6.7318458175
 20
9.4576484872
 30
0.0
 10
6.7327614885
 20
9.4577182885
 30
0.0
 10
6.7338023589
 20
9.4578049335
 30
0.0
 10
6.7349619613
 20
9.4579078922
 30
0.0
 10
6.7367263069
 20
9.4580726339
 30
0.0
 10
6.7391689285
 20
9.45831536
 30
0.0
 10
6.7423335633
 20
9.4586478276
 30
0.0
 10
6.7445455845
 20
9.4588906911
 30
0.0
 10
6.7456923427
 20
9.45901901
 30
0.0
  0
LINE
  5
3DE
100
AcDbEntity
  8
0
100
AcDbLine
 62
7
  6
CONTINUOUS
 10
7.1486923427
 20
9.4575355131
 11
7.1349315049
 21
9.4598440076
  0
LINE
  5
3DF
100
AcDbEntity
  8
0
100
AcDbLine
 62
7
  6
CONTINUOUS
 10
7.1349315049
 20
9.4598440076
 11
7.1302255479
 21
9.4608565934
  0
LINE
  5
3E0
100
AcDbEntity
  8
0
100
AcDbLine
 62
7
  6
CONTINUOUS
 10
6.8356923427
 20
9.4686083807
 11
6.8270606334
 21
9.4682048999
  0
SPLINE
  5
3E1
100
AcDbEntity
  8
0
100
AcDbSpline
 62
7
  6
CONTINUOUS
 70
0
 71
3
 72
18
 73
14
 74
0
 42
0.0000001
 43
0.0000001
 44
0.0000000001
 40
0.0
 40
0.0
 40
0.0
 40
0.0
 40
0.2236089814
 40
0.4222890432
 40
0.5941650337
 40
0.7373666825
 40
0.850223033
 40
0.8949774609
 40
0.9318345221
 40
0.9607190724
 40
0.9815805134
 40
0.9944554705
 40
1.0
 40
1.0
 40
1.0
 40
1.0
 10
6.8270606334
 20
9.4682048999
 30
0.0
 10
6.8264732331
 20
9.4681821379
 30
0.0
 10
6.8253638157
 20
9.4681416281
 30
0.0
 10
6.8238025728
 20
9.4680935403
 30
0.0
 10
6.8224522776
 20
9.4680617941
 30
0.0
 10
6.8213274963
 20
9.4680465679
 30
0.0
 10
6.8205363543
 20
9.4680475849
 30
0.0
 10
6.8200256498
 20
9.4680584321
 30
0.0
 10
6.8197344703
 20
9.4680705066
 30
0.0
 10
6.8195096528
 20
9.468084808
 30
0.0
 10
6.8193405343
 20
9.4681060002
 30
0.0
 10
6.8192492903
 20
9.4681221979
 30
0.0
 10
6.8191923427
 20
9.4681484479
 30
0.0
 10
6.8191923427
 20
9.4681630238
 30
0.0
  0
SPLINE
  5
3E2
100
AcDbEntity
  8
0
100
AcDbSpline
 62
7
  6
CONTINUOUS
 70
0
 71
3
 72
23
 73
19
 74
0
 42
0.0000001
 43
0.0000001
 44
0.0000000001
 40
0.0
 40
0.0
 40
0.0
 40
0.0
 40
0.2070245838
 40
0.3991898146
 40
0.5710182748
 40
0.6479792372
 40
0.7183471037
 40
0.7816641548
 40
0.837545745
 40
0.8856405442
 40
0.9255994739
 40
0.957102128
 40
0.9696275042
 40
0.9799861946
 40
0.9881706932
 40
0.9941831049
 40
0.9980569527
 40
1.0
 40
1.0
 40
1.0
 40
1.0
 10
6.6726923427
 20
9.4481243813
 30
0.0
 10
6.6738380577
 20
9.4483384611
 30
0.0
 10
6.6760464355
 20
9.4487556503
 30
0.0
 10
6.679202654
 20
9.4493667401
 30
0.0
 10
6.6816373211
 20
9.4498521516
 30
0.0
 10
6.6833974841
 20
9.4502134109
 30
0.0
 10
6.6845581567
 20
9.4504568914
 30
0.0
 10
6.6856015088
 20
9.4506815405
 30
0.0
 10
6.6865209306
 20
9.4508859124
 30
0.0
 10
6.6873104522
 20
9.4510685978
 30
0.0
 10
6.6879643242
 20
9.4512282464
 30
0.0
 10
6.6884217331
 20
9.4513486176
 30
0.0
 10
6.688715721
 20
9.4514338352
 30
0.0
 10
6.6888828075
 20
9.4514865469
 30
0.0
 10
6.6890126703
 20
9.451531942
 30
0.0
 10
6.6891081058
 20
9.451572124
 30
0.0
 10
6.6891641216
 20
9.4516016077
 30
0.0
 10
6.6891923427
 20
9.4516274079
 30
0.0
 10
6.6891923427
 20
9.4516383472
 30
0.0
  0
LINE
  5
3E3
100
AcDbEntity
  8
0
100
AcDbLine
 62
7
  6
CONTINUOUS
 10
6.8191923427
 20
9.4671597684
 11
6.8212525244
 21
9.4670453185
  0
LINE
  5
3E4
100
AcDbEntity
  8
0
100
AcDbLine
 62
7
  6
CONTINUOUS
 10
6.8212525244
 20
9.4670453185
 11
6.8356923427
 21
9.4676054104
  0
SPLINE
  5
3E5
100
AcDbEntity
  8
0
100
AcDbSpline
 62
7
  6
CONTINUOUS
 70
0
 71
3
 72
22
 73
18
 74
0
 42
0.0000001
 43
0.0000001
 44
0.0000000001
 40
0.0
 40
0.0
 40
0.0
 40
0.0
 40
0.2081181728
 40
0.4010184792
 40
0.5731251688
 40
0.6500610367
 40
0.7203144398
 40
0.7834408952
 40
0.8390713064
 40
0.8868786118
 40
0.926538327
 40
0.9577504407
 40
0.980363176
 40
0.9884259617
 40
0.9943290012
 40
0.9981108634
 40
1.0
 40
1.0
 40
1.0
 40
1.0
 10
6.7626923427
 20
9.4610479038
 30
0.0
 10
6.7638425058
 20
9.4611937289
 30
0.0
 10
6.7660581608
 20
9.4614792422
 30
0.0
 10
6.7692227892
 20
9.4619019776
 30
0.0
 10
6.7716611923
 20
9.4622417814
 30
0.0
 10
6.7734214405
 20
9.4624974327
 30
0.0
 10
6.7745801364
 20
9.4626709682
 30
0.0
 10
6.7756205904
 20
9.4628325531
 30
0.0
 10
6.7765365215
 20
9.4629811704
 30
0.0
 10
6.7773221904
 20
9.4631158097
 30
0.0
 10
6.7779725635
 20
9.463235482
 30
0.0
 10
6.7784825971
 20
9.4633391397
 30
0.0
 10
6.7788190415
 20
9.4634181878
 30
0.0
 10
6.7790139799
 20
9.46347435
 30
0.0
 10
6.7791086065
 20
9.4635086724
 30
0.0
 10
6.7791642684
 20
9.4635341031
 30
0.0
 10
6.7791923427
 20
9.4635585829
 30
0.0
 10
6.7791923427
 20
9.4635691068
 30
0.0
  0
LINE
  5
3E6
100
AcDbEntity
  8
0
100
AcDbLine
 62
7
  6
CONTINUOUS
 10
6.6891923427
 20
9.4526517649
 11
6.6847384789
 21
9.4515104873
  0
LINE
  5
3E7
100
AcDbEntity
  8
0
100
AcDbLine
 62
7
  6
CONTINUOUS
 10
6.6847384789
 20
9.4515104873
 11
6.6726923427
 21
9.4491401317
  0
LINE
  5
3E8
100
AcDbEntity
  8
0
100
AcDbLine
 62
7
  6
CONTINUOUS
 10
6.7456923427
 20
9.460027563
 11
6.73706042
 21
9.4591164209
  0
SPLINE
  5
3E9
100
AcDbEntity
  8
0
100
AcDbSpline
 62
7
  6
CONTINUOUS
 70
0
 71
3
 72
18
 73
14
 74
0
 42
0.0000001
 43
0.0000001
 44
0.0000000001
 40
0.0
 40
0.0
 40
0.0
 40
0.0
 40
0.223710025
 40
0.4225604125
 40
0.5946184734
 40
0.7379564899
 40
0.8508483258
 40
0.8955741555
 40
0.9323698634
 40
0.961159092
 40
0.9818906201
 40
0.9946036603
 40
1.0
 40
1.0
 40
1.0
 40
1.0
 10
6.73706042
 20
9.4591164209
 30
0.0
 10
6.7364738782
 20
9.4590592055
 30
0.0
 10
6.7353657275
 20
9.4589535834
 30
0.0
 10
6.7338055625
 20
9.4588137954
 30
0.0
 10
6.7324553684
 20
9.4587026999
 30
0.0
 10
6.731330159
 20
9.4586213763
 30
0.0
 10
6.7305382872
 20
9.4585760132
 30
0.0
 10
6.7300269232
 20
9.4585569263
 30
0.0
 10
6.7297353842
 20
9.4585521115
 30
0.0
 10
6.729510487
 20
9.4585530531
 30
0.0
 10
6.7293409234
 20
9.4585650626
 30
0.0
 10
6.7292501011
 20
9.4585748799
 30
0.0
 10
6.7291923427
 20
9.4585991842
 30
0.0
 10
6.7291923427
 20
9.4586133999
 30
0.0
  0
ENDSEC
  0
SECTION
  2
OBJECTS
  0
DICTIONARY
  5
C
100
AcDbDictionary
280
0
281
1
  3
ACAD_GROUP
350
D
  3
ACAD_MLINESTYLE
350
17
  3
ACAD_LAYOUT
350
1A
  3
ACAD_PLOTSETTINGS
350
19
  3
ACAD_PLOTSTYLENAME
350
E
  0
DICTIONARY
  5
D
102
{ACAD_REACTORS
330
C
102
}
100
AcDbDictionary
280
0
281
1
  0
ACDBDICTIONARYWDFLT
  5
E
102
{ACAD_REACTORS
330
C
102
}
100
AcDbDictionary
281
1
  3
Normal
350
F
100
AcDbDictionaryWithDefault
340
F
  0
DICTIONARY
  5
17
102
{ACAD_REACTORS
330
C
102
}
100
AcDbDictionary
280
0
281
1
  3
Standard
350
18
  0
DICTIONARY
  5
19
102
{ACAD_REACTORS
330
C
102
}
100
AcDbDictionary
281
1
  0
DICTIONARY
  5
1A
102
{ACAD_REACTORS
330
C
102
}
100
AcDbDictionary
281
1
  3
Model
350
3EA
  3
Layout1
350
3EB
  0
ACDBPLACEHOLDER
  5
F
102
{ACAD_REACTORS
330
E
102
}
  0
MLINESTYLE
  5
18
102
{ACAD_REACTORS
330
17
102
}
100
AcDbMlineStyle
  2
STANDARD
 70
0
  3

 62
256
 51
90.0
 52
90.0
 71
2
 49
0.5
 62
256
  6
BYLAYER
 49
-0.5
 62
256
  6
BYLAYER
  0
LAYOUT
  5
3EA
102
{ACAD_REACTORS
330
1A
102
}
100
AcDbPlotSettings
  1

  2
none_device
  4
ANSI_C_(22.00_x_17.00_Inches)
  6

 40
0.0
 41
0.0
 42
0.0
 43
0.0
 44
558.8
 45
431.8
 46
0.0
 47
0.0
 48
0.0
 49
0.0
140
0.0
141
0.0
142
1.0
143
1.0
 70
1024
 72
0
 73
0
 74
0
  7

 75
0
147
1.0
148
0.0
149
0.0
100
AcDbLayout
  1
Model
 70
0
 71
0
 10
0.0
 20
0.0
 11
22.0
 21
17.0
 12
0.0
 22
0.0
 32
0.0
 14
0.0
 24
0.0
 34
0.0
 15
0.0
 25
0.0
 35
0.0
146
0.0
 13
0.0
 23
0.0
 33
0.0
 16
1.0
 26
0.0
 36
0.0
 17
0.0
 27
1.0
 37
0.0
 76
0
330
202
345
0
346
0
  0
LAYOUT
  5
3EB
102
{ACAD_REACTORS
330
1A
102
}
100
AcDbPlotSettings
  1

  2
none_device
  4
ANSI_C_(22.00_x_17.00_Inches)
  6

 40
0.0
 41
0.0
 42
0.0
 43
0.0
 44
558.8
 45
431.8
 46
0.0
 47
0.0
 48
0.0
 49
0.0
140
0.0
141
0.0
142
1.0
143
1.0
 70
0
 72
0
 73
0
 74
0
  7

 75
0
147
1.0
148
0.0
149
0.0
100
AcDbLayout
  1
Layout1
 70
0
 71
1
 10
0.0
 20
0.0
 11
22.0
 21
17.0
 12
0.0
 22
0.0
 32
0.0
 14
0.0
 24
0.0
 34
0.0
 15
0.0
 25
0.0
 35
0.0
146
0.0
 13
0.0
 23
0.0
 33
0.0
 16
1.0
 26
0.0
 36
0.0
 17
0.0
 27
1.0
 37
0.0
 76
0
330
203
345
0
346
0
  0
ENDSEC
  0
EOF
