999
DXF file: E:\BT Custom\CADOUTPUT\_TOP.dxf
999
Pro/ENGINEER 2018400 by Parametric Technology Corporation
  0
SECTION
  2
HEADER
  9
$ACADVER
  1
AC1018
  9
$DWGCODEPAGE
  3
ANSI_1252
  9
$EXTMAX
 10
22.0
 20
17.0
 30
0.0
  9
$EXTMIN
 10
0.0
 20
0.0
 30
0.0
  9
$LIMMIN
 10
0.0
 20
0.0
  9
$LIMMAX
 10
22.0
 20
17.0
  9
$VIEWCTR
 10
11.0
 20
8.5
  9
$VIEWSIZE
 40
17.0
  9
$CLAYER
  8
0
  9
$LTSCALE
 40
1.21
  9
$CELTYPE
  6
BYLAYER
  9
$DIMSCALE
 40
1.0
  9
$DIMASZ
 40
0.1
  9
$DIMEXO
 40
0.0625
  9
$DIMDLI
 40
0.836
  9
$DIMEXE
 40
0.125
  9
$DIMCEN
 40
0.198
  9
$DIMLFAC
 40
1.0
  9
$DIMBLK
  1
_FILLED
  9
$DIMALT
 70
1
  9
$DIMALTD
 70
2
  9
$DIMALTTD
 70
2
  9
$DIMALTF
 40
25.4
  9
$DIMTXT
 40
0.08
  9
$DIMTOL
 70
1
  9
$DIMLIM
 70
0
  9
$DIMTFAC
 40
1.0
  9
$DIMTP
 40
0.001
  9
$DIMTM
 40
0.001
  9
$DIMGAP
 40
0.09
  9
$DIMDSEP
 70
46
  9
$AUNITS
 70
0
  9
$PDMODE
 70
3
  9
$PDSIZE
 40
0.06
  9
$HANDSEED
  5
353
  9
$TILEMODE
 70
1
  9
$MEASUREMENT
 70
0
  9
$INSUNITS
 70
1
  0
ENDSEC
  0
SECTION
  2
CLASSES
  0
CLASS
  1
ACDBDICTIONARYWDFLT
  2
AcDbDictionaryWithDefault
  3
AutoCAD 2000
 90
0
 91
1
280
0
281
0
  0
CLASS
  1
ACDBPLACEHOLDER
  2
AcDbPlaceHolder
  3
AutoCAD 2000
 90
0
 91
1
280
0
281
0
  0
CLASS
  1
LAYOUT
  2
AcDbLayout
  3
AutoCAD 2000
 90
0
 91
0
280
0
281
0
  0
ENDSEC
  0
SECTION
  2
TABLES
  0
TABLE
  2
VPORT
  5
8
100
AcDbSymbolTable
 70
2
  0
VPORT
  5
1F4
100
AcDbSymbolTableRecord
100
AcDbViewportTableRecord
  2
*ACTIVE
 70
0
 10
0.0
 20
0.0
 11
1.0
 21
1.0
 12
11.0
 22
8.5
 13
0.0
 23
0.0
 14
1.0
 24
1.0
 15
0.0
 25
0.0
 16
0.0
 26
0.0
 36
1.0
 17
0.0
 27
0.0
 37
0.0
 40
17.0
 41
1.2941176471
 42
50.0
 43
0.0
 44
0.0
 50
0.0
 51
0.0
 71
0
 72
100
 73
1
 74
1
 75
0
 76
0
 77
0
 78
0
  0
ENDTAB
  0
TABLE
  2
LTYPE
  5
5
100
AcDbSymbolTable
 70
6
  0
LTYPE
  5
14
100
AcDbSymbolTableRecord
100
AcDbLinetypeTableRecord
  2
BYBLOCK
 70
0
  3

 72
65
 73
0
 40
0.0
  0
LTYPE
  5
15
100
AcDbSymbolTableRecord
100
AcDbLinetypeTableRecord
  2
BYLAYER
 70
0
  3

 72
65
 73
0
 40
0.0
  0
LTYPE
  5
16
100
AcDbSymbolTableRecord
100
AcDbLinetypeTableRecord
  2
CONTINUOUS
 70
64
  3
Solid line
 72
65
 73
0
 40
0.0
  0
LTYPE
  5
1F5
100
AcDbSymbolTableRecord
100
AcDbLinetypeTableRecord
  2
CENTER
 70
64
  3
____ _ ____ _ ____ _ ____ _ ____ _ ____ _ ____
 72
65
 73
4
 40
0.6
 49
0.375
 74
0
 49
-0.075
 74
0
 49
0.075
 74
0
 49
-0.075
 74
0
  0
LTYPE
  5
1F6
100
AcDbSymbolTableRecord
100
AcDbLinetypeTableRecord
  2
HIDDEN
 70
64
  3
- - - - - - - - - - - - - - - - - - - -
 72
65
 73
2
 40
0.2
 49
0.1
 74
0
 49
-0.1
 74
0
  0
LTYPE
  5
1F7
100
AcDbSymbolTableRecord
100
AcDbLinetypeTableRecord
  2
PHANTOM
 70
64
  3
_____ _ _ _____ _ _ _____ _ _ _____
 72
65
 73
6
 40
0.8
 49
0.45
 74
0
 49
-0.05
 74
0
 49
0.1
 74
0
 49
-0.05
 74
0
 49
0.1
 74
0
 49
-0.05
 74
0
  0
LTYPE
  5
1F8
100
AcDbSymbolTableRecord
100
AcDbLinetypeTableRecord
  2
DOT
 70
64
  3
. . . . . . . . . . . . . . . . . . . .
 72
65
 73
2
 40
0.2
 49
0.1
 74
0
 49
-0.1
 74
0
  0
LTYPE
  5
1F9
100
AcDbSymbolTableRecord
100
AcDbLinetypeTableRecord
  2
DASHED
 70
64
  3
- - - - - - - - - - - - - - - - - - - -
 72
65
 73
2
 40
0.2
 49
0.1
 74
0
 49
-0.1
 74
0
  0
ENDTAB
  0
TABLE
  2
LAYER
  5
2
100
AcDbSymbolTable
 70
36
  0
LAYER
  5
10
100
AcDbSymbolTableRecord
100
AcDbLayerTableRecord
  2
0
 70
0
 62
7
  6
CONTINUOUS
370
-3
390
F
  0
LAYER
  5
1FA
100
AcDbSymbolTableRecord
100
AcDbLayerTableRecord
  2
DEFAULT_1
 70
0
 62
7
  6
CENTER
370
-3
390
F
  0
LAYER
  5
1FB
100
AcDbSymbolTableRecord
100
AcDbLayerTableRecord
  2
DEFAULT_2
 70
0
 62
8
  6
HIDDEN
370
-3
390
F
  0
LAYER
  5
1FC
100
AcDbSymbolTableRecord
100
AcDbLayerTableRecord
  2
DEFAULT_3
 70
0
 62
7
  6
PHANTOM
370
-3
390
F
  0
LAYER
  5
1FD
100
AcDbSymbolTableRecord
100
AcDbLayerTableRecord
  2
ALL_FEATURES
 70
0
 62
7
  6
CONTINUOUS
370
-3
390
F
  0
LAYER
  5
1FE
100
AcDbSymbolTableRecord
100
AcDbLayerTableRecord
  2
AXES_FEATURES
 70
0
 62
7
  6
CONTINUOUS
370
-3
390
F
  0
LAYER
  5
1FF
100
AcDbSymbolTableRecord
100
AcDbLayerTableRecord
  2
DIMENSIONS
 70
0
 62
7
  6
CONTINUOUS
370
-3
390
F
  0
ENDTAB
  0
TABLE
  2
STYLE
  5
3
100
AcDbSymbolTable
 70
1
  0
STYLE
  5
11
100
AcDbSymbolTableRecord
100
AcDbTextStyleTableRecord
  2
STANDARD
 70
0
 40
0.0
 41
0.8
 50
0.0
 71
0
 42
0.2
  3
txt
  4

  0
STYLE
  5
200
100
AcDbSymbolTableRecord
100
AcDbTextStyleTableRecord
  2
TEXTSTYLE_1
 70
0
 40
0.0
 41
0.8
 50
0.0
 71
0
 42
0.2
  3
gdt
  4

  0
ENDTAB
  0
TABLE
  2
VIEW
  5
6
100
AcDbSymbolTable
 70
0
  0
ENDTAB
  0
TABLE
  2
UCS
  5
7
100
AcDbSymbolTable
 70
0
  0
ENDTAB
  0
TABLE
  2
APPID
  5
9
100
AcDbSymbolTable
 70
1
  0
APPID
  5
201
100
AcDbSymbolTableRecord
100
AcDbRegAppTableRecord
  2
ACAD
 70
0
  0
ENDTAB
  0
TABLE
  2
BLOCK_RECORD
  5
1
100
AcDbSymbolTable
 70
0
  0
BLOCK_RECORD
  5
202
100
AcDbSymbolTableRecord
100
AcDbBlockTableRecord
  2
*Model_Space
  0
BLOCK_RECORD
  5
203
100
AcDbSymbolTableRecord
100
AcDbBlockTableRecord
  2
*Paper_Space
  0
BLOCK_RECORD
  5
204
100
AcDbSymbolTableRecord
100
AcDbBlockTableRecord
  2
_FILLED
  0
ENDTAB
  0
TABLE
  2
DIMSTYLE
  5
A
100
AcDbSymbolTable
 70
1
100
AcDbDimStyleTable
 71
0
  0
DIMSTYLE
105
205
100
AcDbSymbolTableRecord
100
AcDbDimStyleTableRecord
  2
STANDARD
 70
0
  3

  4

 40
1.0
 41
0.1
 42
0.0625
 43
0.38
 44
0.125
 45
0.0
 46
0.0
 47
0.001
 48
0.001
140
0.08
141
0.09
142
0.0
143
25.4
144
1.0
145
0.0
146
1.0
147
0.09
 71
1.0
 72
0.0
 73
1
 74
1
 75
0
 76
0
 77
0
 78
4
 79
1
170
1
171
2
172
0
173
0
174
0
175
0
176
0
177
0
178
0
270
2
179
3
271
3
272
3
273
2
274
2
275
0
280
0
281
0
282
0
283
1
284
4
285
0
286
0
287
3
288
0
340
11
278
46
341
204
342
204
343
204
344
204
  0
ENDTAB
  0
ENDSEC
  0
SECTION
  2
BLOCKS
  0
BLOCK
  5
20
100
AcDbEntity
  8
0
100
AcDbBlockBegin
  2
*Model_Space
 70
0
 10
0.0
 20
0.0
 30
0.0
  3
*Model_Space
  1

  0
ENDBLK
  5
21
100
AcDbEntity
  8
0
100
AcDbBlockEnd
  0
BLOCK
  5
1C
100
AcDbEntity
  8
0
100
AcDbBlockBegin
  2
*Paper_Space
 70
0
 10
0.0
 20
0.0
 30
0.0
  3
*Paper_Space
  1

  0
ENDBLK
  5
1D
100
AcDbEntity
  8
0
100
AcDbBlockEnd
  0
BLOCK
  5
206
100
AcDbEntity
  8
0
100
AcDbBlockBegin
  2
_FILLED
 70
64
 10
0.0
 20
0.0
  3
_FILLED
  1

  0
SOLID
  5
207
100
AcDbEntity
  8
0
  6
BYBLOCK
 62
0
100
AcDbTrace
 10
0.0
 20
0.0
 11
-1.0
 21
0.2
 12
-1.0
 22
-0.2
 13
-1.0
 23
-0.2
  0
ENDBLK
  5
208
100
AcDbEntity
  8
0
  6
BYBLOCK
 62
0
100
AcDbBlockEnd
  0
ENDSEC
  0
SECTION
  2
ENTITIES
  0
LINE
  5
209
100
AcDbEntity
  8
0
100
AcDbLine
 62
7
  6
CONTINUOUS
 10
10.6767502453
 20
-3.0420629129
 11
10.705439388
 21
-3.0508340641
  0
LINE
  5
20A
100
AcDbEntity
  8
0
100
AcDbLine
 62
7
  6
CONTINUOUS
 10
11.3891972885
 20
-3.2598798329
 11
11.4178864312
 21
-3.2686509841
  0
LINE
  5
20B
100
AcDbEntity
  8
0
100
AcDbLine
 62
7
  6
CONTINUOUS
 10
10.7051761461
 20
-2.9734367179
 11
10.7316645738
 21
-2.9875208648
  0
LINE
  5
20C
100
AcDbEntity
  8
0
100
AcDbLine
 62
7
  6
CONTINUOUS
 10
11.3629721027
 20
-3.3231930322
 11
11.3894605305
 21
-3.3372771791
  0
LINE
  5
20D
100
AcDbEntity
  8
0
100
AcDbLine
 62
7
  6
CONTINUOUS
 10
3.7708183383
 20
9.1061430515
 11
3.7708183383
 21
8.5831430515
  0
LINE
  5
20E
100
AcDbEntity
  8
0
100
AcDbLine
 62
7
  6
CONTINUOUS
 10
3.7908183383
 20
9.1261430515
 11
3.7908183383
 21
8.5631430515
  0
LINE
  5
20F
100
AcDbEntity
  8
0
100
AcDbLine
 62
7
  6
CONTINUOUS
 10
3.8708183383
 20
8.5631430515
 11
3.8708183383
 21
9.1261430515
  0
LINE
  5
210
100
AcDbEntity
  8
0
100
AcDbLine
 62
7
  6
CONTINUOUS
 10
3.7908183383
 20
9.1261430515
 11
3.7708183383
 21
9.1061430515
  0
LINE
  5
211
100
AcDbEntity
  8
0
100
AcDbLine
 62
7
  6
CONTINUOUS
 10
6.1598183383
 20
9.1261430515
 11
6.1598183383
 21
8.5631430515
  0
LINE
  5
212
100
AcDbEntity
  8
0
100
AcDbLine
 62
7
  6
CONTINUOUS
 10
6.2648183383
 20
8.5631430515
 11
6.2648183383
 21
9.1261430515
  0
LINE
  5
213
100
AcDbEntity
  8
0
100
AcDbLine
 62
7
  6
CONTINUOUS
 10
6.4648183383
 20
9.0416430515
 11
6.4648183383
 21
8.6476430515
  0
LINE
  5
214
100
AcDbEntity
  8
0
100
AcDbLine
 62
7
  6
CONTINUOUS
 10
6.5248183383
 20
8.6476430515
 11
6.5248183383
 21
8.6502208305
  0
LINE
  5
215
100
AcDbEntity
  8
0
100
AcDbLine
 62
7
  6
CONTINUOUS
 10
6.5248183383
 20
9.0390652724
 11
6.5248183383
 21
9.0416430515
  0
LINE
  5
216
100
AcDbEntity
  8
0
100
AcDbLine
 62
7
  6
CONTINUOUS
 10
6.4151186959
 20
9.0626411504
 11
6.6682871351
 21
9.5011417498
  0
LINE
  5
217
100
AcDbEntity
  8
0
100
AcDbLine
 62
7
  6
CONTINUOUS
 10
10.8653981077
 20
-2.8132147563
 11
10.8794822546
 21
-2.8397031841
  0
LINE
  5
218
100
AcDbEntity
  8
0
100
AcDbLine
 62
7
  6
CONTINUOUS
 10
11.215154422
 20
-3.471010713
 11
11.2292385689
 21
-3.4974991407
  0
LINE
  5
219
100
AcDbEntity
  8
0
100
AcDbLine
 62
7
  6
CONTINUOUS
 10
6.7823183383
 20
8.9286430515
 11
6.7823183383
 21
8.9106430515
  0
LINE
  5
21A
100
AcDbEntity
  8
0
100
AcDbLine
 62
7
  6
CONTINUOUS
 10
6.7823183383
 20
8.7836430515
 11
6.7823183383
 21
8.7596430515
  0
LINE
  5
21B
100
AcDbEntity
  8
0
100
AcDbLine
 62
7
  6
CONTINUOUS
 10
6.7988183383
 20
8.8878450253
 11
6.7988183383
 21
8.8064410777
  0
LINE
  5
21C
100
AcDbEntity
  8
0
100
AcDbLine
 62
7
  6
CONTINUOUS
 10
6.8388183383
 20
8.8064410777
 11
6.8388183383
 21
8.8346430515
  0
LINE
  5
21D
100
AcDbEntity
  8
0
100
AcDbLine
 62
7
  6
CONTINUOUS
 10
6.8398183383
 20
8.8641986758
 11
6.8398183383
 21
8.8881986758
  0
LINE
  5
21E
100
AcDbEntity
  8
0
100
AcDbLine
 62
7
  6
CONTINUOUS
 10
6.8553183383
 20
8.7596430515
 11
6.8553183383
 21
8.7836430515
  0
LINE
  5
21F
100
AcDbEntity
  8
0
100
AcDbLine
 62
7
  6
CONTINUOUS
 10
6.8553183383
 20
8.9106430515
 11
6.8553183383
 21
8.9286430515
  0
LINE
  5
220
100
AcDbEntity
  8
0
100
AcDbLine
 62
7
  6
CONTINUOUS
 10
6.8723183383
 20
8.9286430515
 11
6.8723183383
 21
8.9106430515
  0
LINE
  5
221
100
AcDbEntity
  8
0
100
AcDbLine
 62
7
  6
CONTINUOUS
 10
6.8723183383
 20
8.7836430515
 11
6.8723183383
 21
8.7596430515
  0
LINE
  5
222
100
AcDbEntity
  8
0
100
AcDbLine
 62
7
  6
CONTINUOUS
 10
6.8878183383
 20
8.8881986758
 11
6.8878183383
 21
8.8641986758
  0
LINE
  5
223
100
AcDbEntity
  8
0
100
AcDbLine
 62
7
  6
CONTINUOUS
 10
6.8888183383
 20
8.8346430515
 11
6.8888183383
 21
8.8064410777
  0
LINE
  5
224
100
AcDbEntity
  8
0
100
AcDbLine
 62
7
  6
CONTINUOUS
 10
6.9288183383
 20
8.8064410777
 11
6.9288183383
 21
8.8878450253
  0
LINE
  5
225
100
AcDbEntity
  8
0
100
AcDbLine
 62
7
  6
CONTINUOUS
 10
6.9453183383
 20
8.7596430515
 11
6.9453183383
 21
8.7836430515
  0
LINE
  5
226
100
AcDbEntity
  8
0
100
AcDbLine
 62
7
  6
CONTINUOUS
 10
6.9453183383
 20
8.9106430515
 11
6.9453183383
 21
8.9286430515
  0
LINE
  5
227
100
AcDbEntity
  8
0
100
AcDbLine
 62
7
  6
CONTINUOUS
 10
7.1853183383
 20
8.7836430515
 11
7.1853183383
 21
8.7596430515
  0
LINE
  5
228
100
AcDbEntity
  8
0
100
AcDbLine
 62
7
  6
CONTINUOUS
 10
7.2038183383
 20
8.9077430515
 11
7.2038183383
 21
8.8151033439
  0
LINE
  5
229
100
AcDbEntity
  8
0
100
AcDbLine
 62
7
  6
CONTINUOUS
 10
7.2398183383
 20
8.8151033439
 11
7.2398183383
 21
8.9077430515
  0
LINE
  5
22A
100
AcDbEntity
  8
0
100
AcDbLine
 62
7
  6
CONTINUOUS
 10
7.2583183383
 20
8.7596430515
 11
7.2583183383
 21
8.7836430515
  0
LINE
  5
22B
100
AcDbEntity
  8
0
100
AcDbLine
 62
7
  6
CONTINUOUS
 10
7.1463183383
 20
8.9286430515
 11
7.1373183383
 21
8.9071283329
  0
LINE
  5
22C
100
AcDbEntity
  8
0
100
AcDbLine
 62
7
  6
CONTINUOUS
 10
7.2978330569
 20
8.8986430515
 11
7.3063183383
 21
8.9071283329
  0
LINE
  5
22D
100
AcDbEntity
  8
0
100
AcDbLine
 62
7
  6
CONTINUOUS
 10
3.7908183383
 20
8.5631430515
 11
3.7708183383
 21
8.5831430515
  0
LINE
  5
22E
100
AcDbEntity
  8
0
100
AcDbLine
 62
7
  6
CONTINUOUS
 10
7.5698183383
 20
9.0406430515
 11
7.5698183383
 21
9.0390652724
  0
LINE
  5
22F
100
AcDbEntity
  8
0
100
AcDbLine
 62
7
  6
CONTINUOUS
 10
7.5698183383
 20
8.6502208305
 11
7.5698183383
 21
8.6486430515
  0
LINE
  5
230
100
AcDbEntity
  8
0
100
AcDbLine
 62
9
  6
CONTINUOUS
 10
7.584008084
 20
8.6486430515
 11
7.584008084
 21
8.7025191714
  0
LINE
  5
231
100
AcDbEntity
  8
0
100
AcDbLine
 62
9
  6
CONTINUOUS
 10
7.584008084
 20
8.9874183926
 11
7.584008084
 21
9.0406430515
  0
LINE
  5
232
100
AcDbEntity
  8
0
100
AcDbLine
 62
9
  6
CONTINUOUS
 10
7.6046335092
 20
8.6565001944
 11
7.6046335092
 21
8.8426720594
  0
LINE
  5
233
100
AcDbEntity
  8
0
100
AcDbLine
 62
9
  6
CONTINUOUS
 10
7.6046335092
 20
8.8466556578
 11
7.6046335092
 21
9.0327859086
  0
LINE
  5
234
100
AcDbEntity
  8
0
100
AcDbLine
 62
9
  6
CONTINUOUS
 10
7.8559581391
 20
9.0362866159
 11
7.8559581391
 21
8.6529994871
  0
LINE
  5
235
100
AcDbEntity
  8
0
100
AcDbLine
 62
7
  6
CONTINUOUS
 10
7.8829320814
 20
9.0246430515
 11
7.8829320814
 21
8.6646430515
  0
LINE
  5
236
100
AcDbEntity
  8
0
100
AcDbLine
 62
9
  6
CONTINUOUS
 10
7.9076140106
 20
9.0153804089
 11
7.9076140106
 21
8.6739056941
  0
LINE
  5
237
100
AcDbEntity
  8
0
100
AcDbLine
 62
9
  6
CONTINUOUS
 10
7.9567800806
 20
8.6396063308
 11
7.9567800806
 21
9.0496797722
  0
LINE
  5
238
100
AcDbEntity
  8
0
100
AcDbLine
 62
7
  6
CONTINUOUS
 10
7.7250761554
 20
8.7055540259
 11
7.4263495415
 21
8.1881443531
  0
LINE
  5
239
100
AcDbEntity
  8
0
100
AcDbLine
 62
7
  6
CONTINUOUS
 10
7.9567800806
 20
9.0496797722
 11
7.9076140106
 21
9.0153804089
  0
LINE
  5
23A
100
AcDbEntity
  8
0
100
AcDbLine
 62
7
  6
CONTINUOUS
 10
6.2648183383
 20
8.5631430515
 11
6.4648183383
 21
8.6476430515
  0
LINE
  5
23B
100
AcDbEntity
  8
0
100
AcDbLine
 62
7
  6
CONTINUOUS
 10
6.6682871352
 20
8.1881443529
 11
6.4151186959
 21
8.6266449526
  0
LINE
  5
23C
100
AcDbEntity
  8
0
100
AcDbLine
 62
7
  6
CONTINUOUS
 10
7.3063183383
 20
8.9071283329
 11
7.2973183383
 21
8.9286430515
  0
LINE
  5
23D
100
AcDbEntity
  8
0
100
AcDbLine
 62
7
  6
CONTINUOUS
 10
10.9340243027
 20
-2.7847888556
 11
10.9427954538
 21
-2.8134779982
  0
LINE
  5
23E
100
AcDbEntity
  8
0
100
AcDbLine
 62
7
  6
CONTINUOUS
 10
11.1518412227
 20
-3.4972358988
 11
11.1606123739
 21
-3.5259250414
  0
LINE
  5
23F
100
AcDbEntity
  8
0
100
AcDbLine
 62
7
  6
CONTINUOUS
 10
7.1373183383
 20
8.9071283329
 11
7.1458036197
 21
8.8986430515
  0
LINE
  5
240
100
AcDbEntity
  8
0
100
AcDbLine
 62
7
  6
CONTINUOUS
 10
7.4263494697
 20
9.5011418742
 11
7.723638675
 21
8.9862218662
  0
LINE
  5
241
100
AcDbEntity
  8
0
100
AcDbLine
 62
7
  6
CONTINUOUS
 10
7.9567800806
 20
8.6396063308
 11
7.9076140106
 21
8.6739056941
  0
LINE
  5
242
100
AcDbEntity
  8
0
100
AcDbLine
 62
7
  6
CONTINUOUS
 10
14.849009512
 20
8.8676430515
 11
14.8663183383
 21
8.8725831458
  0
LINE
  5
243
100
AcDbEntity
  8
0
100
AcDbLine
 62
7
  6
CONTINUOUS
 10
6.2648183383
 20
9.1261430515
 11
6.4648183383
 21
9.0416430515
  0
LINE
  5
244
100
AcDbEntity
  8
0
100
AcDbLine
 62
7
  6
CONTINUOUS
 10
14.1378565959
 20
8.6396063308
 11
14.1870226659
 21
8.6739056941
  0
LINE
  5
245
100
AcDbEntity
  8
0
100
AcDbLine
 62
7
  6
CONTINUOUS
 10
15.8298183383
 20
9.1261430515
 11
15.6298183383
 21
9.0416430515
  0
LINE
  5
246
100
AcDbEntity
  8
0
100
AcDbLine
 62
7
  6
CONTINUOUS
 10
15.4263476902
 20
8.1881430515
 11
14.6682889866
 21
8.1881430515
  0
LINE
  5
247
100
AcDbEntity
  8
0
100
AcDbLine
 62
7
  6
CONTINUOUS
 10
7.4263476902
 20
8.1881430515
 11
6.6682889866
 21
8.1881430515
  0
LINE
  5
248
100
AcDbEntity
  8
0
100
AcDbLine
 62
7
  6
CONTINUOUS
 10
18.3038183383
 20
8.5631430515
 11
18.2238183383
 21
8.5631430515
  0
LINE
  5
249
100
AcDbEntity
  8
0
100
AcDbLine
 62
7
  6
CONTINUOUS
 10
15.9348183383
 20
8.5631430515
 11
15.8298183383
 21
8.5631430515
  0
LINE
  5
24A
100
AcDbEntity
  8
0
100
AcDbLine
 62
7
  6
CONTINUOUS
 10
3.7908183383
 20
8.5631430515
 11
3.8708183383
 21
8.5631430515
  0
LINE
  5
24B
100
AcDbEntity
  8
0
100
AcDbLine
 62
7
  6
CONTINUOUS
 10
6.1598183383
 20
8.5631430515
 11
6.2648183383
 21
8.5631430515
  0
LINE
  5
24C
100
AcDbEntity
  8
0
100
AcDbLine
 62
7
  6
CONTINUOUS
 10
15.6298183383
 20
8.6476430515
 11
15.5698183383
 21
8.6476430515
  0
LINE
  5
24D
100
AcDbEntity
  8
0
100
AcDbLine
 62
7
  6
CONTINUOUS
 10
6.4648183383
 20
8.6476430515
 11
6.5248183383
 21
8.6476430515
  0
LINE
  5
24E
100
AcDbEntity
  8
0
100
AcDbLine
 62
7
  6
CONTINUOUS
 10
7.584008084
 20
8.6486430515
 11
7.5698183383
 21
8.6486430515
  0
LINE
  5
24F
100
AcDbEntity
  8
0
100
AcDbLine
 62
7
  6
CONTINUOUS
 10
14.5106285925
 20
8.6486430515
 11
14.5248183383
 21
8.6486430515
  0
LINE
  5
250
100
AcDbEntity
  8
0
100
AcDbLine
 62
7
  6
CONTINUOUS
 10
6.7823183383
 20
8.7596430515
 11
6.8553183383
 21
8.7596430515
  0
LINE
  5
251
100
AcDbEntity
  8
0
100
AcDbLine
 62
7
  6
CONTINUOUS
 10
6.8723183383
 20
8.7596430515
 11
6.9453183383
 21
8.7596430515
  0
LINE
  5
252
100
AcDbEntity
  8
0
100
AcDbLine
 62
7
  6
CONTINUOUS
 10
7.1853183383
 20
8.7596430515
 11
7.2583183383
 21
8.7596430515
  0
LINE
  5
253
100
AcDbEntity
  8
0
100
AcDbLine
 62
7
  6
CONTINUOUS
 10
15.0573183383
 20
8.7596430515
 11
15.2067966813
 21
8.7596430515
  0
LINE
  5
254
100
AcDbEntity
  8
0
100
AcDbLine
 62
7
  6
CONTINUOUS
 10
15.2373183383
 20
8.7596430515
 11
15.3218183383
 21
8.7596430515
  0
LINE
  5
255
100
AcDbEntity
  8
0
100
AcDbLine
 62
7
  6
CONTINUOUS
 10
15.1688183383
 20
8.7824136963
 11
15.1448183383
 21
8.7824136963
  0
LINE
  5
256
100
AcDbEntity
  8
0
100
AcDbLine
 62
7
  6
CONTINUOUS
 10
15.3174631264
 20
8.7836430515
 11
15.2896002186
 21
8.7836430515
  0
LINE
  5
257
100
AcDbEntity
  8
0
100
AcDbLine
 62
7
  6
CONTINUOUS
 10
6.8448183383
 20
8.8406430515
 11
6.8828183383
 21
8.8406430515
  0
LINE
  5
258
100
AcDbEntity
  8
0
100
AcDbLine
 62
7
  6
CONTINUOUS
 10
6.8818183383
 20
8.8581986758
 11
6.8458183383
 21
8.8581986758
  0
LINE
  5
259
100
AcDbEntity
  8
0
100
AcDbLine
 62
7
  6
CONTINUOUS
 10
15.2896002186
 20
8.9106430515
 11
15.3174631264
 21
8.9106430515
  0
LINE
  5
25A
100
AcDbEntity
  8
0
100
AcDbLine
 62
7
  6
CONTINUOUS
 10
7.1750156038
 20
8.9107430515
 11
7.2008183383
 21
8.9107430515
  0
LINE
  5
25B
100
AcDbEntity
  8
0
100
AcDbLine
 62
7
  6
CONTINUOUS
 10
7.2428183383
 20
8.9107430515
 11
7.2686210728
 21
8.9107430515
  0
LINE
  5
25C
100
AcDbEntity
  8
0
100
AcDbLine
 62
7
  6
CONTINUOUS
 10
15.3218183383
 20
8.9286430515
 11
15.2373183383
 21
8.9286430515
  0
LINE
  5
25D
100
AcDbEntity
  8
0
100
AcDbLine
 62
7
  6
CONTINUOUS
 10
15.1363183383
 20
8.9286430515
 11
15.0573183383
 21
8.9286430515
  0
LINE
  5
25E
100
AcDbEntity
  8
0
100
AcDbLine
 62
7
  6
CONTINUOUS
 10
14.8503183383
 20
8.9286430515
 11
14.8323183383
 21
8.9286430515
  0
LINE
  5
25F
100
AcDbEntity
  8
0
100
AcDbLine
 62
7
  6
CONTINUOUS
 10
7.2973183383
 20
8.9286430515
 11
7.1463183383
 21
8.9286430515
  0
LINE
  5
260
100
AcDbEntity
  8
0
100
AcDbLine
 62
7
  6
CONTINUOUS
 10
6.9453183383
 20
8.9286430515
 11
6.8723183383
 21
8.9286430515
  0
LINE
  5
261
100
AcDbEntity
  8
0
100
AcDbLine
 62
7
  6
CONTINUOUS
 10
6.8553183383
 20
8.9286430515
 11
6.7823183383
 21
8.9286430515
  0
LINE
  5
262
100
AcDbEntity
  8
0
100
AcDbLine
 62
7
  6
CONTINUOUS
 10
7.584008084
 20
9.0406430515
 11
7.5698183383
 21
9.0406430515
  0
LINE
  5
263
100
AcDbEntity
  8
0
100
AcDbLine
 62
7
  6
CONTINUOUS
 10
14.5106285925
 20
9.0406430515
 11
14.5248183383
 21
9.0406430515
  0
LINE
  5
264
100
AcDbEntity
  8
0
100
AcDbLine
 62
7
  6
CONTINUOUS
 10
15.6298183383
 20
9.0416430515
 11
15.5698183383
 21
9.0416430515
  0
LINE
  5
265
100
AcDbEntity
  8
0
100
AcDbLine
 62
7
  6
CONTINUOUS
 10
6.4648183383
 20
9.0416430515
 11
6.5248183383
 21
9.0416430515
  0
LINE
  5
266
100
AcDbEntity
  8
0
100
AcDbLine
 62
7
  6
CONTINUOUS
 10
18.3038183383
 20
9.1261430515
 11
18.2238183383
 21
9.1261430515
  0
LINE
  5
267
100
AcDbEntity
  8
0
100
AcDbLine
 62
7
  6
CONTINUOUS
 10
15.9348183383
 20
9.1261430515
 11
15.8298183383
 21
9.1261430515
  0
LINE
  5
268
100
AcDbEntity
  8
0
100
AcDbLine
 62
7
  6
CONTINUOUS
 10
3.7908183383
 20
9.1261430515
 11
3.8708183383
 21
9.1261430515
  0
LINE
  5
269
100
AcDbEntity
  8
0
100
AcDbLine
 62
7
  6
CONTINUOUS
 10
6.1598183383
 20
9.1261430515
 11
6.2648183383
 21
9.1261430515
  0
LINE
  5
26A
100
AcDbEntity
  8
0
100
AcDbLine
 62
7
  6
CONTINUOUS
 10
14.3695605212
 20
8.9837320771
 11
14.6682871351
 21
9.5011417498
  0
LINE
  5
26B
100
AcDbEntity
  8
0
100
AcDbLine
 62
7
  6
CONTINUOUS
 10
6.6682889864
 20
9.5011430515
 11
7.4263474303
 21
9.5011430515
  0
LINE
  5
26C
100
AcDbEntity
  8
0
100
AcDbLine
 62
7
  6
CONTINUOUS
 10
14.6682889864
 20
9.5011430515
 11
15.4263474303
 21
9.5011430515
  0
LINE
  5
26D
100
AcDbEntity
  8
0
100
AcDbLine
 62
7
  6
CONTINUOUS
 10
14.8663183383
 20
8.8135653537
 11
14.8497682267
 21
8.8206430515
  0
LINE
  5
26E
100
AcDbEntity
  8
0
100
AcDbLine
 62
9
  6
CONTINUOUS
 10
14.1378565959
 20
9.0496797722
 11
14.1378565959
 21
8.6396063308
  0
LINE
  5
26F
100
AcDbEntity
  8
0
100
AcDbLine
 62
9
  6
CONTINUOUS
 10
14.1870226659
 20
8.6739056941
 11
14.1870226659
 21
9.0153804089
  0
LINE
  5
270
100
AcDbEntity
  8
0
100
AcDbLine
 62
7
  6
CONTINUOUS
 10
14.2117045952
 20
8.6646430515
 11
14.2117045952
 21
9.0246430515
  0
LINE
  5
271
100
AcDbEntity
  8
0
100
AcDbLine
 62
9
  6
CONTINUOUS
 10
14.2386785374
 20
8.6529994871
 11
14.2386785374
 21
9.0362866159
  0
LINE
  5
272
100
AcDbEntity
  8
0
100
AcDbLine
 62
9
  6
CONTINUOUS
 10
14.4900031674
 20
9.0327676542
 11
14.4900031674
 21
8.8466140435
  0
LINE
  5
273
100
AcDbEntity
  8
0
100
AcDbLine
 62
9
  6
CONTINUOUS
 10
14.4900031674
 20
8.8426304452
 11
14.4900031674
 21
8.6565001944
  0
LINE
  5
274
100
AcDbEntity
  8
0
100
AcDbLine
 62
9
  6
CONTINUOUS
 10
14.5106285925
 20
9.0406430515
 11
14.5106285925
 21
8.9867669316
  0
LINE
  5
275
100
AcDbEntity
  8
0
100
AcDbLine
 62
9
  6
CONTINUOUS
 10
14.5106285925
 20
8.7018677104
 11
14.5106285925
 21
8.6486430515
  0
LINE
  5
276
100
AcDbEntity
  8
0
100
AcDbLine
 62
7
  6
CONTINUOUS
 10
14.5248183383
 20
8.6486430515
 11
14.5248183383
 21
8.6502208305
  0
LINE
  5
277
100
AcDbEntity
  8
0
100
AcDbLine
 62
7
  6
CONTINUOUS
 10
14.5248183383
 20
9.0390652724
 11
14.5248183383
 21
9.0406430515
  0
LINE
  5
278
100
AcDbEntity
  8
0
100
AcDbLine
 62
7
  6
CONTINUOUS
 10
10.9340243027
 20
-3.5259250414
 11
10.9427954538
 21
-3.4972358988
  0
LINE
  5
279
100
AcDbEntity
  8
0
100
AcDbLine
 62
7
  6
CONTINUOUS
 10
11.1518412227
 20
-2.8134779982
 11
11.1606123739
 21
-2.7847888556
  0
LINE
  5
27A
100
AcDbEntity
  8
0
100
AcDbLine
 62
7
  6
CONTINUOUS
 10
15.6795179806
 20
8.6266449526
 11
15.4263495415
 21
8.1881443531
  0
LINE
  5
27B
100
AcDbEntity
  8
0
100
AcDbLine
 62
7
  6
CONTINUOUS
 10
15.207763275
 20
8.818820975
 11
15.1944835282
 21
8.7968799258
  0
LINE
  5
27C
100
AcDbEntity
  8
0
100
AcDbLine
 62
7
  6
CONTINUOUS
 10
15.8298183383
 20
8.5631430515
 11
15.6298183383
 21
8.6476430515
  0
LINE
  5
27D
100
AcDbEntity
  8
0
100
AcDbLine
 62
7
  6
CONTINUOUS
 10
15.2163183383
 20
8.8136430515
 11
15.207763275
 21
8.818820975
  0
LINE
  5
27E
100
AcDbEntity
  8
0
100
AcDbLine
 62
7
  6
CONTINUOUS
 10
14.1378565959
 20
9.0496797722
 11
14.1870226659
 21
9.0153804089
  0
LINE
  5
27F
100
AcDbEntity
  8
0
100
AcDbLine
 62
7
  6
CONTINUOUS
 10
14.6682871352
 20
8.1881443529
 11
14.3709980016
 21
8.7030642368
  0
LINE
  5
280
100
AcDbEntity
  8
0
100
AcDbLine
 62
7
  6
CONTINUOUS
 10
15.0573183383
 20
8.9286430515
 11
15.0573183383
 21
8.9106430515
  0
LINE
  5
281
100
AcDbEntity
  8
0
100
AcDbLine
 62
7
  6
CONTINUOUS
 10
15.0573183383
 20
8.7836430515
 11
15.0573183383
 21
8.7596430515
  0
LINE
  5
282
100
AcDbEntity
  8
0
100
AcDbLine
 62
7
  6
CONTINUOUS
 10
15.0788183383
 20
8.8818724067
 11
15.0788183383
 21
8.8124136963
  0
LINE
  5
283
100
AcDbEntity
  8
0
100
AcDbLine
 62
7
  6
CONTINUOUS
 10
15.1148183383
 20
8.8124136963
 11
15.1148183383
 21
8.8818724067
  0
LINE
  5
284
100
AcDbEntity
  8
0
100
AcDbLine
 62
7
  6
CONTINUOUS
 10
15.1363183383
 20
8.9106430515
 11
15.1363183383
 21
8.9286430515
  0
LINE
  5
285
100
AcDbEntity
  8
0
100
AcDbLine
 62
7
  6
CONTINUOUS
 10
15.2373183383
 20
8.9286430515
 11
15.2373183383
 21
8.9106430515
  0
LINE
  5
286
100
AcDbEntity
  8
0
100
AcDbLine
 62
7
  6
CONTINUOUS
 10
15.2373183383
 20
8.7836430515
 11
15.2373183383
 21
8.7596430515
  0
LINE
  5
287
100
AcDbEntity
  8
0
100
AcDbLine
 62
7
  6
CONTINUOUS
 10
15.2473183383
 20
8.894518536
 11
15.2473183383
 21
8.799767567
  0
LINE
  5
288
100
AcDbEntity
  8
0
100
AcDbLine
 62
7
  6
CONTINUOUS
 10
15.2836002186
 20
8.9046430515
 11
15.2836002186
 21
8.7896430515
  0
LINE
  5
289
100
AcDbEntity
  8
0
100
AcDbLine
 62
7
  6
CONTINUOUS
 10
15.5698183383
 20
9.0416430515
 11
15.5698183383
 21
9.0390652724
  0
LINE
  5
28A
100
AcDbEntity
  8
0
100
AcDbLine
 62
7
  6
CONTINUOUS
 10
15.5698183383
 20
8.6502208305
 11
15.5698183383
 21
8.6476430515
  0
LINE
  5
28B
100
AcDbEntity
  8
0
100
AcDbLine
 62
7
  6
CONTINUOUS
 10
15.6298183383
 20
8.6476430515
 11
15.6298183383
 21
9.0416430515
  0
LINE
  5
28C
100
AcDbEntity
  8
0
100
AcDbLine
 62
7
  6
CONTINUOUS
 10
15.2067966813
 20
8.7596430515
 11
15.2163183383
 21
8.8136430515
  0
LINE
  5
28D
100
AcDbEntity
  8
0
100
AcDbLine
 62
7
  6
CONTINUOUS
 10
18.3038183383
 20
8.5631430515
 11
18.3238183383
 21
8.5831430515
  0
LINE
  5
28E
100
AcDbEntity
  8
0
100
AcDbLine
 62
7
  6
CONTINUOUS
 10
14.8663183383
 20
8.8725831458
 11
14.8503183383
 21
8.9286430515
  0
LINE
  5
28F
100
AcDbEntity
  8
0
100
AcDbLine
 62
7
  6
CONTINUOUS
 10
15.8298183383
 20
9.1261430515
 11
15.8298183383
 21
8.5631430515
  0
LINE
  5
290
100
AcDbEntity
  8
0
100
AcDbLine
 62
7
  6
CONTINUOUS
 10
15.9348183383
 20
8.5631430515
 11
15.9348183383
 21
9.1261430515
  0
LINE
  5
291
100
AcDbEntity
  8
0
100
AcDbLine
 62
7
  6
CONTINUOUS
 10
10.8653981077
 20
-3.4974991407
 11
10.8794822546
 21
-3.4710107129
  0
LINE
  5
292
100
AcDbEntity
  8
0
100
AcDbLine
 62
7
  6
CONTINUOUS
 10
11.215154422
 20
-2.8397031841
 11
11.2292385689
 21
-2.8132147563
  0
LINE
  5
293
100
AcDbEntity
  8
0
100
AcDbLine
 62
7
  6
CONTINUOUS
 10
15.4263494697
 20
9.5011418742
 11
15.6795179806
 21
9.0626411504
  0
LINE
  5
294
100
AcDbEntity
  8
0
100
AcDbLine
 62
7
  6
CONTINUOUS
 10
18.3038183383
 20
9.1261430515
 11
18.3238183383
 21
9.1061430515
  0
LINE
  5
295
100
AcDbEntity
  8
0
100
AcDbLine
 62
7
  6
CONTINUOUS
 10
18.2238183383
 20
9.1261430515
 11
18.2238183383
 21
8.5631430515
  0
LINE
  5
296
100
AcDbEntity
  8
0
100
AcDbLine
 62
7
  6
CONTINUOUS
 10
18.3038183383
 20
8.5631430515
 11
18.3038183383
 21
9.1261430515
  0
LINE
  5
297
100
AcDbEntity
  8
0
100
AcDbLine
 62
7
  6
CONTINUOUS
 10
18.3238183383
 20
8.5831430515
 11
18.3238183383
 21
9.1061430515
  0
LINE
  5
298
100
AcDbEntity
  8
0
100
AcDbLine
 62
7
  6
CONTINUOUS
 10
10.7051761461
 20
-3.3372771791
 11
10.7316645738
 21
-3.3231930322
  0
LINE
  5
299
100
AcDbEntity
  8
0
100
AcDbLine
 62
7
  6
CONTINUOUS
 10
11.3629721027
 20
-2.9875208648
 11
11.3894605305
 21
-2.9734367179
  0
LINE
  5
29A
100
AcDbEntity
  8
0
100
AcDbLine
 62
7
  6
CONTINUOUS
 10
10.6767502453
 20
-3.2686509841
 11
10.705439388
 21
-3.2598798329
  0
LINE
  5
29B
100
AcDbEntity
  8
0
100
AcDbLine
 62
7
  6
CONTINUOUS
 10
11.3891972885
 20
-3.0508340641
 11
11.4178864312
 21
-3.0420629129
  0
ARC
  5
29C
100
AcDbEntity
  8
0
100
AcDbCircle
 62
7
  6
CONTINUOUS
 10
4.0483391716
 20
8.8446430515
 40
0.3735208333
100
AcDbArc
 50
137.9864211384
 51
222.0135788616
  0
ARC
  5
29D
100
AcDbEntity
  8
0
100
AcDbCircle
 62
7
  6
CONTINUOUS
 10
6.7748183383
 20
8.8064410777
 40
0.024
100
AcDbArc
 50
288.2099568643
 51
360.0
  0
ARC
  5
29E
100
AcDbEntity
  8
0
100
AcDbCircle
 62
7
  6
CONTINUOUS
 10
6.8628183383
 20
8.8064410777
 40
0.024
100
AcDbArc
 50
180.0
 51
251.7900431357
  0
ARC
  5
29F
100
AcDbEntity
  8
0
100
AcDbCircle
 62
7
  6
CONTINUOUS
 10
6.8648183383
 20
8.8064410777
 40
0.024
100
AcDbArc
 50
288.2099568643
 51
360.0
  0
ARC
  5
2A0
100
AcDbEntity
  8
0
100
AcDbCircle
 62
7
  6
CONTINUOUS
 10
6.8448183383
 20
8.8346430515
 40
0.006
100
AcDbArc
 50
90.0
 51
180.0
  0
ARC
  5
2A1
100
AcDbEntity
  8
0
100
AcDbCircle
 62
7
  6
CONTINUOUS
 10
6.8828183383
 20
8.8346430515
 40
0.006
100
AcDbArc
 50
0.0
 51
90.0
  0
ARC
  5
2A2
100
AcDbEntity
  8
0
100
AcDbCircle
 62
7
  6
CONTINUOUS
 10
6.9528183383
 20
8.8064410777
 40
0.024
100
AcDbArc
 50
180.0
 51
251.7900431357
  0
ARC
  5
2A3
100
AcDbEntity
  8
0
100
AcDbCircle
 62
7
  6
CONTINUOUS
 10
7.0473183383
 20
8.8446430515
 40
1.18
100
AcDbArc
 50
11.0966390496
 51
166.4676278013
  0
ARC
  5
2A4
100
AcDbEntity
  8
0
100
AcDbCircle
 62
7
  6
CONTINUOUS
 10
7.0473183383
 20
8.8446430515
 40
1.18
100
AcDbArc
 50
193.5277317535
 51
348.9014223649
  0
ARC
  5
2A5
100
AcDbEntity
  8
0
100
AcDbCircle
 62
7
  6
CONTINUOUS
 10
7.0473183383
 20
8.8446430515
 40
1.0000026738
100
AcDbArc
 50
196.289570925
 51
346.3929954539
  0
ARC
  5
2A6
100
AcDbEntity
  8
0
100
AcDbCircle
 62
7
  6
CONTINUOUS
 10
7.0473183383
 20
8.8446430515
 40
1.0000026738
100
AcDbArc
 50
13.6070045461
 51
163.710429075
  0
ARC
  5
2A7
100
AcDbEntity
  8
0
100
AcDbCircle
 62
9
  6
CONTINUOUS
 10
7.0473183383
 20
8.8446430515
 40
0.8130026738
100
AcDbArc
 50
199.7134149383
 51
347.277710256
  0
ARC
  5
2A8
100
AcDbEntity
  8
0
100
AcDbCircle
 62
9
  6
CONTINUOUS
 10
7.0473183383
 20
8.8446430515
 40
0.8130026738
100
AcDbArc
 50
12.7259094292
 51
160.2867605439
  0
ARC
  5
2A9
100
AcDbEntity
  8
0
100
AcDbCircle
 62
7
  6
CONTINUOUS
 10
7.0473183383
 20
8.8446430515
 40
0.741
100
AcDbArc
 50
62.3704986062
 51
117.6295013938
  0
ARC
  5
2AA
100
AcDbEntity
  8
0
100
AcDbCircle
 62
7
  6
CONTINUOUS
 10
7.0473183383
 20
8.8446430515
 40
0.741
100
AcDbArc
 50
122.3704986062
 51
160.6015970028
  0
ARC
  5
2AB
100
AcDbEntity
  8
0
100
AcDbCircle
 62
7
  6
CONTINUOUS
 10
7.0473183383
 20
8.8446430515
 40
0.741
100
AcDbArc
 50
11.4220451493
 51
57.6295013938
  0
ARC
  5
2AC
100
AcDbEntity
  8
0
100
AcDbCircle
 62
7
  6
CONTINUOUS
 10
7.0473183383
 20
8.8446430515
 40
0.741
100
AcDbArc
 50
242.3704986062
 51
297.6295013938
  0
ARC
  5
2AD
100
AcDbEntity
  8
0
100
AcDbCircle
 62
7
  6
CONTINUOUS
 10
7.0473183383
 20
8.8446430515
 40
0.741
100
AcDbArc
 50
302.3704986062
 51
348.5779548507
  0
ARC
  5
2AE
100
AcDbEntity
  8
0
100
AcDbCircle
 62
7
  6
CONTINUOUS
 10
7.0473183383
 20
8.8446430515
 40
0.741
100
AcDbArc
 50
199.3984029972
 51
237.6295013938
  0
ARC
  5
2AF
100
AcDbEntity
  8
0
100
AcDbCircle
 62
7
  6
CONTINUOUS
 10
7.0473183383
 20
8.8446430515
 40
0.6515
100
AcDbArc
 50
13.1762553208
 51
161.0945735779
  0
ARC
  5
2B0
100
AcDbEntity
  8
0
100
AcDbCircle
 62
7
  6
CONTINUOUS
 10
7.0473183383
 20
8.8446430515
 40
0.6515
100
AcDbArc
 50
198.9054264221
 51
346.8237446792
  0
ARC
  5
2B1
100
AcDbEntity
  8
0
100
AcDbCircle
 62
9
  6
CONTINUOUS
 10
7.0473183383
 20
8.8446430515
 40
0.6146339942
100
AcDbArc
 50
15.7511800529
 51
161.3104590158
  0
ARC
  5
2B2
100
AcDbEntity
  8
0
100
AcDbCircle
 62
9
  6
CONTINUOUS
 10
7.0473183383
 20
8.8446430515
 40
0.6146339942
100
AcDbArc
 50
198.6895409842
 51
344.2488199471
  0
CIRCLE
  5
2B3
100
AcDbEntity
  8
0
100
AcDbCircle
 62
7
  6
CONTINUOUS
 10
7.0473183383
 20
8.8446430515
 40
0.5575
  0
CIRCLE
  5
2B4
100
AcDbEntity
  8
0
100
AcDbCircle
 62
7
  6
CONTINUOUS
 10
7.0473183383
 20
8.8446430515
 40
0.5291923153
  0
CIRCLE
  5
2B5
100
AcDbEntity
  8
0
100
AcDbCircle
 62
7
  6
CONTINUOUS
 10
7.0473183383
 20
8.8446430515
 40
0.5275
  0
CIRCLE
  5
2B6
100
AcDbEntity
  8
0
100
AcDbCircle
 62
7
  6
CONTINUOUS
 10
7.0473183383
 20
8.8446430515
 40
0.5052804212
  0
CIRCLE
  5
2B7
100
AcDbEntity
  8
0
100
AcDbCircle
 62
7
  6
CONTINUOUS
 10
7.0473183383
 20
8.8446430515
 40
0.4545099561
  0
CIRCLE
  5
2B8
100
AcDbEntity
  8
0
100
AcDbCircle
 62
7
  6
CONTINUOUS
 10
7.0473183383
 20
8.8446430515
 40
0.4275
  0
CIRCLE
  5
2B9
100
AcDbEntity
  8
0
100
AcDbCircle
 62
7
  6
CONTINUOUS
 10
7.0473183383
 20
8.8446430515
 40
0.4175
  0
CIRCLE
  5
2BA
100
AcDbEntity
  8
0
100
AcDbCircle
 62
9
  6
CONTINUOUS
 10
7.0473183383
 20
8.8446430515
 40
0.3951446396
  0
ARC
  5
2BB
100
AcDbEntity
  8
0
100
AcDbCircle
 62
7
  6
CONTINUOUS
 10
6.9528183383
 20
8.8878450253
 40
0.024
100
AcDbArc
 50
108.2099568643
 51
180.0
  0
ARC
  5
2BC
100
AcDbEntity
  8
0
100
AcDbCircle
 62
7
  6
CONTINUOUS
 10
6.8638183383
 20
8.8881986758
 40
0.024
100
AcDbArc
 50
0.0
 51
69.2576200455
  0
ARC
  5
2BD
100
AcDbEntity
  8
0
100
AcDbCircle
 62
7
  6
CONTINUOUS
 10
6.8638183383
 20
8.8881986758
 40
0.024
100
AcDbArc
 50
110.7423799545
 51
180.0
  0
ARC
  5
2BE
100
AcDbEntity
  8
0
100
AcDbCircle
 62
7
  6
CONTINUOUS
 10
6.7748183383
 20
8.8878450253
 40
0.024
100
AcDbArc
 50
0.0
 51
71.7900431357
  0
ARC
  5
2BF
100
AcDbEntity
  8
0
100
AcDbCircle
 62
7
  6
CONTINUOUS
 10
6.8818183383
 20
8.8641986758
 40
0.006
100
AcDbArc
 50
270.0
 51
360.0
  0
ARC
  5
2C0
100
AcDbEntity
  8
0
100
AcDbCircle
 62
7
  6
CONTINUOUS
 10
6.8458183383
 20
8.8641986758
 40
0.006
100
AcDbArc
 50
180.0
 51
270.0
  0
ARC
  5
2C1
100
AcDbEntity
  8
0
100
AcDbCircle
 62
7
  6
CONTINUOUS
 10
8.0998183383
 20
8.8446430515
 40
0.25
100
AcDbArc
 50
235.0995
 51
124.9005
  0
ARC
  5
2C2
100
AcDbEntity
  8
0
100
AcDbCircle
 62
7
  6
CONTINUOUS
 10
7.7283860602
 20
8.5176430515
 40
0.186
100
AcDbArc
 50
46.6958241998
 51
131.7081302521
  0
ARC
  5
2C3
100
AcDbEntity
  8
0
100
AcDbCircle
 62
7
  6
CONTINUOUS
 10
7.7283860602
 20
9.1716430515
 40
0.186
100
AcDbArc
 50
228.2918697479
 51
313.3041758002
  0
ARC
  5
2C4
100
AcDbEntity
  8
0
100
AcDbCircle
 62
7
  6
CONTINUOUS
 10
7.2686210728
 20
8.8694310674
 40
0.0413119841
100
AcDbArc
 50
44.9999999997
 51
90.0
  0
ARC
  5
2C5
100
AcDbEntity
  8
0
100
AcDbCircle
 62
7
  6
CONTINUOUS
 10
7.1750156038
 20
8.8694310674
 40
0.0413119841
100
AcDbArc
 50
90.0
 51
135.0000000003
  0
ARC
  5
2C6
100
AcDbEntity
  8
0
100
AcDbCircle
 62
7
  6
CONTINUOUS
 10
7.1678183383
 20
8.8151033439
 40
0.036
100
AcDbArc
 50
299.0852950607
 51
360.0
  0
ARC
  5
2C7
100
AcDbEntity
  8
0
100
AcDbCircle
 62
7
  6
CONTINUOUS
 10
7.2758183383
 20
8.8151033439
 40
0.036
100
AcDbArc
 50
180.0
 51
240.9147049393
  0
ARC
  5
2C8
100
AcDbEntity
  8
0
100
AcDbCircle
 62
7
  6
CONTINUOUS
 10
7.584008084
 20
9.0096430515
 40
0.031
100
AcDbArc
 50
48.2918697475
 51
90.0
  0
ARC
  5
2C9
100
AcDbEntity
  8
0
100
AcDbCircle
 62
7
  6
CONTINUOUS
 10
7.584008084
 20
8.6796430515
 40
0.031
100
AcDbArc
 50
270.0
 51
311.7081302525
  0
ARC
  5
2CA
100
AcDbEntity
  8
0
100
AcDbCircle
 62
7
  6
CONTINUOUS
 10
7.8984595621
 20
8.660783344
 40
0.016
100
AcDbArc
 50
55.0994999987
 51
166.0407512249
  0
ARC
  5
2CB
100
AcDbEntity
  8
0
100
AcDbCircle
 62
7
  6
CONTINUOUS
 10
7.8984595621
 20
9.028502759
 40
0.016
100
AcDbArc
 50
193.9592487751
 51
304.9005000013
  0
ARC
  5
2CC
100
AcDbEntity
  8
0
100
AcDbCircle
 62
7
  6
CONTINUOUS
 10
7.8669320814
 20
9.0246430515
 40
0.016
100
AcDbArc
 50
0.0
 51
133.3041758004
  0
ARC
  5
2CD
100
AcDbEntity
  8
0
100
AcDbCircle
 62
7
  6
CONTINUOUS
 10
7.8669320814
 20
8.6646430515
 40
0.016
100
AcDbArc
 50
226.6958241996
 51
360.0
  0
ARC
  5
2CE
100
AcDbEntity
  8
0
100
AcDbCircle
 62
7
  6
CONTINUOUS
 10
7.2428183383
 20
8.9077430515
 40
0.003
100
AcDbArc
 50
90.0
 51
179.9999999999
  0
ARC
  5
2CF
100
AcDbEntity
  8
0
100
AcDbCircle
 62
7
  6
CONTINUOUS
 10
7.2008183383
 20
8.9077430515
 40
0.003
100
AcDbArc
 50
0.0000000001
 51
90.0
  0
ARC
  5
2D0
100
AcDbEntity
  8
0
100
AcDbCircle
 62
7
  6
CONTINUOUS
 10
10.1987902009
 20
18.6931711889
 40
0.21
100
AcDbArc
 50
264.870833936
 51
5.1291660639
  0
ARC
  5
2D1
100
AcDbEntity
  8
0
100
AcDbCircle
 62
7
  6
CONTINUOUS
 10
10.1987902009
 20
16.9961149141
 40
0.21
100
AcDbArc
 50
354.8708339361
 51
95.129166064
  0
ARC
  5
2D2
100
AcDbEntity
  8
0
100
AcDbCircle
 62
7
  6
CONTINUOUS
 10
9.8473183383
 20
17.8446430515
 40
0.21
100
AcDbArc
 50
309.8708339358
 51
50.1291660642
  0
CIRCLE
  5
2D3
100
AcDbEntity
  8
0
100
AcDbCircle
 62
7
  6
CONTINUOUS
 10
11.0473183383
 20
-3.1553569485
 40
0.79
  0
CIRCLE
  5
2D4
100
AcDbEntity
  8
0
100
AcDbCircle
 62
7
  6
CONTINUOUS
 10
11.0473183383
 20
0.8446430515
 40
0.656
  0
CIRCLE
  5
2D5
100
AcDbEntity
  8
0
100
AcDbCircle
 62
7
  6
CONTINUOUS
 10
11.0473183383
 20
-3.1553569485
 40
0.495
  0
CIRCLE
  5
2D6
100
AcDbEntity
  8
0
100
AcDbCircle
 62
9
  6
CONTINUOUS
 10
11.0473183383
 20
-3.1553569485
 40
0.49
  0
CIRCLE
  5
2D7
100
AcDbEntity
  8
0
100
AcDbCircle
 62
9
  6
CONTINUOUS
 10
11.0473183383
 20
0.8446430515
 40
0.4795772124
  0
CIRCLE
  5
2D8
100
AcDbEntity
  8
0
100
AcDbCircle
 62
7
  6
CONTINUOUS
 10
11.0473183383
 20
-3.1553569485
 40
0.47
  0
ARC
  5
2D9
100
AcDbEntity
  8
0
100
AcDbCircle
 62
7
  6
CONTINUOUS
 10
11.0473183383
 20
0.8446430515
 40
0.46875
100
AcDbArc
 50
180.0
 51
179.9515465782
  0
ARC
  5
2DA
100
AcDbEntity
  8
0
100
AcDbCircle
 62
7
  6
CONTINUOUS
 10
11.0473183383
 20
0.8446430515
 40
0.46875
100
AcDbArc
 50
179.9515465782
 51
180.0
  0
CIRCLE
  5
2DB
100
AcDbEntity
  8
0
100
AcDbCircle
 62
7
  6
CONTINUOUS
 10
11.0473183383
 20
0.8446430515
 40
0.4635
  0
CIRCLE
  5
2DC
100
AcDbEntity
  8
0
100
AcDbCircle
 62
7
  6
CONTINUOUS
 10
11.0473183383
 20
-3.1553569485
 40
0.4625
  0
CIRCLE
  5
2DD
100
AcDbEntity
  8
0
100
AcDbCircle
 62
9
  6
CONTINUOUS
 10
11.0473183383
 20
-3.1553569485
 40
0.4272880871
  0
CIRCLE
  5
2DE
100
AcDbEntity
  8
0
100
AcDbCircle
 62
9
  6
CONTINUOUS
 10
11.0473183383
 20
-3.1553569485
 40
0.4181683849
  0
CIRCLE
  5
2DF
100
AcDbEntity
  8
0
100
AcDbCircle
 62
7
  6
CONTINUOUS
 10
11.0473183383
 20
-3.1553569485
 40
0.396
  0
CIRCLE
  5
2E0
100
AcDbEntity
  8
0
100
AcDbCircle
 62
7
  6
CONTINUOUS
 10
11.0473183383
 20
-3.1553569485
 40
0.395
  0
CIRCLE
  5
2E1
100
AcDbEntity
  8
0
100
AcDbCircle
 62
7
  6
CONTINUOUS
 10
11.0473183383
 20
-3.1553569485
 40
0.3875
  0
ARC
  5
2E2
100
AcDbEntity
  8
0
100
AcDbCircle
 62
7
  6
CONTINUOUS
 10
11.0473183383
 20
-3.1553569485
 40
0.375
100
AcDbArc
 50
196.9999999999
 51
208.0000000005
  0
ARC
  5
2E3
100
AcDbEntity
  8
0
100
AcDbCircle
 62
7
  6
CONTINUOUS
 10
11.0473183383
 20
-3.1553569485
 40
0.375
100
AcDbArc
 50
106.9999999998
 51
117.9999999998
  0
ARC
  5
2E4
100
AcDbEntity
  8
0
100
AcDbCircle
 62
7
  6
CONTINUOUS
 10
11.0473183383
 20
-3.1553569485
 40
0.375
100
AcDbArc
 50
152.0000000006
 51
162.9999999998
  0
ARC
  5
2E5
100
AcDbEntity
  8
0
100
AcDbCircle
 62
7
  6
CONTINUOUS
 10
11.0473183383
 20
-3.1553569485
 40
0.375
100
AcDbArc
 50
286.9999999998
 51
297.9999999998
  0
ARC
  5
2E6
100
AcDbEntity
  8
0
100
AcDbCircle
 62
7
  6
CONTINUOUS
 10
11.0473183383
 20
-3.1553569485
 40
0.375
100
AcDbArc
 50
16.9999999999
 51
28.0000000005
  0
ARC
  5
2E7
100
AcDbEntity
  8
0
100
AcDbCircle
 62
7
  6
CONTINUOUS
 10
11.0473183383
 20
-3.1553569485
 40
0.375
100
AcDbArc
 50
241.9999999999
 51
253.0000000001
  0
ARC
  5
2E8
100
AcDbEntity
  8
0
100
AcDbCircle
 62
7
  6
CONTINUOUS
 10
11.0473183383
 20
-3.1553569485
 40
0.375
100
AcDbArc
 50
332.0000000006
 51
342.9999999998
  0
ARC
  5
2E9
100
AcDbEntity
  8
0
100
AcDbCircle
 62
7
  6
CONTINUOUS
 10
11.0473183383
 20
-3.1553569485
 40
0.375
100
AcDbArc
 50
61.9999999999
 51
73.0000000001
  0
ARC
  5
2EA
100
AcDbEntity
  8
0
100
AcDbCircle
 62
7
  6
CONTINUOUS
 10
11.0473183383
 20
-3.1553569485
 40
0.3575
100
AcDbArc
 50
342.9999999998
 51
16.9999999998
  0
ARC
  5
2EB
100
AcDbEntity
  8
0
100
AcDbCircle
 62
7
  6
CONTINUOUS
 10
11.0473183383
 20
-3.1553569485
 40
0.3575
100
AcDbArc
 50
297.9999999998
 51
332.0000000007
  0
ARC
  5
2EC
100
AcDbEntity
  8
0
100
AcDbCircle
 62
7
  6
CONTINUOUS
 10
11.0473183383
 20
-3.1553569485
 40
0.3575
100
AcDbArc
 50
253.0000000001
 51
286.9999999998
  0
ARC
  5
2ED
100
AcDbEntity
  8
0
100
AcDbCircle
 62
7
  6
CONTINUOUS
 10
11.0473183383
 20
-3.1553569485
 40
0.3575
100
AcDbArc
 50
208.0000000006
 51
241.9999999998
  0
ARC
  5
2EE
100
AcDbEntity
  8
0
100
AcDbCircle
 62
7
  6
CONTINUOUS
 10
11.0473183383
 20
-3.1553569485
 40
0.3575
100
AcDbArc
 50
162.9999999998
 51
196.9999999998
  0
ARC
  5
2EF
100
AcDbEntity
  8
0
100
AcDbCircle
 62
7
  6
CONTINUOUS
 10
11.0473183383
 20
-3.1553569485
 40
0.3575
100
AcDbArc
 50
117.9999999998
 51
152.0000000007
  0
ARC
  5
2F0
100
AcDbEntity
  8
0
100
AcDbCircle
 62
7
  6
CONTINUOUS
 10
11.0473183383
 20
-3.1553569485
 40
0.3575
100
AcDbArc
 50
73.0000000001
 51
106.9999999998
  0
ARC
  5
2F1
100
AcDbEntity
  8
0
100
AcDbCircle
 62
7
  6
CONTINUOUS
 10
11.0473183383
 20
-3.1553569485
 40
0.3575
100
AcDbArc
 50
28.0000000006
 51
61.9999999998
  0
CIRCLE
  5
2F2
100
AcDbEntity
  8
0
100
AcDbCircle
 62
9
  6
CONTINUOUS
 10
11.0473183383
 20
0.8446430515
 40
0.346
  0
CIRCLE
  5
2F3
100
AcDbEntity
  8
0
100
AcDbCircle
 62
7
  6
CONTINUOUS
 10
11.0473183383
 20
0.8446430515
 40
0.3125
  0
CIRCLE
  5
2F4
100
AcDbEntity
  8
0
100
AcDbCircle
 62
7
  6
CONTINUOUS
 10
11.0473183383
 20
-3.1553569485
 40
0.3125
  0
CIRCLE
  5
2F5
100
AcDbEntity
  8
0
100
AcDbCircle
 62
9
  6
CONTINUOUS
 10
11.0473183383
 20
0.8446430515
 40
0.1279789985
  0
ARC
  5
2F6
100
AcDbEntity
  8
0
100
AcDbCircle
 62
7
  6
CONTINUOUS
 10
13.9948183383
 20
8.8446430515
 40
0.25
100
AcDbArc
 50
55.0995
 51
304.9005
  0
ARC
  5
2F7
100
AcDbEntity
  8
0
100
AcDbCircle
 62
7
  6
CONTINUOUS
 10
14.3662506164
 20
9.1716430515
 40
0.186
100
AcDbArc
 50
226.6958241998
 51
311.7081302521
  0
ARC
  5
2F8
100
AcDbEntity
  8
0
100
AcDbCircle
 62
7
  6
CONTINUOUS
 10
14.3662506164
 20
8.5176430515
 40
0.186
100
AcDbArc
 50
48.2918697479
 51
133.3041758002
  0
ARC
  5
2F9
100
AcDbEntity
  8
0
100
AcDbCircle
 62
7
  6
CONTINUOUS
 10
14.5106285925
 20
8.6796430515
 40
0.031
100
AcDbArc
 50
228.2918697475
 51
270.0
  0
ARC
  5
2FA
100
AcDbEntity
  8
0
100
AcDbCircle
 62
7
  6
CONTINUOUS
 10
14.5106285925
 20
9.0096430515
 40
0.031
100
AcDbArc
 50
90.0
 51
131.7081302525
  0
ARC
  5
2FB
100
AcDbEntity
  8
0
100
AcDbCircle
 62
7
  6
CONTINUOUS
 10
14.1961771144
 20
9.028502759
 40
0.016
100
AcDbArc
 50
235.0994999987
 51
346.0407512249
  0
ARC
  5
2FC
100
AcDbEntity
  8
0
100
AcDbCircle
 62
7
  6
CONTINUOUS
 10
14.1961771144
 20
8.660783344
 40
0.016
100
AcDbArc
 50
13.9592487751
 51
124.9005000013
  0
ARC
  5
2FD
100
AcDbEntity
  8
0
100
AcDbCircle
 62
7
  6
CONTINUOUS
 10
14.2277045952
 20
8.6646430515
 40
0.016
100
AcDbArc
 50
180.0
 51
313.3041758004
  0
ARC
  5
2FE
100
AcDbEntity
  8
0
100
AcDbCircle
 62
7
  6
CONTINUOUS
 10
14.2277045952
 20
9.0246430515
 40
0.016
100
AcDbArc
 50
46.6958241996
 51
180.0
  0
ARC
  5
2FF
100
AcDbEntity
  8
0
100
AcDbCircle
 62
7
  6
CONTINUOUS
 10
11.0473183383
 20
17.8446430515
 40
1.0775
100
AcDbArc
 50
143.6026297633
 51
171.3973702366
  0
ARC
  5
300
100
AcDbEntity
  8
0
100
AcDbCircle
 62
7
  6
CONTINUOUS
 10
11.0473183383
 20
17.8446430515
 40
1.0775
100
AcDbArc
 50
98.6026297633
 51
126.3973702367
  0
ARC
  5
301
100
AcDbEntity
  8
0
100
AcDbCircle
 62
7
  6
CONTINUOUS
 10
11.0473183383
 20
17.8446430515
 40
1.0775
100
AcDbArc
 50
53.6026297633
 51
81.3973702367
  0
ARC
  5
302
100
AcDbEntity
  8
0
100
AcDbCircle
 62
7
  6
CONTINUOUS
 10
11.0473183383
 20
17.8446430515
 40
1.0775
100
AcDbArc
 50
8.6026297634
 51
36.3973702367
  0
ARC
  5
303
100
AcDbEntity
  8
0
100
AcDbCircle
 62
7
  6
CONTINUOUS
 10
11.0473183383
 20
17.8446430515
 40
1.0775
100
AcDbArc
 50
278.6026297634
 51
306.3973702367
  0
ARC
  5
304
100
AcDbEntity
  8
0
100
AcDbCircle
 62
7
  6
CONTINUOUS
 10
11.0473183383
 20
17.8446430515
 40
1.0775
100
AcDbArc
 50
233.6026297633
 51
261.3973702366
  0
ARC
  5
305
100
AcDbEntity
  8
0
100
AcDbCircle
 62
7
  6
CONTINUOUS
 10
11.0473183383
 20
17.8446430515
 40
1.0775
100
AcDbArc
 50
188.6026297634
 51
216.3973702367
  0
ARC
  5
306
100
AcDbEntity
  8
0
100
AcDbCircle
 62
7
  6
CONTINUOUS
 10
11.0473183383
 20
17.8446430515
 40
1.0775
100
AcDbArc
 50
323.6026297633
 51
351.3973702366
  0
ARC
  5
307
100
AcDbEntity
  8
0
100
AcDbCircle
 62
7
  6
CONTINUOUS
 10
11.0473183383
 20
17.8446430515
 40
1.0125
100
AcDbArc
 50
310.3956976473
 51
319.6140759935
  0
ARC
  5
308
100
AcDbEntity
  8
0
100
AcDbCircle
 62
7
  6
CONTINUOUS
 10
11.0473183383
 20
17.8446430515
 40
1.0125
100
AcDbArc
 50
265.1730248752
 51
274.8516278951
  0
ARC
  5
309
100
AcDbEntity
  8
0
100
AcDbCircle
 62
7
  6
CONTINUOUS
 10
11.0473183383
 20
17.8446430515
 40
1.0125
100
AcDbArc
 50
220.4243096539
 51
229.6372098807
  0
ARC
  5
30A
100
AcDbEntity
  8
0
100
AcDbCircle
 62
7
  6
CONTINUOUS
 10
11.0473183383
 20
17.8446430515
 40
1.0125
100
AcDbArc
 50
175.4780781076
 51
184.4870037625
  0
ARC
  5
30B
100
AcDbEntity
  8
0
100
AcDbCircle
 62
7
  6
CONTINUOUS
 10
11.0473183383
 20
17.8446430515
 40
1.0125
100
AcDbArc
 50
130.3956976473
 51
139.6140759935
  0
ARC
  5
30C
100
AcDbEntity
  8
0
100
AcDbCircle
 62
7
  6
CONTINUOUS
 10
11.0473183383
 20
17.8446430515
 40
1.0125
100
AcDbArc
 50
85.1730248753
 51
94.8516278953
  0
ARC
  5
30D
100
AcDbEntity
  8
0
100
AcDbCircle
 62
7
  6
CONTINUOUS
 10
11.0473183383
 20
17.8446430515
 40
1.0125
100
AcDbArc
 50
40.4243096539
 51
49.6372098807
  0
ARC
  5
30E
100
AcDbEntity
  8
0
100
AcDbCircle
 62
7
  6
CONTINUOUS
 10
11.0473183383
 20
17.8446430515
 40
1.0125
100
AcDbArc
 50
355.4780781076
 51
4.4870037625
  0
CIRCLE
  5
30F
100
AcDbEntity
  8
0
100
AcDbCircle
 62
7
  6
CONTINUOUS
 10
11.0473183383
 20
17.8446430515
 40
0.935
  0
CIRCLE
  5
310
100
AcDbEntity
  8
0
100
AcDbCircle
 62
9
  6
CONTINUOUS
 10
11.0473183383
 20
17.8446430515
 40
0.909136433
  0
ARC
  5
311
100
AcDbEntity
  8
0
100
AcDbCircle
 62
7
  6
CONTINUOUS
 10
11.0473183383
 20
19.0446430515
 40
0.21
100
AcDbArc
 50
219.8708339353
 51
320.1291660647
  0
ARC
  5
312
100
AcDbEntity
  8
0
100
AcDbCircle
 62
7
  6
CONTINUOUS
 10
11.8958464757
 20
18.6931711889
 40
0.21
100
AcDbArc
 50
174.8708339361
 51
275.129166064
  0
ARC
  5
313
100
AcDbEntity
  8
0
100
AcDbCircle
 62
7
  6
CONTINUOUS
 10
11.8958464757
 20
16.9961149141
 40
0.21
100
AcDbArc
 50
84.870833936
 51
185.1291660639
  0
ARC
  5
314
100
AcDbEntity
  8
0
100
AcDbCircle
 62
7
  6
CONTINUOUS
 10
11.0473183383
 20
16.6446430515
 40
0.21
100
AcDbArc
 50
39.8708339359
 51
140.1291660641
  0
ARC
  5
315
100
AcDbEntity
  8
0
100
AcDbCircle
 62
7
  6
CONTINUOUS
 10
12.2473183383
 20
17.8446430515
 40
0.21
100
AcDbArc
 50
129.8708339358
 51
230.1291660642
  0
ARC
  5
316
100
AcDbEntity
  8
0
100
AcDbCircle
 62
7
  6
CONTINUOUS
 10
14.7877437352
 20
8.8076430515
 40
0.121
100
AcDbArc
 50
72.3178031512
 51
100.8633887081
  0
ARC
  5
317
100
AcDbEntity
  8
0
100
AcDbCircle
 62
7
  6
CONTINUOUS
 10
15.0488183383
 20
8.8124136963
 40
0.03
100
AcDbArc
 50
286.4592496283
 51
360.0
  0
ARC
  5
318
100
AcDbEntity
  8
0
100
AcDbCircle
 62
7
  6
CONTINUOUS
 10
14.7899166165
 20
8.8316430515
 40
0.048
100
AcDbArc
 50
201.6000344343
 51
256.3709027895
  0
ARC
  5
319
100
AcDbEntity
  8
0
100
AcDbCircle
 62
7
  6
CONTINUOUS
 10
14.7846121097
 20
8.8485072327
 40
0.0888641812
100
AcDbArc
 50
224.2338173194
 51
336.845901431
  0
ARC
  5
31A
100
AcDbEntity
  8
0
100
AcDbCircle
 62
7
  6
CONTINUOUS
 10
14.8243183383
 20
8.8452636806
 40
0.085
100
AcDbArc
 50
158.3999655657
 51
201.6000344343
  0
ARC
  5
31B
100
AcDbEntity
  8
0
100
AcDbCircle
 62
7
  6
CONTINUOUS
 10
14.7806431746
 20
8.8446430515
 40
0.0833248363
100
AcDbArc
 50
100.8633887079
 51
224.2338173196
  0
ARC
  5
31C
100
AcDbEntity
  8
0
100
AcDbCircle
 62
7
  6
CONTINUOUS
 10
14.7819624998
 20
8.8485072327
 40
0.0697243244
100
AcDbArc
 50
15.9292215989
 51
31.263668006
  0
ARC
  5
31D
100
AcDbEntity
  8
0
100
AcDbCircle
 62
7
  6
CONTINUOUS
 10
14.7931230581
 20
8.8448675037
 40
0.061607623
100
AcDbArc
 50
256.3709027898
 51
336.845901431
  0
ARC
  5
31E
100
AcDbEntity
  8
0
100
AcDbCircle
 62
7
  6
CONTINUOUS
 10
14.7954474406
 20
8.8566944977
 40
0.0539485538
100
AcDbArc
 50
31.2636680057
 51
158.3999655655
  0
ARC
  5
31F
100
AcDbEntity
  8
0
100
AcDbCircle
 62
7
  6
CONTINUOUS
 10
15.0473183383
 20
8.8446430515
 40
1.18
100
AcDbArc
 50
13.5277317535
 51
168.9014223649
  0
ARC
  5
320
100
AcDbEntity
  8
0
100
AcDbCircle
 62
7
  6
CONTINUOUS
 10
15.0473183383
 20
8.8446430515
 40
1.18
100
AcDbArc
 50
191.0966390496
 51
346.4676278013
  0
ARC
  5
321
100
AcDbEntity
  8
0
100
AcDbCircle
 62
7
  6
CONTINUOUS
 10
15.0473183383
 20
8.8446430515
 40
1.0000026738
100
AcDbArc
 50
193.6070045461
 51
343.710429075
  0
ARC
  5
322
100
AcDbEntity
  8
0
100
AcDbCircle
 62
7
  6
CONTINUOUS
 10
15.0473183383
 20
8.8446430515
 40
1.0000026738
100
AcDbArc
 50
16.289570925
 51
166.3929954539
  0
ARC
  5
323
100
AcDbEntity
  8
0
100
AcDbCircle
 62
9
  6
CONTINUOUS
 10
15.0473183383
 20
8.8446430515
 40
0.8130026738
100
AcDbArc
 50
192.7259094292
 51
340.2867605439
  0
ARC
  5
324
100
AcDbEntity
  8
0
100
AcDbCircle
 62
9
  6
CONTINUOUS
 10
15.0473183383
 20
8.8446430515
 40
0.8130026738
100
AcDbArc
 50
19.7134149383
 51
167.277710256
  0
ARC
  5
325
100
AcDbEntity
  8
0
100
AcDbCircle
 62
7
  6
CONTINUOUS
 10
15.0473183383
 20
8.8446430515
 40
0.741
100
AcDbArc
 50
62.3704986062
 51
117.6295013938
  0
ARC
  5
326
100
AcDbEntity
  8
0
100
AcDbCircle
 62
7
  6
CONTINUOUS
 10
15.0473183383
 20
8.8446430515
 40
0.741
100
AcDbArc
 50
122.3704986062
 51
168.5779548507
  0
ARC
  5
327
100
AcDbEntity
  8
0
100
AcDbCircle
 62
7
  6
CONTINUOUS
 10
15.0473183383
 20
8.8446430515
 40
0.741
100
AcDbArc
 50
19.3984029972
 51
57.6295013938
  0
ARC
  5
328
100
AcDbEntity
  8
0
100
AcDbCircle
 62
7
  6
CONTINUOUS
 10
15.0473183383
 20
8.8446430515
 40
0.741
100
AcDbArc
 50
242.3704986062
 51
297.6295013938
  0
ARC
  5
329
100
AcDbEntity
  8
0
100
AcDbCircle
 62
7
  6
CONTINUOUS
 10
15.0473183383
 20
8.8446430515
 40
0.741
100
AcDbArc
 50
302.3704986062
 51
340.6015970028
  0
ARC
  5
32A
100
AcDbEntity
  8
0
100
AcDbCircle
 62
7
  6
CONTINUOUS
 10
15.0473183383
 20
8.8446430515
 40
0.741
100
AcDbArc
 50
191.4220451493
 51
237.6295013938
  0
ARC
  5
32B
100
AcDbEntity
  8
0
100
AcDbCircle
 62
7
  6
CONTINUOUS
 10
15.0473183383
 20
8.8446430515
 40
0.6515
100
AcDbArc
 50
18.9054264221
 51
166.8237446792
  0
ARC
  5
32C
100
AcDbEntity
  8
0
100
AcDbCircle
 62
7
  6
CONTINUOUS
 10
15.0473183383
 20
8.8446430515
 40
0.6515
100
AcDbArc
 50
193.1762553208
 51
341.0945735779
  0
ARC
  5
32D
100
AcDbEntity
  8
0
100
AcDbCircle
 62
9
  6
CONTINUOUS
 10
15.0473183383
 20
8.8446430515
 40
0.6146339942
100
AcDbArc
 50
18.6895409842
 51
164.2488199471
  0
ARC
  5
32E
100
AcDbEntity
  8
0
100
AcDbCircle
 62
9
  6
CONTINUOUS
 10
15.0473183383
 20
8.8446430515
 40
0.6146339942
100
AcDbArc
 50
195.7511800529
 51
341.3104590158
  0
CIRCLE
  5
32F
100
AcDbEntity
  8
0
100
AcDbCircle
 62
7
  6
CONTINUOUS
 10
15.0473183383
 20
8.8446430515
 40
0.5575
  0
CIRCLE
  5
330
100
AcDbEntity
  8
0
100
AcDbCircle
 62
7
  6
CONTINUOUS
 10
15.0473183383
 20
8.8446430515
 40
0.5291923153
  0
CIRCLE
  5
331
100
AcDbEntity
  8
0
100
AcDbCircle
 62
7
  6
CONTINUOUS
 10
15.0473183383
 20
8.8446430515
 40
0.5275
  0
CIRCLE
  5
332
100
AcDbEntity
  8
0
100
AcDbCircle
 62
7
  6
CONTINUOUS
 10
15.0473183383
 20
8.8446430515
 40
0.5052804212
  0
CIRCLE
  5
333
100
AcDbEntity
  8
0
100
AcDbCircle
 62
7
  6
CONTINUOUS
 10
15.0473183383
 20
8.8446430515
 40
0.4545099561
  0
CIRCLE
  5
334
100
AcDbEntity
  8
0
100
AcDbCircle
 62
7
  6
CONTINUOUS
 10
15.0473183383
 20
8.8446430515
 40
0.4275
  0
CIRCLE
  5
335
100
AcDbEntity
  8
0
100
AcDbCircle
 62
7
  6
CONTINUOUS
 10
15.0473183383
 20
8.8446430515
 40
0.4175
  0
CIRCLE
  5
336
100
AcDbEntity
  8
0
100
AcDbCircle
 62
9
  6
CONTINUOUS
 10
15.0473183383
 20
8.8446430515
 40
0.3951446566
  0
ARC
  5
337
100
AcDbEntity
  8
0
100
AcDbCircle
 62
7
  6
CONTINUOUS
 10
15.1688183383
 20
8.8124136963
 40
0.03
100
AcDbArc
 50
270.0
 51
328.8157171748
  0
ARC
  5
338
100
AcDbEntity
  8
0
100
AcDbCircle
 62
7
  6
CONTINUOUS
 10
15.1448183383
 20
8.8124136963
 40
0.03
100
AcDbArc
 50
180.0
 51
270.0
  0
ARC
  5
339
100
AcDbEntity
  8
0
100
AcDbCircle
 62
7
  6
CONTINUOUS
 10
15.2293183383
 20
8.799767567
 40
0.018
100
AcDbArc
 50
296.3877999613
 51
360.0
  0
ARC
  5
33A
100
AcDbEntity
  8
0
100
AcDbCircle
 62
7
  6
CONTINUOUS
 10
15.2896002186
 20
8.7896430515
 40
0.006
100
AcDbArc
 50
180.0
 51
270.0
  0
ARC
  5
33B
100
AcDbEntity
  8
0
100
AcDbCircle
 62
7
  6
CONTINUOUS
 10
15.2709792583
 20
8.8471430515
 40
0.097
100
AcDbArc
 50
341.5590861806
 51
18.4409138194
  0
ARC
  5
33C
100
AcDbEntity
  8
0
100
AcDbCircle
 62
7
  6
CONTINUOUS
 10
15.3218183383
 20
8.8441430515
 40
0.0845
100
AcDbArc
 50
270.0
 51
90.0
  0
ARC
  5
33D
100
AcDbEntity
  8
0
100
AcDbCircle
 62
7
  6
CONTINUOUS
 10
15.3174631264
 20
8.8316430515
 40
0.048
100
AcDbArc
 50
270.0
 51
341.5590861806
  0
ARC
  5
33E
100
AcDbEntity
  8
0
100
AcDbCircle
 62
7
  6
CONTINUOUS
 10
15.3174631264
 20
8.8626430515
 40
0.048
100
AcDbArc
 50
18.4409138195
 51
90.0
  0
ARC
  5
33F
100
AcDbEntity
  8
0
100
AcDbCircle
 62
7
  6
CONTINUOUS
 10
15.1448183383
 20
8.8818724067
 40
0.03
100
AcDbArc
 50
106.4592496282
 51
180.0
  0
ARC
  5
340
100
AcDbEntity
  8
0
100
AcDbCircle
 62
7
  6
CONTINUOUS
 10
15.0488183383
 20
8.8818724067
 40
0.03
100
AcDbArc
 50
0.0
 51
73.5407503717
  0
ARC
  5
341
100
AcDbEntity
  8
0
100
AcDbCircle
 62
7
  6
CONTINUOUS
 10
15.2293183383
 20
8.894518536
 40
0.018
100
AcDbArc
 50
0.0
 51
63.6122000388
  0
ARC
  5
342
100
AcDbEntity
  8
0
100
AcDbCircle
 62
7
  6
CONTINUOUS
 10
14.8263183383
 20
8.9286430515
 40
0.006
100
AcDbArc
 50
252.3178031517
 51
360.0
  0
ARC
  5
343
100
AcDbEntity
  8
0
100
AcDbCircle
 62
7
  6
CONTINUOUS
 10
15.2896002186
 20
8.9046430515
 40
0.006
100
AcDbArc
 50
90.0
 51
180.0
  0
ARC
  5
344
100
AcDbEntity
  8
0
100
AcDbCircle
 62
7
  6
CONTINUOUS
 10
18.0462975049
 20
8.8446430515
 40
0.3735208333
100
AcDbArc
 50
317.9864211384
 51
42.0135788616
  0
SPLINE
  5
345
100
AcDbEntity
  8
0
100
AcDbSpline
 62
7
  6
CONTINUOUS
 70
0
 71
3
 72
11
 73
7
 74
0
 42
0.0000001
 43
0.0000001
 44
0.0000000001
 40
0.0
 40
0.0
 40
0.0
 40
0.0
 40
0.2736079326
 40
0.5003103346
 40
0.7269614556
 40
1.0
 40
1.0
 40
1.0
 40
1.0
 10
15.0443183383
 20
8.8446430515
 30
0.0
 10
15.0443175361
 20
8.8684297094
 30
0.0
 10
15.0307154813
 20
8.9119252912
 30
0.0
 10
14.965661812
 20
8.9369378781
 30
0.0
 10
14.9004099375
 20
8.9119733853
 30
0.0
 10
14.8873176009
 20
8.8684337994
 30
0.0
 10
14.8873183383
 20
8.8446430515
 30
0.0
  0
SPLINE
  5
346
100
AcDbEntity
  8
0
100
AcDbSpline
 62
7
  6
CONTINUOUS
 70
0
 71
3
 72
11
 73
7
 74
0
 42
0.0000001
 43
0.0000001
 44
0.0000000001
 40
0.0
 40
0.0
 40
0.0
 40
0.0
 40
0.273039475
 40
0.4997206271
 40
0.7263911349
 40
1.0
 40
1.0
 40
1.0
 40
1.0
 10
14.8873183383
 20
8.8446430515
 30
0.0
 10
14.8873190757
 20
8.8208523036
 30
0.0
 10
14.9004149313
 20
8.7773101263
 30
0.0
 10
14.9656513808
 20
8.7523481572
 30
0.0
 10
15.0307209072
 20
8.7773638376
 30
0.0
 10
15.0443191404
 20
8.8208563936
 30
0.0
 10
15.0443183383
 20
8.8446430515
 30
0.0
  0
SPLINE
  5
347
100
AcDbEntity
  8
0
100
AcDbSpline
 62
7
  6
CONTINUOUS
 70
0
 71
3
 72
11
 73
7
 74
0
 42
0.0000001
 43
0.0000001
 44
0.0000000001
 40
0.0
 40
0.0
 40
0.0
 40
0.0
 40
0.2911005069
 40
0.5007865867
 40
0.7104726666
 40
1.0
 40
1.0
 40
1.0
 40
1.0
 10
15.0086183383
 20
8.8446430515
 30
0.0
 10
15.0086183383
 20
8.8279312183
 30
0.0
 10
15.0047370977
 20
8.799181485
 30
0.0
 10
14.9656925168
 20
8.7778568928
 30
0.0
 10
14.9262328306
 20
8.7990835777
 30
0.0
 10
14.9236183383
 20
8.8279192889
 30
0.0
 10
14.9236183383
 20
8.8446430515
 30
0.0
  0
SPLINE
  5
348
100
AcDbEntity
  8
0
100
AcDbSpline
 62
7
  6
CONTINUOUS
 70
0
 71
3
 72
11
 73
7
 74
0
 42
0.0000001
 43
0.0000001
 44
0.0000000001
 40
0.0
 40
0.0
 40
0.0
 40
0.0
 40
0.2895273334
 40
0.4992134133
 40
0.7088994931
 40
1.0
 40
1.0
 40
1.0
 40
1.0
 10
14.9236183383
 20
8.8446430515
 30
0.0
 10
14.9236183383
 20
8.8613668141
 30
0.0
 10
14.9262328306
 20
8.8902025253
 30
0.0
 10
14.9656925168
 20
8.9114292102
 30
0.0
 10
15.0047370977
 20
8.890104618
 30
0.0
 10
15.0086183383
 20
8.8613548847
 30
0.0
 10
15.0086183383
 20
8.8446430515
 30
0.0
  0
SPLINE
  5
349
100
AcDbEntity
  8
0
100
AcDbSpline
 62
7
  6
CONTINUOUS
 70
0
 71
3
 72
69
 73
65
 74
0
 42
0.0000001
 43
0.0000001
 44
0.0000000001
 40
0.0
 40
0.0
 40
0.0
 40
0.0
 40
0.0312272847
 40
0.0624545802
 40
0.0936821515
 40
0.1249098734
 40
0.1405335742
 40
0.156157396
 40
0.1717811871
 40
0.1874049786
 40
0.2030287725
 40
0.2108419075
 40
0.218655041
 40
0.2264681929
 40
0.2303749245
 40
0.234281637
 40
0.2381883488
 40
0.2420951007
 40
0.2460018544
 40
0.2479552309
 40
0.2499086013
 40
0.2518619838
 40
0.2528386726
 40
0.253815345
 40
0.2547920302
 40
0.2557688618
 40
0.2567456149
 40
0.2577219058
 40
0.2586984578
 40
0.2596754719
 40
0.2606524522
 40
0.2616291824
 40
0.2635824062
 40
0.2655357433
 40
0.2674891832
 40
0.2694426333
 40
0.2713960362
 40
0.2733494104
 40
0.2772561669
 40
0.2811629549
 40
0.2889765096
 40
0.2967900576
 40
0.3046036132
 40
0.3124171677
 40
0.3202307204
 40
0.3280442728
 40
0.3436713623
 40
0.3592984526
 40
0.3749255423
 40
0.3905526317
 40
0.4061797212
 40
0.4374337646
 40
0.4686878079
 40
0.4999418511
 40
0.5311958941
 40
0.5624499372
 40
0.5937039807
 40
0.6249580238
 40
0.6874650203
 40
0.7499720193
 40
0.812479016
 40
0.874986009
 40
0.9374930059
 40
1.0
 40
1.0
 40
1.0
 40
1.0
 10
18.2238183383
 20
8.5631430515
 30
0.0
 10
18.2081629446
 20
8.5441998063
 30
0.0
 10
18.1740774809
 20
8.5085160659
 30
0.0
 10
18.1159286352
 20
8.4628043049
 30
0.0
 10
18.0518417595
 20
8.4258546024
 30
0.0
 10
17.9945718275
 20
8.4029687822
 30
0.0
 10
17.9471932197
 20
8.3897021423
 30
0.0
 10
17.9110221612
 20
8.3823064658
 30
0.0
 10
17.8744169245
 20
8.3775117498
 30
0.0
 10
17.837563351
 20
8.3753418099
 30
0.0
 10
17.8067974326
 20
8.3757295828
 30
0.0
 10
17.7822538802
 20
8.3773560622
 30
0.0
 10
17.7638992781
 20
8.3792327469
 30
0.0
 10
17.748669
 20
8.3813412948
 30
0.0
 10
17.7365363998
 20
8.3833533718
 30
0.0
 10
17.7274651843
 20
8.3850253105
 30
0.0
 10
17.7184254001
 20
8.3868595126
 30
0.0
 10
17.7094193147
 20
8.3888526389
 30
0.0
 10
17.7019445851
 20
8.3906456134
 30
0.0
 10
17.6959855481
 20
8.3921627072
 30
0.0
 10
17.6915273885
 20
8.393343408
 30
0.0
 10
17.6878213124
 20
8.394360837
 30
0.0
 10
17.6848606829
 20
8.3951899068
 30
0.0
 10
17.6826417829
 20
8.3958172256
 30
0.0
 10
17.6804258566
 20
8.3964556012
 30
0.0
 10
17.6782193542
 20
8.3971259664
 30
0.0
 10
17.6760162516
 20
8.3978064464
 30
0.0
 10
17.673794409
 20
8.3984238118
 30
0.0
 10
17.6715526073
 20
8.3989641368
 30
0.0
 10
17.6693028808
 20
8.3994715934
 30
0.0
 10
17.6670541428
 20
8.3999842616
 30
0.0
 10
17.6640627238
 20
8.4006949873
 30
0.0
 10
17.6603274567
 20
8.4015987112
 30
0.0
 10
17.6558397807
 20
8.4026610412
 30
0.0
 10
17.6513497286
 20
8.4037139875
 30
0.0
 10
17.6468587353
 20
8.4047631492
 30
0.0
 10
17.6423680585
 20
8.4058134342
 30
0.0
 10
17.6363801094
 20
8.4072118346
 30
0.0
 10
17.6288930272
 20
8.4089506463
 30
0.0
 10
17.6169086936
 20
8.4117112052
 30
0.0
 10
17.6019212754
 20
8.4151315035
 30
0.0
 10
17.5839242527
 20
8.4191823503
 30
0.0
 10
17.5659152283
 20
8.4231794989
 30
0.0
 10
17.5478945293
 20
8.4271236934
 30
0.0
 10
17.5298622816
 20
8.4310147449
 30
0.0
 10
17.5058041039
 20
8.4361318471
 30
0.0
 10
17.4757031886
 20
8.4423949429
 30
0.0
 10
17.4395383822
 20
8.4496972841
 30
0.0
 10
17.4033311025
 20
8.4567860452
 30
0.0
 10
17.3670825999
 20
8.4636609633
 30
0.0
 10
17.318698163
 20
8.4725420203
 30
0.0
 10
17.2581205191
 20
8.4831075711
 30
0.0
 10
17.185282979
 20
8.4949270397
 30
0.0
 10
17.1123109307
 20
8.5058858119
 30
0.0
 10
17.0392146039
 20
8.5159823753
 30
0.0
 10
16.9660041862
 20
8.5252151831
 30
0.0
 10
16.8926897655
 20
8.5335830505
 30
0.0
 10
16.7948136826
 20
8.5435852946
 30
0.0
 10
16.6722568856
 20
8.553920253
 30
0.0
 10
16.5249390107
 20
8.5628464687
 30
0.0
 10
16.3774510841
 20
8.5682920385
 30
0.0
 10
16.2298755797
 20
8.5702529997
 30
0.0
 10
16.082295741
 20
8.568729945
 30
0.0
 10
15.9839584435
 20
8.5653922523
 30
0.0
 10
15.9348183383
 20
8.5631430515
 30
0.0
  0
SPLINE
  5
34A
100
AcDbEntity
  8
0
100
AcDbSpline
 62
7
  6
CONTINUOUS
 70
0
 71
3
 72
69
 73
65
 74
0
 42
0.0000001
 43
0.0000001
 44
0.0000000001
 40
0.0
 40
0.0
 40
0.0
 40
0.0
 40
0.0312272847
 40
0.0624545802
 40
0.0936821515
 40
0.1249098734
 40
0.1405335742
 40
0.156157396
 40
0.1717811871
 40
0.1874049786
 40
0.2030287725
 40
0.2108419075
 40
0.218655041
 40
0.2264681929
 40
0.2303749245
 40
0.234281637
 40
0.2381883488
 40
0.2420951007
 40
0.2460018544
 40
0.2479552309
 40
0.2499086013
 40
0.2518619838
 40
0.2528386726
 40
0.253815345
 40
0.2547920302
 40
0.2557688618
 40
0.2567456149
 40
0.2577219058
 40
0.2586984578
 40
0.2596754719
 40
0.2606524522
 40
0.2616291824
 40
0.2635824062
 40
0.2655357433
 40
0.2674891832
 40
0.2694426333
 40
0.2713960362
 40
0.2733494104
 40
0.2772561669
 40
0.2811629549
 40
0.2889765096
 40
0.2967900576
 40
0.3046036132
 40
0.3124171677
 40
0.3202307204
 40
0.3280442728
 40
0.3436713623
 40
0.3592984526
 40
0.3749255423
 40
0.3905526317
 40
0.4061797212
 40
0.4374337646
 40
0.4686878079
 40
0.4999418511
 40
0.5311958941
 40
0.5624499372
 40
0.5937039807
 40
0.6249580238
 40
0.6874650203
 40
0.7499720193
 40
0.812479016
 40
0.874986009
 40
0.9374930059
 40
1.0
 40
1.0
 40
1.0
 40
1.0
 10
18.2238183383
 20
9.1261430515
 30
0.0
 10
18.2081629446
 20
9.1450862967
 30
0.0
 10
18.1740774809
 20
9.1807700371
 30
0.0
 10
18.1159286352
 20
9.2264817981
 30
0.0
 10
18.0518417595
 20
9.2634315006
 30
0.0
 10
17.9945718275
 20
9.2863173207
 30
0.0
 10
17.9471932197
 20
9.2995839607
 30
0.0
 10
17.9110221612
 20
9.3069796371
 30
0.0
 10
17.8744169245
 20
9.3117743532
 30
0.0
 10
17.837563351
 20
9.3139442931
 30
0.0
 10
17.8067974326
 20
9.3135565202
 30
0.0
 10
17.7822538802
 20
9.3119300408
 30
0.0
 10
17.7638992781
 20
9.3100533561
 30
0.0
 10
17.748669
 20
9.3079448082
 30
0.0
 10
17.7365363998
 20
9.3059327312
 30
0.0
 10
17.7274651843
 20
9.3042607925
 30
0.0
 10
17.7184254001
 20
9.3024265904
 30
0.0
 10
17.7094193147
 20
9.3004334641
 30
0.0
 10
17.7019445851
 20
9.2986404896
 30
0.0
 10
17.6959855481
 20
9.2971233958
 30
0.0
 10
17.6915273885
 20
9.295942695
 30
0.0
 10
17.6878213124
 20
9.294925266
 30
0.0
 10
17.6848606829
 20
9.2940961962
 30
0.0
 10
17.6826417829
 20
9.2934688773
 30
0.0
 10
17.6804258566
 20
9.2928305018
 30
0.0
 10
17.6782193542
 20
9.2921601366
 30
0.0
 10
17.6760162516
 20
9.2914796566
 30
0.0
 10
17.673794409
 20
9.2908622912
 30
0.0
 10
17.6715526073
 20
9.2903219662
 30
0.0
 10
17.6693028808
 20
9.2898145096
 30
0.0
 10
17.6670541428
 20
9.2893018414
 30
0.0
 10
17.6640627238
 20
9.2885911157
 30
0.0
 10
17.6603274567
 20
9.2876873918
 30
0.0
 10
17.6558397807
 20
9.2866250618
 30
0.0
 10
17.6513497286
 20
9.2855721155
 30
0.0
 10
17.6468587353
 20
9.2845229538
 30
0.0
 10
17.6423680585
 20
9.2834726688
 30
0.0
 10
17.6363801094
 20
9.2820742684
 30
0.0
 10
17.6288930272
 20
9.2803354567
 30
0.0
 10
17.6169086936
 20
9.2775748978
 30
0.0
 10
17.6019212754
 20
9.2741545995
 30
0.0
 10
17.5839242527
 20
9.2701037526
 30
0.0
 10
17.5659152283
 20
9.2661066041
 30
0.0
 10
17.5478945293
 20
9.2621624096
 30
0.0
 10
17.5298622816
 20
9.2582713581
 30
0.0
 10
17.5058041039
 20
9.2531542559
 30
0.0
 10
17.4757031886
 20
9.2468911601
 30
0.0
 10
17.4395383822
 20
9.2395888189
 30
0.0
 10
17.4033311025
 20
9.2325000578
 30
0.0
 10
17.3670825999
 20
9.2256251397
 30
0.0
 10
17.318698163
 20
9.2167440827
 30
0.0
 10
17.2581205191
 20
9.2061785319
 30
0.0
 10
17.185282979
 20
9.1943590633
 30
0.0
 10
17.1123109307
 20
9.1834002911
 30
0.0
 10
17.0392146039
 20
9.1733037277
 30
0.0
 10
16.9660041862
 20
9.1640709199
 30
0.0
 10
16.8926897655
 20
9.1557030525
 30
0.0
 10
16.7948136826
 20
9.1457008084
 30
0.0
 10
16.6722568856
 20
9.13536585
 30
0.0
 10
16.5249390107
 20
9.1264396343
 30
0.0
 10
16.3774510841
 20
9.1209940645
 30
0.0
 10
16.2298755797
 20
9.1190331033
 30
0.0
 10
16.082295741
 20
9.120556158
 30
0.0
 10
15.9839584435
 20
9.1238938507
 30
0.0
 10
15.9348183383
 20
9.1261430515
 30
0.0
  0
SPLINE
  5
34B
100
AcDbEntity
  8
0
100
AcDbSpline
 62
7
  6
CONTINUOUS
 70
0
 71
3
 72
11
 73
7
 74
0
 42
0.0000001
 43
0.0000001
 44
0.0000000001
 40
0.0
 40
0.0
 40
0.0
 40
0.0
 40
0.273039475
 40
0.4997206271
 40
0.7263911349
 40
1.0
 40
1.0
 40
1.0
 40
1.0
 10
6.9673183383
 20
8.8446430515
 30
0.0
 10
6.9673190757
 20
8.8208523036
 30
0.0
 10
6.9804149313
 20
8.7773101263
 30
0.0
 10
7.0456513808
 20
8.7523481572
 30
0.0
 10
7.1107209072
 20
8.7773638376
 30
0.0
 10
7.1243191404
 20
8.8208563936
 30
0.0
 10
7.1243183383
 20
8.8446430515
 30
0.0
  0
SPLINE
  5
34C
100
AcDbEntity
  8
0
100
AcDbSpline
 62
7
  6
CONTINUOUS
 70
0
 71
3
 72
11
 73
7
 74
0
 42
0.0000001
 43
0.0000001
 44
0.0000000001
 40
0.0
 40
0.0
 40
0.0
 40
0.0
 40
0.2736079326
 40
0.5003103346
 40
0.7269614556
 40
1.0
 40
1.0
 40
1.0
 40
1.0
 10
7.1243183383
 20
8.8446430515
 30
0.0
 10
7.1243175361
 20
8.8684297094
 30
0.0
 10
7.1107154813
 20
8.9119252912
 30
0.0
 10
7.045661812
 20
8.9369378781
 30
0.0
 10
6.9804099375
 20
8.9119733853
 30
0.0
 10
6.9673176009
 20
8.8684337994
 30
0.0
 10
6.9673183383
 20
8.8446430515
 30
0.0
  0
SPLINE
  5
34D
100
AcDbEntity
  8
0
100
AcDbSpline
 62
7
  6
CONTINUOUS
 70
0
 71
3
 72
11
 73
7
 74
0
 42
0.0000001
 43
0.0000001
 44
0.0000000001
 40
0.0
 40
0.0
 40
0.0
 40
0.0
 40
0.2895273334
 40
0.4992134133
 40
0.7088994931
 40
1.0
 40
1.0
 40
1.0
 40
1.0
 10
7.0036183383
 20
8.8446430515
 30
0.0
 10
7.0036183383
 20
8.8613668141
 30
0.0
 10
7.0062328306
 20
8.8902025253
 30
0.0
 10
7.0456925168
 20
8.9114292102
 30
0.0
 10
7.0847370977
 20
8.890104618
 30
0.0
 10
7.0886183383
 20
8.8613548847
 30
0.0
 10
7.0886183383
 20
8.8446430515
 30
0.0
  0
SPLINE
  5
34E
100
AcDbEntity
  8
0
100
AcDbSpline
 62
7
  6
CONTINUOUS
 70
0
 71
3
 72
11
 73
7
 74
0
 42
0.0000001
 43
0.0000001
 44
0.0000000001
 40
0.0
 40
0.0
 40
0.0
 40
0.0
 40
0.2911005069
 40
0.5007865867
 40
0.7104726666
 40
1.0
 40
1.0
 40
1.0
 40
1.0
 10
7.0886183383
 20
8.8446430515
 30
0.0
 10
7.0886183383
 20
8.8279312183
 30
0.0
 10
7.0847370977
 20
8.799181485
 30
0.0
 10
7.0456925168
 20
8.7778568928
 30
0.0
 10
7.0062328306
 20
8.7990835777
 30
0.0
 10
7.0036183383
 20
8.8279192889
 30
0.0
 10
7.0036183383
 20
8.8446430515
 30
0.0
  0
SPLINE
  5
34F
100
AcDbEntity
  8
0
100
AcDbSpline
 62
7
  6
CONTINUOUS
 70
0
 71
3
 72
69
 73
65
 74
0
 42
0.0000001
 43
0.0000001
 44
0.0000000001
 40
0.0
 40
0.0
 40
0.0
 40
0.0
 40
0.0312272847
 40
0.0624545802
 40
0.0936821515
 40
0.1249098734
 40
0.1405335742
 40
0.156157396
 40
0.1717811871
 40
0.1874049786
 40
0.2030287725
 40
0.2108419075
 40
0.218655041
 40
0.2264681929
 40
0.2303749245
 40
0.234281637
 40
0.2381883488
 40
0.2420951007
 40
0.2460018544
 40
0.2479552309
 40
0.2499086013
 40
0.2518619838
 40
0.2528386726
 40
0.253815345
 40
0.2547920302
 40
0.2557688618
 40
0.2567456149
 40
0.2577219058
 40
0.2586984578
 40
0.2596754719
 40
0.2606524522
 40
0.2616291824
 40
0.2635824062
 40
0.2655357433
 40
0.2674891832
 40
0.2694426333
 40
0.2713960362
 40
0.2733494104
 40
0.2772561669
 40
0.2811629549
 40
0.2889765096
 40
0.2967900576
 40
0.3046036132
 40
0.3124171677
 40
0.3202307204
 40
0.3280442728
 40
0.3436713623
 40
0.3592984526
 40
0.3749255423
 40
0.3905526317
 40
0.4061797212
 40
0.4374337646
 40
0.4686878079
 40
0.4999418511
 40
0.5311958941
 40
0.5624499372
 40
0.5937039807
 40
0.6249580238
 40
0.6874650203
 40
0.7499720193
 40
0.812479016
 40
0.874986009
 40
0.9374930059
 40
1.0
 40
1.0
 40
1.0
 40
1.0
 10
3.8708183383
 20
9.1261430515
 30
0.0
 10
3.8864737319
 20
9.1450862967
 30
0.0
 10
3.9205591957
 20
9.1807700371
 30
0.0
 10
3.9787080414
 20
9.2264817981
 30
0.0
 10
4.0427949171
 20
9.2634315006
 30
0.0
 10
4.100064849
 20
9.2863173207
 30
0.0
 10
4.1474434569
 20
9.2995839607
 30
0.0
 10
4.1836145154
 20
9.3069796371
 30
0.0
 10
4.2202197521
 20
9.3117743532
 30
0.0
 10
4.2570733255
 20
9.3139442931
 30
0.0
 10
4.287839244
 20
9.3135565202
 30
0.0
 10
4.3123827963
 20
9.3119300408
 30
0.0
 10
4.3307373984
 20
9.3100533561
 30
0.0
 10
4.3459676766
 20
9.3079448082
 30
0.0
 10
4.3581002768
 20
9.3059327312
 30
0.0
 10
4.3671714923
 20
9.3042607925
 30
0.0
 10
4.3762112764
 20
9.3024265904
 30
0.0
 10
4.3852173619
 20
9.3004334641
 30
0.0
 10
4.3926920915
 20
9.2986404896
 30
0.0
 10
4.3986511285
 20
9.2971233958
 30
0.0
 10
4.4031092881
 20
9.295942695
 30
0.0
 10
4.4068153642
 20
9.294925266
 30
0.0
 10
4.4097759937
 20
9.2940961962
 30
0.0
 10
4.4119948936
 20
9.2934688773
 30
0.0
 10
4.41421082
 20
9.2928305018
 30
0.0
 10
4.4164173224
 20
9.2921601366
 30
0.0
 10
4.4186204249
 20
9.2914796566
 30
0.0
 10
4.4208422676
 20
9.2908622912
 30
0.0
 10
4.4230840693
 20
9.2903219662
 30
0.0
 10
4.4253337957
 20
9.2898145096
 30
0.0
 10
4.4275825338
 20
9.2893018414
 30
0.0
 10
4.4305739527
 20
9.2885911157
 30
0.0
 10
4.4343092199
 20
9.2876873918
 30
0.0
 10
4.4387968958
 20
9.2866250618
 30
0.0
 10
4.443286948
 20
9.2855721155
 30
0.0
 10
4.4477779413
 20
9.2845229538
 30
0.0
 10
4.452268618
 20
9.2834726688
 30
0.0
 10
4.4582565671
 20
9.2820742684
 30
0.0
 10
4.4657436493
 20
9.2803354567
 30
0.0
 10
4.477727983
 20
9.2775748978
 30
0.0
 10
4.4927154012
 20
9.2741545995
 30
0.0
 10
4.5107124238
 20
9.2701037526
 30
0.0
 10
4.5287214482
 20
9.2661066041
 30
0.0
 10
4.5467421473
 20
9.2621624096
 30
0.0
 10
4.564774395
 20
9.2582713581
 30
0.0
 10
4.5888325727
 20
9.2531542559
 30
0.0
 10
4.618933488
 20
9.2468911601
 30
0.0
 10
4.6550982944
 20
9.2395888189
 30
0.0
 10
4.691305574
 20
9.2325000578
 30
0.0
 10
4.7275540766
 20
9.2256251397
 30
0.0
 10
4.7759385136
 20
9.2167440827
 30
0.0
 10
4.8365161575
 20
9.2061785319
 30
0.0
 10
4.9093536975
 20
9.1943590633
 30
0.0
 10
4.9823257459
 20
9.1834002911
 30
0.0
 10
5.0554220727
 20
9.1733037277
 30
0.0
 10
5.1286324904
 20
9.1640709199
 30
0.0
 10
5.2019469111
 20
9.1557030525
 30
0.0
 10
5.299822994
 20
9.1457008084
 30
0.0
 10
5.4223797909
 20
9.13536585
 30
0.0
 10
5.5696976659
 20
9.1264396343
 30
0.0
 10
5.7171855925
 20
9.1209940645
 30
0.0
 10
5.8647610968
 20
9.1190331033
 30
0.0
 10
6.0123409355
 20
9.120556158
 30
0.0
 10
6.1106782331
 20
9.1238938507
 30
0.0
 10
6.1598183383
 20
9.1261430515
 30
0.0
  0
SPLINE
  5
350
100
AcDbEntity
  8
0
100
AcDbSpline
 62
7
  6
CONTINUOUS
 70
0
 71
3
 72
69
 73
65
 74
0
 42
0.0000001
 43
0.0000001
 44
0.0000000001
 40
0.0
 40
0.0
 40
0.0
 40
0.0
 40
0.0312272847
 40
0.0624545802
 40
0.0936821515
 40
0.1249098734
 40
0.1405335742
 40
0.156157396
 40
0.1717811871
 40
0.1874049786
 40
0.2030287725
 40
0.2108419075
 40
0.218655041
 40
0.2264681929
 40
0.2303749245
 40
0.234281637
 40
0.2381883488
 40
0.2420951007
 40
0.2460018544
 40
0.2479552309
 40
0.2499086013
 40
0.2518619838
 40
0.2528386726
 40
0.253815345
 40
0.2547920302
 40
0.2557688618
 40
0.2567456149
 40
0.2577219058
 40
0.2586984578
 40
0.2596754719
 40
0.2606524522
 40
0.2616291824
 40
0.2635824062
 40
0.2655357433
 40
0.2674891832
 40
0.2694426333
 40
0.2713960362
 40
0.2733494104
 40
0.2772561669
 40
0.2811629549
 40
0.2889765096
 40
0.2967900576
 40
0.3046036132
 40
0.3124171677
 40
0.3202307204
 40
0.3280442728
 40
0.3436713623
 40
0.3592984526
 40
0.3749255423
 40
0.3905526317
 40
0.4061797212
 40
0.4374337646
 40
0.4686878079
 40
0.4999418511
 40
0.5311958941
 40
0.5624499372
 40
0.5937039807
 40
0.6249580238
 40
0.6874650203
 40
0.7499720193
 40
0.812479016
 40
0.874986009
 40
0.9374930059
 40
1.0
 40
1.0
 40
1.0
 40
1.0
 10
3.8708183383
 20
8.5631430515
 30
0.0
 10
3.8864737319
 20
8.5441998063
 30
0.0
 10
3.9205591957
 20
8.5085160659
 30
0.0
 10
3.9787080414
 20
8.4628043049
 30
0.0
 10
4.0427949171
 20
8.4258546024
 30
0.0
 10
4.100064849
 20
8.4029687822
 30
0.0
 10
4.1474434569
 20
8.3897021423
 30
0.0
 10
4.1836145154
 20
8.3823064658
 30
0.0
 10
4.2202197521
 20
8.3775117498
 30
0.0
 10
4.2570733255
 20
8.3753418099
 30
0.0
 10
4.287839244
 20
8.3757295828
 30
0.0
 10
4.3123827963
 20
8.3773560622
 30
0.0
 10
4.3307373984
 20
8.3792327469
 30
0.0
 10
4.3459676766
 20
8.3813412948
 30
0.0
 10
4.3581002768
 20
8.3833533718
 30
0.0
 10
4.3671714923
 20
8.3850253105
 30
0.0
 10
4.3762112764
 20
8.3868595126
 30
0.0
 10
4.3852173619
 20
8.3888526389
 30
0.0
 10
4.3926920915
 20
8.3906456134
 30
0.0
 10
4.3986511285
 20
8.3921627072
 30
0.0
 10
4.4031092881
 20
8.393343408
 30
0.0
 10
4.4068153642
 20
8.394360837
 30
0.0
 10
4.4097759937
 20
8.3951899068
 30
0.0
 10
4.4119948936
 20
8.3958172256
 30
0.0
 10
4.41421082
 20
8.3964556012
 30
0.0
 10
4.4164173224
 20
8.3971259664
 30
0.0
 10
4.4186204249
 20
8.3978064464
 30
0.0
 10
4.4208422676
 20
8.3984238118
 30
0.0
 10
4.4230840693
 20
8.3989641368
 30
0.0
 10
4.4253337957
 20
8.3994715934
 30
0.0
 10
4.4275825338
 20
8.3999842616
 30
0.0
 10
4.4305739527
 20
8.4006949873
 30
0.0
 10
4.4343092199
 20
8.4015987112
 30
0.0
 10
4.4387968958
 20
8.4026610412
 30
0.0
 10
4.443286948
 20
8.4037139875
 30
0.0
 10
4.4477779413
 20
8.4047631492
 30
0.0
 10
4.452268618
 20
8.4058134342
 30
0.0
 10
4.4582565671
 20
8.4072118346
 30
0.0
 10
4.4657436493
 20
8.4089506463
 30
0.0
 10
4.477727983
 20
8.4117112052
 30
0.0
 10
4.4927154012
 20
8.4151315035
 30
0.0
 10
4.5107124238
 20
8.4191823503
 30
0.0
 10
4.5287214482
 20
8.4231794989
 30
0.0
 10
4.5467421473
 20
8.4271236934
 30
0.0
 10
4.564774395
 20
8.4310147449
 30
0.0
 10
4.5888325727
 20
8.4361318471
 30
0.0
 10
4.618933488
 20
8.4423949429
 30
0.0
 10
4.6550982944
 20
8.4496972841
 30
0.0
 10
4.691305574
 20
8.4567860452
 30
0.0
 10
4.7275540766
 20
8.4636609633
 30
0.0
 10
4.7759385136
 20
8.4725420203
 30
0.0
 10
4.8365161575
 20
8.4831075711
 30
0.0
 10
4.9093536975
 20
8.4949270397
 30
0.0
 10
4.9823257459
 20
8.5058858119
 30
0.0
 10
5.0554220727
 20
8.5159823753
 30
0.0
 10
5.1286324904
 20
8.5252151831
 30
0.0
 10
5.2019469111
 20
8.5335830505
 30
0.0
 10
5.299822994
 20
8.5435852946
 30
0.0
 10
5.4223797909
 20
8.553920253
 30
0.0
 10
5.5696976659
 20
8.5628464687
 30
0.0
 10
5.7171855925
 20
8.5682920385
 30
0.0
 10
5.8647610968
 20
8.5702529997
 30
0.0
 10
6.0123409355
 20
8.568729945
 30
0.0
 10
6.1106782331
 20
8.5653922523
 30
0.0
 10
6.1598183383
 20
8.5631430515
 30
0.0
  0
ENDSEC
  0
SECTION
  2
OBJECTS
  0
DICTIONARY
  5
C
100
AcDbDictionary
280
0
281
1
  3
ACAD_GROUP
350
D
  3
ACAD_MLINESTYLE
350
17
  3
ACAD_LAYOUT
350
1A
  3
ACAD_PLOTSETTINGS
350
19
  3
ACAD_PLOTSTYLENAME
350
E
  0
DICTIONARY
  5
D
102
{ACAD_REACTORS
330
C
102
}
100
AcDbDictionary
280
0
281
1
  0
ACDBDICTIONARYWDFLT
  5
E
102
{ACAD_REACTORS
330
C
102
}
100
AcDbDictionary
281
1
  3
Normal
350
F
100
AcDbDictionaryWithDefault
340
F
  0
DICTIONARY
  5
17
102
{ACAD_REACTORS
330
C
102
}
100
AcDbDictionary
280
0
281
1
  3
Standard
350
18
  0
DICTIONARY
  5
19
102
{ACAD_REACTORS
330
C
102
}
100
AcDbDictionary
281
1
  0
DICTIONARY
  5
1A
102
{ACAD_REACTORS
330
C
102
}
100
AcDbDictionary
281
1
  3
Model
350
351
  3
Layout1
350
352
  0
ACDBPLACEHOLDER
  5
F
102
{ACAD_REACTORS
330
E
102
}
  0
MLINESTYLE
  5
18
102
{ACAD_REACTORS
330
17
102
}
100
AcDbMlineStyle
  2
STANDARD
 70
0
  3

 62
256
 51
90.0
 52
90.0
 71
2
 49
0.5
 62
256
  6
BYLAYER
 49
-0.5
 62
256
  6
BYLAYER
  0
LAYOUT
  5
351
102
{ACAD_REACTORS
330
1A
102
}
100
AcDbPlotSettings
  1

  2
none_device
  4
ANSI_C_(22.00_x_17.00_Inches)
  6

 40
0.0
 41
0.0
 42
0.0
 43
0.0
 44
558.8
 45
431.8
 46
0.0
 47
0.0
 48
0.0
 49
0.0
140
0.0
141
0.0
142
1.0
143
1.0
 70
1024
 72
0
 73
0
 74
0
  7

 75
0
147
1.0
148
0.0
149
0.0
100
AcDbLayout
  1
Model
 70
0
 71
0
 10
0.0
 20
0.0
 11
22.0
 21
17.0
 12
0.0
 22
0.0
 32
0.0
 14
0.0
 24
0.0
 34
0.0
 15
0.0
 25
0.0
 35
0.0
146
0.0
 13
0.0
 23
0.0
 33
0.0
 16
1.0
 26
0.0
 36
0.0
 17
0.0
 27
1.0
 37
0.0
 76
0
330
202
345
0
346
0
  0
LAYOUT
  5
352
102
{ACAD_REACTORS
330
1A
102
}
100
AcDbPlotSettings
  1

  2
none_device
  4
ANSI_C_(22.00_x_17.00_Inches)
  6

 40
0.0
 41
0.0
 42
0.0
 43
0.0
 44
558.8
 45
431.8
 46
0.0
 47
0.0
 48
0.0
 49
0.0
140
0.0
141
0.0
142
1.0
143
1.0
 70
0
 72
0
 73
0
 74
0
  7

 75
0
147
1.0
148
0.0
149
0.0
100
AcDbLayout
  1
Layout1
 70
0
 71
1
 10
0.0
 20
0.0
 11
22.0
 21
17.0
 12
0.0
 22
0.0
 32
0.0
 14
0.0
 24
0.0
 34
0.0
 15
0.0
 25
0.0
 35
0.0
146
0.0
 13
0.0
 23
0.0
 33
0.0
 16
1.0
 26
0.0
 36
0.0
 17
0.0
 27
1.0
 37
0.0
 76
0
330
203
345
0
346
0
  0
ENDSEC
  0
EOF
