  0
SECTION
  2
HEADER
  9
$ACADVER
  1
AC1015
  9
$DWGCODEPAGE
  3
ANSI_1252
  9
$EXTMAX
 10
16.5354330709
 20
11.6929133858
 30
0.0
  9
$EXTMIN
 10
0.0
 20
0.0
 30
0.0
  9
$LIMMIN
 10
0.0
 20
0.0
  9
$LIMMAX
 10
16.5354330709
 20
11.6929133858
  9
$VIEWCTR
 10
8.2677165354
 20
5.8464566929
  9
$VIEWSIZE
 40
11.6929133858
  9
$CLAYER
  8
0
  9
$LTSCALE
 40
0.9094488189
  9
$CELTYPE
  6
BYLAYER
  9
$DIMSCALE
 40
1.0
  9
$DIMASZ
 40
0.1
  9
$DIMEXO
 40
0.1033464567
  9
$DIMDLI
 40
0.6283464567
  9
$DIMEXE
 40
0.2976377953
  9
$DIMCEN
 40
0.1488188976
  9
$DIMLFAC
 40
1.0
  9
$DIMBLK
  1
_FILLED
  9
$DIMTXT
 40
0.08
  9
$DIMTOL
 70
1
  9
$DIMLIM
 70
0
  9
$DIMTFAC
 40
1.0
  9
$DIMTP
 40
0.01
  9
$DIMTM
 40
0.01
  9
$PDMODE
 70
3
  9
$PDSIZE
 40
0.06
  9
$HANDSEED
  5
33B
  9
$TILEMODE
 70
1
  9
$MEASUREMENT
 70
0
  9
$INSUNITS
 70
1
  0
ENDSEC
  0
SECTION
  2
CLASSES
  0
CLASS
  1
ACDBDICTIONARYWDFLT
  2
AcDbDictionaryWithDefault
  3
AutoCAD 2000
 90
0
280
0
281
0
  0
CLASS
  1
ACDBPLACEHOLDER
  2
AcDbPlaceHolder
  3
AutoCAD 2000
 90
0
280
0
281
0
  0
CLASS
  1
LAYOUT
  2
AcDbLayout
  3
AutoCAD 2000
 90
0
280
0
281
0
  0
ENDSEC
  0
SECTION
  2
TABLES
  0
TABLE
  2
VPORT
  5
8
100
AcDbSymbolTable
 70
2
  0
VPORT
  5
1F4
100
AcDbSymbolTableRecord
100
AcDbViewportTableRecord
  2
*ACTIVE
 70
0
 10
0.0
 20
0.0
 11
1.0
 21
1.0
 12
8.2677165354
 22
5.8464566929
 13
0.0
 23
0.0
 14
1.0
 24
1.0
 15
0.0
 25
0.0
 16
0.0
 26
0.0
 36
1.0
 17
0.0
 27
0.0
 37
0.0
 40
11.6929133858
 41
1.4141414141
 42
50.0
 43
0.0
 44
0.0
 50
0.0
 51
0.0
 71
0
 72
100
 73
1
 74
1
 75
0
 76
0
 77
0
 78
0
  0
ENDTAB
  0
TABLE
  2
LTYPE
  5
5
100
AcDbSymbolTable
 70
6
  0
LTYPE
  5
14
100
AcDbSymbolTableRecord
100
AcDbLinetypeTableRecord
  2
BYBLOCK
 70
0
  3

 72
65
 73
0
 40
0.0
  0
LTYPE
  5
15
100
AcDbSymbolTableRecord
100
AcDbLinetypeTableRecord
  2
BYLAYER
 70
0
  3

 72
65
 73
0
 40
0.0
  0
LTYPE
  5
16
100
AcDbSymbolTableRecord
100
AcDbLinetypeTableRecord
  2
CONTINUOUS
 70
64
  3
Solid line
 72
65
 73
0
 40
0.0
  0
LTYPE
  5
1F5
100
AcDbSymbolTableRecord
100
AcDbLinetypeTableRecord
  2
CENTER
 70
64
  3
____ _ ____ _ ____ _ ____ _ ____ _ ____ _ ____
 72
65
 73
4
 40
0.6
 49
0.375
 74
0
 49
-0.075
 74
0
 49
0.075
 74
0
 49
-0.075
 74
0
  0
LTYPE
  5
1F6
100
AcDbSymbolTableRecord
100
AcDbLinetypeTableRecord
  2
HIDDEN
 70
64
  3
- - - - - - - - - - - - - - - - - - - -
 72
65
 73
2
 40
0.2
 49
0.1
 74
0
 49
-0.1
 74
0
  0
LTYPE
  5
1F7
100
AcDbSymbolTableRecord
100
AcDbLinetypeTableRecord
  2
PHANTOM
 70
64
  3
_____ _ _ _____ _ _ _____ _ _ _____
 72
65
 73
6
 40
0.8
 49
0.45
 74
0
 49
-0.05
 74
0
 49
0.1
 74
0
 49
-0.05
 74
0
 49
0.1
 74
0
 49
-0.05
 74
0
  0
LTYPE
  5
1F8
100
AcDbSymbolTableRecord
100
AcDbLinetypeTableRecord
  2
DOT
 70
64
  3
. . . . . . . . . . . . . . . . . . . .
 72
65
 73
2
 40
0.2
 49
0.1
 74
0
 49
-0.1
 74
0
  0
LTYPE
  5
1F9
100
AcDbSymbolTableRecord
100
AcDbLinetypeTableRecord
  2
DASHED
 70
64
  3
- - - - - - - - - - - - - - - - - - - -
 72
65
 73
2
 40
0.2
 49
0.1
 74
0
 49
-0.1
 74
0
  0
ENDTAB
  0
TABLE
  2
LAYER
  5
2
100
AcDbSymbolTable
 70
36
  0
LAYER
  5
10
100
AcDbSymbolTableRecord
100
AcDbLayerTableRecord
  2
0
 70
0
 62
7
  6
CONTINUOUS
370
-3
390
F
  0
LAYER
  5
1FA
100
AcDbSymbolTableRecord
100
AcDbLayerTableRecord
  2
DEFAULT_1
 70
0
 62
7
  6
CENTER
370
-3
390
F
  0
LAYER
  5
1FB
100
AcDbSymbolTableRecord
100
AcDbLayerTableRecord
  2
DEFAULT_2
 70
0
 62
8
  6
HIDDEN
370
-3
390
F
  0
LAYER
  5
1FC
100
AcDbSymbolTableRecord
100
AcDbLayerTableRecord
  2
DEFAULT_3
 70
0
 62
7
  6
PHANTOM
370
-3
390
F
  0
LAYER
  5
1FD
100
AcDbSymbolTableRecord
100
AcDbLayerTableRecord
  2
3_ALL_SYMBOLS
 70
0
 62
7
  6
CONTINUOUS
370
-3
390
F
  0
LAYER
  5
1FE
100
AcDbSymbolTableRecord
100
AcDbLayerTableRecord
  2
DEFAULT_COORDINATE_SYSTEM
 70
0
 62
7
  6
CONTINUOUS
370
-3
390
F
  0
LAYER
  5
1FF
100
AcDbSymbolTableRecord
100
AcDbLayerTableRecord
  2
DEFAULT_DATUM_AXES
 70
0
 62
7
  6
CONTINUOUS
370
-3
390
F
  0
LAYER
  5
200
100
AcDbSymbolTableRecord
100
AcDbLayerTableRecord
  2
DEFAULT_DATUM_CURVES
 70
0
 62
7
  6
CONTINUOUS
370
-3
390
F
  0
LAYER
  5
201
100
AcDbSymbolTableRecord
100
AcDbLayerTableRecord
  2
DEFAULT_DATUM_PLANES
 70
0
 62
7
  6
CONTINUOUS
370
-3
390
F
  0
ENDTAB
  0
TABLE
  2
STYLE
  5
3
100
AcDbSymbolTable
 70
1
  0
STYLE
  5
11
100
AcDbSymbolTableRecord
100
AcDbTextStyleTableRecord
  2
STANDARD
 70
0
 40
0.0
 41
0.8
 50
0.0
 71
0
 42
0.2
  3
txt
  4

  0
STYLE
  5
202
100
AcDbSymbolTableRecord
100
AcDbTextStyleTableRecord
  2
TEXTSTYLE_1
 70
0
 40
0.0
 41
0.8
 50
0.0
 71
0
 42
0.2
  3
gdt
  4

  0
ENDTAB
  0
TABLE
  2
VIEW
  5
6
100
AcDbSymbolTable
 70
0
  0
ENDTAB
  0
TABLE
  2
UCS
  5
7
100
AcDbSymbolTable
 70
0
  0
ENDTAB
  0
TABLE
  2
APPID
  5
9
100
AcDbSymbolTable
 70
1
  0
APPID
  5
203
100
AcDbSymbolTableRecord
100
AcDbRegAppTableRecord
  2
ACAD
 70
0
  0
ENDTAB
  0
TABLE
  2
BLOCK_RECORD
  5
1
100
AcDbSymbolTable
 70
0
  0
BLOCK_RECORD
  5
204
100
AcDbSymbolTableRecord
100
AcDbBlockTableRecord
  2
*Model_Space
  0
BLOCK_RECORD
  5
205
100
AcDbSymbolTableRecord
100
AcDbBlockTableRecord
  2
*Paper_Space
  0
ENDTAB
  0
TABLE
  2
DIMSTYLE
  5
A
100
AcDbSymbolTable
 70
1
100
AcDbDimStyleTable
 71
0
  0
DIMSTYLE
105
206
100
AcDbSymbolTableRecord
100
AcDbDimStyleTableRecord
  2
STANDARD
 70
0
  3

  4

 40
1.0
 41
0.1
 42
0.0625
 43
0.38
 44
0.18
 45
0.0
 46
0.0
 47
0.01
 48
0.01
140
0.08
141
0.09
142
0.0
143
25.4
144
1.0
145
0.0
146
1.0
147
0.09
 71
1.0
 72
0.0
 73
1
 74
1
 75
0
 76
0
 77
0
 78
4
170
0
171
2
172
0
173
0
174
0
175
0
176
0
177
0
178
0
270
2
271
2
272
2
273
2
274
2
275
0
280
0
281
0
282
0
283
1
284
4
285
0
286
0
287
3
288
0
340
11
  0
ENDTAB
  0
ENDSEC
  0
SECTION
  2
BLOCKS
  0
BLOCK
  5
20
100
AcDbEntity
  8
0
100
AcDbBlockBegin
  2
*Model_Space
 70
0
 10
0.0
 20
0.0
 30
0.0
  3
*Model_Space
  1

  0
ENDBLK
  5
21
100
AcDbEntity
  8
0
100
AcDbBlockEnd
  0
BLOCK
  5
1C
100
AcDbEntity
  8
0
100
AcDbBlockBegin
  2
*Paper_Space
 70
0
 10
0.0
 20
0.0
 30
0.0
  3
*Paper_Space
  1

  0
ENDBLK
  5
1D
100
AcDbEntity
  8
0
100
AcDbBlockEnd
  0
ENDSEC
  0
SECTION
  2
ENTITIES
  0
LINE
  5
207
100
AcDbEntity
  8
0
100
AcDbLine
 62
6
  6
CONTINUOUS
 10
1.8474052152
 20
7.8567816107
 11
1.8474052152
 21
8.5267816107
  0
LINE
  5
208
100
AcDbEntity
  8
0
100
AcDbLine
 62
9
  6
CONTINUOUS
 10
1.8648686249
 20
7.8567816107
 11
1.8648686249
 21
8.5267816107
  0
LINE
  5
209
100
AcDbEntity
  8
0
100
AcDbLine
 62
6
  6
CONTINUOUS
 10
3.3349052152
 20
9.2242815726
 11
3.3349052152
 21
8.5567816107
  0
LINE
  5
20A
100
AcDbEntity
  8
0
100
AcDbLine
 62
6
  6
CONTINUOUS
 10
3.3349052152
 20
7.8267816107
 11
3.3349052152
 21
7.1592816489
  0
LINE
  5
20B
100
AcDbEntity
  8
0
100
AcDbLine
 62
9
  6
CONTINUOUS
 10
3.3401181275
 20
8.5267816107
 11
3.3401181275
 21
7.8567816107
  0
LINE
  5
20C
100
AcDbEntity
  8
0
100
AcDbLine
 62
9
  6
CONTINUOUS
 10
3.5182385485
 20
9.0429482774
 11
3.5182385485
 21
8.5567816107
  0
LINE
  5
20D
100
AcDbEntity
  8
0
100
AcDbLine
 62
9
  6
CONTINUOUS
 10
3.5182385485
 20
7.8267816107
 11
3.5182385485
 21
7.3406149441
  0
LINE
  5
20E
100
AcDbEntity
  8
0
100
AcDbLine
 62
9
  6
CONTINUOUS
 10
3.6849052152
 20
7.5092816107
 11
3.6849052152
 21
7.8267816107
  0
LINE
  5
20F
100
AcDbEntity
  8
0
100
AcDbLine
 62
9
  6
CONTINUOUS
 10
3.6849052152
 20
8.5567816107
 11
3.6849052152
 21
8.8742816107
  0
LINE
  5
210
100
AcDbEntity
  8
0
100
AcDbLine
 62
9
  6
CONTINUOUS
 10
3.7149052152
 20
7.4792816107
 11
3.7149052152
 21
7.8267816107
  0
LINE
  5
211
100
AcDbEntity
  8
0
100
AcDbLine
 62
9
  6
CONTINUOUS
 10
3.7149052152
 20
8.5567816107
 11
3.7149052152
 21
8.9042816107
  0
LINE
  5
212
100
AcDbEntity
  8
0
100
AcDbLine
 62
9
  6
CONTINUOUS
 10
4.2974052152
 20
7.8267816107
 11
4.2974052152
 21
8.5567816107
  0
LWPOLYLINE
  5
213
100
AcDbEntity
  8
0
100
AcDbPolyline
 62
6
  6
CONTINUOUS
 90
13
 70
0
 10
9.0130435675
 20
2.2840567031
 10
9.0174173842
 20
2.2851464207
 10
9.0237158218
 20
2.2873556035
 10
9.0297273512
 20
2.2902488305
 10
9.0353776384
 20
2.2937901014
 10
9.0405969789
 20
2.2979352158
 10
9.0453214697
 20
2.3026321573
 10
9.0494924186
 20
2.307822699
 10
9.0530597313
 20
2.3134421637
 10
9.0559798236
 20
2.319422208
 10
9.0582174472
 20
2.3256896482
 10
9.0597453124
 20
2.3321682655
 10
9.060543995
 20
2.3387791463
  0
LINE
  5
214
100
AcDbEntity
  8
0
100
AcDbLine
 62
9
  6
CONTINUOUS
 10
7.7817668631
 20
2.2840566989
 11
7.7817562498
 21
2.2840589253
  0
LINE
  5
215
100
AcDbEntity
  8
0
100
AcDbLine
 62
9
  6
CONTINUOUS
 10
5.0674052152
 20
7.8267816107
 11
5.0674052152
 21
8.5567816107
  0
LINE
  5
216
100
AcDbEntity
  8
0
100
AcDbLine
 62
9
  6
CONTINUOUS
 10
5.0799052152
 20
8.9042816107
 11
5.0799052152
 21
8.5536669788
  0
LINE
  5
217
100
AcDbEntity
  8
0
100
AcDbLine
 62
9
  6
CONTINUOUS
 10
5.0799052152
 20
7.4792816107
 11
5.0799052152
 21
7.8295131545
  0
LINE
  5
218
100
AcDbEntity
  8
0
100
AcDbLine
 62
6
  6
CONTINUOUS
 10
5.0974052152
 20
7.8567816107
 11
5.0974052152
 21
8.5267816107
  0
LINE
  5
219
100
AcDbEntity
  8
0
100
AcDbLine
 62
9
  6
CONTINUOUS
 10
5.1099052152
 20
8.8742816107
 11
5.1099052152
 21
7.5092816107
  0
LINE
  5
21A
100
AcDbEntity
  8
0
100
AcDbLine
 62
9
  6
CONTINUOUS
 10
5.2765718819
 20
7.3406149441
 11
5.2765718819
 21
9.0429482774
  0
LINE
  5
21B
100
AcDbEntity
  8
0
100
AcDbLine
 62
6
  6
CONTINUOUS
 10
5.4599052152
 20
7.1592816489
 11
5.4599052152
 21
9.2242815726
  0
LINE
  5
21C
100
AcDbEntity
  8
0
100
AcDbLine
 62
9
  6
CONTINUOUS
 10
7.7341431693
 20
2.3430651043
 11
7.7342943408
 21
2.3427824924
  0
LINE
  5
21D
100
AcDbEntity
  8
0
100
AcDbLine
 62
6
  6
CONTINUOUS
 10
7.3349052152
 20
9.1942815054
 11
7.3349052152
 21
7.1692816107
  0
LINE
  5
21E
100
AcDbEntity
  8
0
100
AcDbLine
 62
6
  6
CONTINUOUS
 10
9.3619316003
 20
7.1288291687
 11
9.3623311298
 21
7.128977379
  0
LWPOLYLINE
  5
21F
100
AcDbEntity
  8
0
100
AcDbPolyline
 62
6
  6
CONTINUOUS
 90
3
 70
0
 10
9.3623311298
 20
7.128977379
 10
9.3634504515
 20
7.1293105964
 10
9.3628626307
 20
7.1292816107
  0
LWPOLYLINE
  5
220
100
AcDbEntity
  8
0
100
AcDbPolyline
 62
6
  6
CONTINUOUS
 90
14
 70
0
 10
7.7341431188
 20
2.3430651143
 10
7.7342793717
 20
2.3385839972
 10
7.7350995853
 20
2.3319761974
 10
7.7366485812
 20
2.3255026209
 10
7.7389067173
 20
2.3192422522
 10
7.7418465944
 20
2.3132714015
 10
7.7454325428
 20
2.3076632387
 10
7.7496207751
 20
2.302486118
 10
7.7543608655
 20
2.2978045774
 10
7.7595938713
 20
2.293676562
 10
7.7652557285
 20
2.2901539573
 10
7.7712765
 20
2.287280546
 10
7.7775817674
 20
2.2850921303
 10
7.7817562027
 20
2.2840589352
  0
LINE
  5
221
100
AcDbEntity
  8
0
100
AcDbLine
 62
6
  6
CONTINUOUS
 10
7.7238642176
 20
5.7490269037
 11
7.7272094522
 21
5.6281684152
  0
LINE
  5
222
100
AcDbEntity
  8
0
100
AcDbLine
 62
9
  6
CONTINUOUS
 10
7.5189737138
 20
8.9689893224
 11
7.5189737138
 21
7.0481123107
  0
LINE
  5
223
100
AcDbEntity
  8
0
100
AcDbLine
 62
9
  6
CONTINUOUS
 10
7.7273485535
 20
8.7567881256
 11
7.7273485535
 21
5.6291433182
  0
LINE
  5
224
100
AcDbEntity
  8
0
100
AcDbLine
 62
9
  6
CONTINUOUS
 10
7.768412039
 20
7.5667816107
 11
7.768412039
 21
8.7567816107
  0
LINE
  5
225
100
AcDbEntity
  8
0
100
AcDbLine
 62
9
  6
CONTINUOUS
 10
7.8182217739
 20
7.5667816107
 11
7.8182217739
 21
8.7567816107
  0
LINE
  5
226
100
AcDbEntity
  8
0
100
AcDbLine
 62
9
  6
CONTINUOUS
 10
7.8282599723
 20
8.8167816107
 11
7.8282599723
 21
8.7667816107
  0
LINE
  5
227
100
AcDbEntity
  8
0
100
AcDbLine
 62
9
  6
CONTINUOUS
 10
7.7272094522
 20
5.6281684152
 11
7.7273502657
 21
5.6291433181
  0
LINE
  5
228
100
AcDbEntity
  8
0
100
AcDbLine
 62
6
  6
CONTINUOUS
 10
8.0224052152
 20
8.5267816107
 11
8.0224052152
 21
7.8567816107
  0
LINE
  5
229
100
AcDbEntity
  8
0
100
AcDbLine
 62
9
  6
CONTINUOUS
 10
8.0624052152
 20
7.8167816107
 11
8.0624052152
 21
8.5667816107
  0
LINE
  5
22A
100
AcDbEntity
  8
0
100
AcDbLine
 62
9
  6
CONTINUOUS
 10
9.2720008524
 20
7.0262153572
 11
9.2720029417
 21
7.0262185518
  0
LWPOLYLINE
  5
22B
100
AcDbEntity
  8
0
100
AcDbPolyline
 62
6
  6
CONTINUOUS
 90
10
 70
0
 10
9.2720003952
 20
7.0262156565
 10
9.2873152483
 20
7.0489204914
 10
9.3019720659
 20
7.0691926643
 10
9.3152799914
 20
7.0861566657
 10
9.3271182997
 20
7.0998749964
 10
9.3373784581
 20
7.1105086683
 10
9.3460052531
 20
7.1183438642
 10
9.3530167288
 20
7.1237661221
 10
9.3583673144
 20
7.127133527
 10
9.3619316003
 20
7.1288291687
  0
LINE
  5
22C
100
AcDbEntity
  8
0
100
AcDbLine
 62
9
  6
CONTINUOUS
 10
7.5228099229
 20
7.0262161014
 11
7.5228082406
 21
7.0262186737
  0
LWPOLYLINE
  5
22D
100
AcDbEntity
  8
0
100
AcDbPolyline
 62
6
  6
CONTINUOUS
 90
19
 70
0
 10
7.5228079895
 20
7.0262185098
 10
7.5388610884
 20
6.9995916415
 10
7.5550718386
 20
6.968103808
 10
7.570862624
 20
6.932311448
 10
7.5861875569
 20
6.8919235704
 10
7.6010065097
 20
6.8466267389
 10
7.6152767377
 20
6.7961055255
 10
7.6289335452
 20
6.7400964236
 10
7.6418757331
 20
6.6785266952
 10
7.6540245398
 20
6.6114244112
 10
7.6653369596
 20
6.5387014723
 10
7.675791893
 20
6.4601693762
 10
7.6853840257
 20
6.3756843752
 10
7.6940849252
 20
6.2852291377
 10
7.701866462
 20
6.1889561361
 10
7.7087239022
 20
6.0870587882
 10
7.7146549834
 20
5.9796716027
 10
7.7196855611
 20
5.8669291406
 10
7.7238642176
 20
5.7490269037
  0
LINE
  5
22E
100
AcDbEntity
  8
0
100
AcDbLine
 62
9
  6
CONTINUOUS
 10
8.7324052152
 20
7.8167816107
 11
8.7324052152
 21
8.5667816107
  0
LINE
  5
22F
100
AcDbEntity
  8
0
100
AcDbLine
 62
6
  6
CONTINUOUS
 10
8.7724052152
 20
7.8567816107
 11
8.7724052152
 21
8.5267816107
  0
LWPOLYLINE
  5
230
100
AcDbEntity
  8
0
100
AcDbPolyline
 62
6
  6
CONTINUOUS
 90
17
 70
0
 10
9.0606672615
 20
2.3430651151
 10
9.0589616078
 20
2.5978552676
 10
9.0574840154
 20
2.8480812309
 10
9.0562499108
 20
3.0918906513
 10
9.0552622676
 20
3.3292295349
 10
9.0545233846
 20
3.5600337165
 10
9.0540311039
 20
3.7842369957
 10
9.053777359
 20
4.0017818395
 10
9.0537558654
 20
4.2126183237
 10
9.0539955548
 20
4.4166713277
 10
9.0545757826
 20
4.6138218487
 10
9.0555754555
 20
4.8038205865
 10
9.0570460355
 20
4.9862230532
 10
9.0590068419
 20
5.1605259405
 10
9.0614536539
 20
5.3262383447
 10
9.0643527923
 20
5.4828972897
 10
9.0676021621
 20
5.6281684566
  0
LINE
  5
231
100
AcDbEntity
  8
0
100
AcDbLine
 62
9
  6
CONTINUOUS
 10
8.9665504581
 20
8.8167816107
 11
8.9665504581
 21
8.7667816107
  0
LINE
  5
232
100
AcDbEntity
  8
0
100
AcDbLine
 62
9
  6
CONTINUOUS
 10
8.9765886565
 20
8.7567816107
 11
8.9765886565
 21
7.5667816107
  0
LINE
  5
233
100
AcDbEntity
  8
0
100
AcDbLine
 62
9
  6
CONTINUOUS
 10
9.0263983914
 20
8.7567816107
 11
9.0263983914
 21
7.5667816107
  0
LINE
  5
234
100
AcDbEntity
  8
0
100
AcDbLine
 62
9
  6
CONTINUOUS
 10
9.0674618769
 20
8.7567881256
 11
9.0674618769
 21
5.6291433182
  0
LINE
  5
235
100
AcDbEntity
  8
0
100
AcDbLine
 62
9
  6
CONTINUOUS
 10
9.2758367166
 20
8.9689893224
 11
9.2758367166
 21
7.0481123107
  0
LWPOLYLINE
  5
236
100
AcDbEntity
  8
0
100
AcDbPolyline
 62
6
  6
CONTINUOUS
 90
20
 70
0
 10
9.0676016893
 20
5.6281690465
 10
9.0709513296
 20
5.7491842744
 10
9.0751302733
 20
5.8670852743
 10
9.080162951
 20
5.9798279634
 10
9.0860956463
 20
6.0872109862
 10
9.0929551492
 20
6.1891011706
 10
9.1007387699
 20
6.2853688618
 10
9.1094408
 20
6.375824361
 10
9.1190356315
 20
6.4603059835
 10
9.1294928633
 20
6.5388346152
 10
9.1408071715
 20
6.6115546873
 10
9.152959269
 20
6.6786510636
 10
9.1659043362
 20
6.7402166891
 10
9.1795637696
 20
6.7962212043
 10
9.1938370823
 20
6.8467348259
 10
9.2086593806
 20
6.8920264397
 10
9.2239872727
 20
6.932408841
 10
9.2397800823
 20
6.9681919419
 10
9.2559942616
 20
6.9996714872
 10
9.2720029417
 20
7.0262185518
  0
LINE
  5
237
100
AcDbEntity
  8
0
100
AcDbLine
 62
6
  6
CONTINUOUS
 10
9.060543995
 20
2.3387791463
 11
9.060667319
 21
2.343065132
  0
LINE
  5
238
100
AcDbEntity
  8
0
100
AcDbLine
 62
6
  6
CONTINUOUS
 10
7.4313363676
 20
7.1293154264
 11
7.4328914832
 21
7.128824799
  0
LWPOLYLINE
  5
239
100
AcDbEntity
  8
0
100
AcDbPolyline
 62
6
  6
CONTINUOUS
 90
10
 70
0
 10
7.4328914832
 20
7.128824799
 10
7.4364625274
 20
7.1271233491
 10
7.441818438
 20
7.1237488771
 10
7.4488355866
 20
7.1183181847
 10
7.4574660859
 20
7.1104755311
 10
7.467729751
 20
7.0998338147
 10
7.4795723888
 20
7.0861054405
 10
7.4928851365
 20
7.0691304229
 10
7.5075452245
 20
7.0488490433
 10
7.5228099229
 20
7.0262161014
  0
LINE
  5
23A
100
AcDbEntity
  8
0
100
AcDbLine
 62
9
  6
CONTINUOUS
 10
9.0676021761
 20
5.6281690328
 11
9.0674613909
 21
5.6291433182
  0
LINE
  5
23B
100
AcDbEntity
  8
0
100
AcDbLine
 62
6
  6
CONTINUOUS
 10
9.4599052152
 20
9.1942815109
 11
9.4599052152
 21
7.1692816107
  0
LINE
  5
23C
100
AcDbEntity
  8
0
100
AcDbLine
 62
6
  6
CONTINUOUS
 10
9.4199052152
 20
7.1292816107
 11
9.3633530848
 21
7.1292816107
  0
LINE
  5
23D
100
AcDbEntity
  8
0
100
AcDbLine
 62
6
  6
CONTINUOUS
 10
7.4314435512
 20
7.1292816107
 11
7.3749052152
 21
7.1292816107
  0
LINE
  5
23E
100
AcDbEntity
  8
0
100
AcDbLine
 62
6
  6
CONTINUOUS
 10
5.429905177
 20
7.1292816107
 11
3.3649052534
 21
7.1292816107
  0
LINE
  5
23F
100
AcDbEntity
  8
0
100
AcDbLine
 62
6
  6
CONTINUOUS
 10
11.3649052534
 20
7.1292816107
 11
13.429905177
 21
7.1292816107
  0
LINE
  5
240
100
AcDbEntity
  8
0
100
AcDbLine
 62
9
  6
CONTINUOUS
 10
9.4599052152
 20
7.1692816107
 11
9.4019839635
 21
7.1692816107
  0
LINE
  5
241
100
AcDbEntity
  8
0
100
AcDbLine
 62
9
  6
CONTINUOUS
 10
7.3928264669
 20
7.1692816107
 11
7.3349052152
 21
7.1692816107
  0
LINE
  5
242
100
AcDbEntity
  8
0
100
AcDbLine
 62
9
  6
CONTINUOUS
 10
5.2485718819
 20
7.3126149441
 11
3.5462385485
 21
7.3126149441
  0
LINE
  5
243
100
AcDbEntity
  8
0
100
AcDbLine
 62
9
  6
CONTINUOUS
 10
11.5462385485
 20
7.3126149441
 11
13.2485718819
 21
7.3126149441
  0
LINE
  5
244
100
AcDbEntity
  8
0
100
AcDbLine
 62
9
  6
CONTINUOUS
 10
13.0799052152
 20
7.4792816107
 11
11.7149052152
 21
7.4792816107
  0
LINE
  5
245
100
AcDbEntity
  8
0
100
AcDbLine
 62
9
  6
CONTINUOUS
 10
5.0799052152
 20
7.4792816107
 11
3.7149052152
 21
7.4792816107
  0
LINE
  5
246
100
AcDbEntity
  8
0
100
AcDbLine
 62
9
  6
CONTINUOUS
 10
3.6849052152
 20
7.5092816107
 11
5.1099052152
 21
7.5092816107
  0
LINE
  5
247
100
AcDbEntity
  8
0
100
AcDbLine
 62
9
  6
CONTINUOUS
 10
11.6849052152
 20
7.5092816107
 11
13.1099052152
 21
7.5092816107
  0
LINE
  5
248
100
AcDbEntity
  8
0
100
AcDbLine
 62
9
  6
CONTINUOUS
 10
7.768412039
 20
7.5667816107
 11
9.0263983914
 21
7.5667816107
  0
LINE
  5
249
100
AcDbEntity
  8
0
100
AcDbLine
 62
9
  6
CONTINUOUS
 10
9.0606673192
 20
2.3430651142
 11
9.0605161057
 21
2.3427824924
  0
LINE
  5
24A
100
AcDbEntity
  8
0
100
AcDbLine
 62
6
  6
CONTINUOUS
 10
12.6227521699
 20
7.8167816107
 11
12.1720582605
 21
7.8167816107
  0
LINE
  5
24B
100
AcDbEntity
  8
0
100
AcDbLine
 62
6
  6
CONTINUOUS
 10
4.1720582605
 20
7.8167816107
 11
4.6227521699
 21
7.8167816107
  0
LINE
  5
24C
100
AcDbEntity
  8
0
100
AcDbLine
 62
6
  6
CONTINUOUS
 10
8.0624052152
 20
7.8167816107
 11
8.7324052152
 21
7.8167816107
  0
LINE
  5
24D
100
AcDbEntity
  8
0
100
AcDbLine
 62
9
  6
CONTINUOUS
 10
14.9174052152
 20
7.8267816107
 11
13.4618257059
 21
7.8267816107
  0
LINE
  5
24E
100
AcDbEntity
  8
0
100
AcDbLine
 62
6
  6
CONTINUOUS
 10
13.4618257059
 20
7.8267816107
 11
11.7274052152
 21
7.8267816107
  0
LINE
  5
24F
100
AcDbEntity
  8
0
100
AcDbLine
 62
9
  6
CONTINUOUS
 10
4.2974052152
 20
7.8267816107
 11
3.3329847244
 21
7.8267816107
  0
LINE
  5
250
100
AcDbEntity
  8
0
100
AcDbLine
 62
6
  6
CONTINUOUS
 10
3.3329847244
 20
7.8267816107
 11
1.8774052152
 21
7.8267816107
  0
LINE
  5
251
100
AcDbEntity
  8
0
100
AcDbLine
 62
6
  6
CONTINUOUS
 10
4.2974052152
 20
7.8267816107
 11
5.0674052152
 21
7.8267816107
  0
LINE
  5
252
100
AcDbEntity
  8
0
100
AcDbLine
 62
9
  6
CONTINUOUS
 10
14.9474052152
 20
7.8567816107
 11
11.6974052152
 21
7.8567816107
  0
LINE
  5
253
100
AcDbEntity
  8
0
100
AcDbLine
 62
9
  6
CONTINUOUS
 10
1.8474052152
 20
7.8567816107
 11
5.0974052152
 21
7.8567816107
  0
LINE
  5
254
100
AcDbEntity
  8
0
100
AcDbLine
 62
9
  6
CONTINUOUS
 10
8.0224052152
 20
7.8567816107
 11
8.7724052152
 21
7.8567816107
  0
LINE
  5
255
100
AcDbEntity
  8
0
100
AcDbLine
 62
6
  6
CONTINUOUS
 10
11.3349052152
 20
9.2242815726
 11
11.3349052152
 21
7.1592816489
  0
LINE
  5
256
100
AcDbEntity
  8
0
100
AcDbLine
 62
9
  6
CONTINUOUS
 10
1.8474052152
 20
8.5267816107
 11
5.0974052152
 21
8.5267816107
  0
LINE
  5
257
100
AcDbEntity
  8
0
100
AcDbLine
 62
9
  6
CONTINUOUS
 10
8.0224052152
 20
8.5267816107
 11
8.7724052152
 21
8.5267816107
  0
LINE
  5
258
100
AcDbEntity
  8
0
100
AcDbLine
 62
9
  6
CONTINUOUS
 10
11.6974052152
 20
8.5267816107
 11
14.9474052152
 21
8.5267816107
  0
LINE
  5
259
100
AcDbEntity
  8
0
100
AcDbLine
 62
9
  6
CONTINUOUS
 10
1.8774052152
 20
8.5567816107
 11
3.3329847244
 21
8.5567816107
  0
LINE
  5
25A
100
AcDbEntity
  8
0
100
AcDbLine
 62
6
  6
CONTINUOUS
 10
3.3329847244
 20
8.5567816107
 11
5.0674052152
 21
8.5567816107
  0
LINE
  5
25B
100
AcDbEntity
  8
0
100
AcDbLine
 62
6
  6
CONTINUOUS
 10
11.7274052152
 20
8.5567816107
 11
12.4974052152
 21
8.5567816107
  0
LINE
  5
25C
100
AcDbEntity
  8
0
100
AcDbLine
 62
9
  6
CONTINUOUS
 10
12.4974052152
 20
8.5567816107
 11
13.4618257059
 21
8.5567816107
  0
LINE
  5
25D
100
AcDbEntity
  8
0
100
AcDbLine
 62
6
  6
CONTINUOUS
 10
13.4618257059
 20
8.5567816107
 11
14.9174052152
 21
8.5567816107
  0
LINE
  5
25E
100
AcDbEntity
  8
0
100
AcDbLine
 62
6
  6
CONTINUOUS
 10
12.6227521699
 20
8.5667816107
 11
12.1720582605
 21
8.5667816107
  0
LINE
  5
25F
100
AcDbEntity
  8
0
100
AcDbLine
 62
6
  6
CONTINUOUS
 10
8.7324052152
 20
8.5667816107
 11
8.0624052152
 21
8.5667816107
  0
LINE
  5
260
100
AcDbEntity
  8
0
100
AcDbLine
 62
6
  6
CONTINUOUS
 10
4.1720582605
 20
8.5667816107
 11
4.6227521699
 21
8.5667816107
  0
LINE
  5
261
100
AcDbEntity
  8
0
100
AcDbLine
 62
9
  6
CONTINUOUS
 10
9.0670043685
 20
8.7567816107
 11
8.9765886565
 21
8.7567816107
  0
LINE
  5
262
100
AcDbEntity
  8
0
100
AcDbLine
 62
9
  6
CONTINUOUS
 10
7.7278060618
 20
8.7567816107
 11
7.8182217739
 21
8.7567816107
  0
LINE
  5
263
100
AcDbEntity
  8
0
100
AcDbLine
 62
9
  6
CONTINUOUS
 10
7.8282599723
 20
8.7667816107
 11
8.9665504581
 21
8.7667816107
  0
LINE
  5
264
100
AcDbEntity
  8
0
100
AcDbLine
 62
9
  6
CONTINUOUS
 10
11.5182385485
 20
9.0429482774
 11
11.5182385485
 21
7.3406149441
  0
LINE
  5
265
100
AcDbEntity
  8
0
100
AcDbLine
 62
9
  6
CONTINUOUS
 10
11.6849052152
 20
7.5092816107
 11
11.6849052152
 21
8.8742816107
  0
LINE
  5
266
100
AcDbEntity
  8
0
100
AcDbLine
 62
6
  6
CONTINUOUS
 10
11.6974052152
 20
8.5267816107
 11
11.6974052152
 21
7.8567816107
  0
LINE
  5
267
100
AcDbEntity
  8
0
100
AcDbLine
 62
9
  6
CONTINUOUS
 10
11.7149052152
 20
7.4792816107
 11
11.7149052152
 21
7.8298962427
  0
LINE
  5
268
100
AcDbEntity
  8
0
100
AcDbLine
 62
9
  6
CONTINUOUS
 10
11.7149052152
 20
8.554050067
 11
11.7149052152
 21
8.9042816107
  0
LINE
  5
269
100
AcDbEntity
  8
0
100
AcDbLine
 62
9
  6
CONTINUOUS
 10
11.7274052152
 20
7.8267816107
 11
11.7274052152
 21
8.5567816107
  0
LINE
  5
26A
100
AcDbEntity
  8
0
100
AcDbLine
 62
9
  6
CONTINUOUS
 10
7.8282599723
 20
8.8167816107
 11
8.9665504581
 21
8.8167816107
  0
LINE
  5
26B
100
AcDbEntity
  8
0
100
AcDbLine
 62
6
  6
CONTINUOUS
 10
7.7875777437
 20
8.8167816107
 11
7.8282599723
 21
8.8167816107
  0
LINE
  5
26C
100
AcDbEntity
  8
0
100
AcDbLine
 62
6
  6
CONTINUOUS
 10
8.9665504581
 20
8.8167816107
 11
9.0072326867
 21
8.8167816107
  0
LINE
  5
26D
100
AcDbEntity
  8
0
100
AcDbLine
 62
9
  6
CONTINUOUS
 10
3.6849052152
 20
8.8742816107
 11
5.1099052152
 21
8.8742816107
  0
LINE
  5
26E
100
AcDbEntity
  8
0
100
AcDbLine
 62
9
  6
CONTINUOUS
 10
11.6849052152
 20
8.8742816107
 11
13.1099052152
 21
8.8742816107
  0
LINE
  5
26F
100
AcDbEntity
  8
0
100
AcDbLine
 62
9
  6
CONTINUOUS
 10
3.7149052152
 20
8.9042816107
 11
5.0799052152
 21
8.9042816107
  0
LINE
  5
270
100
AcDbEntity
  8
0
100
AcDbLine
 62
9
  6
CONTINUOUS
 10
11.7149052152
 20
8.9042816107
 11
13.0799052152
 21
8.9042816107
  0
LINE
  5
271
100
AcDbEntity
  8
0
100
AcDbLine
 62
9
  6
CONTINUOUS
 10
9.2217198721
 20
9.0252033614
 11
7.5730905582
 21
9.0252033614
  0
LINE
  5
272
100
AcDbEntity
  8
0
100
AcDbLine
 62
9
  6
CONTINUOUS
 10
5.2485718819
 20
9.0709482774
 11
3.5462385485
 21
9.0709482774
  0
LINE
  5
273
100
AcDbEntity
  8
0
100
AcDbLine
 62
9
  6
CONTINUOUS
 10
11.5462385485
 20
9.0709482774
 11
13.2485718819
 21
9.0709482774
  0
LINE
  5
274
100
AcDbEntity
  8
0
100
AcDbLine
 62
6
  6
CONTINUOUS
 10
5.429905177
 20
9.2542816107
 11
3.3649052534
 21
9.2542816107
  0
LINE
  5
275
100
AcDbEntity
  8
0
100
AcDbLine
 62
6
  6
CONTINUOUS
 10
7.3949053153
 20
9.2542816107
 11
9.3999051194
 21
9.2542816107
  0
LINE
  5
276
100
AcDbEntity
  8
0
100
AcDbLine
 62
6
  6
CONTINUOUS
 10
11.3649052534
 20
9.2542816107
 11
13.429905177
 21
9.2542816107
  0
LINE
  5
277
100
AcDbEntity
  8
0
100
AcDbLine
 62
9
  6
CONTINUOUS
 10
12.4974052152
 20
7.8267816107
 11
12.4974052152
 21
8.5567816107
  0
LINE
  5
278
100
AcDbEntity
  8
0
100
AcDbLine
 62
9
  6
CONTINUOUS
 10
13.0799052152
 20
8.9042816107
 11
13.0799052152
 21
8.5567816107
  0
LINE
  5
279
100
AcDbEntity
  8
0
100
AcDbLine
 62
9
  6
CONTINUOUS
 10
13.0799052152
 20
7.4792816107
 11
13.0799052152
 21
7.8267816107
  0
LINE
  5
27A
100
AcDbEntity
  8
0
100
AcDbLine
 62
9
  6
CONTINUOUS
 10
13.1099052152
 20
8.8742816107
 11
13.1099052152
 21
8.5567816107
  0
LINE
  5
27B
100
AcDbEntity
  8
0
100
AcDbLine
 62
9
  6
CONTINUOUS
 10
13.1099052152
 20
7.8267816107
 11
13.1099052152
 21
7.5092816107
  0
LINE
  5
27C
100
AcDbEntity
  8
0
100
AcDbLine
 62
9
  6
CONTINUOUS
 10
13.2765718819
 20
7.3406149441
 11
13.2765718819
 21
7.8267816107
  0
LINE
  5
27D
100
AcDbEntity
  8
0
100
AcDbLine
 62
9
  6
CONTINUOUS
 10
13.2765718819
 20
8.5567816107
 11
13.2765718819
 21
9.0429482774
  0
LINE
  5
27E
100
AcDbEntity
  8
0
100
AcDbLine
 62
9
  6
CONTINUOUS
 10
13.4546923028
 20
7.8567816107
 11
13.4546923028
 21
8.5267816107
  0
LINE
  5
27F
100
AcDbEntity
  8
0
100
AcDbLine
 62
6
  6
CONTINUOUS
 10
13.4599052152
 20
7.1592816489
 11
13.4599052152
 21
7.8267816107
  0
LINE
  5
280
100
AcDbEntity
  8
0
100
AcDbLine
 62
6
  6
CONTINUOUS
 10
13.4599052152
 20
8.5567816107
 11
13.4599052152
 21
9.2242815726
  0
LINE
  5
281
100
AcDbEntity
  8
0
100
AcDbLine
 62
9
  6
CONTINUOUS
 10
14.9299418055
 20
8.5267816107
 11
14.9299418055
 21
7.8567816107
  0
LINE
  5
282
100
AcDbEntity
  8
0
100
AcDbLine
 62
6
  6
CONTINUOUS
 10
14.9474052152
 20
8.5267816107
 11
14.9474052152
 21
7.8567816107
  0
ARC
  5
283
100
AcDbEntity
  8
0
100
AcDbCircle
 62
9
  6
CONTINUOUS
 10
-272.4054860973
 20
4.3833742756
 40
280.147174132
100
AcDbArc
 50
359.6508388311
 51
359.7704364301
  0
ARC
  5
284
100
AcDbEntity
  8
0
100
AcDbCircle
 62
9
  6
CONTINUOUS
 10
-198.1383687585
 20
4.1326476426
 40
205.8795932092
100
AcDbArc
 50
359.907061723
 51
0.0273227647
  0
ARC
  5
285
100
AcDbEntity
  8
0
100
AcDbCircle
 62
9
  6
CONTINUOUS
 10
-112.3159219031
 20
4.1733855103
 40
120.0571361681
100
AcDbArc
 50
0.027412712
 51
0.1822184162
  0
ARC
  5
286
100
AcDbEntity
  8
0
100
AcDbCircle
 62
9
  6
CONTINUOUS
 10
-51.7158547599
 20
4.4109793607
 40
59.4565482374
100
AcDbArc
 50
0.2918205958
 51
0.6913942095
  0
ARC
  5
287
100
AcDbEntity
  8
0
100
AcDbCircle
 62
9
  6
CONTINUOUS
 10
-39.8996401131
 20
4.5425120968
 40
47.6396079926
100
AcDbArc
 50
0.7046970513
 51
0.8187586224
  0
ARC
  5
288
100
AcDbEntity
  8
0
100
AcDbCircle
 62
9
  6
CONTINUOUS
 10
-33.3935521547
 20
4.6414551162
 40
41.1327708923
100
AcDbArc
 50
0.810451273
 51
1.3176810943
  0
ARC
  5
289
100
AcDbEntity
  8
0
100
AcDbCircle
 62
9
  6
CONTINUOUS
 10
8.3376329537
 20
5.2202059926
 40
2.9399971966
100
AcDbArc
 50
258.1577730575
 51
259.2255125832
  0
ARC
  5
28A
100
AcDbEntity
  8
0
100
AcDbCircle
 62
9
  6
CONTINUOUS
 10
7.8477851412
 20
2.3317959426
 40
0.0597590131
100
AcDbArc
 50
179.7667734373
 51
259.181321409
  0
ARC
  5
28B
100
AcDbEntity
  8
0
100
AcDbCircle
 62
9
  6
CONTINUOUS
 10
7.7940390425
 20
2.3425217539
 40
0.0597414599
100
AcDbArc
 50
179.7499507626
 51
258.1349650185
  0
ARC
  5
28C
100
AcDbEntity
  8
0
100
AcDbCircle
 62
6
  6
CONTINUOUS
 10
4.3974052152
 20
8.1917816107
 40
0.4375
100
AcDbArc
 50
301.0027191339
 51
303.3000975889
  0
ARC
  5
28D
100
AcDbEntity
  8
0
100
AcDbCircle
 62
6
  6
CONTINUOUS
 10
4.3974052152
 20
8.1917816107
 40
0.4375
100
AcDbArc
 50
56.6999024111
 51
58.9972808661
  0
ARC
  5
28E
100
AcDbEntity
  8
0
100
AcDbCircle
 62
6
  6
CONTINUOUS
 10
4.3974052152
 20
8.1917816107
 40
0.4375
100
AcDbArc
 50
121.0027191339
 51
123.3000975889
  0
ARC
  5
28F
100
AcDbEntity
  8
0
100
AcDbCircle
 62
6
  6
CONTINUOUS
 10
4.3974052152
 20
8.1917816107
 40
0.4375
100
AcDbArc
 50
236.6999024111
 51
238.9972808661
  0
ARC
  5
290
100
AcDbEntity
  8
0
100
AcDbCircle
 62
6
  6
CONTINUOUS
 10
1.8774052152
 20
7.8567816107
 40
0.03
100
AcDbArc
 50
180.0
 51
270.0
  0
ARC
  5
291
100
AcDbEntity
  8
0
100
AcDbCircle
 62
6
  6
CONTINUOUS
 10
3.3649052534
 20
7.1592816489
 40
0.0299999996
100
AcDbArc
 50
180.0
 51
270.0
  0
ARC
  5
292
100
AcDbEntity
  8
0
100
AcDbCircle
 62
6
  6
CONTINUOUS
 10
3.714905122
 20
7.5092815176
 40
0.0299999989
100
AcDbArc
 50
180.0
 51
270.0001779163
  0
ARC
  5
293
100
AcDbEntity
  8
0
100
AcDbCircle
 62
6
  6
CONTINUOUS
 10
1.8774052152
 20
8.5267816107
 40
0.03
100
AcDbArc
 50
90.0
 51
180.0
  0
ARC
  5
294
100
AcDbEntity
  8
0
100
AcDbCircle
 62
6
  6
CONTINUOUS
 10
3.7149052152
 20
8.8742816107
 40
0.03
100
AcDbArc
 50
90.0
 51
180.0
  0
ARC
  5
295
100
AcDbEntity
  8
0
100
AcDbCircle
 62
6
  6
CONTINUOUS
 10
3.3649052534
 20
9.2242815726
 40
0.0299999996
100
AcDbArc
 50
90.0
 51
180.0
  0
ARC
  5
296
100
AcDbEntity
  8
0
100
AcDbCircle
 62
6
  6
CONTINUOUS
 10
7.3749052152
 20
7.1692816107
 40
0.04
100
AcDbArc
 50
180.0
 51
270.0
  0
ARC
  5
297
100
AcDbEntity
  8
0
100
AcDbCircle
 62
6
  6
CONTINUOUS
 10
8.0624052152
 20
7.8567816107
 40
0.04
100
AcDbArc
 50
180.0
 51
270.0
  0
ARC
  5
298
100
AcDbEntity
  8
0
100
AcDbCircle
 62
6
  6
CONTINUOUS
 10
5.0674052152
 20
7.8567816107
 40
0.03
100
AcDbArc
 50
270.0
 51
360.0
  0
ARC
  5
299
100
AcDbEntity
  8
0
100
AcDbCircle
 62
6
  6
CONTINUOUS
 10
5.429905177
 20
7.1592816489
 40
0.0299999996
100
AcDbArc
 50
270.0
 51
360.0
  0
ARC
  5
29A
100
AcDbEntity
  8
0
100
AcDbCircle
 62
6
  6
CONTINUOUS
 10
5.0799053083
 20
7.5092815176
 40
0.0299999989
100
AcDbArc
 50
269.9998220837
 51
0.0001779163
  0
ARC
  5
29B
100
AcDbEntity
  8
0
100
AcDbCircle
 62
9
  6
CONTINUOUS
 10
7.9125331801
 20
9.2879626052
 40
0.506589586
100
AcDbArc
 50
218.6831974618
 51
219.0241811386
  0
ARC
  5
29C
100
AcDbEntity
  8
0
100
AcDbCircle
 62
9
  6
CONTINUOUS
 10
7.9566971979
 20
9.334456616
 40
0.492738906
100
AcDbArc
 50
218.8748169887
 51
219.2162864464
  0
ARC
  5
29D
100
AcDbEntity
  8
0
100
AcDbCircle
 62
6
  6
CONTINUOUS
 10
7.3949053153
 20
9.1942815054
 40
0.0599999978
100
AcDbArc
 50
90.0
 51
180.0
  0
ARC
  5
29E
100
AcDbEntity
  8
0
100
AcDbCircle
 62
9
  6
CONTINUOUS
 10
7.7875778396
 20
8.7586394061
 40
0.0581422047
100
AcDbArc
 50
90.0000945258
 51
90.4330987095
  0
ARC
  5
29F
100
AcDbEntity
  8
0
100
AcDbCircle
 62
6
  6
CONTINUOUS
 10
8.0624052152
 20
8.5267816107
 40
0.04
100
AcDbArc
 50
90.0
 51
180.0
  0
ARC
  5
2A0
100
AcDbEntity
  8
0
100
AcDbCircle
 62
6
  6
CONTINUOUS
 10
5.0674052152
 20
8.5267816107
 40
0.03
100
AcDbArc
 50
0.0
 51
90.0
  0
ARC
  5
2A1
100
AcDbEntity
  8
0
100
AcDbCircle
 62
6
  6
CONTINUOUS
 10
5.429905177
 20
9.2242815726
 40
0.0299999996
100
AcDbArc
 50
0.0
 51
90.0
  0
ARC
  5
2A2
100
AcDbEntity
  8
0
100
AcDbCircle
 62
6
  6
CONTINUOUS
 10
5.0799053083
 20
8.8742817039
 40
0.0299999989
100
AcDbArc
 50
359.9998220837
 51
90.0
  0
ARC
  5
2A3
100
AcDbEntity
  8
0
100
AcDbCircle
 62
9
  6
CONTINUOUS
 10
7.7875777981
 20
8.8333259122
 40
0.0165443015
100
AcDbArc
 50
268.4151791089
 51
269.9998118499
  0
ARC
  5
2A4
100
AcDbEntity
  8
0
100
AcDbCircle
 62
9
  6
CONTINUOUS
 10
7.7278061195
 20
8.7728533528
 40
0.0160717421
100
AcDbArc
 50
268.3685562895
 51
269.9997946047
  0
ARC
  5
2A5
100
AcDbEntity
  8
0
100
AcDbCircle
 62
9
  6
CONTINUOUS
 10
289.190140772
 20
4.3832710176
 40
280.1370180004
100
AcDbArc
 50
180.2295666747
 51
180.3493404047
  0
ARC
  5
2A6
100
AcDbEntity
  8
0
100
AcDbCircle
 62
9
  6
CONTINUOUS
 10
214.9880703177
 20
4.1327699599
 40
205.934484529
100
AcDbArc
 50
179.9731050798
 51
180.0935986146
  0
ARC
  5
2A7
100
AcDbEntity
  8
0
100
AcDbCircle
 62
9
  6
CONTINUOUS
 10
118.6990186561
 20
4.1922406026
 40
109.6454159797
100
AcDbArc
 50
179.8100848372
 51
179.9805630313
  0
ARC
  5
2A8
100
AcDbEntity
  8
0
100
AcDbCircle
 62
9
  6
CONTINUOUS
 10
68.5080627833
 20
4.4109947642
 40
59.4539456929
100
AcDbArc
 50
179.3078614924
 51
179.7085296946
  0
ARC
  5
2A9
100
AcDbEntity
  8
0
100
AcDbCircle
 62
9
  6
CONTINUOUS
 10
56.1359858788
 20
4.5499850655
 40
47.0810936874
100
AcDbArc
 50
179.1798035092
 51
179.2951173966
  0
ARC
  5
2AA
100
AcDbEntity
  8
0
100
AcDbCircle
 62
9
  6
CONTINUOUS
 10
50.1701908055
 20
4.6417993298
 40
41.1145960787
100
AcDbArc
 50
178.6822732393
 51
179.1887315741
  0
ARC
  5
2AB
100
AcDbEntity
  8
0
100
AcDbCircle
 62
6
  6
CONTINUOUS
 10
8.3974052152
 20
5.2202087355
 40
3.0
100
AcDbArc
 50
258.1580440716
 51
281.8419559284
  0
ARC
  5
2AC
100
AcDbEntity
  8
0
100
AcDbCircle
 62
9
  6
CONTINUOUS
 10
8.3974052152
 20
5.2185907529
 40
2.9530444551
100
AcDbArc
 50
259.2366460374
 51
280.7633539622
  0
ARC
  5
2AD
100
AcDbEntity
  8
0
100
AcDbCircle
 62
9
  6
CONTINUOUS
 10
8.457178167
 20
5.2202025345
 40
2.9399936705
100
AcDbArc
 50
280.7744867997
 51
281.8422276062
  0
ARC
  5
2AE
100
AcDbEntity
  8
0
100
AcDbCircle
 62
9
  6
CONTINUOUS
 10
9.0006732025
 20
2.3425586881
 40
0.0598428804
100
AcDbArc
 50
322.2137029921
 51
0.2142773876
  0
ARC
  5
2AF
100
AcDbEntity
  8
0
100
AcDbCircle
 62
9
  6
CONTINUOUS
 10
9.0007611594
 20
2.3426096575
 40
0.0598273016
100
AcDbArc
 50
281.8469262659
 51
289.8975867536
  0
ARC
  5
2B0
100
AcDbEntity
  8
0
100
AcDbCircle
 62
9
  6
CONTINUOUS
 10
8.9470209322
 20
2.3317995334
 40
0.0597640526
100
AcDbArc
 50
280.8221352249
 51
0.2297672715
  0
ARC
  5
2B1
100
AcDbEntity
  8
0
100
AcDbCircle
 62
9
  6
CONTINUOUS
 10
9.0007958621
 20
2.3424984394
 40
0.0597110007
100
AcDbArc
 50
291.5940595576
 51
300.4475506835
  0
ARC
  5
2B2
100
AcDbEntity
  8
0
100
AcDbCircle
 62
9
  6
CONTINUOUS
 10
9.0008097764
 20
2.3424730941
 40
0.0596820488
100
AcDbArc
 50
301.8740257228
 51
321.6982408715
  0
ARC
  5
2B3
100
AcDbEntity
  8
0
100
AcDbCircle
 62
9
  6
CONTINUOUS
 10
9.0008301983
 20
2.3424162266
 40
0.0596219214
100
AcDbArc
 50
289.8984659179
 51
291.5924550374
  0
ARC
  5
2B4
100
AcDbEntity
  8
0
100
AcDbCircle
 62
9
  6
CONTINUOUS
 10
9.0008610277
 20
2.3423843951
 40
0.0595796613
100
AcDbArc
 50
300.4491018983
 51
301.8772132955
  0
ARC
  5
2B5
100
AcDbEntity
  8
0
100
AcDbCircle
 62
9
  6
CONTINUOUS
 10
9.0009093732
 20
2.342397023
 40
0.0595567404
100
AcDbArc
 50
321.6962849664
 51
322.1974043138
  0
ARC
  5
2B6
100
AcDbEntity
  8
0
100
AcDbCircle
 62
6
  6
CONTINUOUS
 10
9.4199052152
 20
7.1692816107
 40
0.04
100
AcDbArc
 50
270.0
 51
360.0
  0
ARC
  5
2B7
100
AcDbEntity
  8
0
100
AcDbCircle
 62
6
  6
CONTINUOUS
 10
8.7324052152
 20
7.8567816107
 40
0.04
100
AcDbArc
 50
270.0
 51
360.0
  0
ARC
  5
2B8
100
AcDbEntity
  8
0
100
AcDbCircle
 62
6
  6
CONTINUOUS
 10
11.7274052152
 20
7.8567816107
 40
0.03
100
AcDbArc
 50
180.0
 51
270.0
  0
ARC
  5
2B9
100
AcDbEntity
  8
0
100
AcDbCircle
 62
6
  6
CONTINUOUS
 10
11.3649052534
 20
7.1592816489
 40
0.0299999996
100
AcDbArc
 50
180.0
 51
270.0
  0
ARC
  5
2BA
100
AcDbEntity
  8
0
100
AcDbCircle
 62
6
  6
CONTINUOUS
 10
11.714905122
 20
7.5092815176
 40
0.0299999989
100
AcDbArc
 50
180.0
 51
270.0001779163
  0
ARC
  5
2BB
100
AcDbEntity
  8
0
100
AcDbCircle
 62
9
  6
CONTINUOUS
 10
8.8820117582
 20
9.2881764762
 40
0.506930505
100
AcDbArc
 50
320.9759335203
 51
321.3166878793
  0
ARC
  5
2BC
100
AcDbEntity
  8
0
100
AcDbCircle
 62
9
  6
CONTINUOUS
 10
8.8378635952
 20
9.3346590972
 40
0.4930603348
100
AcDbArc
 50
320.7838248568
 51
321.125071708
  0
ARC
  5
2BD
100
AcDbEntity
  8
0
100
AcDbCircle
 62
6
  6
CONTINUOUS
 10
9.3999051194
 20
9.1942815109
 40
0.0599999979
100
AcDbArc
 50
0.0
 51
90.0
  0
ARC
  5
2BE
100
AcDbEntity
  8
0
100
AcDbCircle
 62
9
  6
CONTINUOUS
 10
9.0072325907
 20
8.7586394061
 40
0.0581422047
100
AcDbArc
 50
89.5669012905
 51
89.9999054742
  0
ARC
  5
2BF
100
AcDbEntity
  8
0
100
AcDbCircle
 62
6
  6
CONTINUOUS
 10
8.7324052152
 20
8.5267816107
 40
0.04
100
AcDbArc
 50
0.0
 51
90.0
  0
ARC
  5
2C0
100
AcDbEntity
  8
0
100
AcDbCircle
 62
6
  6
CONTINUOUS
 10
11.7274052152
 20
8.5267816107
 40
0.03
100
AcDbArc
 50
90.0
 51
180.0
  0
ARC
  5
2C1
100
AcDbEntity
  8
0
100
AcDbCircle
 62
6
  6
CONTINUOUS
 10
11.7149052152
 20
8.8742816107
 40
0.03
100
AcDbArc
 50
90.0
 51
180.0
  0
ARC
  5
2C2
100
AcDbEntity
  8
0
100
AcDbCircle
 62
6
  6
CONTINUOUS
 10
11.3649052534
 20
9.2242815726
 40
0.0299999996
100
AcDbArc
 50
90.0
 51
180.0
  0
ARC
  5
2C3
100
AcDbEntity
  8
0
100
AcDbCircle
 62
9
  6
CONTINUOUS
 10
9.0072326323
 20
8.8333259124
 40
0.0165443016
100
AcDbArc
 50
270.0001881567
 51
271.5848208845
  0
ARC
  5
2C4
100
AcDbEntity
  8
0
100
AcDbCircle
 62
9
  6
CONTINUOUS
 10
9.0670043109
 20
8.7728533528
 40
0.0160717421
100
AcDbArc
 50
270.0002053953
 51
271.6314437105
  0
ARC
  5
2C5
100
AcDbEntity
  8
0
100
AcDbCircle
 62
6
  6
CONTINUOUS
 10
12.3974052152
 20
8.1917816107
 40
0.4375
100
AcDbArc
 50
121.0027191339
 51
123.3000975889
  0
ARC
  5
2C6
100
AcDbEntity
  8
0
100
AcDbCircle
 62
6
  6
CONTINUOUS
 10
12.3974052152
 20
8.1917816107
 40
0.4375
100
AcDbArc
 50
236.6999024111
 51
238.9972808661
  0
ARC
  5
2C7
100
AcDbEntity
  8
0
100
AcDbCircle
 62
6
  6
CONTINUOUS
 10
12.3974052152
 20
8.1917816107
 40
0.4375
100
AcDbArc
 50
301.0027191339
 51
303.3000975889
  0
ARC
  5
2C8
100
AcDbEntity
  8
0
100
AcDbCircle
 62
6
  6
CONTINUOUS
 10
12.3974052152
 20
8.1917816107
 40
0.4375
100
AcDbArc
 50
56.6999024111
 51
58.9972808661
  0
ARC
  5
2C9
100
AcDbEntity
  8
0
100
AcDbCircle
 62
6
  6
CONTINUOUS
 10
14.9174052152
 20
7.8567816107
 40
0.03
100
AcDbArc
 50
270.0
 51
360.0
  0
ARC
  5
2CA
100
AcDbEntity
  8
0
100
AcDbCircle
 62
6
  6
CONTINUOUS
 10
13.429905177
 20
7.1592816489
 40
0.0299999996
100
AcDbArc
 50
270.0
 51
360.0
  0
ARC
  5
2CB
100
AcDbEntity
  8
0
100
AcDbCircle
 62
6
  6
CONTINUOUS
 10
13.0799053083
 20
7.5092815176
 40
0.0299999989
100
AcDbArc
 50
269.9998220837
 51
0.0001779163
  0
ARC
  5
2CC
100
AcDbEntity
  8
0
100
AcDbCircle
 62
6
  6
CONTINUOUS
 10
14.9174052152
 20
8.5267816107
 40
0.03
100
AcDbArc
 50
0.0
 51
90.0
  0
ARC
  5
2CD
100
AcDbEntity
  8
0
100
AcDbCircle
 62
6
  6
CONTINUOUS
 10
13.429905177
 20
9.2242815726
 40
0.0299999996
100
AcDbArc
 50
0.0
 51
90.0
  0
ARC
  5
2CE
100
AcDbEntity
  8
0
100
AcDbCircle
 62
6
  6
CONTINUOUS
 10
13.0799053083
 20
8.8742817039
 40
0.0299999989
100
AcDbArc
 50
359.9998220837
 51
90.0
  0
SPLINE
  5
2CF
100
AcDbEntity
  8
0
100
AcDbSpline
 62
6
  6
CONTINUOUS
 70
0
 71
3
 72
23
 73
19
 74
17
 42
0.0000001
 43
0.0000001
 44
0.0000000001
 12
0.0940899019
 22
0.000008328
 32
0.0
 13
-0.0000059276
 23
-0.0940899021
 33
0.0
 40
0.0
 40
0.0
 40
0.0
 40
0.0
 40
0.0623247533
 40
0.1247594485
 40
0.1872104987
 40
0.2496489669
 40
0.3120929872
 40
0.3745617009
 40
0.4370590638
 40
0.4995755394
 40
0.5621084952
 40
0.6246542486
 40
0.6872013578
 40
0.7497511685
 40
0.81231856
 40
0.8749167451
 40
0.9375105637
 40
1.0
 40
1.0
 40
1.0
 40
1.0
 10
8.9665504581
 20
8.8167816107
 30
0.0
 10
8.9685051681
 20
8.8167817838
 30
0.0
 10
8.9724206992
 20
8.8165878223
 30
0.0
 10
8.9782374483
 20
8.8157244202
 30
0.0
 10
8.9839453562
 20
8.8142924296
 30
0.0
 10
8.9894844565
 20
8.8123051133
 30
0.0
 10
8.9948031135
 20
8.8097851191
 30
0.0
 10
8.9998489267
 20
8.8067518998
 30
0.0
 10
9.004575261
 20
8.8032380446
 30
0.0
 10
9.0089370602
 20
8.7992775126
 30
0.0
 10
9.0128876849
 20
8.7949047065
 30
0.0
 10
9.0163929202
 20
8.7901664108
 30
0.0
 10
9.0194187054
 20
8.7851076714
 30
0.0
 10
9.0219326064
 20
8.7797753252
 30
0.0
 10
9.023915191
 20
8.7742218655
 30
0.0
 10
9.0253436792
 20
8.7684990738
 30
0.0
 10
9.0262049765
 20
8.7626671479
 30
0.0
 10
9.0263985149
 20
8.7587414857
 30
0.0
 10
9.0263983914
 20
8.7567816107
 30
0.0
 11
8.9665504581
 21
8.8167816107
 31
0.0
 11
8.972407472
 21
8.8164928061
 31
0.0
 11
8.9782182155
 21
8.8156298409
 31
0.0
 11
8.9839175518
 21
8.814199772
 31
0.0
 11
8.9894474734
 21
8.8122164447
 31
0.0
 11
8.9947566879
 21
8.8097000982
 31
0.0
 11
8.9997946179
 21
8.8066725038
 31
0.0
 11
9.0045137806
 21
8.8031641903
 31
0.0
 11
9.0088679861
 21
8.7992093443
 31
0.0
 11
9.0128130946
 21
8.7948442238
 31
0.0
 11
9.0163129372
 21
8.7901131108
 31
0.0
 11
9.0193333019
 21
8.7850622469
 31
0.0
 11
9.0218437477
 21
8.7797392324
 31
0.0
 11
9.0238224898
 21
8.7741947869
 31
0.0
 11
9.0252492192
 21
8.7684803438
 31
0.0
 11
9.026110175
 21
8.7626541673
 31
0.0
 11
9.0263983914
 21
8.7567816107
 31
0.0
  0
SPLINE
  5
2D0
100
AcDbEntity
  8
0
100
AcDbSpline
 62
6
  6
CONTINUOUS
 70
0
 71
3
 72
23
 73
19
 74
17
 42
0.0000001
 43
0.0000001
 44
0.0000000001
 12
-0.0000062406
 22
0.0940899023
 32
0.0
 13
0.0940899022
 23
-0.0000080646
 33
0.0
 40
0.0
 40
0.0
 40
0.0
 40
0.0
 40
0.0624894318
 40
0.1250832579
 40
0.1876814559
 40
0.2502488489
 40
0.3127986529
 40
0.3753457575
 40
0.4378915109
 40
0.5004244679
 40
0.5629409433
 40
0.6254383063
 40
0.6879070218
 40
0.7503510424
 40
0.8127895056
 40
0.8752405496
 40
0.9376752476
 40
1.0
 40
1.0
 40
1.0
 40
1.0
 10
7.768412039
 20
8.7567816107
 30
0.0
 10
7.768411909
 20
8.7587414856
 30
0.0
 10
7.7686054431
 20
8.7626671486
 30
0.0
 10
7.7694667478
 20
8.7684990741
 30
0.0
 10
7.7708952417
 20
8.7742218649
 30
0.0
 10
7.7728778262
 20
8.7797753247
 30
0.0
 10
7.7753917256
 20
8.7851076714
 30
0.0
 10
7.7784175098
 20
8.7901664111
 30
0.0
 10
7.781922745
 20
8.7949047067
 30
0.0
 10
7.7858733699
 20
8.7992775126
 30
0.0
 10
7.7902351697
 20
8.8032380441
 30
0.0
 10
7.7949615042
 20
8.8067518991
 30
0.0
 10
7.8000073171
 20
8.8097851191
 30
0.0
 10
7.805325973
 20
8.8123051153
 30
0.0
 10
7.8108650729
 20
8.8142924322
 30
0.0
 10
7.8165729819
 20
8.815724418
 30
0.0
 10
7.8223897318
 20
8.8165878134
 30
0.0
 10
7.8263052623
 20
8.8167817783
 30
0.0
 10
7.8282599723
 20
8.8167816107
 30
0.0
 11
7.768412039
 21
8.7567816107
 31
0.0
 11
7.7687002469
 21
8.7626541674
 31
0.0
 11
7.7695612074
 21
8.7684803439
 31
0.0
 11
7.770987942
 21
8.7741947869
 31
0.0
 11
7.7729666847
 21
8.7797392323
 31
0.0
 11
7.7754771291
 21
8.7850622468
 31
0.0
 11
7.7784974928
 21
8.7901131109
 31
0.0
 11
7.7819973353
 21
8.794844224
 31
0.0
 11
7.7859424441
 21
8.7992093443
 31
0.0
 11
7.7902966501
 21
8.8031641899
 31
0.0
 11
7.7950158129
 21
8.8066725033
 31
0.0
 11
7.8000537426
 21
8.8097000984
 31
0.0
 11
7.8053629564
 21
8.8122164465
 31
0.0
 11
7.8108928775
 21
8.8141997737
 31
0.0
 11
7.8165922143
 21
8.8156298383
 31
0.0
 11
7.8224029588
 21
8.8164927992
 31
0.0
 11
7.8282599723
 21
8.8167816107
 31
0.0
  0
LINE
  5
2D1
100
AcDbEntity
  8
0
100
AcDbLine
 62
9
  6
CONTINUOUS
 10
9.0674618769
 20
5.6291433182
 11
9.0674386396
 21
5.6281880369
  0
LINE
  5
2D2
100
AcDbEntity
  8
0
100
AcDbLine
 62
9
  6
CONTINUOUS
 10
9.0674386396
 20
5.6281880369
 11
9.0664678011
 21
5.5872970257
  0
LINE
  5
2D3
100
AcDbEntity
  8
0
100
AcDbLine
 62
9
  6
CONTINUOUS
 10
9.0548863858
 20
4.7134426078
 11
9.0542050059
 21
4.5556755548
  0
LINE
  5
2D4
100
AcDbEntity
  8
0
100
AcDbLine
 62
9
  6
CONTINUOUS
 10
9.0538602897
 20
3.7963547113
 11
9.0538831489
 21
3.7824867449
  0
LINE
  5
2D5
100
AcDbEntity
  8
0
100
AcDbLine
 62
9
  6
CONTINUOUS
 10
9.0538831489
 20
3.7824867449
 11
9.0549533564
 21
3.3726479027
  0
LINE
  5
2D6
100
AcDbEntity
  8
0
100
AcDbLine
 62
9
  6
CONTINUOUS
 10
9.0549533564
 20
3.3726479027
 11
9.0553713724
 21
3.26085062
  0
LINE
  5
2D7
100
AcDbEntity
  8
0
100
AcDbLine
 62
9
  6
CONTINUOUS
 10
9.0583298191
 20
2.6752469062
 11
9.0589201142
 21
2.5802436301
  0
LINE
  5
2D8
100
AcDbEntity
  8
0
100
AcDbLine
 62
9
  6
CONTINUOUS
 10
9.0589201142
 20
2.5802436301
 11
9.0605141289
 21
2.3430639418
  0
LINE
  5
2D9
100
AcDbEntity
  8
0
100
AcDbLine
 62
9
  6
CONTINUOUS
 10
9.0605141289
 20
2.3430639418
 11
9.0605161182
 21
2.3427824923
  0
SPLINE
  5
2DA
100
AcDbEntity
  8
0
100
AcDbSpline
 62
9
  6
CONTINUOUS
 70
0
 71
3
 72
26
 73
22
 74
20
 42
0.0000001
 43
0.0000001
 44
0.0000000001
 12
0.031996127
 22
0.0
 32
0.0
 13
0.0
 23
0.031996127
 33
0.0
 40
0.0
 40
0.0
 40
0.0
 40
0.0
 40
0.0109647526
 40
0.0223806412
 40
0.0346186751
 40
0.0479729816
 40
0.0626632838
 40
0.0788483964
 40
0.0966405933
 40
0.116106352
 40
0.1372758825
 40
0.1601593758
 40
0.2110339649
 40
0.2685999159
 40
0.332501793
 40
0.4022334104
 40
0.4772500047
 40
0.5569449855
 40
0.6406427184
 40
0.8171847276
 40
1.0
 40
1.0
 40
1.0
 40
1.0
 10
3.3329847244
 20
7.8267816107
 30
0.0
 10
3.3331016676
 20
7.8267816107
 30
0.0
 10
3.3333410322
 20
7.8268071454
 30
0.0
 10
3.3336949047
 20
7.826919676
 30
0.0
 10
3.334045563
 20
7.8271047507
 30
0.0
 10
3.3343922108
 20
7.8273607989
 30
0.0
 10
3.3347345277
 20
7.8276868274
 30
0.0
 10
3.3350720137
 20
7.8280821913
 30
0.0
 10
3.3354038654
 20
7.8285463281
 30
0.0
 10
3.3357295156
 20
7.8290781269
 30
0.0
 10
3.336048505
 20
7.8296761626
 30
0.0
 10
3.3364793148
 20
7.8305927552
 30
0.0
 10
3.3369898046
 20
7.8318986969
 30
0.0
 10
3.3375451098
 20
7.8336518924
 30
0.0
 10
3.3380579434
 20
7.8356263858
 30
0.0
 10
3.3385237694
 20
7.8378030087
 30
0.0
 10
3.3389371084
 20
7.8401613191
 30
0.0
 10
3.3392937146
 20
7.8426793265
 30
0.0
 10
3.3396969241
 20
7.8462828072
 30
0.0
 10
3.3400291626
 20
7.850998621
 30
0.0
 10
3.3401181275
 20
7.8548318172
 30
0.0
 10
3.3401181275
 20
7.8567816107
 30
0.0
 11
3.3329847244
 21
7.8267816107
 31
0.0
 11
3.3333336655
 21
7.8268179634
 31
0.0
 11
3.3336823858
 21
7.8269266471
 31
0.0
 11
3.3340298962
 21
7.8271071002
 31
0.0
 11
3.3343752079
 21
7.8273587611
 31
0.0
 11
3.3347173319
 21
7.8276810684
 31
0.0
 11
3.3350552792
 21
7.8280734605
 31
0.0
 11
3.3353880709
 21
7.8285353382
 31
0.0
 11
3.3357148759
 21
7.8290655403
 31
0.0
 11
3.3360349772
 21
7.8296624731
 31
0.0
 11
3.3363476607
 21
7.8303245314
 31
0.0
 11
3.336947918
 21
7.8318376047
 31
0.0
 11
3.3375099651
 21
7.8335916436
 31
0.0
 11
3.3380285678
 21
7.8355693928
 31
0.0
 11
3.3384988372
 21
7.8377504109
 31
0.0
 11
3.3389159127
 21
7.8401141372
 31
0.0
 11
3.3392756915
 21
7.8426385592
 31
0.0
 11
3.3395750545
 21
7.8452997776
 31
0.0
 11
3.3399808926
 21
7.8509338402
 31
0.0
 11
3.3401181275
 21
7.8567816107
 31
0.0
  0
SPLINE
  5
2DB
100
AcDbEntity
  8
0
100
AcDbSpline
 62
9
  6
CONTINUOUS
 70
0
 71
3
 72
31
 73
27
 74
25
 42
0.0000001
 43
0.0000001
 44
0.0000000001
 12
-0.1889015123
 22
-0.2314850008
 32
0.0
 13
-0.2986645739
 23
-0.0082800505
 33
0.0
 40
0.0
 40
0.0
 40
0.0
 40
0.0
 40
0.1030584523
 40
0.2013569025
 40
0.2947192233
 40
0.382971111
 40
0.465953266
 40
0.5435184342
 40
0.6155226002
 40
0.6818305392
 40
0.7128120904
 40
0.7423268505
 40
0.7703620807
 40
0.796905979
 40
0.8219480204
 40
0.8454815919
 40
0.8675045778
 40
0.8880175438
 40
0.9070244551
 40
0.9245338736
 40
0.9405607128
 40
0.955130512
 40
0.9682847221
 40
0.980083356
 40
0.9906131403
 40
1.0
 40
1.0
 40
1.0
 40
1.0
 10
9.2198699933
 20
9.0229226611
 30
0.0
 10
9.2133806941
 20
9.0149704992
 30
0.0
 10
9.2006266655
 20
8.9994945729
 30
0.0
 10
9.1817231477
 20
8.9770395222
 30
0.0
 10
9.1635316217
 20
8.9559148575
 30
0.0
 10
9.1460949253
 20
8.9361556745
 30
0.0
 10
9.129452768
 20
8.9177964225
 30
0.0
 10
9.1136425062
 20
8.9008703573
 30
0.0
 10
9.0987007465
 20
8.8854095416
 30
0.0
 10
9.0867468039
 20
8.8735171599
 30
0.0
 10
9.0776351386
 20
8.8647723165
 30
0.0
 10
9.0711950917
 20
8.8587496545
 30
0.0
 10
9.0649967405
 20
8.8531167859
 30
0.0
 10
9.059043967
 20
8.8478774293
 30
0.0
 10
9.053340503
 20
8.8430350865
 30
0.0
 10
9.0478896478
 20
8.8385929486
 30
0.0
 10
9.0426943012
 20
8.8345538443
 30
0.0
 10
9.0377571342
 20
8.8309203776
 30
0.0
 10
9.0330807554
 20
8.8276950841
 30
0.0
 10
9.0286676823
 20
8.8248804121
 30
0.0
 10
9.024520131
 20
8.8224786428
 30
0.0
 10
9.0206396021
 20
8.8204917029
 30
0.0
 10
9.0170270569
 20
8.8189208432
 30
0.0
 10
9.0136819015
 20
8.8177672907
 30
0.0
 10
9.0106040969
 20
8.8170328299
 30
0.0
 10
9.0086247025
 20
8.8168138472
 30
0.0
 10
9.007690195
 20
8.8167879393
 30
0.0
 11
9.2198699933
 21
9.0229226611
 31
0.0
 11
9.2002829481
 21
8.9991639025
 31
0.0
 11
9.1813637262
 21
8.9766998599
 31
0.0
 11
9.1631558568
 21
8.9555671947
 31
0.0
 11
9.1457025938
 21
8.9358024133
 31
0.0
 11
9.1290434109
 21
8.9174398984
 31
0.0
 11
9.113215037
 21
8.9005124909
 31
0.0
 11
9.0982541375
 21
8.8850529958
 31
0.0
 11
9.084196098
 21
8.8710935998
 31
0.0
 11
9.0775156701
 21
8.8646859951
 31
0.0
 11
9.0710728662
 21
8.8586648275
 31
0.0
 11
9.0648716083
 21
8.8530338778
 31
0.0
 11
9.0589158185
 21
8.8477969273
 31
0.0
 11
9.053209397
 21
8.8429577393
 31
0.0
 11
9.047755688
 21
8.8385196242
 31
0.0
 11
9.0425574467
 21
8.8344854133
 31
0.0
 11
9.0376174001
 21
8.8308579149
 31
0.0
 11
9.0329382753
 21
8.8276399371
 31
0.0
 11
9.0285227994
 21
8.8248342883
 31
0.0
 11
9.0243736962
 21
8.8224437733
 31
0.0
 11
9.0204933073
 21
8.8204708214
 31
0.0
 11
9.0168832396
 21
8.8189171384
 31
0.0
 11
9.0135450162
 21
8.817784348
 31
0.0
 11
9.0104801603
 21
8.8170740737
 31
0.0
 11
9.007690195
 21
8.8167879393
 31
0.0
  0
SPLINE
  5
2DC
100
AcDbEntity
  8
0
100
AcDbSpline
 62
9
  6
CONTINUOUS
 70
0
 71
3
 72
17
 73
13
 74
11
 42
0.0000001
 43
0.0000001
 44
0.0000000001
 12
-0.013381425
 22
0.0816471465
 32
0.0
 13
-0.0817944786
 23
0.0124491907
 33
0.0
 40
0.0
 40
0.0
 40
0.0
 40
0.0
 40
0.1194374444
 40
0.1806061087
 40
0.2425156059
 40
0.3679622721
 40
0.4950332484
 40
0.6228121412
 40
0.7503116647
 40
0.8136935426
 40
0.8765810159
 40
1.0
 40
1.0
 40
1.0
 40
1.0
 10
9.2758368066
 20
8.9689893224
 30
0.0
 10
9.2753040589
 20
8.9722398979
 30
0.0
 10
9.2740503759
 20
8.9770933085
 30
0.0
 10
9.2715985393
 20
8.9833209227
 30
0.0
 10
9.2685780139
 20
8.9894814605
 30
0.0
 10
9.2638278718
 20
8.9967819463
 30
0.0
 10
9.2568164583
 20
9.0046344304
 30
0.0
 10
9.2486639576
 20
9.0113829665
 30
0.0
 10
9.2411076922
 20
9.0159408274
 30
0.0
 10
9.2347317904
 20
9.0188426168
 30
0.0
 10
9.2282599195
 20
9.0212076254
 30
0.0
 10
9.2232349905
 20
9.0224106082
 30
0.0
 10
9.2198699933
 20
9.0229227636
 30
0.0
 11
9.2758368066
 21
8.9689893224
 31
0.0
 11
9.2733956363
 21
8.9785648767
 31
0.0
 11
9.271543897
 21
8.9832748178
 31
0.0
 11
9.2692898132
 21
8.9878743556
 31
0.0
 11
9.2636449223
 21
8.9965840672
 31
0.0
 11
9.2566466925
 21
9.0044298541
 31
0.0
 11
9.2485051072
 21
9.0111738264
 31
0.0
 11
9.2394670251
 21
9.0166136296
 31
0.0
 11
9.2346940769
 21
9.0187858195
 31
0.0
 11
9.2298065629
 21
9.0205702829
 31
0.0
 11
9.2198699933
 21
9.0229227636
 31
0.0
  0
LINE
  5
2DD
100
AcDbEntity
  8
0
100
AcDbLine
 62
9
  6
CONTINUOUS
 10
7.7342943122
 20
2.3427824923
 11
7.7342963013
 21
2.3430639146
  0
LINE
  5
2DE
100
AcDbEntity
  8
0
100
AcDbLine
 62
9
  6
CONTINUOUS
 10
7.7342963013
 20
2.3430639146
 11
7.7358885785
 21
2.5799744538
  0
LINE
  5
2DF
100
AcDbEntity
  8
0
100
AcDbLine
 62
9
  6
CONTINUOUS
 10
7.7358885785
 20
2.5799744538
 11
7.7364861405
 21
2.6761645967
  0
LINE
  5
2E0
100
AcDbEntity
  8
0
100
AcDbLine
 62
9
  6
CONTINUOUS
 10
7.7394394133
 20
3.2609283665
 11
7.739857342
 21
3.3727036226
  0
LINE
  5
2E1
100
AcDbEntity
  8
0
100
AcDbLine
 62
9
  6
CONTINUOUS
 10
7.739857342
 20
3.3727036226
 11
7.7409265047
 21
3.7820332804
  0
LINE
  5
2E2
100
AcDbEntity
  8
0
100
AcDbLine
 62
9
  6
CONTINUOUS
 10
7.7409265047
 20
3.7820332804
 11
7.7409538855
 21
3.7986948374
  0
LINE
  5
2E3
100
AcDbEntity
  8
0
100
AcDbLine
 62
9
  6
CONTINUOUS
 10
7.7406071138
 20
4.5552039359
 11
7.7399222981
 21
4.7138039398
  0
LINE
  5
2E4
100
AcDbEntity
  8
0
100
AcDbLine
 62
9
  6
CONTINUOUS
 10
7.7283416107
 20
5.5873379964
 11
7.7273718083
 21
5.6281872454
  0
LINE
  5
2E5
100
AcDbEntity
  8
0
100
AcDbLine
 62
9
  6
CONTINUOUS
 10
7.7273718083
 20
5.6281872454
 11
7.7273485535
 21
5.6291433182
  0
LINE
  5
2E6
100
AcDbEntity
  8
0
100
AcDbLine
 62
9
  6
CONTINUOUS
 10
7.7273485535
 20
5.6291433182
 11
7.7267035883
 21
5.6552476814
  0
SPLINE
  5
2E7
100
AcDbEntity
  8
0
100
AcDbSpline
 62
9
  6
CONTINUOUS
 70
0
 71
3
 72
38
 73
34
 74
32
 42
0.0000001
 43
0.0000001
 44
0.0000000001
 12
-0.0360379513
 22
1.4194776524
 32
0.0
 13
-0.7705552393
 23
1.1926693435
 33
0.0
 40
0.0
 40
0.0
 40
0.0
 40
0.0
 40
0.0719210553
 40
0.1431575032
 40
0.2136124005
 40
0.2831973748
 40
0.3518482992
 40
0.385805834
 40
0.4195086875
 40
0.4860918588
 40
0.5189343542
 40
0.5514523735
 40
0.5836277484
 40
0.6154354054
 40
0.6468415929
 40
0.6778131961
 40
0.708318563
 40
0.7383248993
 40
0.7677846661
 40
0.7966471008
 40
0.8248651453
 40
0.8387191627
 40
0.852394092
 40
0.8791736085
 40
0.9051451997
 40
0.9178129277
 40
0.9302612897
 40
0.9424842176
 40
0.9544743229
 40
0.9662252333
 40
0.9777318954
 40
0.9889907608
 40
1.0
 40
1.0
 40
1.0
 40
1.0
 10
7.7267035883
 20
5.6552476814
 30
0.0
 10
7.7258396259
 20
5.6892777917
 30
0.0
 10
7.7239366306
 20
5.7570096485
 30
0.0
 10
7.720434307
 20
5.8580550409
 30
0.0
 10
7.7161969301
 20
5.9579659533
 30
0.0
 10
7.7111229341
 20
6.0566128263
 30
0.0
 10
7.7060805644
 20
6.1379597864
 30
0.0
 10
7.7015014639
 20
6.202315244
 30
0.0
 10
7.6965818572
 20
6.2656638304
 30
0.0
 10
7.6910471763
 20
6.328434561
 30
0.0
 10
7.6847779698
 20
6.3905702672
 30
0.0
 10
7.6797250166
 20
6.4364584924
 30
0.0
 10
7.6742783297
 20
6.4818084521
 30
0.0
 10
7.6684106358
 20
6.5265753534
 30
0.0
 10
7.6620848661
 20
6.570704535
 30
0.0
 10
7.6552665981
 20
6.6141367305
 30
0.0
 10
7.6479206602
 20
6.656810918
 30
0.0
 10
7.6400156232
 20
6.6986574403
 30
0.0
 10
7.6315045941
 20
6.7395915849
 30
0.0
 10
7.6223398213
 20
6.7795168571
 30
0.0
 10
7.6140691017
 20
6.8120602222
 30
0.0
 10
7.6070665559
 20
6.8375005377
 30
0.0
 10
7.599898978
 20
6.8621865772
 30
0.0
 10
7.5904602547
 20
6.8921822366
 30
0.0
 10
7.5801557671
 20
6.9213890419
 30
0.0
 10
7.5714324848
 20
6.94394274
 30
0.0
 10
7.5647081139
 20
6.9602880457
 30
0.0
 10
7.5577420101
 20
6.9761823852
 30
0.0
 10
7.5505290343
 20
6.9916027933
 30
0.0
 10
7.5430645313
 20
7.0065251543
 30
0.0
 10
7.5353437791
 20
7.0209253971
 30
0.0
 10
7.5273622149
 20
7.0347791601
 30
0.0
 10
7.5218014561
 20
7.0437355167
 30
0.0
 10
7.5189737138
 20
7.0481123107
 30
0.0
 11
7.7267035883
 21
5.6552476814
 31
0.0
 11
7.7238154227
 21
5.7573300599
 31
0.0
 11
7.720290397
 21
5.8584197484
 31
0.0
 11
7.7160285748
 21
5.958370307
 31
0.0
 11
7.7109261473
 21
6.0570446162
 31
0.0
 11
7.7048666773
 21
6.1543359554
 31
0.0
 11
7.7014408616
 21
6.2024315944
 31
0.0
 11
7.6977310117
 21
6.2501434443
 31
0.0
 11
7.6893795692
 21
6.3443176419
 31
0.0
 11
7.6846917255
 21
6.3907156341
 31
0.0
 11
7.6796314953
 21
6.4366109922
 31
0.0
 11
7.6741755184
 21
6.4819709858
 31
0.0
 11
7.668295517
 21
6.5267513987
 31
0.0
 11
7.6619569447
 21
6.5708933731
 31
0.0
 11
7.6551248482
 21
6.6143371006
 31
0.0
 11
7.6477642744
 21
6.6570227726
 31
0.0
 11
7.6398389788
 21
6.6988862444
 31
0.0
 11
7.6313049953
 21
6.7398374343
 31
0.0
 11
7.622115499
 21
6.7797766585
 31
0.0
 11
7.6122236604
 21
6.8186042177
 31
0.0
 11
7.6069996757
 21
6.8375697097
 31
0.0
 11
7.6015817526
 21
6.8562160461
 31
0.0
 11
7.5901357957
 21
6.8924776502
 31
0.0
 11
7.5778291485
 21
6.9272415869
 31
0.0
 11
7.5713353626
 21
6.9440158392
 31
0.0
 11
7.564605193
 21
6.9603602888
 31
0.0
 11
7.5576326791
 21
6.9762538909
 31
0.0
 11
7.5504131698
 21
6.9916725525
 31
0.0
 11
7.542942092
 21
7.0065919993
 31
0.0
 11
7.5352148722
 21
7.0209879574
 31
0.0
 11
7.5272269372
 21
7.0348361525
 31
0.0
 11
7.5189737138
 21
7.0481123107
 31
0.0
  0
LINE
  5
2E8
100
AcDbEntity
  8
0
100
AcDbLine
 62
9
  6
CONTINUOUS
 10
13.0799052152
 20
8.9042816107
 11
13.2485718819
 21
9.0709482774
  0
LINE
  5
2E9
100
AcDbEntity
  8
0
100
AcDbLine
 62
9
  6
CONTINUOUS
 10
13.1099052152
 20
8.8742816107
 11
13.2765718819
 21
9.0429482774
  0
LINE
  5
2EA
100
AcDbEntity
  8
0
100
AcDbLine
 62
9
  6
CONTINUOUS
 10
13.2485718819
 20
9.0709482774
 11
13.4299051771
 21
9.2542816108
  0
SPLINE
  5
2EB
100
AcDbEntity
  8
0
100
AcDbSpline
 62
9
  6
CONTINUOUS
 70
0
 71
3
 72
30
 73
26
 74
24
 42
0.0000001
 43
0.0000001
 44
0.0000000001
 12
-0.0993435496
 22
0.1496520231
 32
0.0
 13
-0.1796242127
 23
0.0001052777
 33
0.0
 40
0.0
 40
0.0
 40
0.0
 40
0.0
 40
0.0912915626
 40
0.1793073972
 40
0.2638622123
 40
0.3447778658
 40
0.4218853488
 40
0.4950274818
 40
0.5640677173
 40
0.628904255
 40
0.6894630564
 40
0.7181267282
 40
0.7457096615
 40
0.7722144131
 40
0.797647653
 40
0.8220214526
 40
0.8453579487
 40
0.8676874137
 40
0.8890466647
 40
0.9094801249
 40
0.9290410186
 40
0.9477926286
 40
0.9658095288
 40
0.9831786533
 40
1.0
 40
1.0
 40
1.0
 40
1.0
 10
7.5189737138
 20
7.0481123107
 30
0.0
 10
7.5159506378
 20
7.0526662997
 30
0.0
 10
7.5099460363
 20
7.061566728
 30
0.0
 10
7.5008900054
 20
7.0745132395
 30
0.0
 10
7.4919565699
 20
7.0867843038
 30
0.0
 10
7.4831594039
 20
7.0983428877
 30
0.0
 10
7.4745121374
 20
7.1091521231
 30
0.0
 10
7.4660281149
 20
7.1191754216
 30
0.0
 10
7.4577199355
 20
7.1283774175
 30
0.0
 10
7.4496023044
 20
7.1367262158
 30
0.0
 10
7.4428898127
 20
7.1430586986
 30
0.0
 10
7.4376183811
 20
7.1476559214
 30
0.0
 10
7.4337936865
 20
7.1508068127
 30
0.0
 10
7.4300268659
 20
7.1537203636
 30
0.0
 10
7.4263195408
 20
7.1563927461
 30
0.0
 10
7.4226729796
 20
7.1588200729
 30
0.0
 10
7.4190889636
 20
7.1609999586
 30
0.0
 10
7.4155691924
 20
7.1629307775
 30
0.0
 10
7.4121151356
 20
7.1646108506
 30
0.0
 10
7.4087282578
 20
7.1660384855
 30
0.0
 10
7.4054099918
 20
7.167211923
 30
0.0
 10
7.4021618042
 20
7.1681293274
 30
0.0
 10
7.3989850704
 20
7.1687887642
 30
0.0
 10
7.3958816585
 20
7.1691882047
 30
0.0
 10
7.3938336406
 20
7.1692810204
 30
0.0
 10
7.3928264669
 20
7.1692816107
 30
0.0
 11
7.5189737138
 21
7.0481123107
 31
0.0
 11
7.5097976076
 21
7.0617027233
 31
0.0
 11
7.5007298655
 21
7.0746535967
 31
0.0
 11
7.4917841151
 21
7.086927625
 31
0.0
 11
7.4829739841
 21
7.098487502
 31
0.0
 11
7.4743131005
 21
7.1092959216
 31
0.0
 11
7.4658150919
 21
7.1193155788
 31
0.0
 11
7.4574936499
 21
7.1285104604
 31
0.0
 11
7.4493626561
 21
7.1368484003
 31
0.0
 11
7.4414360274
 21
7.144297945
 31
0.0
 11
7.4375536988
 21
7.1476797401
 31
0.0
 11
7.4337276803
 21
7.1508276413
 31
0.0
 11
7.4299597114
 21
7.153737717
 31
0.0
 11
7.4262515317
 21
7.1564060356
 31
0.0
 11
7.4226048747
 21
7.1588288177
 31
0.0
 11
7.4190214169
 21
7.1610036791
 31
0.0
 11
7.4155028049
 21
7.1629289828
 31
0.0
 11
7.4120506845
 21
7.1646030993
 31
0.0
 11
7.4086667019
 21
7.1660243991
 31
0.0
 11
7.4053525031
 21
7.1671912525
 31
0.0
 11
7.4021097342
 21
7.16810203
 31
0.0
 11
7.3989400412
 21
7.1687551019
 31
0.0
 11
7.3958450701
 21
7.1691488387
 31
0.0
 11
7.3928264669
 21
7.1692816107
 31
0.0
  0
LINE
  5
2EC
100
AcDbEntity
  8
0
100
AcDbLine
 62
9
  6
CONTINUOUS
 10
13.2765718819
 20
9.0429482774
 11
13.4599052152
 21
9.2242815727
  0
SPLINE
  5
2ED
100
AcDbEntity
  8
0
100
AcDbSpline
 62
9
  6
CONTINUOUS
 70
0
 71
3
 72
15
 73
11
 74
9
 42
0.0000001
 43
0.0000001
 44
0.0000000001
 12
0.0420668306
 22
-0.0054219899
 32
0.0
 13
0.0054219898
 23
-0.0420668306
 33
0.0
 40
0.0
 40
0.0
 40
0.0
 40
0.0
 40
0.1219177984
 40
0.246603357
 40
0.3728991288
 40
0.5000000002
 40
0.6271008715
 40
0.7533966432
 40
0.8780822016
 40
1.0
 40
1.0
 40
1.0
 40
1.0
 10
13.2485718819
 20
9.0709482442
 30
0.0
 10
13.250281447
 20
9.0707278985
 30
0.0
 10
13.2537050887
 20
9.0699691514
 30
0.0
 10
13.2586146853
 20
9.0679866549
 30
0.0
 10
13.2631973013
 20
9.065189149
 30
0.0
 10
13.2673073148
 20
9.0616837105
 30
0.0
 10
13.2708127533
 20
9.0575736969
 30
0.0
 10
13.2736102592
 20
9.0529910809
 30
0.0
 10
13.2755927555
 20
9.0480814843
 30
0.0
 10
13.2763515027
 20
9.0446578425
 30
0.0
 10
13.2765718484
 20
9.0429482774
 30
0.0
 11
13.2485718819
 21
9.0709482442
 31
0.0
 11
13.2536234359
 21
9.0698426729
 31
0.0
 11
13.2585287345
 21
9.0678662036
 31
0.0
 11
13.2631045153
 21
9.0650809465
 31
0.0
 11
13.2672063391
 21
9.0615827348
 31
0.0
 11
13.2707045508
 21
9.0574809109
 31
0.0
 11
13.2734898079
 21
9.05290513
 31
0.0
 11
13.2754662771
 21
9.0479998315
 31
0.0
 11
13.2765718484
 21
9.0429482774
 31
0.0
  0
LINE
  5
2EE
100
AcDbEntity
  8
0
100
AcDbLine
 62
9
  6
CONTINUOUS
 10
13.1099052152
 20
7.5092816107
 11
13.2765718819
 21
7.3406149441
  0
LINE
  5
2EF
100
AcDbEntity
  8
0
100
AcDbLine
 62
9
  6
CONTINUOUS
 10
13.0799052152
 20
7.4792816107
 11
13.2485718819
 21
7.3126149441
  0
LINE
  5
2F0
100
AcDbEntity
  8
0
100
AcDbLine
 62
9
  6
CONTINUOUS
 10
13.2765718819
 20
7.3406149441
 11
13.4599052152
 21
7.1592816488
  0
LINE
  5
2F1
100
AcDbEntity
  8
0
100
AcDbLine
 62
9
  6
CONTINUOUS
 10
13.2485718819
 20
7.3126149441
 11
13.4299051771
 21
7.1292816107
  0
SPLINE
  5
2F2
100
AcDbEntity
  8
0
100
AcDbSpline
 62
9
  6
CONTINUOUS
 70
0
 71
3
 72
15
 73
11
 74
9
 42
0.0000001
 43
0.0000001
 44
0.0000000001
 12
-0.0054219899
 22
-0.0420668306
 32
0.0
 13
-0.0420668306
 23
-0.0054219898
 33
0.0
 40
0.0
 40
0.0
 40
0.0
 40
0.0
 40
0.1219177984
 40
0.246603357
 40
0.3728991288
 40
0.5000000002
 40
0.6271008715
 40
0.7533966432
 40
0.8780822016
 40
1.0
 40
1.0
 40
1.0
 40
1.0
 10
13.2765718486
 20
7.3406149441
 30
0.0
 10
13.276351503
 20
7.338905379
 30
0.0
 10
13.2755927558
 20
7.3354817372
 30
0.0
 10
13.2736102594
 20
7.3305721407
 30
0.0
 10
13.2708127534
 20
7.3259895246
 30
0.0
 10
13.2673073149
 20
7.3218795111
 30
0.0
 10
13.2631973014
 20
7.3183740726
 30
0.0
 10
13.2586146853
 20
7.3155765668
 30
0.0
 10
13.2537050887
 20
7.3135940704
 30
0.0
 10
13.250281447
 20
7.3128353233
 30
0.0
 10
13.2485718819
 20
7.3126149776
 30
0.0
 11
13.2765718486
 21
7.3406149441
 31
0.0
 11
13.2754662773
 21
7.33556339
 31
0.0
 11
13.2734898081
 21
7.3306580915
 31
0.0
 11
13.2707045509
 21
7.3260823107
 31
0.0
 11
13.2672063392
 21
7.3219804868
 31
0.0
 11
13.2631045153
 21
7.3184822752
 31
0.0
 11
13.2585287345
 21
7.3156970181
 31
0.0
 11
13.2536234359
 21
7.3137205488
 31
0.0
 11
13.2485718819
 21
7.3126149776
 31
0.0
  0
SPLINE
  5
2F3
100
AcDbEntity
  8
0
100
AcDbSpline
 62
9
  6
CONTINUOUS
 70
0
 71
3
 72
11
 73
7
 74
5
 42
0.0000001
 43
0.0000001
 44
0.0000000001
 12
-0.0000202184
 22
0.0934589979
 32
0.0
 13
-0.0934589979
 23
0.0000203731
 33
0.0
 40
0.0
 40
0.0
 40
0.0
 40
0.0
 40
0.2504323517
 40
0.5006220258
 40
0.7504473575
 40
1.0
 40
1.0
 40
1.0
 40
1.0
 10
9.0674618769
 20
8.7567881256
 30
0.0
 10
9.0674601891
 20
8.7645898445
 30
0.0
 10
9.0643509907
 20
8.7803547313
 30
0.0
 10
9.0510570949
 20
8.8002948069
 30
0.0
 10
9.0311919535
 20
8.8136568891
 30
0.0
 10
9.0154645083
 20
8.8167862446
 30
0.0
 10
9.007690195
 20
8.8167879393
 30
0.0
 11
9.0674618769
 21
8.7567881256
 31
0.0
 11
9.0629083037
 21
8.7797460513
 31
0.0
 11
9.0499505682
 21
8.7992097948
 31
0.0
 11
9.0305608299
 21
8.8122169864
 31
0.0
 11
9.007690195
 21
8.8167879393
 31
0.0
  0
LINE
  5
2F4
100
AcDbEntity
  8
0
100
AcDbLine
 62
9
  6
CONTINUOUS
 10
11.7149052152
 20
7.4792816107
 11
11.5462385485
 21
7.3126149441
  0
LINE
  5
2F5
100
AcDbEntity
  8
0
100
AcDbLine
 62
9
  6
CONTINUOUS
 10
11.6849052152
 20
7.5092816107
 11
11.5182385485
 21
7.3406149441
  0
LINE
  5
2F6
100
AcDbEntity
  8
0
100
AcDbLine
 62
9
  6
CONTINUOUS
 10
11.5462385485
 20
7.3126149441
 11
11.3649052533
 21
7.1292816107
  0
SPLINE
  5
2F7
100
AcDbEntity
  8
0
100
AcDbSpline
 62
9
  6
CONTINUOUS
 70
0
 71
3
 72
23
 73
19
 74
17
 42
0.0000001
 43
0.0000001
 44
0.0000000001
 12
0.0
 22
0.0935878215
 32
0.0
 13
-0.0935851489
 23
0.0007072716
 33
0.0
 40
0.0
 40
0.0
 40
0.0
 40
0.0
 40
0.0623713536
 40
0.1249776543
 40
0.1876970712
 40
0.2504111217
 40
0.3130449108
 40
0.3756108168
 40
0.4381237922
 40
0.5005933351
 40
0.563038615
 40
0.6254807889
 40
0.6879321956
 40
0.7504106484
 40
0.8129369873
 40
0.8754506424
 40
0.9378427999
 40
1.0
 40
1.0
 40
1.0
 40
1.0
 10
9.0670043685
 20
8.7567816107
 30
0.0
 10
9.0670043685
 20
8.7587273438
 30
0.0
 10
9.0668105891
 20
8.76262871
 30
0.0
 10
9.0659547604
 20
8.7684298904
 30
0.0
 10
9.0645436754
 20
8.7741331545
 30
0.0
 10
9.0625874484
 20
8.7796743336
 30
0.0
 10
9.0600945261
 20
8.7849905489
 30
0.0
 10
9.0570980736
 20
8.790032431
 30
0.0
 10
9.0536302073
 20
8.7947560529
 30
0.0
 10
9.0497223631
 20
8.7991178903
 30
0.0
 10
9.0454063979
 20
8.8030731019
 30
0.0
 10
9.0407265225
 20
8.8065889764
 30
0.0
 10
9.0357262408
 20
8.8096340223
 30
0.0
 10
9.0304492511
 20
8.8121763429
 30
0.0
 10
9.0249437156
 20
8.8141815747
 30
0.0
 10
9.0192718142
 20
8.8156399543
 30
0.0
 10
9.013497534
 20
8.8165417517
 30
0.0
 10
9.0096110803
 20
8.8167652957
 30
0.0
 10
9.0076720834
 20
8.8167799497
 30
0.0
 11
9.0670043685
 21
8.7567816107
 31
0.0
 11
9.0667172885
 21
8.7626117461
 31
0.0
 11
9.0658631855
 21
8.7684083472
 31
0.0
 11
9.0644527647
 21
8.7741061498
 31
0.0
 11
9.0624967316
 21
8.7796398901
 31
0.0
 11
9.0600091287
 21
8.784947626
 31
0.0
 11
9.0570181264
 21
8.7899814808
 31
0.0
 11
9.0535556335
 21
8.7946972995
 31
0.0
 11
9.0496535589
 21
8.7990509269
 31
0.0
 11
9.0453456045
 21
8.8030000078
 31
0.0
 11
9.0406735071
 21
8.8065102528
 31
0.0
 11
9.0356812537
 21
8.8095496311
 31
0.0
 11
9.0304128314
 21
8.812086112
 31
0.0
 11
9.0249151684
 21
8.8140906416
 31
0.0
 11
9.0192491459
 21
8.8155482889
 31
0.0
 11
9.013479779
 21
8.816448307
 31
0.0
 11
9.0076720834
 21
8.8167799497
 31
0.0
  0
LINE
  5
2F8
100
AcDbEntity
  8
0
100
AcDbLine
 62
9
  6
CONTINUOUS
 10
11.5182385485
 20
7.3406149441
 11
11.3349052152
 21
7.1592816488
  0
SPLINE
  5
2F9
100
AcDbEntity
  8
0
100
AcDbSpline
 62
9
  6
CONTINUOUS
 70
0
 71
3
 72
15
 73
11
 74
9
 42
0.0000001
 43
0.0000001
 44
0.0000000001
 12
-0.0420668306
 22
0.0054219899
 32
0.0
 13
-0.0054219898
 23
0.0420668306
 33
0.0
 40
0.0
 40
0.0
 40
0.0
 40
0.0
 40
0.1219177984
 40
0.246603357
 40
0.3728991288
 40
0.5000000002
 40
0.6271008715
 40
0.7533966432
 40
0.8780822016
 40
1.0
 40
1.0
 40
1.0
 40
1.0
 10
11.5462385485
 20
7.3126149773
 30
0.0
 10
11.5445289834
 20
7.312835323
 30
0.0
 10
11.5411053417
 20
7.3135940701
 30
0.0
 10
11.5361957451
 20
7.3155765666
 30
0.0
 10
11.5316131291
 20
7.3183740725
 30
0.0
 10
11.5275031155
 20
7.321879511
 30
0.0
 10
11.5239976771
 20
7.3259895246
 30
0.0
 10
11.5212001712
 20
7.3305721406
 30
0.0
 10
11.5192176748
 20
7.3354817372
 30
0.0
 10
11.5184589277
 20
7.338905379
 30
0.0
 10
11.518238582
 20
7.3406149441
 30
0.0
 11
11.5462385485
 21
7.3126149773
 31
0.0
 11
11.5411869945
 21
7.3137205486
 31
0.0
 11
11.5362816959
 21
7.3156970179
 31
0.0
 11
11.5317059151
 21
7.318482275
 31
0.0
 11
11.5276040913
 21
7.3219804867
 31
0.0
 11
11.5241058796
 21
7.3260823106
 31
0.0
 11
11.5213206225
 21
7.3306580915
 31
0.0
 11
11.5193441533
 21
7.33556339
 31
0.0
 11
11.518238582
 21
7.3406149441
 31
0.0
  0
LINE
  5
2FA
100
AcDbEntity
  8
0
100
AcDbLine
 62
9
  6
CONTINUOUS
 10
11.6849052152
 20
8.8742816107
 11
11.5182385485
 21
9.0429482774
  0
LINE
  5
2FB
100
AcDbEntity
  8
0
100
AcDbLine
 62
9
  6
CONTINUOUS
 10
11.7149052152
 20
8.9042816107
 11
11.5462385485
 21
9.0709482774
  0
LINE
  5
2FC
100
AcDbEntity
  8
0
100
AcDbLine
 62
9
  6
CONTINUOUS
 10
11.5182385485
 20
9.0429482774
 11
11.3349052152
 21
9.2242815727
  0
LINE
  5
2FD
100
AcDbEntity
  8
0
100
AcDbLine
 62
9
  6
CONTINUOUS
 10
11.5462385485
 20
9.0709482774
 11
11.3649052533
 21
9.2542816108
  0
SPLINE
  5
2FE
100
AcDbEntity
  8
0
100
AcDbSpline
 62
9
  6
CONTINUOUS
 70
0
 71
3
 72
15
 73
11
 74
9
 42
0.0000001
 43
0.0000001
 44
0.0000000001
 12
0.0054219899
 22
0.0420668306
 32
0.0
 13
0.0420668306
 23
0.0054219898
 33
0.0
 40
0.0
 40
0.0
 40
0.0
 40
0.0
 40
0.1219177984
 40
0.246603357
 40
0.3728991288
 40
0.5000000002
 40
0.6271008715
 40
0.7533966432
 40
0.8780822016
 40
1.0
 40
1.0
 40
1.0
 40
1.0
 10
11.5182385817
 20
9.0429482774
 30
0.0
 10
11.5184589274
 20
9.0446578425
 30
0.0
 10
11.5192176746
 20
9.0480814843
 30
0.0
 10
11.521200171
 20
9.0529910808
 30
0.0
 10
11.5239976769
 20
9.0575736969
 30
0.0
 10
11.5275031155
 20
9.0616837104
 30
0.0
 10
11.531613129
 20
9.0651891489
 30
0.0
 10
11.5361957451
 20
9.0679866547
 30
0.0
 10
11.5411053417
 20
9.0699691511
 30
0.0
 10
11.5445289834
 20
9.0707278982
 30
0.0
 10
11.5462385485
 20
9.0709482439
 30
0.0
 11
11.5182385817
 21
9.0429482774
 31
0.0
 11
11.519344153
 21
9.0479998315
 31
0.0
 11
11.5213206223
 21
9.05290513
 31
0.0
 11
11.5241058795
 21
9.0574809108
 31
0.0
 11
11.5276040912
 21
9.0615827347
 31
0.0
 11
11.5317059151
 21
9.0650809463
 31
0.0
 11
11.5362816959
 21
9.0678662034
 31
0.0
 11
11.5411869945
 21
9.0698426726
 31
0.0
 11
11.5462385485
 21
9.0709482439
 31
0.0
  0
SPLINE
  5
2FF
100
AcDbEntity
  8
0
100
AcDbSpline
 62
9
  6
CONTINUOUS
 70
0
 71
3
 72
23
 73
19
 74
17
 42
0.0000001
 43
0.0000001
 44
0.0000000001
 12
-0.0348174012
 22
0.0
 32
0.0
 13
-0.0
 23
0.0348174012
 33
0.0
 40
0.0
 40
0.0
 40
0.0
 40
0.0
 40
0.0176441471
 40
0.035520917
 40
0.0726291679
 40
0.1126262687
 40
0.1564490227
 40
0.204696334
 40
0.2576738726
 40
0.3154913185
 40
0.3780369199
 40
0.4450262323
 40
0.516105985
 40
0.5908517403
 40
0.6687651508
 40
0.8318694034
 40
0.9157130294
 40
1.0
 40
1.0
 40
1.0
 40
1.0
 10
1.8774052152
 20
7.8267816107
 30
0.0
 10
1.8772004407
 20
7.8267816107
 30
0.0
 10
1.8767877678
 20
7.8268063315
 30
0.0
 10
1.8759563953
 20
7.8269546206
 30
0.0
 10
1.8749112183
 20
7.8273331423
 30
0.0
 10
1.8737057637
 20
7.8280665738
 30
0.0
 10
1.8725442619
 20
7.8290759263
 30
0.0
 10
1.8714348063
 20
7.8303476764
 30
0.0
 10
1.8703842383
 20
7.8318693348
 30
0.0
 10
1.8694023816
 20
7.8336281274
 30
0.0
 10
1.8684971034
 20
7.8356072541
 30
0.0
 10
1.8676758139
 20
7.8377876115
 30
0.0
 10
1.8669475376
 20
7.8401491202
 30
0.0
 10
1.8663195479
 20
7.8426699667
 30
0.0
 10
1.8656116556
 20
7.8462668249
 30
0.0
 10
1.8651460778
 20
7.8500142461
 30
0.0
 10
1.864909035
 20
7.8538517994
 30
0.0
 10
1.8648686249
 20
7.855803393
 30
0.0
 10
1.8648686249
 20
7.8567816107
 30
0.0
 11
1.8774052152
 21
7.8267816107
 31
0.0
 11
1.8767919684
 21
7.8268179644
 31
0.0
 11
1.8761791085
 21
7.8269266507
 31
0.0
 11
1.8749615013
 21
7.8273587734
 31
0.0
 11
1.8737662978
 21
7.8280734828
 31
0.0
 11
1.872607076
 21
7.8290655783
 31
0.0
 11
1.8714949799
 21
7.8303245957
 31
0.0
 11
1.8704400526
 21
7.8318376908
 31
0.0
 11
1.8694522808
 21
7.8335917404
 31
0.0
 11
1.8685408655
 21
7.8355695149
 31
0.0
 11
1.8677143932
 21
7.8377505707
 31
0.0
 11
1.8669814016
 21
7.8401143429
 31
0.0
 11
1.8663491147
 21
7.842638818
 31
0.0
 11
1.8658230085
 21
7.8453000553
 31
0.0
 11
1.8651097817
 21
7.8509339553
 31
0.0
 11
1.8649292245
 21
7.8538475832
 31
0.0
 11
1.8648686249
 21
7.8567816107
 31
0.0
  0
SPLINE
  5
300
100
AcDbEntity
  8
0
100
AcDbSpline
 62
9
  6
CONTINUOUS
 70
0
 71
3
 72
23
 73
19
 74
17
 42
0.0000001
 43
0.0000001
 44
0.0000000001
 12
0.0
 22
0.0935878215
 32
0.0
 13
0.0935851489
 23
0.0007072716
 33
0.0
 40
0.0
 40
0.0
 40
0.0
 40
0.0
 40
0.0623713536
 40
0.1249776543
 40
0.1876970712
 40
0.2504111217
 40
0.3130449108
 40
0.3756108168
 40
0.4381237922
 40
0.5005933351
 40
0.563038615
 40
0.6254807889
 40
0.6879321956
 40
0.7504106484
 40
0.8129369873
 40
0.8754506424
 40
0.9378427999
 40
1.0
 40
1.0
 40
1.0
 40
1.0
 10
7.7278060618
 20
8.7567816107
 30
0.0
 10
7.7278060618
 20
8.7587273438
 30
0.0
 10
7.7279998412
 20
8.76262871
 30
0.0
 10
7.72885567
 20
8.7684298904
 30
0.0
 10
7.7302667549
 20
8.7741331545
 30
0.0
 10
7.732222982
 20
8.7796743336
 30
0.0
 10
7.7347159042
 20
8.7849905489
 30
0.0
 10
7.7377123568
 20
8.790032431
 30
0.0
 10
7.741180223
 20
8.7947560529
 30
0.0
 10
7.7450880673
 20
8.7991178903
 30
0.0
 10
7.7494040325
 20
8.8030731019
 30
0.0
 10
7.7540839079
 20
8.8065889764
 30
0.0
 10
7.7590841896
 20
8.8096340223
 30
0.0
 10
7.7643611793
 20
8.8121763429
 30
0.0
 10
7.7698667148
 20
8.8141815747
 30
0.0
 10
7.7755386161
 20
8.8156399543
 30
0.0
 10
7.7813128964
 20
8.8165417517
 30
0.0
 10
7.7851993501
 20
8.8167652957
 30
0.0
 10
7.787138347
 20
8.8167799497
 30
0.0
 11
7.7278060618
 21
8.7567816107
 31
0.0
 11
7.7280931418
 21
8.7626117461
 31
0.0
 11
7.7289472449
 21
8.7684083472
 31
0.0
 11
7.7303576657
 21
8.7741061498
 31
0.0
 11
7.7323136988
 21
8.7796398901
 31
0.0
 11
7.7348013017
 21
8.784947626
 31
0.0
 11
7.737792304
 21
8.7899814808
 31
0.0
 11
7.7412547969
 21
8.7946972995
 31
0.0
 11
7.7451568714
 21
8.7990509269
 31
0.0
 11
7.7494648259
 21
8.8030000078
 31
0.0
 11
7.7541369233
 21
8.8065102528
 31
0.0
 11
7.7591291767
 21
8.8095496311
 31
0.0
 11
7.7643975989
 21
8.812086112
 31
0.0
 11
7.769895262
 21
8.8140906416
 31
0.0
 11
7.7755612845
 21
8.8155482889
 31
0.0
 11
7.7813306514
 21
8.816448307
 31
0.0
 11
7.787138347
 21
8.8167799497
 31
0.0
  0
SPLINE
  5
301
100
AcDbEntity
  8
0
100
AcDbSpline
 62
9
  6
CONTINUOUS
 70
0
 71
3
 72
23
 73
19
 74
17
 42
0.0000001
 43
0.0000001
 44
0.0000000001
 12
0.0348174012
 22
0.0
 32
0.0
 13
0.0
 23
-0.0348174012
 33
0.0
 40
0.0
 40
0.0
 40
0.0
 40
0.0
 40
0.0176441471
 40
0.035520917
 40
0.0726291679
 40
0.1126262687
 40
0.1564490227
 40
0.204696334
 40
0.2576738726
 40
0.3154913185
 40
0.3780369199
 40
0.4450262323
 40
0.516105985
 40
0.5908517403
 40
0.6687651508
 40
0.8318694034
 40
0.9157130294
 40
1.0
 40
1.0
 40
1.0
 40
1.0
 10
14.9174052152
 20
8.5567816107
 30
0.0
 10
14.9176099896
 20
8.5567816107
 30
0.0
 10
14.9180226626
 20
8.55675689
 30
0.0
 10
14.9188540351
 20
8.5566086009
 30
0.0
 10
14.9198992121
 20
8.5562300792
 30
0.0
 10
14.9211046667
 20
8.5554966477
 30
0.0
 10
14.9222661685
 20
8.5544872952
 30
0.0
 10
14.9233756241
 20
8.5532155451
 30
0.0
 10
14.9244261921
 20
8.5516938867
 30
0.0
 10
14.9254080488
 20
8.5499350941
 30
0.0
 10
14.9263133269
 20
8.5479559674
 30
0.0
 10
14.9271346165
 20
8.54577561
 30
0.0
 10
14.9278628927
 20
8.5434141013
 30
0.0
 10
14.9284908825
 20
8.5408932548
 30
0.0
 10
14.9291987748
 20
8.5372963966
 30
0.0
 10
14.9296643525
 20
8.5335489754
 30
0.0
 10
14.9299013954
 20
8.5297114221
 30
0.0
 10
14.9299418055
 20
8.5277598285
 30
0.0
 10
14.9299418055
 20
8.5267816107
 30
0.0
 11
14.9174052152
 21
8.5567816107
 31
0.0
 11
14.9180184619
 21
8.5567452571
 31
0.0
 11
14.9186313219
 21
8.5566365708
 31
0.0
 11
14.919848929
 21
8.5562044481
 31
0.0
 11
14.9210441326
 21
8.5554897387
 31
0.0
 11
14.9222033544
 21
8.5544976432
 31
0.0
 11
14.9233154505
 21
8.5532386258
 31
0.0
 11
14.9243703778
 21
8.5517255306
 31
0.0
 11
14.9253581496
 21
8.549971481
 31
0.0
 11
14.9262695649
 21
8.5479937066
 31
0.0
 11
14.9270960372
 21
8.5458126508
 31
0.0
 11
14.9278290288
 21
8.5434488786
 31
0.0
 11
14.9284613157
 21
8.5409244035
 31
0.0
 11
14.9289874219
 21
8.5382631662
 31
0.0
 11
14.9297006487
 21
8.5326292662
 31
0.0
 11
14.9298812059
 21
8.5297156383
 31
0.0
 11
14.9299418055
 21
8.5267816107
 31
0.0
  0
SPLINE
  5
302
100
AcDbEntity
  8
0
100
AcDbSpline
 62
9
  6
CONTINUOUS
 70
0
 71
3
 72
32
 73
28
 74
26
 42
0.0000001
 43
0.0000001
 44
0.0000000001
 12
-0.3002965473
 22
0.0087437885
 32
0.0
 13
-0.1845514977
 23
0.2370552991
 33
0.0
 40
0.0
 40
0.0
 40
0.0
 40
0.0
 40
0.0091706243
 40
0.0141753594
 40
0.0194833323
 40
0.0310639714
 40
0.0440090153
 40
0.0583818502
 40
0.0742260716
 40
0.0915685677
 40
0.1104250937
 40
0.1308047568
 40
0.1527118814
 40
0.1761472723
 40
0.201108982
 40
0.227590496
 40
0.2555812419
 40
0.2850693348
 40
0.3160419361
 40
0.3823846771
 40
0.4544931118
 40
0.5322305846
 40
0.6154512884
 40
0.7040061745
 40
0.7977340787
 40
0.8964582518
 40
1.0
 40
1.0
 40
1.0
 40
1.0
 10
7.7273485535
 20
8.7567881256
 30
0.0
 10
7.7264305845
 20
8.7568148542
 30
0.0
 10
7.7250138468
 20
8.7569791961
 30
0.0
 10
7.7231052939
 20
8.7573863447
 30
0.0
 10
7.7209900241
 20
8.7579676208
 30
0.0
 10
7.7181761909
 20
8.7589852954
 30
0.0
 10
7.7146288695
 20
8.7606022554
 30
0.0
 10
7.710818275
 20
8.7626476049
 30
0.0
 10
7.7067454545
 20
8.76511991
 30
0.0
 10
7.7024117564
 20
8.7680173334
 30
0.0
 10
7.6978193421
 20
8.7713375406
 30
0.0
 10
7.6929706662
 20
8.775078048
 30
0.0
 10
7.6878682867
 20
8.7792362644
 30
0.0
 10
7.6825148231
 20
8.7838095277
 30
0.0
 10
7.6769131238
 20
8.78879494
 30
0.0
 10
7.6710664358
 20
8.7941892154
 30
0.0
 10
7.6649784432
 20
8.7999887334
 30
0.0
 10
7.6586529851
 20
8.806189643
 30
0.0
 10
7.6497008592
 20
8.8151959006
 30
0.0
 10
7.6379571615
 20
8.8274430041
 30
0.0
 10
7.6232818591
 20
8.8433609322
 30
0.0
 10
7.6077539249
 20
8.8607869473
 30
0.0
 10
7.5914097016
 20
8.8796876019
 30
0.0
 10
7.5742863054
 20
8.9000282207
 30
0.0
 10
7.5564231027
 20
8.9217727162
 30
0.0
 10
7.5378625033
 20
8.9448841189
 30
0.0
 10
7.5253433087
 20
8.9608076157
 30
0.0
 10
7.5189737138
 20
8.9689893224
 30
0.0
 11
7.7273485535
 21
8.7567881256
 31
0.0
 11
7.7246092719
 21
8.7570826913
 31
0.0
 11
7.7231382561
 21
8.757393738
 31
0.0
 11
7.7215999067
 21
8.7578136934
 31
0.0
 11
7.718321956
 21
8.7589795299
 31
0.0
 11
7.7147769178
 21
8.7605785988
 31
0.0
 11
7.7109662902
 21
8.762609298
 31
0.0
 11
7.706891652
 21
8.7650699377
 31
0.0
 11
7.7025552999
 21
8.7679580479
 31
0.0
 11
7.6979599054
 21
8.7712707511
 31
0.0
 11
7.6931081435
 21
8.7750051662
 31
0.0
 11
7.6880026891
 21
8.779158412
 31
0.0
 11
7.682646217
 21
8.7837276073
 31
0.0
 11
7.6770414285
 21
8.7887098486
 31
0.0
 11
7.6711916066
 21
8.7941017304
 31
0.0
 11
7.665100606
 21
8.799899355
 31
0.0
 11
7.6587723052
 21
8.8060988041
 31
0.0
 11
7.6522105828
 21
8.8126961593
 31
0.0
 11
7.6384023875
 21
8.8270689145
 31
0.0
 11
7.6237076035
 21
8.8429859759
 31
0.0
 11
7.6081612909
 21
8.8604138352
 31
0.0
 11
7.5917998531
 21
8.879318264
 31
0.0
 11
7.5746597506
 21
8.899664997
 31
0.0
 11
7.5567800793
 21
8.9214180578
 31
0.0
 11
7.5382036882
 21
8.9445390329
 31
0.0
 11
7.5189737138
 21
8.9689893224
 31
0.0
  0
SPLINE
  5
303
100
AcDbEntity
  8
0
100
AcDbSpline
 62
9
  6
CONTINUOUS
 70
0
 71
3
 72
31
 73
27
 74
25
 42
0.0000001
 43
0.0000001
 44
0.0000000001
 12
-0.2986646157
 22
0.0082785615
 32
0.0
 13
-0.1889014306
 23
0.2314850681
 33
0.0
 40
0.0
 40
0.0
 40
0.0
 40
0.0
 40
0.0093867956
 40
0.019916554
 40
0.0317151932
 40
0.0448694307
 40
0.0594392689
 40
0.0754661523
 40
0.0929756224
 40
0.1119825878
 40
0.1324956048
 40
0.1545186329
 40
0.1780522321
 40
0.2030942911
 40
0.2296382446
 40
0.2576735625
 40
0.2871884285
 40
0.3181700893
 40
0.3844782024
 40
0.4564824788
 40
0.534047733
 40
0.6170298389
 40
0.7052814539
 40
0.7986434663
 40
0.896941675
 40
1.0
 40
1.0
 40
1.0
 40
1.0
 10
7.7871202354
 20
8.8167879393
 30
0.0
 10
7.7861857341
 20
8.8168138424
 30
0.0
 10
7.7842063477
 20
8.8170328197
 30
0.0
 10
7.7811285512
 20
8.817767278
 30
0.0
 10
7.7777833957
 20
8.8189208326
 30
0.0
 10
7.774170845
 20
8.8204916974
 30
0.0
 10
7.7702903072
 20
8.822478644
 30
0.0
 10
7.766142745
 20
8.8248804214
 30
0.0
 10
7.7617296602
 20
8.827695103
 30
0.0
 10
7.7570532694
 20
8.8309204065
 30
0.0
 10
7.7521160913
 20
8.8345538829
 30
0.0
 10
7.7469207356
 20
8.838592995
 30
0.0
 10
7.7414698737
 20
8.8430351387
 30
0.0
 10
7.7357664022
 20
8.8478774881
 30
0.0
 10
7.7298136163
 20
8.8531168547
 30
0.0
 10
7.723615246
 20
8.8587497392
 30
0.0
 10
7.7171751763
 20
8.864772421
 30
0.0
 10
7.7080634823
 20
8.8735172905
 30
0.0
 10
7.6961095144
 20
8.8854097027
 30
0.0
 10
7.6811677362
 20
8.9008705519
 30
0.0
 10
7.6653574634
 20
8.9177966268
 30
0.0
 10
7.6487153217
 20
8.9361558614
 30
0.0
 10
7.6312786775
 20
8.9559150068
 30
0.0
 10
7.6130872053
 20
8.9770396098
 30
0.0
 10
7.5941837289
 20
8.9994946072
 30
0.0
 10
7.5814297254
 20
9.0149705067
 30
0.0
 10
7.5749404371
 20
9.0229226611
 30
0.0
 11
7.7871202354
 21
8.8167879393
 31
0.0
 11
7.7843302883
 21
8.8170740637
 31
0.0
 11
7.7812654396
 21
8.8177843347
 31
0.0
 11
7.7779272151
 21
8.818917127
 31
0.0
 11
7.7743171408
 21
8.8204708153
 31
0.0
 11
7.7704367424
 21
8.8224437743
 31
0.0
 11
7.7662876285
 21
8.8248342972
 31
0.0
 11
7.7618721405
 21
8.8276399559
 31
0.0
 11
7.7571930033
 21
8.830857944
 31
0.0
 11
7.7522529451
 21
8.8344854524
 31
0.0
 11
7.7470546942
 21
8.8385196715
 31
0.0
 11
7.7416009789
 21
8.8429577921
 31
0.0
 11
7.7358945535
 21
8.8477969835
 31
0.0
 11
7.7299387509
 21
8.8530339445
 31
0.0
 11
7.7237374729
 21
8.858664911
 31
0.0
 11
7.7172946451
 21
8.8646860995
 31
0.0
 11
7.7106141932
 21
8.8710937265
 31
0.0
 11
7.6965561196
 21
8.885053162
 31
0.0
 11
7.6815952023
 21
8.9005126858
 31
0.0
 11
7.6657668116
 21
8.9174401128
 31
0.0
 11
7.6491076399
 21
8.9358026182
 31
0.0
 11
7.631654438
 21
8.9555673449
 31
0.0
 11
7.6134466307
 21
8.976699942
 31
0.0
 11
7.5945274543
 21
8.9991639286
 31
0.0
 11
7.5749404371
 21
9.0229226611
 31
0.0
  0
SPLINE
  5
304
100
AcDbEntity
  8
0
100
AcDbSpline
 62
9
  6
CONTINUOUS
 70
0
 71
3
 72
11
 73
7
 74
5
 42
0.0000001
 43
0.0000001
 44
0.0000000001
 12
0.0000200751
 22
0.0934591593
 32
0.0
 13
0.0934591592
 23
0.0000202461
 33
0.0
 40
0.0
 40
0.0
 40
0.0
 40
0.0
 40
0.2504323521
 40
0.5006220266
 40
0.7504473579
 40
1.0
 40
1.0
 40
1.0
 40
1.0
 10
7.7273484809
 20
8.7567881256
 30
0.0
 10
7.7273501568
 20
8.7645898579
 30
0.0
 10
7.7304593418
 20
8.7803547773
 30
0.0
 10
7.7437532514
 20
8.8002948961
 30
0.0
 10
7.7636184314
 20
8.8136569989
 30
0.0
 10
7.7793459087
 20
8.8167863448
 30
0.0
 10
7.7871202354
 20
8.816788029
 30
0.0
 11
7.7273484809
 21
8.7567881256
 31
0.0
 11
7.7319020345
 21
8.7797460964
 31
0.0
 11
7.7448597822
 21
8.7992098803
 31
0.0
 11
7.7642495566
 21
8.8122170903
 31
0.0
 11
7.7871202354
 21
8.816788029
 31
0.0
  0
SPLINE
  5
305
100
AcDbEntity
  8
0
100
AcDbSpline
 62
9
  6
CONTINUOUS
 70
0
 71
3
 72
17
 73
13
 74
11
 42
0.0000001
 43
0.0000001
 44
0.0000000001
 12
0.013381539
 22
0.0816469567
 32
0.0
 13
0.0817942955
 23
0.0124492713
 33
0.0
 40
0.0
 40
0.0
 40
0.0
 40
0.0
 40
0.1194374624
 40
0.1806061312
 40
0.2425156305
 40
0.367962295
 40
0.4950332633
 40
0.6228121455
 40
0.7503116601
 40
0.8136935352
 40
0.8765810078
 40
1.0
 40
1.0
 40
1.0
 40
1.0
 10
7.5189737138
 20
8.9689893224
 30
0.0
 10
7.5195064662
 20
8.9722398909
 30
0.0
 10
7.5207601538
 20
8.9770932901
 30
0.0
 10
7.523211993
 20
8.9833208893
 30
0.0
 10
7.5262325181
 20
8.9894814117
 30
0.0
 10
7.5309826551
 20
8.9967818793
 30
0.0
 10
7.5379940563
 20
9.0046343445
 30
0.0
 10
7.5461465395
 20
9.0113828665
 30
0.0
 10
7.5537027871
 20
9.0159407203
 30
0.0
 10
7.5600786738
 20
9.0188425076
 30
0.0
 10
7.5665505296
 20
9.0212075166
 30
0.0
 10
7.5715754472
 20
9.0224105023
 30
0.0
 10
7.5749404371
 20
9.0229226611
 30
0.0
 11
7.5189737138
 21
8.9689893224
 31
0.0
 11
7.5214148937
 21
8.9785648549
 31
0.0
 11
7.5232666349
 21
8.9832747846
 31
0.0
 11
7.5255207186
 21
8.987874311
 31
0.0
 11
7.5311656037
 21
8.996584001
 31
0.0
 11
7.5381638213
 21
9.0044297691
 31
0.0
 11
7.5463053892
 21
9.0111737273
 31
0.0
 11
7.5553434502
 21
9.0166135223
 31
0.0
 11
7.5601163871
 21
9.0187857106
 31
0.0
 11
7.5650038896
 21
9.0205701742
 31
0.0
 11
7.5749404371
 21
9.0229226611
 31
0.0
  0
SPLINE
  5
306
100
AcDbEntity
  8
0
100
AcDbSpline
 62
9
  6
CONTINUOUS
 70
0
 71
3
 72
45
 73
41
 74
39
 42
0.0000001
 43
0.0000001
 44
0.0000000001
 12
-0.1799533926
 22
0.2247488248
 32
0.0
 13
-0.1289879441
 23
0.2574050658
 33
0.0
 40
0.0
 40
0.0
 40
0.0
 40
0.0
 40
0.1148788687
 40
0.2237816341
 40
0.3264570561
 40
0.4226539745
 40
0.5121375272
 40
0.5946975255
 40
0.6701257104
 40
0.7382169192
 40
0.7987896424
 40
0.8262031617
 40
0.85167297
 40
0.8751777019
 40
0.8966972857
 40
0.9162173572
 40
0.933725122
 40
0.9492077846
 40
0.9626525485
 40
0.9686067194
 40
0.9740466166
 40
0.9789708536
 40
0.9833787981
 40
0.9872699851
 40
0.9906439493
 40
0.9935002253
 40
0.9947340849
 40
0.995838348
 40
0.9968129565
 40
0.9976578521
 40
0.9983729768
 40
0.9989582723
 40
0.9994136806
 40
0.9995926588
 40
0.9997391433
 40
0.999853127
 40
0.9999346025
 40
0.9999631475
 40
0.9999835626
 40
1.0
 40
1.0
 40
1.0
 40
1.0
 10
7.5170823927
 20
8.9713371429
 30
0.0
 10
7.5101914453
 20
8.9799434399
 30
0.0
 10
7.4967474091
 20
8.9966918321
 30
0.0
 10
7.477077577
 20
9.0210785092
 30
0.0
 10
7.4584834015
 20
9.0440292228
 30
0.0
 10
7.4410200597
 20
9.0654974448
 30
0.0
 10
7.4247393831
 20
9.0854390826
 30
0.0
 10
7.4096888875
 20
9.1038118899
 30
0.0
 10
7.3959144116
 20
9.1205759732
 30
0.0
 10
7.3834602838
 20
9.1356938037
 30
0.0
 10
7.3739228214
 20
9.1472440554
 30
0.0
 10
7.3669831269
 20
9.1556346349
 30
0.0
 10
7.3623080763
 20
9.1612816619
 30
0.0
 10
7.3579915284
 20
9.1664911428
 30
0.0
 10
7.3540375773
 20
9.1712595139
 30
0.0
 10
7.3504495081
 20
9.1755836098
 30
0.0
 10
7.347230143
 20
9.1794607887
 30
0.0
 10
7.3443822118
 20
9.1828885282
 30
0.0
 10
7.3422421844
 20
9.1854628318
 30
0.0
 10
7.3407179811
 20
9.1872957083
 30
0.0
 10
7.3397165212
 20
9.1884997588
 30
0.0
 10
7.3388098817
 20
9.1895896606
 30
0.0
 10
7.3379982312
 20
9.190565244
 30
0.0
 10
7.3372816813
 20
9.1914264067
 30
0.0
 10
7.3366603336
 20
9.192173059
 30
0.0
 10
7.3362020844
 20
9.1927236541
 30
0.0
 10
7.3358831638
 20
9.1931068088
 30
0.0
 10
7.3356797653
 20
9.1933511606
 30
0.0
 10
7.3355002437
 20
9.1935668174
 30
0.0
 10
7.3353446111
 20
9.1937537678
 30
0.0
 10
7.3352128816
 20
9.1939120015
 30
0.0
 10
7.3351050634
 20
9.1940415043
 30
0.0
 10
7.3350301755
 20
9.1941314682
 30
0.0
 10
7.334982219
 20
9.1941890582
 30
0.0
 10
7.3349552559
 20
9.1942214843
 30
0.0
 10
7.3349342129
 20
9.1942466754
 30
0.0
 10
7.3349205633
 20
9.1942632664
 30
0.0
 10
7.3349124211
 20
9.1942728012
 30
0.0
 10
7.3349086493
 20
9.1942777841
 30
0.0
 10
7.3349059219
 20
9.1942802004
 30
0.0
 10
7.3349052152
 20
9.1942816107
 30
0.0
 11
7.5170823927
 21
8.9713371429
 31
0.0
 11
7.4963780148
 21
8.9971307518
 31
0.0
 11
7.4766932624
 21
9.0215363397
 31
0.0
 11
7.458084214
 21
9.0445059982
 31
0.0
 11
7.4406068795
 21
9.0659918731
 31
0.0
 11
7.4243134521
 21
9.0859491258
 31
0.0
 11
7.4092503812
 21
9.1043374558
 31
0.0
 11
7.3954636416
 21
9.1211169376
 31
0.0
 11
7.3829984217
 21
9.136248194
 31
0.0
 11
7.3718940883
 21
9.1496959084
 31
0.0
 11
7.3668637403
 21
9.1557779699
 31
0.0
 11
7.362187395
 21
9.1614265866
 31
0.0
 11
7.357869645
 21
9.1666375729
 31
0.0
 11
7.3539148014
 21
9.1714069947
 31
0.0
 11
7.3503259358
 21
9.1757320251
 31
0.0
 11
7.3471057786
 21
9.1796101423
 31
0.0
 11
7.3442570601
 21
9.1830388244
 31
0.0
 11
7.3417825108
 21
9.1860155494
 31
0.0
 11
7.3406864028
 21
9.1873336398
 31
0.0
 11
7.339684861
 21
9.1885377953
 31
0.0
 11
7.3387781817
 21
9.1896277429
 31
0.0
 11
7.3379665015
 21
9.1906033598
 31
0.0
 11
7.3372499221
 21
9.191464556
 31
0.0
 11
7.336628545
 21
9.1922112418
 31
0.0
 11
7.3361024717
 21
9.1928433275
 31
0.0
 11
7.3358752056
 21
9.1931163672
 31
0.0
 11
7.3356718036
 21
9.1933607232
 31
0.0
 11
7.3354922783
 21
9.1935763843
 31
0.0
 11
7.3353366425
 21
9.1937633392
 31
0.0
 11
7.3352049087
 21
9.1939215767
 31
0.0
 11
7.3350970896
 21
9.1940510856
 31
0.0
 11
7.3350131981
 21
9.1941518547
 31
0.0
 11
7.3349802291
 21
9.1941914583
 31
0.0
 11
7.3349532467
 21
9.1942238727
 31
0.0
 11
7.3349322525
 21
9.1942490966
 31
0.0
 11
7.3349172482
 21
9.1942671285
 31
0.0
 11
7.3349119927
 21
9.194273447
 31
0.0
 11
7.3349082352
 21
9.194277967
 31
0.0
 11
7.3349052152
 21
9.1942816107
 31
0.0
  0
SPLINE
  5
307
100
AcDbEntity
  8
0
100
AcDbSpline
 62
9
  6
CONTINUOUS
 70
0
 71
3
 72
23
 73
19
 74
17
 42
0.0000001
 43
0.0000001
 44
0.0000000001
 12
0.0348174035
 22
0.0
 32
0.0
 13
0.0
 23
0.0348174035
 33
0.0
 40
0.0
 40
0.0
 40
0.0
 40
0.0
 40
0.0176441262
 40
0.0355208266
 40
0.072628781
 40
0.1126254087
 40
0.156447552
 40
0.2046941165
 40
0.2576710403
 40
0.3154881746
 40
0.3780331407
 40
0.4450214582
 40
0.5160999257
 40
0.5908442337
 40
0.6687571562
 40
0.8318660778
 40
0.9157120634
 40
1.0
 40
1.0
 40
1.0
 40
1.0
 10
14.9174052152
 20
7.8267816107
 30
0.0
 10
14.9176099894
 20
7.8267816107
 30
0.0
 10
14.9180226614
 20
7.8268063307
 30
0.0
 10
14.9188540299
 20
7.8269546158
 30
0.0
 10
14.9198992
 20
7.8273331285
 30
0.0
 10
14.9211046419
 20
7.8280665509
 30
0.0
 10
14.9222661275
 20
7.8290758889
 30
0.0
 10
14.9233755785
 20
7.8303476124
 30
0.0
 10
14.9244261422
 20
7.8318692509
 30
0.0
 10
14.9254079885
 20
7.8336280285
 30
0.0
 10
14.9263132718
 20
7.8356071279
 30
0.0
 10
14.9271345654
 20
7.837787448
 30
0.0
 10
14.9278628354
 20
7.8401489134
 30
0.0
 10
14.928490838
 20
7.8426697182
 30
0.0
 10
14.9291987549
 20
7.8462666049
 30
0.0
 10
14.9296643149
 20
7.8500141051
 30
0.0
 10
14.9299013872
 20
7.8538517493
 30
0.0
 10
14.9299418055
 20
7.8558033817
 30
0.0
 10
14.9299418055
 20
7.8567816107
 30
0.0
 11
14.9174052152
 21
7.8267816107
 31
0.0
 11
14.9180184613
 21
7.8268179634
 31
0.0
 11
14.9186313193
 21
7.8269266471
 31
0.0
 11
14.9198489186
 21
7.8273587611
 31
0.0
 11
14.9210441092
 21
7.8280734605
 31
0.0
 11
14.9222033164
 21
7.8290655404
 31
0.0
 11
14.9233154033
 21
7.8303245314
 31
0.0
 11
14.9243703247
 21
7.8318376047
 31
0.0
 11
14.9253580937
 21
7.8335916437
 31
0.0
 11
14.9262695113
 21
7.8355693928
 31
0.0
 11
14.9270959857
 21
7.8377504109
 31
0.0
 11
14.9278289746
 21
7.8401141373
 31
0.0
 11
14.9284612673
 21
7.8426385592
 31
0.0
 11
14.9289873825
 21
7.8452997776
 31
0.0
 11
14.9297006222
 21
7.8509338402
 31
0.0
 11
14.9298811968
 21
7.8538475496
 31
0.0
 11
14.9299418055
 21
7.8567816107
 31
0.0
  0
SPLINE
  5
308
100
AcDbEntity
  8
0
100
AcDbSpline
 62
9
  6
CONTINUOUS
 70
0
 71
3
 72
26
 73
22
 74
20
 42
0.0000001
 43
0.0000001
 44
0.0000000001
 12
-0.031996127
 22
0.0
 32
0.0
 13
0.0
 23
0.031996127
 33
0.0
 40
0.0
 40
0.0
 40
0.0
 40
0.0
 40
0.0109647527
 40
0.0223806413
 40
0.0346186753
 40
0.0479729819
 40
0.0626632842
 40
0.078848397
 40
0.096640594
 40
0.1161063528
 40
0.1372758836
 40
0.1601593771
 40
0.2110339664
 40
0.2685999175
 40
0.3325017947
 40
0.4022334123
 40
0.4772500066
 40
0.5569449873
 40
0.6406427198
 40
0.817184728
 40
1.0
 40
1.0
 40
1.0
 40
1.0
 10
13.4618257059
 20
7.8267816107
 30
0.0
 10
13.4617087627
 20
7.8267816107
 30
0.0
 10
13.4614693981
 20
7.8268071454
 30
0.0
 10
13.4611155257
 20
7.826919676
 30
0.0
 10
13.4607648674
 20
7.8271047507
 30
0.0
 10
13.4604182196
 20
7.8273607989
 30
0.0
 10
13.4600759027
 20
7.8276868274
 30
0.0
 10
13.4597384167
 20
7.8280821914
 30
0.0
 10
13.4594065649
 20
7.8285463281
 30
0.0
 10
13.4590809147
 20
7.829078127
 30
0.0
 10
13.4587619254
 20
7.8296761626
 30
0.0
 10
13.4583311156
 20
7.8305927553
 30
0.0
 10
13.4578206258
 20
7.8318986969
 30
0.0
 10
13.4572653206
 20
7.8336518924
 30
0.0
 10
13.456752487
 20
7.8356263858
 30
0.0
 10
13.456286661
 20
7.8378030088
 30
0.0
 10
13.455873322
 20
7.8401613192
 30
0.0
 10
13.4555167158
 20
7.8426793265
 30
0.0
 10
13.4551135063
 20
7.8462828072
 30
0.0
 10
13.4547812678
 20
7.850998621
 30
0.0
 10
13.4546923028
 20
7.8548318172
 30
0.0
 10
13.4546923028
 20
7.8567816107
 30
0.0
 11
13.4618257059
 21
7.8267816107
 31
0.0
 11
13.4614767648
 21
7.8268179634
 31
0.0
 11
13.4611280446
 21
7.8269266471
 31
0.0
 11
13.4607805341
 21
7.8271071002
 31
0.0
 11
13.4604352225
 21
7.8273587611
 31
0.0
 11
13.4600930985
 21
7.8276810684
 31
0.0
 11
13.4597551511
 21
7.8280734605
 31
0.0
 11
13.4594223595
 21
7.8285353382
 31
0.0
 11
13.4590955545
 21
7.8290655404
 31
0.0
 11
13.4587754532
 21
7.8296624731
 31
0.0
 11
13.4584627697
 21
7.8303245314
 31
0.0
 11
13.4578625124
 21
7.8318376047
 31
0.0
 11
13.4573004653
 21
7.8335916437
 31
0.0
 11
13.4567818626
 21
7.8355693928
 31
0.0
 11
13.4563115932
 21
7.8377504109
 31
0.0
 11
13.4558945176
 21
7.8401141373
 31
0.0
 11
13.4555347389
 21
7.8426385592
 31
0.0
 11
13.4552353759
 21
7.8452997776
 31
0.0
 11
13.4548295377
 21
7.8509338402
 31
0.0
 11
13.4546923028
 21
7.8567816107
 31
0.0
  0
SPLINE
  5
309
100
AcDbEntity
  8
0
100
AcDbSpline
 62
9
  6
CONTINUOUS
 70
0
 71
3
 72
49
 73
45
 74
43
 42
0.0000001
 43
0.0000001
 44
0.0000000001
 12
-0.1759216468
 22
0.2308266012
 32
0.0
 13
-0.2505181013
 23
0.1465265399
 33
0.0
 40
0.0
 40
0.0
 40
0.0
 40
0.0
 40
0.1148615013
 40
0.2237517984
 40
0.3264190826
 40
0.42261162
 40
0.5120939229
 40
0.5946552263
 40
0.6700867166
 40
0.7381826625
 40
0.7694222507
 40
0.7987610119
 40
0.8261775277
 40
0.8516503769
 40
0.8751581353
 40
0.8966806646
 40
0.9162035489
 40
0.9337139597
 40
0.9491990673
 40
0.956178123
 40
0.9626460414
 40
0.9686012186
 40
0.9740420505
 40
0.9789671452
 40
0.9833758662
 40
0.9872677454
 40
0.9906423146
 40
0.9934991056
 40
0.9947331879
 40
0.9958376501
 40
0.9968124336
 40
0.99765748
 40
0.9983727306
 40
0.998958127
 40
0.9992021116
 40
0.9994136107
 40
0.9995926169
 40
0.999739123
 40
0.9998531217
 40
0.9999346056
 40
0.9999631522
 40
0.9999835674
 40
0.9999958503
 40
1.0
 40
1.0
 40
1.0
 40
1.0
 10
7.5730905582
 20
9.0252033614
 30
0.0
 10
7.5663550168
 20
9.0340410581
 30
0.0
 10
7.5532130114
 20
9.0512409617
 30
0.0
 10
7.5339822691
 20
9.0762880483
 30
0.0
 10
7.5158004863
 20
9.0998634337
 30
0.0
 10
7.498722305
 20
9.12191881
 30
0.0
 10
7.4827989886
 20
9.1424083524
 30
0.0
 10
7.4680773249
 20
9.1612880692
 30
0.0
 10
7.4546024999
 20
9.1785164102
 30
0.0
 10
7.4441696033
 20
9.1918207681
 30
0.0
 10
7.4364796559
 20
9.2016095032
 30
0.0
 10
7.4312171853
 20
9.2083007382
 30
0.0
 10
7.4262964052
 20
9.214550957
 30
0.0
 10
7.4217218443
 20
9.22035581
 30
0.0
 10
7.4174979502
 20
9.2257110426
 30
0.0
 10
7.4136287663
 20
9.2306129455
 30
0.0
 10
7.4101175361
 20
9.2350582384
 30
0.0
 10
7.4069670476
 20
9.2390441821
 30
0.0
 10
7.4045681408
 20
9.2420773853
 30
0.0
 10
7.4028314588
 20
9.2442723515
 30
0.0
 10
7.4016666487
 20
9.2457441812
 30
0.0
 10
7.4005940468
 20
9.2470992125
 30
0.0
 10
7.3996139774
 20
9.2483371344
 30
0.0
 10
7.3987267064
 20
9.2494577093
 30
0.0
 10
7.3979323965
 20
9.250460758
 30
0.0
 10
7.3972311548
 20
9.2513461711
 30
0.0
 10
7.3966230781
 20
9.252113852
 30
0.0
 10
7.3961746111
 20
9.2526799533
 30
0.0
 10
7.3958624927
 20
9.2530738958
 30
0.0
 10
7.3956634293
 20
9.2533251251
 30
0.0
 10
7.3954877298
 20
9.253546849
 30
0.0
 10
7.3953354065
 20
9.2537390554
 30
0.0
 10
7.3952064712
 20
9.2539017319
 30
0.0
 10
7.3951136469
 20
9.2540188334
 30
0.0
 10
7.3950510893
 20
9.2540977393
 30
0.0
 10
7.3950129551
 20
9.2541458379
 30
0.0
 10
7.3949806721
 20
9.2541865393
 30
0.0
 10
7.3949542607
 20
9.2542198641
 30
0.0
 10
7.3949336722
 20
9.2542457518
 30
0.0
 10
7.3949202534
 20
9.2542627914
 30
0.0
 10
7.3949123315
 20
9.2542725875
 30
0.0
 10
7.3949087652
 20
9.2542773666
 30
0.0
 10
7.3949063312
 20
9.2542799053
 30
0.0
 10
7.3949055617
 20
9.2542814081
 30
0.0
 10
7.3949052152
 20
9.2542816107
 30
0.0
 11
7.5730905582
 21
9.0252033614
 31
0.0
 11
7.5528517089
 21
9.0516918606
 31
0.0
 11
7.5336063735
 21
9.0767584234
 31
0.0
 11
7.5154100526
 21
9.1003533238
 31
0.0
 11
7.498318179
 21
9.1224268905
 31
0.0
 11
7.4823823472
 21
9.1429325138
 31
0.0
 11
7.4676483471
 21
9.1618282151
 31
0.0
 11
7.4541614856
 21
9.1790724008
 31
0.0
 11
7.4419663041
 21
9.1946240533
 31
0.0
 11
7.4363653899
 21
9.201753582
 31
0.0
 11
7.4311016393
 21
9.2084464458
 31
0.0
 11
7.4261795833
 21
9.2146982971
 31
0.0
 11
7.4216037531
 21
9.2205047883
 31
0.0
 11
7.4173786798
 21
9.2258615718
 31
0.0
 11
7.4135086197
 21
9.2307645598
 31
0.0
 11
7.4099966087
 21
9.2352108173
 31
0.0
 11
7.4068453437
 21
9.2391977292
 31
0.0
 11
7.4040575218
 21
9.2427226806
 31
0.0
 11
7.4028007448
 21
9.2443111039
 31
0.0
 11
7.40163584
 21
9.2457830565
 31
0.0
 11
7.4005631444
 21
9.2471382115
 31
0.0
 11
7.3995829952
 21
9.248376242
 31
0.0
 11
7.3986956847
 21
9.2494968642
 31
0.0
 11
7.3979013453
 21
9.2504999473
 31
0.0
 11
7.3972000739
 21
9.2513853947
 31
0.0
 11
7.3965919674
 21
9.2521531097
 31
0.0
 11
7.3960771226
 21
9.2528029958
 31
0.0
 11
7.3958547036
 21
9.2530837229
 31
0.0
 11
7.3956556364
 21
9.2533349564
 31
0.0
 11
7.3954799331
 21
9.2535566844
 31
0.0
 11
7.3953276057
 21
9.2537488948
 31
0.0
 11
7.3951986664
 21
9.2539115755
 31
0.0
 11
7.3950931274
 21
9.2540447144
 31
0.0
 11
7.3950491367
 21
9.2541002019
 31
0.0
 11
7.3950110006
 21
9.2541482995
 31
0.0
 11
7.3949787206
 21
9.2541890055
 31
0.0
 11
7.3949522982
 21
9.2542223186
 31
0.0
 11
7.394931735
 21
9.2542482372
 31
0.0
 11
7.3949170324
 21
9.2542667597
 31
0.0
 11
7.3949118793
 21
9.254273247
 31
0.0
 11
7.394908192
 21
9.2542778847
 31
0.0
 11
7.3949059705
 21
9.2542806727
 31
0.0
 11
7.3949052152
 21
9.2542816107
 31
0.0
  0
SPLINE
  5
30A
100
AcDbEntity
  8
0
100
AcDbSpline
 62
9
  6
CONTINUOUS
 70
0
 71
3
 72
17
 73
13
 74
11
 42
0.0000001
 43
0.0000001
 44
0.0000000001
 12
0.0134075218
 22
0.0816230232
 32
0.0
 13
0.081778324
 23
0.0124251876
 33
0.0
 40
0.0
 40
0.0
 40
0.0
 40
0.0
 40
0.1193293721
 40
0.1804516915
 40
0.2423217184
 40
0.3677140472
 40
0.4947672461
 40
0.6225662567
 40
0.7501213496
 40
0.8135426008
 40
0.8764757839
 40
1.0
 40
1.0
 40
1.0
 40
1.0
 10
7.5170826501
 20
8.9713371429
 30
0.0
 10
7.5176159538
 20
8.9745838176
 30
0.0
 10
7.5188708726
 20
8.9794313675
 30
0.0
 10
7.5213245978
 20
8.9856507946
 30
0.0
 10
7.5243477264
 20
8.9918039593
 30
0.0
 10
7.5291019935
 20
8.999095684
 30
0.0
 10
7.5361187568
 20
9.0069381248
 30
0.0
 10
7.5442772306
 20
9.0136779744
 30
0.0
 10
7.5518383908
 20
9.0182296893
 30
0.0
 10
7.5582184156
 20
9.0211277334
 30
0.0
 10
7.5646951352
 20
9.0234899852
 30
0.0
 10
7.5697233571
 20
9.024691486
 30
0.0
 10
7.5730905582
 20
9.0252030898
 30
0.0
 11
7.5170826501
 21
8.9713371429
 31
0.0
 11
7.5195259334
 21
8.9809005185
 31
0.0
 11
7.521379152
 21
8.9856044706
 31
0.0
 11
7.5236349831
 21
8.9901981645
 31
0.0
 11
7.5292841214
 21
8.9988968351
 31
0.0
 11
7.5362874927
 21
9.0067327246
 31
0.0
 11
7.5444349731
 21
9.0134682589
 31
0.0
 11
7.5534795415
 21
9.0189013502
 31
0.0
 11
7.5582559008
 21
9.0210709082
 31
0.0
 11
7.5631469023
 21
9.022853251
 31
0.0
 11
7.5730905582
 21
9.0252030898
 31
0.0
  0
SPLINE
  5
30B
100
AcDbEntity
  8
0
100
AcDbSpline
 62
9
  6
CONTINUOUS
 70
0
 71
3
 72
29
 73
25
 74
23
 42
0.0000001
 43
0.0000001
 44
0.0000000001
 12
0.000029372
 22
-5.2349496451
 32
0.0
 13
0.0435335111
 23
-5.2347686311
 33
0.0
 40
0.0
 40
0.0
 40
0.0
 40
0.0
 40
0.0627861056
 40
0.1253683501
 40
0.1876544428
 40
0.2187091962
 40
0.2497245563
 40
0.2807230926
 40
0.3117278273
 40
0.3427600867
 40
0.3738302234
 40
0.4361081057
 40
0.4985926075
 40
0.5612559653
 40
0.6240464218
 40
0.6554613036
 40
0.6868725943
 40
0.7182689312
 40
0.7496462025
 40
0.8123382602
 40
0.8436503762
 40
0.874940252
 40
0.9374771305
 40
1.0
 40
1.0
 40
1.0
 40
1.0
 10
9.0263983914
 20
7.5667816107
 30
0.0
 10
9.0263990061
 20
7.4572209103
 30
0.0
 10
9.0257031925
 20
7.2384549176
 30
0.0
 10
9.023040688
 20
6.9110110317
 30
0.0
 10
9.0198576546
 20
6.6389460822
 30
0.0
 10
9.016967916
 20
6.4219658276
 30
0.0
 10
9.0146908011
 20
6.2595785496
 30
0.0
 10
9.0123662329
 20
6.0972792476
 30
0.0
 10
9.0100567561
 20
5.9349502342
 30
0.0
 10
9.0078288136
 20
5.7724951175
 30
0.0
 10
9.0050083176
 20
5.5554719348
 30
0.0
 10
9.0018384918
 20
5.283565059
 30
0.0
 10
8.9988355952
 20
4.9565236802
 30
0.0
 10
8.9967594544
 20
4.6285805431
 30
0.0
 10
8.9959094645
 20
4.3548480899
 30
0.0
 10
8.995758787
 20
4.1356491574
 30
0.0
 10
8.9959114856
 20
3.9712324531
 30
0.0
 10
8.9963333993
 20
3.8068818596
 30
0.0
 10
8.9972136616
 20
3.5879480863
 30
0.0
 10
8.9984991453
 20
3.3691631593
 30
0.0
 10
9.0000509251
 20
3.1505326506
 30
0.0
 10
9.0017335702
 20
2.9321738912
 30
0.0
 10
9.0040163324
 20
2.6593559581
 30
0.0
 10
9.005884752
 20
2.4411367965
 30
0.0
 10
9.006792032
 20
2.3320392112
 30
0.0
 11
9.0263983914
 21
7.5667816107
 31
0.0
 11
9.0254304411
 21
7.2381009347
 31
0.0
 11
9.0228412122
 21
6.9104962679
 31
0.0
 11
9.0191027415
 21
6.5844531415
 31
0.0
 11
9.0169478983
 21
6.4218973531
 31
0.0
 11
9.014682272
 21
6.2595493123
 31
0.0
 11
9.0123689721
 21
6.097290025
 31
0.0
 11
9.0100713046
 21
5.934998064
 31
0.0
 11
9.0078491407
 21
5.7725609477
 31
0.0
 11
9.0057401456
 21
5.6099240205
 31
0.0
 11
9.0019769747
 21
5.2839241621
 31
0.0
 11
8.9989936647
 21
4.956834546
 31
0.0
 11
8.9969370285
 21
4.6288014706
 31
0.0
 11
8.9959160274
 21
4.3000981781
 31
0.0
 11
8.9958030821
 21
4.1356428928
 31
0.0
 11
8.9959564232
 21
3.9712064393
 31
0.0
 11
8.9963733126
 21
3.8068487252
 31
0.0
 11
8.9970278329
 21
3.6425915939
 31
0.0
 11
8.998910031
 21
3.3144072258
 31
0.0
 11
9.0000678194
 21
3.1504939645
 31
0.0
 11
9.0013254593
 21
2.9866978681
 31
0.0
 11
9.0040271646
 21
2.6593316065
 31
0.0
 11
9.006792032
 21
2.3320392112
 31
0.0
  0
SPLINE
  5
30C
100
AcDbEntity
  8
0
100
AcDbSpline
 62
9
  6
CONTINUOUS
 70
0
 71
3
 72
31
 73
27
 74
25
 42
0.0000001
 43
0.0000001
 44
0.0000000001
 12
0.0000299551
 22
-5.2396756802
 32
0.0
 13
0.0436328499
 23
-5.2394940032
 33
0.0
 40
0.0
 40
0.0
 40
0.0
 40
0.0
 40
0.0627850935
 40
0.1253626471
 40
0.1876427183
 40
0.2186948821
 40
0.2497086725
 40
0.3117124706
 40
0.3427465764
 40
0.373818871
 40
0.4049352713
 40
0.4361017005
 40
0.4673213983
 40
0.4985904731
 40
0.5299038767
 40
0.5612565714
 40
0.6240480321
 40
0.6554628722
 40
0.686873924
 40
0.7182699844
 40
0.7496470424
 40
0.8123387809
 40
0.843650749
 40
0.8749404663
 40
0.9374770942
 40
1.0
 40
1.0
 40
1.0
 40
1.0
 10
8.9765886565
 20
7.5667816108
 30
0.0
 10
8.9765892834
 20
7.4571237683
 30
0.0
 10
8.9758769546
 20
7.2381702349
 30
0.0
 10
8.9731687652
 20
6.910451567
 30
0.0
 10
8.9699491036
 20
6.6381646417
 30
0.0
 10
8.9670384312
 20
6.4210065299
 30
0.0
 10
8.9639897768
 20
6.2043328776
 30
0.0
 10
8.9608551211
 20
5.987691996
 30
0.0
 10
8.9578964545
 20
5.7709464413
 30
0.0
 10
8.9557943051
 20
5.608140914
 30
0.0
 10
8.9538363832
 20
5.4451024523
 30
0.0
 10
8.9520510695
 20
5.2818045351
 30
0.0
 10
8.9504648916
 20
5.1182378861
 30
0.0
 10
8.9490930713
 20
4.9544125859
 30
0.0
 10
8.9479518894
 20
4.7903532107
 30
0.0
 10
8.9467595091
 20
4.5712374154
 30
0.0
 10
8.9460916661
 20
4.3519418441
 30
0.0
 10
8.9459492106
 20
4.1325437592
 30
0.0
 10
8.9461058765
 20
3.9679795989
 30
0.0
 10
8.9465293535
 20
3.8034819095
 30
0.0
 10
8.9474088157
 20
3.5843518938
 30
0.0
 10
8.9486908499
 20
3.3653706141
 30
0.0
 10
8.9502394441
 20
3.1465437888
 30
0.0
 10
8.9519199427
 20
2.9279888428
 30
0.0
 10
8.9542021211
 20
2.654925242
 30
0.0
 10
8.9560729462
 20
2.4365094561
 30
0.0
 10
8.9569822971
 20
2.3273133261
 30
0.0
 11
8.9765886565
 21
7.5667816108
 31
0.0
 11
8.9756006186
 21
7.237809567
 31
0.0
 11
8.9729694512
 21
6.9099340384
 31
0.0
 11
8.9691896419
 21
6.5836285553
 31
0.0
 11
8.9670194454
 21
6.4209397618
 31
0.0
 11
8.9647440606
 21
6.2584534898
 31
0.0
 11
8.960131636
 21
5.9336064402
 31
0.0
 11
8.9579173586
 21
5.771012868
 31
0.0
 11
8.9558197812
 21
5.6082176342
 31
0.0
 11
8.9538666442
 21
5.4451894875
 31
0.0
 11
8.952085677
 21
5.2818972185
 31
0.0
 11
8.9505017854
 21
5.1183237954
 31
0.0
 11
8.9491324033
 21
4.9544897073
 31
0.0
 11
8.9479937427
 21
4.7904215792
 31
0.0
 11
8.9471020112
 21
4.6261460474
 31
0.0
 11
8.9460999243
 21
4.297140684
 31
0.0
 11
8.9459931391
 21
4.132537145
 31
0.0
 11
8.9461504141
 21
3.9679534961
 31
0.0
 11
8.9465689057
 21
3.8034488542
 31
0.0
 11
8.9472229646
 21
3.6390445474
 31
0.0
 11
8.9491009593
 21
3.3105655383
 31
0.0
 11
8.9502564674
 21
3.1465050498
 31
0.0
 11
8.9515125068
 21
2.9825618901
 31
0.0
 11
8.954213667
 21
2.6549013757
 31
0.0
 11
8.9569822971
 21
2.3273133261
 31
0.0
  0
SPLINE
  5
30D
100
AcDbEntity
  8
0
100
AcDbSpline
 62
9
  6
CONTINUOUS
 70
0
 71
3
 72
26
 73
22
 74
20
 42
0.0000001
 43
0.0000001
 44
0.0000000001
 12
-0.031996127
 22
0.0
 32
0.0
 13
-0.0
 23
-0.031996127
 33
0.0
 40
0.0
 40
0.0
 40
0.0
 40
0.0
 40
0.0109647526
 40
0.0223806412
 40
0.0346186751
 40
0.0479729816
 40
0.0626632838
 40
0.0788483964
 40
0.0966405933
 40
0.116106352
 40
0.1372758825
 40
0.1601593758
 40
0.2110339649
 40
0.2685999159
 40
0.332501793
 40
0.4022334104
 40
0.4772500047
 40
0.5569449855
 40
0.6406427184
 40
0.8171847276
 40
1.0
 40
1.0
 40
1.0
 40
1.0
 10
13.4618257059
 20
8.5567816107
 30
0.0
 10
13.4617087627
 20
8.5567816107
 30
0.0
 10
13.4614693981
 20
8.5567560761
 30
0.0
 10
13.4611155257
 20
8.5566435455
 30
0.0
 10
13.4607648674
 20
8.5564584708
 30
0.0
 10
13.4604182196
 20
8.5562024226
 30
0.0
 10
13.4600759027
 20
8.5558763941
 30
0.0
 10
13.4597384167
 20
8.5554810301
 30
0.0
 10
13.459406565
 20
8.5550168934
 30
0.0
 10
13.4590809147
 20
8.5544850945
 30
0.0
 10
13.4587619254
 20
8.5538870589
 30
0.0
 10
13.4583311156
 20
8.5529704663
 30
0.0
 10
13.4578206258
 20
8.5516645246
 30
0.0
 10
13.4572653206
 20
8.5499113291
 30
0.0
 10
13.456752487
 20
8.5479368357
 30
0.0
 10
13.456286661
 20
8.5457602128
 30
0.0
 10
13.455873322
 20
8.5434019024
 30
0.0
 10
13.4555167158
 20
8.540883895
 30
0.0
 10
13.4551135063
 20
8.5372804143
 30
0.0
 10
13.4547812678
 20
8.5325646005
 30
0.0
 10
13.4546923029
 20
8.5287314043
 30
0.0
 10
13.4546923028
 20
8.5267816107
 30
0.0
 11
13.4618257059
 21
8.5567816107
 31
0.0
 11
13.4614767648
 21
8.5567452581
 31
0.0
 11
13.4611280446
 21
8.5566365744
 31
0.0
 11
13.4607805341
 21
8.5564561213
 31
0.0
 11
13.4604352225
 21
8.5562044604
 31
0.0
 11
13.4600930985
 21
8.5558821531
 31
0.0
 11
13.4597551511
 21
8.555489761
 31
0.0
 11
13.4594223595
 21
8.5550278833
 31
0.0
 11
13.4590955545
 21
8.5544976812
 31
0.0
 11
13.4587754532
 21
8.5539007484
 31
0.0
 11
13.4584627697
 21
8.5532386901
 31
0.0
 11
13.4578625124
 21
8.5517256168
 31
0.0
 11
13.4573004653
 21
8.5499715779
 31
0.0
 11
13.4567818626
 21
8.5479938287
 31
0.0
 11
13.4563115932
 21
8.5458128106
 31
0.0
 11
13.4558945176
 21
8.5434490842
 31
0.0
 11
13.4555347389
 21
8.5409246623
 31
0.0
 11
13.4552353759
 21
8.5382634439
 31
0.0
 11
13.4548295377
 21
8.5326293813
 31
0.0
 11
13.4546923028
 21
8.5267816107
 31
0.0
  0
SPLINE
  5
30E
100
AcDbEntity
  8
0
100
AcDbSpline
 62
9
  6
CONTINUOUS
 70
0
 71
3
 72
15
 73
11
 74
9
 42
0.0000001
 43
0.0000001
 44
0.0000000001
 12
0.0157123659
 22
0.000003428
 32
0.0
 13
-0.0000025016
 23
-0.0157123661
 33
0.0
 40
0.0
 40
0.0
 40
0.0
 40
0.0
 40
0.1249215706
 40
0.2499475892
 40
0.3749505827
 40
0.4999952304
 40
0.6250416072
 40
0.7500466788
 40
0.8750760529
 40
1.0
 40
1.0
 40
1.0
 40
1.0
 10
8.9665504581
 20
8.7667816107
 30
0.0
 10
8.9672047293
 20
8.7667817535
 30
0.0
 10
8.9685173932
 20
8.766653151
 30
0.0
 10
8.9704089809
 20
8.7660826722
 30
0.0
 10
8.9721548599
 20
8.7651547961
 30
0.0
 10
8.9736871175
 20
8.7639052538
 30
0.0
 10
8.9749455283
 20
8.7623801814
 30
0.0
 10
8.975882014
 20
8.7606386685
 30
0.0
 10
8.9764586882
 20
8.7587486639
 30
0.0
 10
8.9765887607
 20
8.7574358943
 30
0.0
 10
8.9765886565
 20
8.7567816107
 30
0.0
 11
8.9665504581
 21
8.7667816107
 31
0.0
 11
8.9685039295
 21
8.7665903355
 31
0.0
 11
8.9703847063
 21
8.766023096
 31
0.0
 11
8.9721190607
 21
8.7651013176
 31
0.0
 11
8.9736414636
 21
8.7638593347
 31
0.0
 11
8.974892004
 21
8.7623439181
 31
0.0
 11
8.9758220324
 21
8.7606139366
 31
0.0
 11
8.9763952097
 21
8.7587349058
 31
0.0
 11
8.9765886565
 21
8.7567816107
 31
0.0
  0
SPLINE
  5
30F
100
AcDbEntity
  8
0
100
AcDbSpline
 62
9
  6
CONTINUOUS
 70
0
 71
3
 72
45
 73
41
 74
39
 42
0.0000001
 43
0.0000001
 44
0.0000000001
 12
-0.1295474413
 22
-0.2571239353
 32
0.0
 13
-0.1799533814
 23
-0.2247488338
 33
0.0
 40
0.0
 40
0.0
 40
0.0
 40
0.0
 40
0.0000164316
 40
0.000036844
 40
0.0000653864
 40
0.0001468572
 40
0.0002608368
 40
0.0004073177
 40
0.0005862928
 40
0.0010416962
 40
0.0016269886
 40
0.0023421117
 40
0.0031870073
 40
0.0041616169
 40
0.0052658823
 40
0.0064997452
 40
0.00935603
 40
0.0127300048
 40
0.0166212032
 40
0.0210291586
 40
0.0259534045
 40
0.0313933098
 40
0.0373474897
 40
0.0507922732
 40
0.066274954
 40
0.0837827322
 40
0.1033028089
 40
0.1248223863
 40
0.1483271141
 40
0.1737969318
 40
0.2012104692
 40
0.2617832336
 40
0.3298744589
 40
0.4053026576
 40
0.487862665
 40
0.577346192
 40
0.6735430397
 40
0.7762184007
 40
0.8851211306
 40
1.0
 40
1.0
 40
1.0
 40
1.0
 10
9.4599052152
 20
9.1942816107
 30
0.0
 10
9.4599045056
 20
9.1942802024
 30
0.0
 10
9.4599017831
 20
9.1942777847
 30
0.0
 10
9.4598980095
 20
9.1942728039
 30
0.0
 10
9.4598898691
 20
9.1942632694
 30
0.0
 10
9.4598762189
 20
9.19424668
 30
0.0
 10
9.4598551769
 20
9.1942214897
 30
0.0
 10
9.459828214
 20
9.1941890647
 30
0.0
 10
9.459780258
 20
9.1941314758
 30
0.0
 10
9.4597053704
 20
9.194041513
 30
0.0
 10
9.4595975525
 20
9.1939120111
 30
0.0
 10
9.4594658232
 20
9.1937537779
 30
0.0
 10
9.4593101905
 20
9.1935668276
 30
0.0
 10
9.4591306687
 20
9.1933511705
 30
0.0
 10
9.45892727
 20
9.1931068182
 30
0.0
 10
9.4586083486
 20
9.1927236622
 30
0.0
 10
9.4581500985
 20
9.1921730651
 30
0.0
 10
9.4575287495
 20
9.19142641
 30
0.0
 10
9.4568121984
 20
9.1905652443
 30
0.0
 10
9.4560005467
 20
9.1895896579
 30
0.0
 10
9.4550939063
 20
9.1884997534
 30
0.0
 10
9.4540924454
 20
9.1872957005
 30
0.0
 10
9.4525682405
 20
9.1854628207
 30
0.0
 10
9.4504282105
 20
9.1828885135
 30
0.0
 10
9.4475802761
 20
9.1794607702
 30
0.0
 10
9.4443609084
 20
9.1755835888
 30
0.0
 10
9.4407728382
 20
9.1712594923
 30
0.0
 10
9.4368188876
 20
9.1664911215
 30
0.0
 10
9.4325023395
 20
9.1612816408
 30
0.0
 10
9.4278272868
 20
9.1556346127
 30
0.0
 10
9.4208875867
 20
9.1472440292
 30
0.0
 10
9.411350118
 20
9.1356937733
 30
0.0
 10
9.398895987
 20
9.1205759366
 30
0.0
 10
9.385121509
 20
9.10381185
 30
0.0
 10
9.370071013
 20
9.0854390434
 30
0.0
 10
9.3537903419
 20
9.065497412
 30
0.0
 10
9.3363270111
 20
9.0440292004
 30
0.0
 10
9.3177328453
 20
9.0210784997
 30
0.0
 10
9.2980630185
 20
8.9966918301
 30
0.0
 10
9.2846189847
 20
8.9799434403
 30
0.0
 10
9.2777280377
 20
8.9713371429
 30
0.0
 11
9.4599052152
 21
9.1942816107
 31
0.0
 11
9.4599021959
 21
9.1942779686
 31
0.0
 11
9.4598984387
 21
9.1942734494
 31
0.0
 11
9.4598931835
 21
9.1942671315
 31
0.0
 11
9.4598781797
 21
9.194249101
 31
0.0
 11
9.459857186
 21
9.1942238782
 31
0.0
 11
9.459830204
 21
9.1941914648
 31
0.0
 11
9.4597972354
 21
9.1941518621
 31
0.0
 11
9.4597133444
 21
9.1940510944
 31
0.0
 11
9.4596055256
 21
9.1939215864
 31
0.0
 11
9.459473792
 21
9.1937633494
 31
0.0
 11
9.459318156
 21
9.1935763945
 31
0.0
 11
9.4591386305
 21
9.1933607332
 31
0.0
 11
9.4589352282
 21
9.1931163766
 31
0.0
 11
9.4587079617
 21
9.1928433361
 31
0.0
 11
9.4581818872
 21
9.1922112481
 31
0.0
 11
9.4575605087
 21
9.1914645594
 31
0.0
 11
9.456843928
 21
9.19060336
 31
0.0
 11
9.4560322466
 21
9.1896277401
 31
0.0
 11
9.4551255664
 21
9.1885377899
 31
0.0
 11
9.4541240237
 21
9.1873336321
 31
0.0
 11
9.4530279145
 21
9.1860155392
 31
0.0
 11
9.450553362
 21
9.1830388096
 31
0.0
 11
9.4477046402
 21
9.1796101235
 31
0.0
 11
9.4444844802
 21
9.1757320035
 31
0.0
 11
9.4408956134
 21
9.1714069721
 31
0.0
 11
9.436940771
 21
9.1666375519
 31
0.0
 11
9.4326230216
 21
9.1614265666
 31
0.0
 11
9.4279466738
 21
9.1557779483
 31
0.0
 11
9.4229163216
 21
9.1496958836
 31
0.0
 11
9.4118119792
 21
9.1362481613
 31
0.0
 11
9.3993467567
 21
9.1211169009
 31
0.0
 11
9.3855600149
 21
9.1043374157
 31
0.0
 11
9.3704969421
 21
9.0859490839
 31
0.0
 11
9.3542035195
 21
9.0659918368
 31
0.0
 11
9.3367261989
 21
9.0445059769
 31
0.0
 11
9.3181171615
 21
9.0215363321
 31
0.0
 11
9.2984324152
 21
8.9971307524
 31
0.0
 11
9.2777280377
 21
8.9713371429
 31
0.0
  0
SPLINE
  5
310
100
AcDbEntity
  8
0
100
AcDbSpline
 62
9
  6
CONTINUOUS
 70
0
 71
3
 72
49
 73
45
 74
43
 42
0.0000001
 43
0.0000001
 44
0.0000000001
 12
-0.2505777331
 22
-0.1464245412
 32
0.0
 13
-0.1759216533
 23
-0.2308265963
 33
0.0
 40
0.0
 40
0.0
 40
0.0
 40
0.0
 40
0.0000041471
 40
0.0000164275
 40
0.0000368404
 40
0.0000653849
 40
0.0001468648
 40
0.0002608599
 40
0.000407363
 40
0.0005863666
 40
0.0007978635
 40
0.0010418463
 40
0.0016272402
 40
0.0023424898
 40
0.0031875364
 40
0.0041623213
 40
0.0052667858
 40
0.0065008713
 40
0.0093576705
 40
0.0127322495
 40
0.016624139
 40
0.0210328697
 40
0.0259579722
 40
0.0313988112
 40
0.0373539966
 40
0.043821924
 40
0.050800989
 40
0.0662861142
 40
0.0837965383
 40
0.103319428
 40
0.1248419512
 40
0.1483497062
 40
0.1738225658
 40
0.2012391008
 40
0.2305778845
 40
0.2618174935
 40
0.3299134568
 40
0.4053449606
 40
0.4879062721
 40
0.5773885484
 40
0.6735810146
 40
0.7762482381
 40
0.8851384994
 40
1.0
 40
1.0
 40
1.0
 40
1.0
 10
9.3999052152
 20
9.2542816107
 30
0.0
 10
9.3999048688
 20
9.2542814083
 30
0.0
 10
9.3999041002
 20
9.2542799053
 30
0.0
 10
9.3999016663
 20
9.2542773676
 30
0.0
 10
9.3998981009
 20
9.2542725885
 30
0.0
 10
9.3998901797
 20
9.2542627931
 30
0.0
 10
9.3998767619
 20
9.2542457538
 30
0.0
 10
9.3998561742
 20
9.2542198667
 30
0.0
 10
9.3998297637
 20
9.2541865424
 30
0.0
 10
9.3997974814
 20
9.2541458415
 30
0.0
 10
9.3997593477
 20
9.2540977432
 30
0.0
 10
9.3996967908
 20
9.2540188376
 30
0.0
 10
9.3996039669
 20
9.2539017364
 30
0.0
 10
9.3994750319
 20
9.25373906
 30
0.0
 10
9.3993227086
 20
9.2535468536
 30
0.0
 10
9.3991470088
 20
9.2533251295
 30
0.0
 10
9.3989479448
 20
9.2530738998
 30
0.0
 10
9.3986358252
 20
9.2526799565
 30
0.0
 10
9.3981873564
 20
9.2521138541
 30
0.0
 10
9.3975792771
 20
9.2513461717
 30
0.0
 10
9.3968780327
 20
9.250460757
 30
0.0
 10
9.3960837204
 20
9.2494577069
 30
0.0
 10
9.3951964472
 20
9.2483371306
 30
0.0
 10
9.3942163758
 20
9.2470992074
 30
0.0
 10
9.3931437721
 20
9.2457441746
 30
0.0
 10
9.39197896
 20
9.2442723432
 30
0.0
 10
9.3902422754
 20
9.2420773747
 30
0.0
 10
9.3878433659
 20
9.2390441686
 30
0.0
 10
9.3846928753
 20
9.2350582221
 30
0.0
 10
9.381181645
 20
9.2306129278
 30
0.0
 10
9.3773124625
 20
9.2257110242
 30
0.0
 10
9.3730885694
 20
9.2203557907
 30
0.0
 10
9.3685140074
 20
9.2145509353
 30
0.0
 10
9.3635932245
 20
9.2083007124
 30
0.0
 10
9.3583307505
 20
9.2016094725
 30
0.0
 10
9.3506407997
 20
9.1918207324
 30
0.0
 10
9.340207902
 20
9.1785163692
 30
0.0
 10
9.3267330747
 20
9.1612880251
 30
0.0
 10
9.3120114099
 20
9.1424083097
 30
0.0
 10
9.2960880983
 20
9.1219187747
 30
0.0
 10
9.279009928
 20
9.0998634091
 30
0.0
 10
9.2608281549
 20
9.0762880368
 30
0.0
 10
9.2415974176
 20
9.0512409582
 30
0.0
 10
9.2284554138
 20
9.0340410578
 30
0.0
 10
9.2217198721
 20
9.0252033614
 30
0.0
 11
9.3999052152
 21
9.2542816107
 31
0.0
 11
9.3999044605
 21
9.2542806731
 31
0.0
 11
9.3999022398
 21
9.2542778855
 31
0.0
 11
9.399898553
 21
9.2542732482
 31
0.0
 11
9.3998934005
 21
9.2542667612
 31
0.0
 11
9.399878699
 21
9.2542482393
 31
0.0
 11
9.3998581367
 21
9.2542223213
 31
0.0
 11
9.3998317151
 21
9.2541890087
 31
0.0
 11
9.3997994358
 21
9.2541483031
 31
0.0
 11
9.3997613003
 21
9.2541002059
 31
0.0
 11
9.3997173101
 21
9.2540447186
 31
0.0
 11
9.3996117717
 21
9.2539115801
 31
0.0
 11
9.3994828328
 21
9.2537488996
 31
0.0
 11
9.3993305054
 21
9.2535566891
 31
0.0
 11
9.3991548017
 21
9.2533349609
 31
0.0
 11
9.3989557339
 21
9.2530837269
 31
0.0
 11
9.3987333141
 21
9.2528029994
 31
0.0
 11
9.3982184672
 21
9.2521531119
 31
0.0
 11
9.3976103581
 21
9.2513853953
 31
0.0
 11
9.396909084
 21
9.2504999462
 31
0.0
 11
9.396114742
 21
9.2494968616
 31
0.0
 11
9.3952274294
 21
9.2483762382
 31
0.0
 11
9.3942472784
 21
9.2471382065
 31
0.0
 11
9.3931745808
 21
9.24578305
 31
0.0
 11
9.392009674
 21
9.2443110957
 31
0.0
 11
9.390752895
 21
9.2427226705
 31
0.0
 11
9.3879650696
 21
9.2391977153
 31
0.0
 11
9.3848138023
 21
9.2352108003
 31
0.0
 11
9.3813017909
 21
9.2307645412
 31
0.0
 11
9.377431733
 21
9.2258615538
 31
0.0
 11
9.3732066613
 21
9.2205047701
 31
0.0
 11
9.3686308298
 21
9.2146982761
 31
0.0
 11
9.3637087707
 21
9.2084464202
 31
0.0
 11
9.3584450163
 21
9.2017535511
 31
0.0
 11
9.3528440988
 21
9.1946240174
 31
0.0
 11
9.3406489156
 21
9.1790723597
 31
0.0
 11
9.327162052
 21
9.1618281707
 31
0.0
 11
9.3124280495
 21
9.1429324683
 31
0.0
 11
9.2964922221
 21
9.1224268514
 31
0.0
 11
9.279400362
 21
9.1003533003
 31
0.0
 11
9.261204052
 21
9.0767584138
 31
0.0
 11
9.2419587221
 21
9.0516918598
 31
0.0
 11
9.2217198721
 21
9.0252033614
 31
0.0
  0
SPLINE
  5
311
100
AcDbEntity
  8
0
100
AcDbSpline
 62
9
  6
CONTINUOUS
 70
0
 71
3
 72
15
 73
11
 74
9
 42
0.0000001
 43
0.0000001
 44
0.0000000001
 12
-0.0000025282
 22
0.015712366
 32
0.0
 13
0.0157123658
 23
-0.0000034251
 33
0.0
 40
0.0
 40
0.0
 40
0.0
 40
0.0
 40
0.1249239512
 40
0.2499533169
 40
0.3749583969
 40
0.5000047678
 40
0.6250494278
 40
0.7500523964
 40
0.8750784375
 40
1.0
 40
1.0
 40
1.0
 40
1.0
 10
7.8182217739
 20
8.7567816107
 30
0.0
 10
7.8182216686
 20
8.7574358944
 30
0.0
 10
7.8183517393
 20
8.7587486643
 30
0.0
 10
7.8189284164
 20
8.7606386683
 30
0.0
 10
7.819864904
 20
8.7623801799
 30
0.0
 10
7.8211233129
 20
8.7639052535
 30
0.0
 10
7.8226555685
 20
8.7651547984
 30
0.0
 10
7.8244014494
 20
8.7660826718
 30
0.0
 10
7.8262930376
 20
8.7666531472
 30
0.0
 10
7.8276057012
 20
8.7667817534
 30
0.0
 10
7.8282599723
 20
8.7667816107
 30
0.0
 11
7.8182217739
 21
8.7567816107
 31
0.0
 11
7.8184152187
 21
8.7587349061
 31
0.0
 11
7.8189883977
 21
8.7606139362
 31
0.0
 11
7.8199184276
 21
8.7623439171
 31
0.0
 11
7.8211689668
 21
8.7638593346
 31
0.0
 11
7.8226913685
 21
8.7651013191
 31
0.0
 11
7.8244257236
 21
8.7660230954
 31
0.0
 11
7.8263065012
 21
8.7665903333
 31
0.0
 11
7.8282599723
 21
8.7667816107
 31
0.0
  0
LINE
  5
312
100
AcDbEntity
  8
0
100
AcDbLine
 62
9
  6
CONTINUOUS
 10
3.7149052152
 20
7.4792816107
 11
3.5462385485
 21
7.3126149441
  0
LINE
  5
313
100
AcDbEntity
  8
0
100
AcDbLine
 62
9
  6
CONTINUOUS
 10
3.6849052152
 20
7.5092816107
 11
3.5182385485
 21
7.3406149441
  0
LINE
  5
314
100
AcDbEntity
  8
0
100
AcDbLine
 62
9
  6
CONTINUOUS
 10
3.5462385485
 20
7.3126149441
 11
3.3649052533
 21
7.1292816107
  0
LINE
  5
315
100
AcDbEntity
  8
0
100
AcDbLine
 62
9
  6
CONTINUOUS
 10
3.5182385485
 20
7.3406149441
 11
3.3349052152
 21
7.1592816488
  0
SPLINE
  5
316
100
AcDbEntity
  8
0
100
AcDbSpline
 62
9
  6
CONTINUOUS
 70
0
 71
3
 72
15
 73
11
 74
9
 42
0.0000001
 43
0.0000001
 44
0.0000000001
 12
-0.0420668306
 22
0.0054219899
 32
0.0
 13
-0.0054219898
 23
0.0420668306
 33
0.0
 40
0.0
 40
0.0
 40
0.0
 40
0.0
 40
0.1219177984
 40
0.246603357
 40
0.3728991288
 40
0.5000000002
 40
0.6271008715
 40
0.7533966432
 40
0.8780822016
 40
1.0
 40
1.0
 40
1.0
 40
1.0
 10
3.5462385485
 20
7.3126149773
 30
0.0
 10
3.5445289834
 20
7.312835323
 30
0.0
 10
3.5411053417
 20
7.3135940701
 30
0.0
 10
3.5361957451
 20
7.3155765666
 30
0.0
 10
3.5316131291
 20
7.3183740725
 30
0.0
 10
3.5275031155
 20
7.321879511
 30
0.0
 10
3.5239976771
 20
7.3259895246
 30
0.0
 10
3.5212001712
 20
7.3305721406
 30
0.0
 10
3.5192176748
 20
7.3354817372
 30
0.0
 10
3.5184589277
 20
7.338905379
 30
0.0
 10
3.518238582
 20
7.3406149441
 30
0.0
 11
3.5462385485
 21
7.3126149773
 31
0.0
 11
3.5411869945
 21
7.3137205486
 31
0.0
 11
3.5362816959
 21
7.3156970179
 31
0.0
 11
3.5317059151
 21
7.318482275
 31
0.0
 11
3.5276040913
 21
7.3219804867
 31
0.0
 11
3.5241058796
 21
7.3260823106
 31
0.0
 11
3.5213206225
 21
7.3306580915
 31
0.0
 11
3.5193441533
 21
7.33556339
 31
0.0
 11
3.518238582
 21
7.3406149441
 31
0.0
  0
SPLINE
  5
317
100
AcDbEntity
  8
0
100
AcDbSpline
 62
9
  6
CONTINUOUS
 70
0
 71
3
 72
19
 73
15
 74
13
 42
0.0000001
 43
0.0000001
 44
0.0000000001
 12
-0.0614692893
 22
0.0010297091
 32
0.0
 13
0.0
 23
0.0614779133
 33
0.0
 40
0.0
 40
0.0
 40
0.0
 40
0.0
 40
0.1234283194
 40
0.2474796933
 40
0.3096460894
 40
0.3718780943
 40
0.4342009799
 40
0.4966326337
 40
0.6217617074
 40
0.7474943718
 40
0.8106665482
 40
0.8739000066
 40
0.9370580619
 40
1.0
 40
1.0
 40
1.0
 40
1.0
 10
7.4313526033
 20
7.1292868732
 30
0.0
 10
7.4288235863
 20
7.1293292383
 30
0.0
 10
7.4237492375
 20
7.1299262172
 30
0.0
 10
7.4176700009
 20
7.1318894219
 30
0.0
 10
7.4131067127
 20
7.1341639187
 30
0.0
 10
7.4098607965
 20
7.1362018549
 30
0.0
 10
7.4068241771
 20
7.1385491309
 30
0.0
 10
7.40309085
 20
7.1420642138
 30
0.0
 10
7.3990825841
 20
7.1471337921
 30
0.0
 10
7.3961060574
 20
7.1528872653
 30
0.0
 10
7.3944201962
 20
7.157778593
 30
0.0
 10
7.3935061565
 20
7.1615604163
 30
0.0
 10
7.3929519474
 20
7.1654060014
 30
0.0
 10
7.3928264669
 20
7.1679917644
 30
0.0
 10
7.3928264669
 20
7.1692816107
 30
0.0
 11
7.4313526033
 21
7.1292868732
 31
0.0
 11
7.4238156456
 21
7.1301665124
 31
0.0
 11
7.4165596266
 21
7.1325143763
 31
0.0
 11
7.4131384655
 21
7.1342179822
 31
0.0
 11
7.4098979463
 21
7.1362518205
 31
0.0
 11
7.4068664028
 21
7.1385948934
 31
0.0
 11
7.4040721683
 21
7.1412262021
 31
0.0
 11
7.3992972468
 21
7.1472575671
 31
0.0
 11
7.3957467468
 21
7.1541236778
 31
0.0
 11
7.394479468
 21
7.1577947922
 31
0.0
 11
7.3935657313
 21
7.161573342
 31
0.0
 11
7.3930124323
 21
7.165416543
 31
0.0
 11
7.3928264669
 21
7.1692816107
 31
0.0
  0
LINE
  5
318
100
AcDbEntity
  8
0
100
AcDbLine
 62
9
  6
CONTINUOUS
 10
3.6849052152
 20
8.8742816107
 11
3.5182385485
 21
9.0429482774
  0
LINE
  5
319
100
AcDbEntity
  8
0
100
AcDbLine
 62
9
  6
CONTINUOUS
 10
3.7149052152
 20
8.9042816107
 11
3.5462385485
 21
9.0709482774
  0
LINE
  5
31A
100
AcDbEntity
  8
0
100
AcDbLine
 62
9
  6
CONTINUOUS
 10
3.5182385485
 20
9.0429482774
 11
3.3349052152
 21
9.2242815727
  0
LINE
  5
31B
100
AcDbEntity
  8
0
100
AcDbLine
 62
9
  6
CONTINUOUS
 10
3.5462385485
 20
9.0709482774
 11
3.3649052533
 21
9.2542816108
  0
SPLINE
  5
31C
100
AcDbEntity
  8
0
100
AcDbSpline
 62
9
  6
CONTINUOUS
 70
0
 71
3
 72
15
 73
11
 74
9
 42
0.0000001
 43
0.0000001
 44
0.0000000001
 12
0.0054219899
 22
0.0420668306
 32
0.0
 13
0.0420668306
 23
0.0054219898
 33
0.0
 40
0.0
 40
0.0
 40
0.0
 40
0.0
 40
0.1219177984
 40
0.246603357
 40
0.3728991288
 40
0.5000000002
 40
0.6271008715
 40
0.7533966432
 40
0.8780822016
 40
1.0
 40
1.0
 40
1.0
 40
1.0
 10
3.5182385817
 20
9.0429482774
 30
0.0
 10
3.5184589274
 20
9.0446578425
 30
0.0
 10
3.5192176746
 20
9.0480814843
 30
0.0
 10
3.521200171
 20
9.0529910808
 30
0.0
 10
3.5239976769
 20
9.0575736969
 30
0.0
 10
3.5275031155
 20
9.0616837104
 30
0.0
 10
3.531613129
 20
9.0651891489
 30
0.0
 10
3.5361957451
 20
9.0679866547
 30
0.0
 10
3.5411053417
 20
9.0699691511
 30
0.0
 10
3.5445289834
 20
9.0707278982
 30
0.0
 10
3.5462385485
 20
9.0709482439
 30
0.0
 11
3.5182385817
 21
9.0429482774
 31
0.0
 11
3.519344153
 21
9.0479998315
 31
0.0
 11
3.5213206223
 21
9.05290513
 31
0.0
 11
3.5241058795
 21
9.0574809108
 31
0.0
 11
3.5276040912
 21
9.0615827347
 31
0.0
 11
3.5317059151
 21
9.0650809463
 31
0.0
 11
3.5362816959
 21
9.0678662034
 31
0.0
 11
3.5411869945
 21
9.0698426726
 31
0.0
 11
3.5462385485
 21
9.0709482439
 31
0.0
  0
LINE
  5
31D
100
AcDbEntity
  8
0
100
AcDbLine
 62
9
  6
CONTINUOUS
 10
5.0799052152
 20
8.9042816107
 11
5.2485718819
 21
9.0709482774
  0
LINE
  5
31E
100
AcDbEntity
  8
0
100
AcDbLine
 62
9
  6
CONTINUOUS
 10
5.1099052152
 20
8.8742816107
 11
5.2765718819
 21
9.0429482774
  0
LINE
  5
31F
100
AcDbEntity
  8
0
100
AcDbLine
 62
9
  6
CONTINUOUS
 10
5.2485718819
 20
9.0709482774
 11
5.4299051771
 21
9.2542816108
  0
SPLINE
  5
320
100
AcDbEntity
  8
0
100
AcDbSpline
 62
9
  6
CONTINUOUS
 70
0
 71
3
 72
23
 73
19
 74
17
 42
0.0000001
 43
0.0000001
 44
0.0000000001
 12
-0.0348174035
 22
0.0
 32
0.0
 13
0.0
 23
-0.0348174035
 33
0.0
 40
0.0
 40
0.0
 40
0.0
 40
0.0
 40
0.0176441262
 40
0.0355208266
 40
0.072628781
 40
0.1126254087
 40
0.156447552
 40
0.2046941165
 40
0.2576710403
 40
0.3154881746
 40
0.3780331407
 40
0.4450214582
 40
0.5160999257
 40
0.5908442337
 40
0.6687571562
 40
0.8318660778
 40
0.9157120634
 40
1.0
 40
1.0
 40
1.0
 40
1.0
 10
1.8774052152
 20
8.5567816107
 30
0.0
 10
1.877200441
 20
8.5567816107
 30
0.0
 10
1.876787769
 20
8.5567568908
 30
0.0
 10
1.8759564004
 20
8.5566086057
 30
0.0
 10
1.8749112304
 20
8.556230093
 30
0.0
 10
1.8737057885
 20
8.5554966705
 30
0.0
 10
1.8725443028
 20
8.5544873326
 30
0.0
 10
1.8714348519
 20
8.5532156091
 30
0.0
 10
1.8703842882
 20
8.5516939706
 30
0.0
 10
1.8694024418
 20
8.549935193
 30
0.0
 10
1.8684971586
 20
8.5479560936
 30
0.0
 10
1.8676758649
 20
8.5457757735
 30
0.0
 10
1.8669475949
 20
8.5434143081
 30
0.0
 10
1.8663195924
 20
8.5408935033
 30
0.0
 10
1.8656116755
 20
8.5372966166
 30
0.0
 10
1.8651461155
 20
8.5335491164
 30
0.0
 10
1.8649090432
 20
8.5297114722
 30
0.0
 10
1.8648686249
 20
8.5277598398
 30
0.0
 10
1.8648686249
 20
8.5267816107
 30
0.0
 11
1.8774052152
 21
8.5567816107
 31
0.0
 11
1.8767919691
 21
8.5567452581
 31
0.0
 11
1.8761791111
 21
8.5566365744
 31
0.0
 11
1.8749615117
 21
8.5562044604
 31
0.0
 11
1.8737663212
 21
8.555489761
 31
0.0
 11
1.8726071139
 21
8.5544976811
 31
0.0
 11
1.8714950271
 21
8.5532386901
 31
0.0
 11
1.8704401057
 21
8.5517256168
 31
0.0
 11
1.8694523367
 21
8.5499715778
 31
0.0
 11
1.868540919
 21
8.5479938287
 31
0.0
 11
1.8677144447
 21
8.5458128106
 31
0.0
 11
1.8669814558
 21
8.5434490842
 31
0.0
 11
1.8663491631
 21
8.5409246623
 31
0.0
 11
1.8658230479
 21
8.5382634439
 31
0.0
 11
1.8651098082
 21
8.5326293813
 31
0.0
 11
1.8649292336
 21
8.5297156719
 31
0.0
 11
1.8648686249
 21
8.5267816107
 31
0.0
  0
LINE
  5
321
100
AcDbEntity
  8
0
100
AcDbLine
 62
9
  6
CONTINUOUS
 10
5.2765718819
 20
9.0429482774
 11
5.4599052152
 21
9.2242815727
  0
SPLINE
  5
322
100
AcDbEntity
  8
0
100
AcDbSpline
 62
9
  6
CONTINUOUS
 70
0
 71
3
 72
15
 73
11
 74
9
 42
0.0000001
 43
0.0000001
 44
0.0000000001
 12
0.0420668306
 22
-0.0054219899
 32
0.0
 13
0.0054219898
 23
-0.0420668306
 33
0.0
 40
0.0
 40
0.0
 40
0.0
 40
0.0
 40
0.1219177984
 40
0.246603357
 40
0.3728991288
 40
0.5000000002
 40
0.6271008715
 40
0.7533966432
 40
0.8780822016
 40
1.0
 40
1.0
 40
1.0
 40
1.0
 10
5.2485718819
 20
9.0709482442
 30
0.0
 10
5.250281447
 20
9.0707278985
 30
0.0
 10
5.2537050887
 20
9.0699691514
 30
0.0
 10
5.2586146853
 20
9.0679866549
 30
0.0
 10
5.2631973013
 20
9.065189149
 30
0.0
 10
5.2673073148
 20
9.0616837105
 30
0.0
 10
5.2708127533
 20
9.0575736969
 30
0.0
 10
5.2736102592
 20
9.0529910809
 30
0.0
 10
5.2755927555
 20
9.0480814843
 30
0.0
 10
5.2763515027
 20
9.0446578425
 30
0.0
 10
5.2765718484
 20
9.0429482774
 30
0.0
 11
5.2485718819
 21
9.0709482442
 31
0.0
 11
5.2536234359
 21
9.0698426729
 31
0.0
 11
5.2585287345
 21
9.0678662036
 31
0.0
 11
5.2631045153
 21
9.0650809465
 31
0.0
 11
5.2672063391
 21
9.0615827348
 31
0.0
 11
5.2707045508
 21
9.0574809109
 31
0.0
 11
5.2734898079
 21
9.05290513
 31
0.0
 11
5.2754662771
 21
9.0479998315
 31
0.0
 11
5.2765718484
 21
9.0429482774
 31
0.0
  0
SPLINE
  5
323
100
AcDbEntity
  8
0
100
AcDbSpline
 62
9
  6
CONTINUOUS
 70
0
 71
3
 72
14
 73
10
 74
8
 42
0.0000001
 43
0.0000001
 44
0.0000000001
 12
-0.0124715786
 22
0.01906665
 32
0.0
 13
0.0044393413
 23
0.0223465806
 33
0.0
 40
0.0
 40
0.0
 40
0.0
 40
0.0
 40
0.1210195579
 40
0.2425294641
 40
0.3649875191
 40
0.4888056523
 40
0.6141866822
 40
0.7412165803
 40
1.0
 40
1.0
 40
1.0
 40
1.0
 10
7.5228098797
 20
7.0262197458
 30
0.0
 10
7.5223067781
 20
7.0269888917
 30
0.0
 10
7.521377089
 20
7.0285833491
 30
0.0
 10
7.5202321313
 20
7.0311128061
 30
0.0
 10
7.5193466494
 20
7.0337671682
 30
0.0
 10
7.5187302073
 20
7.0365262803
 30
0.0
 10
7.5183808174
 20
7.0393667619
 30
0.0
 10
7.518269959
 20
7.0432513321
 30
0.0
 10
7.5185910391
 20
7.0461846692
 30
0.0
 10
7.5189739818
 20
7.0481123107
 30
0.0
 11
7.5228098797
 21
7.0262197458
 31
0.0
 11
7.521421018
 21
7.0286016217
 31
0.0
 11
7.5202792467
 21
7.0311235968
 31
0.0
 11
7.5193955293
 21
7.0337699368
 31
0.0
 11
7.5187777078
 21
7.0365224332
 31
0.0
 11
7.5184266803
 21
7.0393573734
 31
0.0
 11
7.5183424088
 21
7.0422503027
 31
0.0
 11
7.5189739818
 21
7.0481123107
 31
0.0
  0
SPLINE
  5
324
100
AcDbEntity
  8
0
100
AcDbSpline
 62
9
  6
CONTINUOUS
 70
0
 71
3
 72
26
 73
22
 74
20
 42
0.0000001
 43
0.0000001
 44
0.0000000001
 12
0.031996127
 22
0.0
 32
0.0
 13
-0.0
 23
-0.031996127
 33
0.0
 40
0.0
 40
0.0
 40
0.0
 40
0.0
 40
0.0109647527
 40
0.0223806413
 40
0.0346186753
 40
0.0479729819
 40
0.0626632842
 40
0.078848397
 40
0.096640594
 40
0.1161063528
 40
0.1372758836
 40
0.1601593771
 40
0.2110339664
 40
0.2685999175
 40
0.3325017947
 40
0.4022334123
 40
0.4772500066
 40
0.5569449873
 40
0.6406427198
 40
0.817184728
 40
1.0
 40
1.0
 40
1.0
 40
1.0
 10
3.3329847244
 20
8.5567816107
 30
0.0
 10
3.3331016676
 20
8.5567816107
 30
0.0
 10
3.3333410322
 20
8.5567560761
 30
0.0
 10
3.3336949047
 20
8.5566435455
 30
0.0
 10
3.334045563
 20
8.5564584708
 30
0.0
 10
3.3343922108
 20
8.5562024226
 30
0.0
 10
3.3347345277
 20
8.5558763941
 30
0.0
 10
3.3350720137
 20
8.5554810301
 30
0.0
 10
3.3354038654
 20
8.5550168934
 30
0.0
 10
3.3357295157
 20
8.5544850945
 30
0.0
 10
3.336048505
 20
8.5538870589
 30
0.0
 10
3.3364793148
 20
8.5529704662
 30
0.0
 10
3.3369898046
 20
8.5516645246
 30
0.0
 10
3.3375451098
 20
8.5499113291
 30
0.0
 10
3.3380579434
 20
8.5479368357
 30
0.0
 10
3.3385237694
 20
8.5457602127
 30
0.0
 10
3.3389371084
 20
8.5434019023
 30
0.0
 10
3.3392937146
 20
8.540883895
 30
0.0
 10
3.3396969241
 20
8.5372804143
 30
0.0
 10
3.3400291626
 20
8.5325646005
 30
0.0
 10
3.3401181275
 20
8.5287314043
 30
0.0
 10
3.3401181275
 20
8.5267816107
 30
0.0
 11
3.3329847244
 21
8.5567816107
 31
0.0
 11
3.3333336655
 21
8.5567452581
 31
0.0
 11
3.3336823858
 21
8.5566365744
 31
0.0
 11
3.3340298962
 21
8.5564561213
 31
0.0
 11
3.3343752079
 21
8.5562044603
 31
0.0
 11
3.3347173319
 21
8.5558821531
 31
0.0
 11
3.3350552793
 21
8.555489761
 31
0.0
 11
3.3353880709
 21
8.5550278833
 31
0.0
 11
3.3357148759
 21
8.5544976811
 31
0.0
 11
3.3360349772
 21
8.5539007484
 31
0.0
 11
3.3363476607
 21
8.5532386901
 31
0.0
 11
3.336947918
 21
8.5517256168
 31
0.0
 11
3.3375099651
 21
8.5499715778
 31
0.0
 11
3.3380285678
 21
8.5479938286
 31
0.0
 11
3.3384988372
 21
8.5458128106
 31
0.0
 11
3.3389159128
 21
8.5434490842
 31
0.0
 11
3.3392756915
 21
8.5409246623
 31
0.0
 11
3.3395750545
 21
8.5382634439
 31
0.0
 11
3.3399808926
 21
8.5326293813
 31
0.0
 11
3.3401181275
 21
8.5267816107
 31
0.0
  0
SPLINE
  5
325
100
AcDbEntity
  8
0
100
AcDbSpline
 62
9
  6
CONTINUOUS
 70
0
 71
3
 72
29
 73
25
 74
23
 42
0.0000001
 43
0.0000001
 44
0.0000000001
 12
0.0435394112
 22
5.2347685821
 32
0.0
 13
0.0000311521
 23
5.2349496452
 33
0.0
 40
0.0
 40
0.0
 40
0.0
 40
0.0
 40
0.0625228276
 40
0.12505973
 40
0.1563496213
 40
0.1876617459
 40
0.2503538054
 40
0.281731073
 40
0.313127405
 40
0.3445386925
 40
0.3759535731
 40
0.4387440305
 40
0.5014073876
 40
0.5638918885
 40
0.6261697733
 40
0.6572399105
 40
0.6882721679
 40
0.7192769003
 40
0.7502754357
 40
0.7812907965
 40
0.8123455515
 40
0.8746316448
 40
0.937213894
 40
1.0
 40
1.0
 40
1.0
 40
1.0
 10
7.7880183984
 20
2.3320392112
 30
0.0
 10
7.7889258008
 20
2.4411367225
 30
0.0
 10
7.7907943
 20
2.6593558521
 30
0.0
 10
7.7930769516
 20
2.9321737818
 30
0.0
 10
7.7947595037
 20
3.1505326257
 30
0.0
 10
7.7963112326
 20
3.3691631799
 30
0.0
 10
7.7975967276
 20
3.5879481183
 30
0.0
 10
7.7984770193
 20
3.8068818795
 30
0.0
 10
7.7988989567
 20
3.9712324523
 30
0.0
 10
7.7990516636
 20
4.1356491406
 30
0.0
 10
7.7989009814
 20
4.354848067
 30
0.0
 10
7.7980509716
 20
4.6285805185
 30
0.0
 10
7.7959748268
 20
4.9565236543
 30
0.0
 10
7.7929719361
 20
5.2835650347
 30
0.0
 10
7.7898021205
 20
5.5554719142
 30
0.0
 10
7.7869816271
 20
5.7724950987
 30
0.0
 10
7.7847536785
 20
5.9349502089
 30
0.0
 10
7.7824441948
 20
6.0972792131
 30
0.0
 10
7.7801196238
 20
6.2595785106
 30
0.0
 10
7.77784251
 20
6.4219657909
 30
0.0
 10
7.7749527804
 20
6.6389460508
 30
0.0
 10
7.7717697625
 20
6.9110110125
 30
0.0
 10
7.7691072101
 20
7.2384549079
 30
0.0
 10
7.768411387
 20
7.4572209097
 30
0.0
 10
7.768412039
 20
7.5667816107
 30
0.0
 11
7.7880183984
 21
2.3320392112
 31
0.0
 11
7.7907834248
 21
2.6593313861
 31
0.0
 11
7.7934850389
 21
2.9866977736
 31
0.0
 11
7.7947426148
 21
3.1504939515
 31
0.0
 11
7.795900365
 21
3.3144072581
 31
0.0
 11
7.7977825653
 21
3.6425916357
 31
0.0
 11
7.7984371064
 21
3.8068487471
 31
0.0
 11
7.7988540165
 21
3.9712064356
 31
0.0
 11
7.7990073665
 21
4.1356428723
 31
0.0
 11
7.7988944187
 21
4.3000981519
 31
0.0
 11
7.7978734008
 21
4.6288014485
 31
0.0
 11
7.7958167589
 21
4.9568345207
 31
0.0
 11
7.7928334543
 21
5.2839241317
 31
0.0
 11
7.7890702927
 21
5.6099240032
 31
0.0
 11
7.7869612986
 21
5.7725609333
 31
0.0
 11
7.7847391298
 21
5.9349980393
 31
0.0
 11
7.7824414564
 21
6.0972899881
 31
0.0
 11
7.7801281536
 21
6.2595492705
 31
0.0
 11
7.7778625287
 21
6.4218973147
 31
0.0
 11
7.7757076915
 21
6.5844531115
 31
0.0
 11
7.7719692273
 21
6.9104962416
 31
0.0
 11
7.7693799671
 21
7.2381009327
 31
0.0
 11
7.768412039
 21
7.5667816107
 31
0.0
  0
SPLINE
  5
326
100
AcDbEntity
  8
0
100
AcDbSpline
 62
9
  6
CONTINUOUS
 70
0
 71
3
 72
31
 73
27
 74
25
 42
0.0000001
 43
0.0000001
 44
0.0000000001
 12
0.0436404186
 22
5.2394939633
 32
0.0
 13
0.0000318576
 23
5.2396757034
 33
0.0
 40
0.0
 40
0.0
 40
0.0
 40
0.0
 40
0.0625228858
 40
0.1250595279
 40
0.1563492534
 40
0.1876612257
 40
0.2503529656
 40
0.2817300216
 40
0.3131260787
 40
0.3445371278
 40
0.3759519667
 40
0.438743427
 40
0.4700961214
 40
0.5014095242
 40
0.5326785983
 40
0.5638982958
 40
0.5950647258
 40
0.6261811275
 40
0.6572534227
 40
0.6882875264
 40
0.750291321
 40
0.7813051118
 40
0.8123572771
 40
0.8746373487
 40
0.9372149066
 40
1.0
 40
1.0
 40
1.0
 40
1.0
 10
7.8378281333
 20
2.3273133032
 30
0.0
 10
7.8387376416
 20
2.4365093973
 30
0.0
 10
7.8406085692
 20
2.6549251732
 30
0.0
 10
7.8428906063
 20
2.9279887806
 30
0.0
 10
7.844570986
 20
3.146543775
 30
0.0
 10
7.8461195157
 20
3.3653706258
 30
0.0
 10
7.847401563
 20
3.5843519125
 30
0.0
 10
7.8482810612
 20
3.803481922
 30
0.0
 10
7.8487045663
 20
3.9679795981
 30
0.0
 10
7.8488612424
 20
4.1325437466
 30
0.0
 10
7.8487187824
 20
4.3519418251
 30
0.0
 10
7.8480509213
 20
4.571237394
 30
0.0
 10
7.8468585342
 20
4.7903531878
 30
0.0
 10
7.8457173512
 20
4.9544125605
 30
0.0
 10
7.8443455329
 20
5.1182378583
 30
0.0
 10
7.842759359
 20
5.2818045077
 30
0.0
 10
7.8409740507
 20
5.445102429
 30
0.0
 10
7.8390161337
 20
5.6081408963
 30
0.0
 10
7.8369139865
 20
5.7709464242
 30
0.0
 10
7.8339553117
 20
5.9876919709
 30
0.0
 10
7.8308206472
 20
6.2043328443
 30
0.0
 10
7.8277719947
 20
6.4210064947
 30
0.0
 10
7.824861331
 20
6.6381646118
 30
0.0
 10
7.8216416869
 20
6.9104515493
 30
0.0
 10
7.8189334469
 20
7.2381702262
 30
0.0
 10
7.8182211072
 20
7.457123768
 30
0.0
 10
7.8182217739
 20
7.5667816108
 30
0.0
 11
7.8378281333
 21
2.3273133032
 31
0.0
 11
7.8405969689
 21
2.6549012474
 31
0.0
 11
7.843298012
 21
2.9825618391
 31
0.0
 11
7.8445539696
 21
3.1465050429
 31
0.0
 11
7.845709429
 21
3.3105655545
 31
0.0
 11
7.847587425
 21
3.6390445722
 31
0.0
 11
7.8482415091
 21
3.8034488689
 31
0.0
 11
7.8486600256
 21
3.9679534941
 31
0.0
 11
7.8488173116
 21
4.1325371299
 31
0.0
 11
7.8487105242
 21
4.2971406632
 31
0.0
 11
7.8477084185
 21
4.6261460262
 31
0.0
 11
7.8468166816
 21
4.7904215571
 31
0.0
 11
7.8456780197
 21
4.9544896818
 31
0.0
 11
7.8443086395
 21
5.1183237667
 31
0.0
 11
7.8427247518
 21
5.2818971891
 31
0.0
 11
7.8409437896
 21
5.4451894632
 31
0.0
 11
7.8389906571
 21
5.6082176181
 31
0.0
 11
7.8368930809
 21
5.7710128552
 31
0.0
 11
7.8346787987
 21
5.9336064177
 31
0.0
 11
7.8300663649
 21
6.2584534496
 31
0.0
 11
7.8277909813
 21
6.4209397248
 31
0.0
 11
7.8256207909
 21
6.5836285269
 31
0.0
 11
7.821840989
 21
6.9099340141
 31
0.0
 11
7.8192097885
 21
7.237809566
 31
0.0
 11
7.8182217739
 21
7.5667816108
 31
0.0
  0
SPLINE
  5
327
100
AcDbEntity
  8
0
100
AcDbSpline
 62
9
  6
CONTINUOUS
 70
0
 71
3
 72
24
 73
20
 74
18
 42
0.0000001
 43
0.0000001
 44
0.0000000001
 12
0.0339322121
 22
-0.0371257737
 32
0.0
 13
0.0502945985
 23
-0.0004140695
 33
0.0
 40
0.0
 40
0.0
 40
0.0
 40
0.0
 40
0.0066675451
 40
0.0150687192
 40
0.025325621
 40
0.0374901918
 40
0.0515810073
 40
0.0675992917
 40
0.0855365086
 40
0.1053782662
 40
0.1506563976
 40
0.2030530544
 40
0.2621183435
 40
0.3273900023
 40
0.3983735341
 40
0.4744683531
 40
0.6394709383
 40
0.816969734
 40
1.0
 40
1.0
 40
1.0
 40
1.0
 10
7.7880182851
 20
2.3320392107
 30
0.0
 10
7.7880937
 20
2.3319566981
 30
0.0
 10
7.7882909246
 20
2.3317951891
 30
0.0
 10
7.788657698
 20
2.3315799476
 30
0.0
 10
7.7891282455
 20
2.3313646114
 30
0.0
 10
7.789701862
 20
2.331149957
 30
0.0
 10
7.7903779404
 20
2.3309364461
 30
0.0
 10
7.7911553233
 20
2.3307247964
 30
0.0
 10
7.7920327907
 20
2.330515604
 30
0.0
 10
7.7933954037
 20
2.3302280987
 30
0.0
 10
7.7953361916
 20
2.3298858956
 30
0.0
 10
7.7979368969
 20
2.3295076427
 30
0.0
 10
7.8008784501
 20
2.3291497631
 30
0.0
 10
7.8041361469
 20
2.3288156207
 30
0.0
 10
7.8076831637
 20
2.3285086983
 30
0.0
 10
7.8129016255
 20
2.3281284328
 30
0.0
 10
7.81990979
 20
2.327746089
 30
0.0
 10
7.8287157353
 20
2.3274414331
 30
0.0
 10
7.8347596554
 20
2.3273385656
 30
0.0
 10
7.8378281333
 20
2.3273133032
 30
0.0
 11
7.7880182851
 21
2.3320392107
 31
0.0
 11
7.7882723468
 21
2.3318203176
 31
0.0
 11
7.7886337884
 21
2.3316014415
 31
0.0
 11
7.7891012055
 21
2.3313831347
 31
0.0
 11
7.7896731934
 21
2.3311659495
 31
0.0
 11
7.7903483475
 21
2.3309504382
 31
0.0
 11
7.7911252634
 21
2.3307371531
 31
0.0
 11
7.7920025364
 21
2.3305266463
 31
0.0
 11
7.7929787619
 21
2.3303194702
 31
0.0
 11
7.7952202547
 21
2.3299170919
 31
0.0
 11
7.7978275169
 21
2.3295332996
 31
0.0
 11
7.8007761258
 21
2.3291711475
 31
0.0
 11
7.8040416589
 21
2.32883369
 31
0.0
 11
7.8075983988
 21
2.3285238584
 31
0.0
 11
7.811415448
 21
2.3282440927
 31
0.0
 11
7.8197017062
 21
2.327784028
 31
0.0
 11
7.8286237275
 21
2.3274703655
 31
0.0
 11
7.8378281333
 21
2.3273133032
 31
0.0
  0
SPLINE
  5
328
100
AcDbEntity
  8
0
100
AcDbSpline
 62
9
  6
CONTINUOUS
 70
0
 71
3
 72
11
 73
7
 74
5
 42
0.0000001
 43
0.0000001
 44
0.0000000001
 12
-0.0134952375
 22
0.0025622278
 32
0.0
 13
0.0001200665
 23
0.0137357937
 33
0.0
 40
0.0
 40
0.0
 40
0.0
 40
0.0
 40
0.2505019594
 40
0.5006637951
 40
0.7504503566
 40
1.0
 40
1.0
 40
1.0
 40
1.0
 10
7.8459153664
 20
2.3175000113
 30
0.0
 10
7.8447885053
 20
2.317713959
 30
0.0
 10
7.8425915775
 20
2.3185388478
 30
0.0
 10
7.8399292689
 20
2.3208169014
 30
0.0
 10
7.8382027304
 20
2.3238612607
 30
0.0
 10
7.8378181458
 20
2.3261709717
 30
0.0
 10
7.8378281333
 20
2.3273135592
 30
0.0
 11
7.8459153664
 21
2.3175000113
 31
0.0
 11
7.8426954194
 21
2.3187133736
 31
0.0
 11
7.8400836577
 21
2.3209465052
 31
0.0
 11
7.838393787
 21
2.3239326586
 31
0.0
 11
7.8378281333
 21
2.3273135592
 31
0.0
  0
SPLINE
  5
329
100
AcDbEntity
  8
0
100
AcDbSpline
 62
9
  6
CONTINUOUS
 70
0
 71
3
 72
32
 73
28
 74
26
 42
0.0000001
 43
0.0000001
 44
0.0000000001
 12
0.044590092
 22
-0.0085307195
 32
0.0
 13
0.0085609089
 23
0.0445843057
 33
0.0
 40
0.0
 40
0.0
 40
0.0
 40
0.0
 40
0.0005369317
 40
0.0009693799
 40
0.0015331909
 40
0.0022345062
 40
0.0030763032
 40
0.0051866655
 40
0.0111280302
 40
0.0193658729
 40
0.0298890525
 40
0.0426818748
 40
0.0577268762
 40
0.0750057644
 40
0.0944932797
 40
0.1161377601
 40
0.1398808228
 40
0.1656639689
 40
0.2231161038
 40
0.2880250587
 40
0.3598905056
 40
0.4380890105
 40
0.5219662293
 40
0.6108677075
 40
0.7040823038
 40
0.8006722356
 40
1.0
 40
1.0
 40
1.0
 40
1.0
 10
7.8365690475
 20
2.2731030808
 30
0.0
 10
7.8365770281
 20
2.273101554
 30
0.0
 10
7.8365916509
 20
2.2731110123
 30
0.0
 10
7.8366060761
 20
2.2731282774
 30
0.0
 10
7.8366205344
 20
2.273149866
 30
0.0
 10
7.836635935
 20
2.2731777051
 30
0.0
 10
7.8366602076
 20
2.2732274448
 30
0.0
 10
7.8367117831
 20
2.2733518143
 30
0.0
 10
7.8367912501
 20
2.2735853529
 30
0.0
 10
7.8368991159
 20
2.2739432704
 30
0.0
 10
7.837026475
 20
2.2744035203
 30
0.0
 10
7.8371730984
 20
2.27496522
 30
0.0
 10
7.837338517
 20
2.2756276381
 30
0.0
 10
7.8375224158
 20
2.2763898305
 30
0.0
 10
7.8377243559
 20
2.2772503866
 30
0.0
 10
7.837943893
 20
2.2782072783
 30
0.0
 10
7.8381804638
 20
2.2792579989
 30
0.0
 10
7.8385306591
 20
2.2808385665
 30
0.0
 10
7.839005818
 20
2.2830295006
 30
0.0
 10
7.8396161827
 20
2.2859046503
 30
0.0
 10
7.8402803655
 20
2.2890893027
 30
0.0
 10
7.8409929411
 20
2.2925570666
 30
0.0
 10
7.8417479757
 20
2.2962792844
 30
0.0
 10
7.8425392956
 20
2.3002259961
 30
0.0
 10
7.843359924
 20
2.3043630315
 30
0.0
 10
7.8444949319
 20
2.3101413269
 30
0.0
 10
7.8453465575
 20
2.3145377147
 30
0.0
 10
7.8459153664
 20
2.3175000113
 30
0.0
 11
7.8365690475
 21
2.2731030808
 31
0.0
 11
7.8365915389
 21
2.273112479
 31
0.0
 11
7.8366046728
 21
2.2731270715
 31
0.0
 11
7.8366190598
 21
2.2731482419
 31
0.0
 11
7.8366346959
 21
2.2731759768
 31
0.0
 11
7.8366515769
 21
2.2732102629
 31
0.0
 11
7.8366890569
 21
2.2732984355
 31
0.0
 11
7.8367787729
 21
2.2735528086
 31
0.0
 11
7.8368879417
 21
2.2739105085
 31
0.0
 11
7.8370162976
 21
2.2743706822
 31
0.0
 11
7.8371635746
 21
2.2749324769
 31
0.0
 11
7.8373295067
 21
2.2755950396
 31
0.0
 11
7.8375138282
 21
2.2763575174
 31
0.0
 11
7.8377162226
 21
2.277218765
 31
0.0
 11
7.837936172
 21
2.2781764654
 31
0.0
 11
7.838173108
 21
2.2792280085
 31
0.0
 11
7.8384264622
 21
2.2803707844
 31
0.0
 11
7.8389801511
 21
2.2829195946
 31
0.0
 11
7.8395926912
 21
2.2858020157
 31
0.0
 11
7.8402592965
 21
2.2889957941
 31
0.0
 11
7.840974226
 21
2.2924731791
 31
0.0
 11
7.8417315001
 21
2.2962050444
 31
0.0
 11
7.8425251389
 21
2.3001622638
 31
0.0
 11
7.8433487195
 21
2.3043131786
 31
0.0
 11
7.8441940447
 21
2.3086159943
 31
0.0
 11
7.8459153664
 21
2.3175000113
 31
0.0
  0
LINE
  5
32A
100
AcDbEntity
  8
0
100
AcDbLine
 62
9
  6
CONTINUOUS
 10
5.1099052152
 20
7.5092816107
 11
5.2765718819
 21
7.3406149441
  0
LINE
  5
32B
100
AcDbEntity
  8
0
100
AcDbLine
 62
9
  6
CONTINUOUS
 10
5.0799052152
 20
7.4792816107
 11
5.2485718819
 21
7.3126149441
  0
LINE
  5
32C
100
AcDbEntity
  8
0
100
AcDbLine
 62
9
  6
CONTINUOUS
 10
5.2765718819
 20
7.3406149441
 11
5.4599052152
 21
7.1592816488
  0
LINE
  5
32D
100
AcDbEntity
  8
0
100
AcDbLine
 62
9
  6
CONTINUOUS
 10
5.2485718819
 20
7.3126149441
 11
5.4299051771
 21
7.1292816107
  0
SPLINE
  5
32E
100
AcDbEntity
  8
0
100
AcDbSpline
 62
9
  6
CONTINUOUS
 70
0
 71
3
 72
15
 73
11
 74
9
 42
0.0000001
 43
0.0000001
 44
0.0000000001
 12
-0.0054219899
 22
-0.0420668306
 32
0.0
 13
-0.0420668306
 23
-0.0054219898
 33
0.0
 40
0.0
 40
0.0
 40
0.0
 40
0.0
 40
0.1219177984
 40
0.246603357
 40
0.3728991288
 40
0.5000000002
 40
0.6271008715
 40
0.7533966432
 40
0.8780822016
 40
1.0
 40
1.0
 40
1.0
 40
1.0
 10
5.2765718486
 20
7.3406149441
 30
0.0
 10
5.276351503
 20
7.338905379
 30
0.0
 10
5.2755927558
 20
7.3354817372
 30
0.0
 10
5.2736102594
 20
7.3305721407
 30
0.0
 10
5.2708127534
 20
7.3259895246
 30
0.0
 10
5.2673073149
 20
7.3218795111
 30
0.0
 10
5.2631973014
 20
7.3183740726
 30
0.0
 10
5.2586146853
 20
7.3155765668
 30
0.0
 10
5.2537050887
 20
7.3135940704
 30
0.0
 10
5.250281447
 20
7.3128353233
 30
0.0
 10
5.2485718819
 20
7.3126149776
 30
0.0
 11
5.2765718486
 21
7.3406149441
 31
0.0
 11
5.2754662773
 21
7.33556339
 31
0.0
 11
5.2734898081
 21
7.3306580915
 31
0.0
 11
5.2707045509
 21
7.3260823107
 31
0.0
 11
5.2672063392
 21
7.3219804868
 31
0.0
 11
5.2631045153
 21
7.3184822752
 31
0.0
 11
5.2585287345
 21
7.3156970181
 31
0.0
 11
5.2536234359
 21
7.3137205488
 31
0.0
 11
5.2485718819
 21
7.3126149776
 31
0.0
  0
SPLINE
  5
32F
100
AcDbEntity
  8
0
100
AcDbSpline
 62
9
  6
CONTINUOUS
 70
0
 71
3
 72
32
 73
28
 74
26
 42
0.0000001
 43
0.0000001
 44
0.0000000001
 12
-0.0446012282
 22
-0.0084928894
 32
0.0
 13
-0.0085613526
 23
0.0445881371
 33
0.0
 40
0.0
 40
0.0
 40
0.0
 40
0.0
 40
0.0005372379
 40
0.0009698997
 40
0.0015339419
 40
0.0022355009
 40
0.0030775524
 40
0.0051884522
 40
0.0111309922
 40
0.0193701252
 40
0.0298946888
 40
0.0426889675
 40
0.0577354768
 40
0.0750159029
 40
0.0945049576
 40
0.116150946
 40
0.1398954575
 40
0.1656799648
 40
0.2231344474
 40
0.2880450629
 40
0.359911272
 40
0.4381095609
 40
0.5219855574
 40
0.6108847794
 40
0.7040960837
 40
0.8006818887
 40
1.0
 40
1.0
 40
1.0
 40
1.0
 10
8.9582421006
 20
2.2730993043
 30
0.0
 10
8.9582341135
 20
2.2730977834
 30
0.0
 10
8.9582194892
 20
2.2731072537
 30
0.0
 10
8.9582050569
 20
2.2731245301
 30
0.0
 10
8.9581905937
 20
2.2731461306
 30
0.0
 10
8.9581751874
 20
2.2731739824
 30
0.0
 10
8.9581509072
 20
2.2732237409
 30
0.0
 10
8.9580993167
 20
2.2733481489
 30
0.0
 10
8.9580198278
 20
2.27358175
 30
0.0
 10
8.9579119346
 20
2.2739397532
 30
0.0
 10
8.9577845462
 20
2.2744001018
 30
0.0
 10
8.9576378917
 20
2.2749619123
 30
0.0
 10
8.9574724407
 20
2.2756244521
 30
0.0
 10
8.9572885084
 20
2.2763867761
 30
0.0
 10
8.957086534
 20
2.2772474724
 30
0.0
 10
8.956866962
 20
2.2782045113
 30
0.0
 10
8.9566303563
 20
2.2792553845
 30
0.0
 10
8.9562801144
 20
2.2808361623
 30
0.0
 10
8.9558048994
 20
2.2830273617
 30
0.0
 10
8.955194472
 20
2.2859028265
 30
0.0
 10
8.9545302329
 20
2.2890877828
 30
0.0
 10
8.9538176087
 20
2.2925558325
 30
0.0
 10
8.953062534
 20
2.2962783134
 30
0.0
 10
8.9522711829
 20
2.3002252621
 30
0.0
 10
8.9514505322
 20
2.3043625082
 30
0.0
 10
8.9503155072
 20
2.3101410454
 30
0.0
 10
8.9494638748
 20
2.3145376059
 30
0.0
 10
8.948895064
 20
2.3175000136
 30
0.0
 11
8.9582421006
 21
2.2730993043
 31
0.0
 11
8.9582195995
 21
2.2731087207
 31
0.0
 11
8.9582064606
 21
2.273123324
 31
0.0
 11
8.9581920682
 21
2.2731445061
 31
0.0
 11
8.9581764267
 21
2.2731722537
 31
0.0
 11
8.95815954
 21
2.2732065535
 31
0.0
 11
8.9581220483
 21
2.2732947564
 31
0.0
 11
8.958032307
 21
2.2735492015
 31
0.0
 11
8.9579231105
 21
2.2739069873
 31
0.0
 11
8.9577947251
 21
2.27436726
 31
0.0
 11
8.9576474169
 21
2.2749291657
 31
0.0
 11
8.9574814521
 21
2.2755918505
 31
0.0
 11
8.957297097
 21
2.2763544604
 31
0.0
 11
8.957094668
 21
2.2772158486
 31
0.0
 11
8.9568746836
 21
2.2781736967
 31
0.0
 11
8.9566377125
 21
2.2792253929
 31
0.0
 11
8.9563843235
 21
2.280368326
 31
0.0
 11
8.9558305666
 21
2.2829174566
 31
0.0
 11
8.9552179629
 21
2.2858001965
 31
0.0
 11
8.9545513009
 21
2.2889942809
 31
0.0
 11
8.9538363224
 21
2.2924719528
 31
0.0
 11
8.9530790079
 21
2.2962040824
 31
0.0
 11
8.9522853378
 21
2.3001615399
 31
0.0
 11
8.9514617353
 21
2.3043126635
 31
0.0
 11
8.9506163964
 21
2.3086156642
 31
0.0
 11
8.948895064
 21
2.3175000136
 31
0.0
  0
SPLINE
  5
330
100
AcDbEntity
  8
0
100
AcDbSpline
 62
9
  6
CONTINUOUS
 70
0
 71
3
 72
11
 73
7
 74
5
 42
0.0000001
 43
0.0000001
 44
0.0000000001
 12
0.0001200762
 22
-0.0137357941
 32
0.0
 13
-0.0134952362
 23
-0.0025622369
 33
0.0
 40
0.0
 40
0.0
 40
0.0
 40
0.0
 40
0.2495496408
 40
0.4993362028
 40
0.7494980376
 40
1.0
 40
1.0
 40
1.0
 40
1.0
 10
8.9569822971
 20
2.3273135597
 30
0.0
 10
8.9569922854
 20
2.3261709722
 30
0.0
 10
8.9566076996
 20
2.3238612611
 30
0.0
 10
8.9548811617
 20
2.3208169017
 30
0.0
 10
8.9522188532
 20
2.3185388473
 30
0.0
 10
8.950021925
 20
2.3177139598
 30
0.0
 10
8.948895064
 20
2.3175000113
 30
0.0
 11
8.9569822971
 21
2.3273135597
 31
0.0
 11
8.9564166433
 21
2.323932659
 31
0.0
 11
8.9547267728
 21
2.3209465054
 31
0.0
 11
8.9521150112
 21
2.3187133736
 31
0.0
 11
8.948895064
 21
2.3175000113
 31
0.0
  0
SPLINE
  5
331
100
AcDbEntity
  8
0
100
AcDbSpline
 62
9
  6
CONTINUOUS
 70
0
 71
3
 72
24
 73
20
 74
18
 42
0.0000001
 43
0.0000001
 44
0.0000000001
 12
-0.0339360458
 22
-0.0371155351
 32
0.0
 13
-0.0502896305
 23
-0.0004137916
 33
0.0
 40
0.0
 40
0.0
 40
0.0
 40
0.0
 40
0.0066689522
 40
0.0150713797
 40
0.0253293025
 40
0.0374946419
 40
0.0515859751
 40
0.0676045373
 40
0.0855418067
 40
0.1053834083
 40
0.1506607042
 40
0.2030560273
 40
0.2621197183
 40
0.3273897496
 40
0.39837185
 40
0.4744655578
 40
0.6394672153
 40
0.8169671649
 40
1.0
 40
1.0
 40
1.0
 40
1.0
 10
9.0067872063
 20
2.3320392091
 30
0.0
 10
9.006711767
 20
2.3319567019
 30
0.0
 10
9.006514511
 20
2.3317952036
 30
0.0
 10
9.0061477109
 20
2.3315799691
 30
0.0
 10
9.0056771603
 20
2.3313646408
 30
0.0
 10
9.005103564
 20
2.3311499947
 30
0.0
 10
9.0044275289
 20
2.3309364927
 30
0.0
 10
9.0036502113
 20
2.330724852
 30
0.0
 10
9.0027728304
 20
2.3305156687
 30
0.0
 10
9.0014103713
 20
2.3302281767
 30
0.0
 10
8.9994698182
 20
2.3298859876
 30
0.0
 10
8.9968694371
 20
2.3295077491
 30
0.0
 10
8.9939282543
 20
2.3291498828
 30
0.0
 10
8.9906709599
 20
2.3288157527
 30
0.0
 10
8.9871243653
 20
2.3285088419
 30
0.0
 10
8.9819064792
 20
2.3281285909
 30
0.0
 10
8.9748990229
 20
2.3277462669
 30
0.0
 10
8.9660939006
 20
2.3274416443
 30
0.0
 10
8.960050515
 20
2.3273388055
 30
0.0
 10
8.9569822971
 20
2.3273135597
 30
0.0
 11
9.0067872063
 21
2.3320392091
 31
0.0
 11
9.0065330878
 21
2.3318203243
 31
0.0
 11
9.0061716159
 21
2.331601457
 31
0.0
 11
9.0057041942
 21
2.3313831595
 31
0.0
 11
9.005132226
 21
2.3311659839
 31
0.0
 11
9.0044571149
 21
2.3309504822
 31
0.0
 11
9.0036802645
 21
2.3307372067
 31
0.0
 11
9.0028030782
 21
2.3305267094
 31
0.0
 11
9.0018269595
 21
2.3303195425
 31
0.0
 11
8.999585735
 21
2.3299171813
 31
0.0
 11
8.9969788016
 21
2.3295334046
 31
0.0
 11
8.9940305676
 21
2.3291712668
 31
0.0
 11
8.9907654416
 21
2.3288338221
 31
0.0
 11
8.9872091271
 21
2.3285240024
 31
0.0
 11
8.9833925122
 21
2.3282442483
 31
0.0
 11
8.9751071208
 21
2.3277842086
 31
0.0
 11
8.966185923
 21
2.3274705786
 31
0.0
 11
8.9569822971
 21
2.3273135597
 31
0.0
  0
SPLINE
  5
332
100
AcDbEntity
  8
0
100
AcDbSpline
 62
9
  6
CONTINUOUS
 70
0
 71
3
 72
17
 73
13
 74
11
 42
0.0000001
 43
0.0000001
 44
0.0000000001
 12
-0.0134072553
 22
0.0816235311
 32
0.0
 13
-0.0817788191
 23
0.0124249776
 33
0.0
 40
0.0
 40
0.0
 40
0.0
 40
0.0
 40
0.1193293236
 40
0.1804516313
 40
0.2423216533
 40
0.3677139887
 40
0.4947672113
 40
0.6225662521
 40
0.7501213691
 40
0.813542627
 40
0.8764758106
 40
1.0
 40
1.0
 40
1.0
 40
1.0
 10
9.2777280377
 20
8.9713371429
 30
0.0
 10
9.2771947448
 20
8.9745838365
 30
0.0
 10
9.2759398364
 20
8.9794314165
 30
0.0
 10
9.2734861154
 20
8.9856508831
 30
0.0
 10
9.270462984
 20
8.9918040885
 30
0.0
 10
9.2657087009
 20
8.9990958617
 30
0.0
 10
9.2586919024
 20
9.0069383519
 30
0.0
 10
9.2505333801
 20
9.013678239
 30
0.0
 10
9.2429721716
 20
9.0182299725
 30
0.0
 10
9.2365921058
 20
9.0211280223
 30
0.0
 10
9.2301153458
 20
9.0234902731
 30
0.0
 10
9.2250870929
 20
9.0246917663
 30
0.0
 10
9.2217198721
 20
9.0252033614
 30
0.0
 11
9.2777280377
 21
8.9713371429
 31
0.0
 11
9.2752847761
 21
8.9809005763
 31
0.0
 11
9.2734315605
 21
8.9856045586
 31
0.0
 11
9.2711757274
 21
8.9901982827
 31
0.0
 11
9.2655265709
 21
8.9988970105
 31
0.0
 11
9.2585231645
 21
9.0067329494
 31
0.0
 11
9.2503756358
 21
9.0134685211
 31
0.0
 11
9.2413310101
 21
9.0189016343
 31
0.0
 11
9.2365546202
 21
9.0210711964
 31
0.0
 11
9.2316635878
 21
9.0228535386
 31
0.0
 11
9.2217198721
 21
9.0252033614
 31
0.0
  0
SPLINE
  5
333
100
AcDbEntity
  8
0
100
AcDbSpline
 62
9
  6
CONTINUOUS
 70
0
 71
3
 72
14
 73
10
 74
8
 42
0.0000001
 43
0.0000001
 44
0.0000000001
 12
0.0124713082
 22
0.0190669014
 32
0.0
 13
-0.0044396126
 23
0.0223465903
 33
0.0
 40
0.0
 40
0.0
 40
0.0
 40
0.0
 40
0.121019336
 40
0.2425291038
 40
0.3649871036
 40
0.4888052498
 40
0.6141863411
 40
0.7412163346
 40
1.0
 40
1.0
 40
1.0
 40
1.0
 10
9.2720013025
 20
7.026219624
 30
0.0
 10
9.2725043923
 20
7.0269887786
 30
0.0
 10
9.2734340573
 20
7.0285832527
 30
0.0
 10
9.2745789772
 20
7.0311127317
 30
0.0
 10
9.27546442
 20
7.0337671134
 30
0.0
 10
9.2760808229
 20
7.0365262422
 30
0.0
 10
9.2764301739
 20
7.0393667378
 30
0.0
 10
9.2765409807
 20
7.0432513231
 30
0.0
 10
9.2762198634
 20
7.0461846666
 30
0.0
 10
9.275836897
 20
7.0481123107
 30
0.0
 11
9.2720013025
 21
7.026219624
 31
0.0
 11
9.2733901277
 21
7.028601524
 31
0.0
 11
9.2745318614
 21
7.031123521
 31
0.0
 11
9.2754155401
 21
7.0337698807
 31
0.0
 11
9.2760333226
 21
7.0365223941
 31
0.0
 11
9.2763843113
 21
7.0393573483
 31
0.0
 11
9.2764685443
 21
7.0422502889
 31
0.0
 11
9.275836897
 21
7.0481123107
 31
0.0
  0
SPLINE
  5
334
100
AcDbEntity
  8
0
100
AcDbSpline
 62
9
  6
CONTINUOUS
 70
0
 71
3
 72
30
 73
26
 74
24
 42
0.0000001
 43
0.0000001
 44
0.0000000001
 12
-0.1796240731
 22
-0.0001087529
 32
0.0
 13
-0.0993439752
 23
-0.1496515755
 33
0.0
 40
0.0
 40
0.0
 40
0.0
 40
0.0
 40
0.0168214331
 40
0.0341906314
 40
0.0522075877
 40
0.0709592347
 40
0.0905201484
 40
0.1109536162
 40
0.1323128691
 40
0.1546423389
 40
0.1779788522
 40
0.2023526918
 40
0.227785999
 40
0.2542908388
 40
0.2818738732
 40
0.3105376507
 40
0.3710966413
 40
0.435933277
 40
0.5049734434
 40
0.5781152861
 40
0.6552223443
 40
0.7361375788
 40
0.8206921233
 40
0.9087079795
 40
1.0
 40
1.0
 40
1.0
 40
1.0
 10
9.4019839635
 20
7.1692816107
 30
0.0
 10
9.4009767853
 20
7.169281001
 30
0.0
 10
9.3989287614
 20
7.1691881512
 30
0.0
 10
9.3958253439
 20
7.1687886731
 30
0.0
 10
9.3926486083
 20
7.168129209
 30
0.0
 10
9.389400422
 20
7.1672117856
 30
0.0
 10
9.3860821594
 20
7.1660383352
 30
0.0
 10
9.3826952866
 20
7.1646106914
 30
0.0
 10
9.3792412355
 20
7.1629306115
 30
0.0
 10
9.3757214699
 20
7.1609997855
 30
0.0
 10
9.3721374587
 20
7.1588198909
 30
0.0
 10
9.3684909013
 20
7.156392551
 30
0.0
 10
9.3647835786
 20
7.153720151
 30
0.0
 10
9.361016759
 20
7.1508065796
 30
0.0
 10
9.3571920647
 20
7.1476556663
 30
0.0
 10
9.3519206338
 20
7.1430584148
 30
0.0
 10
9.3452081464
 20
7.1367259037
 30
0.0
 10
9.3370905242
 20
7.1283770913
 30
0.0
 10
9.3287823627
 20
7.1191751133
 30
0.0
 10
9.320298364
 20
7.1091518695
 30
0.0
 10
9.3116511231
 20
7.0983427143
 30
0.0
 10
9.3028539739
 20
7.0867842155
 30
0.0
 10
9.2939205332
 20
7.0745132188
 30
0.0
 10
9.2848644623
 20
7.0615667348
 30
0.0
 10
9.2788598206
 20
7.052666309
 30
0.0
 10
9.2758367166
 20
7.0481123107
 30
0.0
 11
9.4019839635
 21
7.1692816107
 31
0.0
 11
9.3989653493
 21
7.1691487879
 31
0.0
 11
9.3958703721
 21
7.1687550129
 31
0.0
 11
9.3927006771
 21
7.168101913
 31
0.0
 11
9.3894579094
 21
7.167191116
 31
0.0
 11
9.3861437144
 21
7.1660242493
 31
0.0
 11
9.3827597372
 21
7.1646029404
 31
0.0
 11
9.3793076231
 21
7.162928817
 31
0.0
 11
9.3757890173
 21
7.1610035064
 31
0.0
 11
9.372205565
 21
7.1588286363
 31
0.0
 11
9.3685589119
 21
7.1564058413
 31
0.0
 11
9.3648507342
 21
7.1537375053
 31
0.0
 11
9.3610827658
 21
7.1508274089
 31
0.0
 11
9.3572567469
 21
7.1476794855
 31
0.0
 11
9.3533744177
 21
7.1442976684
 31
0.0
 11
9.3454477889
 21
7.1368480861
 31
0.0
 11
9.3373168007
 21
7.1285101286
 31
0.0
 11
9.3289953745
 21
7.1193152624
 31
0.0
 11
9.3204973942
 21
7.1092956628
 31
0.0
 11
9.3118365422
 21
7.0984873292
 31
0.0
 11
9.3030264336
 21
7.0869275438
 31
0.0
 11
9.2940806832
 21
7.07465359
 31
0.0
 11
9.2850129059
 21
7.0617027512
 31
0.0
 11
9.2758367166
 21
7.0481123107
 31
0.0
  0
SPLINE
  5
335
100
AcDbEntity
  8
0
100
AcDbSpline
 62
9
  6
CONTINUOUS
 70
0
 71
3
 72
23
 73
19
 74
17
 42
0.0000001
 43
0.0000001
 44
0.0000000001
 12
0.0621184645
 22
0.0000381991
 32
0.0
 13
0.0000000047
 23
0.0621184763
 33
0.0
 40
0.0
 40
0.0
 40
0.0
 40
0.0
 40
0.0615937889
 40
0.1234498953
 40
0.1854754178
 40
0.2475795738
 40
0.3097143676
 40
0.3719114243
 40
0.4341982735
 40
0.4965932059
 40
0.5591195271
 40
0.6217940872
 40
0.6846201871
 40
0.7476033799
 40
0.8107441108
 40
0.8739505143
 40
0.9370836596
 40
1.0
 40
1.0
 40
1.0
 40
1.0
 10
9.3628530557
 20
7.1292816178
 30
0.0
 10
9.3641284262
 20
7.1292824021
 30
0.0
 10
9.3666863042
 20
7.1294148429
 30
0.0
 10
9.3704887286
 20
7.1299950875
 30
0.0
 10
9.3742260123
 20
7.1309501876
 30
0.0
 10
9.3778556755
 20
7.132273359
 30
0.0
 10
9.3813360878
 20
7.1339585291
 30
0.0
 10
9.3846348878
 20
7.1359829224
 30
0.0
 10
9.3877230928
 20
7.1383248162
 30
0.0
 10
9.390571879
 20
7.140962892
 30
0.0
 10
9.393151731
 20
7.1438751899
 30
0.0
 10
9.3954413978
 20
7.1470315851
 30
0.0
 10
9.3974200868
 20
7.150402642
 30
0.0
 10
9.3990665559
 20
7.1539586842
 30
0.0
 10
9.4003586497
 20
7.1576664796
 30
0.0
 10
9.401290668
 20
7.1614837437
 30
0.0
 10
9.4018559663
 20
7.1653671776
 30
0.0
 10
9.4019839634
 20
7.167978855
 30
0.0
 10
9.4019839635
 20
7.1692816107
 30
0.0
 11
9.3628530557
 21
7.1292816178
 31
0.0
 11
9.3666741386
 21
7.1294777327
 31
0.0
 11
9.3704727003
 21
7.1300565428
 31
0.0
 11
9.3742055931
 21
7.1310107902
 31
0.0
 11
9.3778296694
 21
7.1323332167
 31
0.0
 11
9.3813041392
 21
7.1340141355
 31
0.0
 11
9.384597516
 21
7.1360342763
 31
0.0
 11
9.3876806078
 21
7.1383720052
 31
0.0
 11
9.3905242224
 21
7.1410056884
 31
0.0
 11
9.3931005158
 21
7.1439123149
 31
0.0
 11
9.3953869879
 21
7.1470634141
 31
0.0
 11
9.3973624623
 21
7.1504291635
 31
0.0
 11
9.3990057625
 21
7.1539797401
 31
0.0
 11
9.4002980681
 21
7.1576829342
 31
0.0
 11
9.4012299399
 21
7.1614970307
 31
0.0
 11
9.4017942733
 21
7.1653779496
 31
0.0
 11
9.4019839635
 21
7.1692816107
 31
0.0
  0
SPLINE
  5
336
100
AcDbEntity
  8
0
100
AcDbSpline
 62
9
  6
CONTINUOUS
 70
0
 71
3
 72
32
 73
28
 74
26
 42
0.0000001
 43
0.0000001
 44
0.0000000001
 12
-0.1845514929
 22
-0.2370552926
 32
0.0
 13
-0.3002964432
 23
-0.0087470864
 33
0.0
 40
0.0
 40
0.0
 40
0.0
 40
0.0
 40
0.1035418752
 40
0.2022662915
 40
0.2959945117
 40
0.3845496841
 40
0.467770448
 40
0.5455078423
 40
0.6176161708
 40
0.6839587349
 40
0.7149312231
 40
0.7444192069
 40
0.7724098626
 40
0.7988913205
 40
0.8238530137
 40
0.8472883784
 40
0.8691954619
 40
0.8895750748
 40
0.9084315471
 40
0.9257739922
 40
0.9416181708
 40
0.9559909688
 40
0.968935987
 40
0.9805166189
 40
0.9858245964
 40
0.9908293415
 40
1.0
 40
1.0
 40
1.0
 40
1.0
 10
9.2758367166
 20
8.9689893224
 30
0.0
 10
9.269467114
 20
8.9608076059
 30
0.0
 10
9.2569478976
 20
8.9448840798
 30
0.0
 10
9.2383872567
 20
8.9217726233
 30
0.0
 10
9.2205239986
 20
8.9000280646
 30
0.0
 10
9.2034005526
 20
8.879687402
 30
0.0
 10
9.1870563175
 20
8.8607867232
 30
0.0
 10
9.171528397
 20
8.8433607133
 30
0.0
 10
9.1568531123
 20
8.8274428189
 30
0.0
 10
9.1451094341
 20
8.8151957523
 30
0.0
 10
9.1361573318
 20
8.806189528
 30
0.0
 10
9.1298318928
 20
8.799988644
 30
0.0
 10
9.123743916
 20
8.7941891468
 30
0.0
 10
9.1178972377
 20
8.7887948852
 30
0.0
 10
9.1122955444
 20
8.7838094814
 30
0.0
 10
9.1069420871
 20
8.7792362241
 30
0.0
 10
9.1018397169
 20
8.775078015
 30
0.0
 10
9.0969910527
 20
8.7713375165
 30
0.0
 10
9.0923986507
 20
8.768017319
 30
0.0
 10
9.0880649637
 20
8.7651199057
 30
0.0
 10
9.0839921525
 20
8.7626476107
 30
0.0
 10
9.0801815644
 20
8.760602272
 30
0.0
 10
9.0766342468
 20
8.7589853208
 30
0.0
 10
9.0738204155
 20
8.7579676496
 30
0.0
 10
9.0717051458
 20
8.7573863711
 30
0.0
 10
9.0697965893
 20
8.7569792159
 30
0.0
 10
9.0683798489
 20
8.7568148644
 30
0.0
 10
9.0674618769
 20
8.7567881256
 30
0.0
 11
9.2758367166
 21
8.9689893224
 31
0.0
 11
9.2566067199
 21
8.944539003
 31
0.0
 11
9.2380302841
 21
8.9214179711
 31
0.0
 11
9.2201505503
 21
8.8996648396
 31
0.0
 11
9.2030103885
 21
8.8793180452
 31
0.0
 11
9.1866489424
 21
8.8604136005
 31
0.0
 11
9.1711026487
 21
8.8429857568
 31
0.0
 11
9.1564078808
 21
8.8270687248
 31
0.0
 11
9.1425997138
 21
8.8126960168
 31
0.0
 11
9.1360380119
 21
8.8060986894
 31
0.0
 11
9.1297097314
 21
8.7998992668
 31
0.0
 11
9.1236187477
 21
8.7941016641
 31
0.0
 11
9.1177689361
 21
8.7887097964
 31
0.0
 11
9.1121641499
 21
8.7837275602
 31
0.0
 11
9.1068076836
 21
8.7791583705
 31
0.0
 11
9.101702239
 21
8.7750051326
 31
0.0
 11
9.0968504891
 21
8.7712707268
 31
0.0
 11
9.0922551073
 21
8.7679580338
 31
0.0
 11
9.0879187668
 21
8.7650699341
 31
0.0
 11
9.0838441377
 21
8.7626093047
 31
0.0
 11
9.080033517
 21
8.7605786161
 31
0.0
 11
9.0764884836
 21
8.7589795557
 31
0.0
 11
9.0732105344
 21
8.7578137217
 31
0.0
 11
9.0716721842
 21
8.757393764
 31
0.0
 11
9.0702011665
 21
8.7570827122
 31
0.0
 11
9.0674618769
 21
8.7567881256
 31
0.0
  0
SPLINE
  5
337
100
AcDbEntity
  8
0
100
AcDbSpline
 62
9
  6
CONTINUOUS
 70
0
 71
3
 72
38
 73
34
 74
32
 42
0.0000001
 43
0.0000001
 44
0.0000000001
 12
-0.7704622582
 22
-1.1925835378
 32
0.0
 13
-0.036046866
 23
-1.4193548568
 33
0.0
 40
0.0
 40
0.0
 40
0.0
 40
0.0
 40
0.0110095127
 40
0.0222685077
 40
0.0337751839
 40
0.0455260258
 40
0.0575160163
 40
0.0697388225
 40
0.0821870964
 40
0.0948547878
 40
0.1208264246
 40
0.1476060761
 40
0.1612810791
 40
0.1751351592
 40
0.203353289
 40
0.2322157476
 40
0.2616754649
 40
0.291681666
 40
0.3221868189
 40
0.3531582028
 40
0.3845642554
 40
0.4163719524
 40
0.4485476228
 40
0.4810661437
 40
0.5139092167
 40
0.5804932408
 40
0.6141961032
 40
0.6481533036
 40
0.7168030013
 40
0.7863868402
 40
0.8568415112
 40
0.9280784095
 40
1.0
 40
1.0
 40
1.0
 40
1.0
 10
9.2758367166
 20
7.0481123107
 30
0.0
 10
9.2730092452
 20
7.0437357229
 30
0.0
 10
9.2674489772
 20
7.0347799105
 30
0.0
 10
9.2594679789
 20
7.020927188
 30
0.0
 10
9.2517477108
 20
7.0065282466
 30
0.0
 10
9.2442836279
 20
6.9916073755
 30
0.0
 10
9.2370710266
 20
6.9761885737
 30
0.0
 10
9.2301052683
 20
6.9602958852
 30
0.0
 10
9.2233812415
 20
6.9439522128
 30
0.0
 10
9.2146584086
 20
6.921400618
 30
0.0
 10
9.204354468
 20
6.8921963802
 30
0.0
 10
9.1949162406
 20
6.8622032831
 30
0.0
 10
9.1877490052
 20
6.8375193203
 30
0.0
 10
9.1807467711
 20
6.812081172
 30
0.0
 10
9.172476376
 20
6.7795406304
 30
0.0
 10
9.163311887
 20
6.7396188912
 30
0.0
 10
9.1548010442
 20
6.698688471
 30
0.0
 10
9.1468960957
 20
6.6568458643
 30
0.0
 10
9.1395501448
 20
6.6141757436
 30
0.0
 10
9.1327318182
 20
6.5707476696
 30
0.0
 10
9.1264059902
 20
6.5266225325
 30
0.0
 10
9.1205382803
 20
6.4818594663
 30
0.0
 10
9.1150916875
 20
6.4365130655
 30
0.0
 10
9.1100388964
 20
6.3906281755
 30
0.0
 10
9.1037699133
 20
6.3284969441
 30
0.0
 10
9.098235343
 20
6.2657309804
 30
0.0
 10
9.0933154545
 20
6.2023876657
 30
0.0
 10
9.0887358371
 20
6.1380385632
 30
0.0
 10
9.0836925231
 20
6.0566999874
 30
0.0
 10
9.0786175018
 20
5.9580629266
 30
0.0
 10
9.0743798137
 20
5.8581610943
 30
0.0
 10
9.0708774162
 20
5.7571240746
 30
0.0
 10
9.0689742126
 20
5.6893976071
 30
0.0
 10
9.06811003
 20
5.6553701875
 30
0.0
 11
9.2758367166
 21
7.0481123107
 31
0.0
 11
9.2675841772
 21
7.0348368584
 31
0.0
 11
9.2595968261
 21
7.0209897066
 31
0.0
 11
9.2518701079
 21
7.0065950568
 31
0.0
 11
9.244399467
 21
6.9916771102
 31
0.0
 11
9.2371803478
 21
6.9762600681
 31
0.0
 11
9.2302081949
 21
6.9603681319
 31
0.0
 11
9.2234783738
 21
6.9440253235
 31
0.0
 11
9.2169849281
 21
6.9272526597
 31
0.0
 11
9.2046789251
 21
6.8924918021
 31
0.0
 11
9.1932335446
 21
6.8562332559
 31
0.0
 11
9.1878158771
 21
6.8375884813
 31
0.0
 11
9.1825921224
 21
6.8186245942
 31
0.0
 11
9.1727006677
 21
6.7798003803
 31
0.0
 11
9.1635114561
 21
6.7398646846
 31
0.0
 11
9.1549776598
 21
6.6989172149
 31
0.0
 11
9.1470524556
 21
6.657057663
 31
0.0
 11
9.1396918872
 21
6.6143760914
 31
0.0
 11
9.1328597491
 21
6.5709365271
 31
0.0
 11
9.1265211331
 21
6.5267986403
 31
0.0
 11
9.1206411309
 21
6.4820221011
 31
0.0
 11
9.1151852352
 21
6.4366656459
 31
0.0
 11
9.1101251449
 21
6.3907735645
 31
0.0
 11
9.1054374422
 21
6.3443787785
 31
0.0
 11
9.0970860562
 21
6.2502115508
 31
0.0
 11
9.0933760078
 21
6.2025038457
 31
0.0
 11
9.0899498189
 21
6.1544128806
 31
0.0
 11
9.0838893398
 21
6.0571317773
 31
0.0
 11
9.0787860068
 21
5.9584676669
 31
0.0
 11
9.074523782
 21
5.8585260877
 31
0.0
 11
9.0709985882
 21
5.7574444991
 31
0.0
 11
9.06811003
 21
5.6553701875
 31
0.0
  0
LINE
  5
338
100
AcDbEntity
  8
0
100
AcDbLine
 62
9
  6
CONTINUOUS
 10
9.06811003
 20
5.6553701875
 11
9.0674618769
 21
5.6291433182
  0
ENDSEC
  0
SECTION
  2
OBJECTS
  0
DICTIONARY
  5
C
100
AcDbDictionary
280
0
281
1
  3
ACAD_GROUP
350
D
  3
ACAD_MLINESTYLE
350
17
  3
ACAD_LAYOUT
350
1A
  3
ACAD_PLOTSETTINGS
350
19
  3
ACAD_PLOTSTYLENAME
350
E
  0
DICTIONARY
  5
D
102
{ACAD_REACTORS
330
C
102
}
100
AcDbDictionary
280
0
281
1
  0
ACDBDICTIONARYWDFLT
  5
E
102
{ACAD_REACTORS
330
C
102
}
100
AcDbDictionary
281
1
  3
Normal
350
F
100
AcDbDictionaryWithDefault
340
F
  0
DICTIONARY
  5
17
102
{ACAD_REACTORS
330
C
102
}
100
AcDbDictionary
280
0
281
1
  3
Standard
350
18
  0
DICTIONARY
  5
19
102
{ACAD_REACTORS
330
C
102
}
100
AcDbDictionary
281
1
  0
DICTIONARY
  5
1A
102
{ACAD_REACTORS
330
C
102
}
100
AcDbDictionary
281
1
  3
Model
350
339
  3
Layout1
350
33A
  0
ACDBPLACEHOLDER
  5
F
102
{ACAD_REACTORS
330
E
102
}
  0
MLINESTYLE
  5
18
102
{ACAD_REACTORS
330
17
102
}
100
AcDbMlineStyle
  2
STANDARD
 70
0
  3

 62
256
 51
90.0
 52
90.0
 71
2
 49
0.5
 62
256
  6
BYLAYER
 49
-0.5
 62
256
  6
BYLAYER
  0
LAYOUT
  5
339
102
{ACAD_REACTORS
330
1A
102
}
100
AcDbPlotSettings
  1

  2
none_device
  4
ISO_A3_(420.00_x_297.00_MM)
  6

 40
0.0
 41
0.0
 42
0.0
 43
0.0
 44
420.0
 45
297.0
 46
0.0
 47
0.0
 48
0.0
 49
0.0
140
0.0
141
0.0
142
1.0
143
1.0
 70
1024
 72
0
 73
0
 74
0
  7

 75
0
147
1.0
148
0.0
149
0.0
100
AcDbLayout
  1
Model
 70
0
 71
0
 10
0.0
 20
0.0
 11
16.5354330709
 21
11.6929133858
 12
0.0
 22
0.0
 32
0.0
 14
0.0
 24
0.0
 34
0.0
 15
0.0
 25
0.0
 35
0.0
146
0.0
 13
0.0
 23
0.0
 33
0.0
 16
1.0
 26
0.0
 36
0.0
 17
0.0
 27
1.0
 37
0.0
 76
0
330
204
345
0
346
0
  0
LAYOUT
  5
33A
102
{ACAD_REACTORS
330
1A
102
}
100
AcDbPlotSettings
  1

  2
none_device
  4
ISO_A3_(420.00_x_297.00_MM)
  6

 40
0.0
 41
0.0
 42
0.0
 43
0.0
 44
420.0
 45
297.0
 46
0.0
 47
0.0
 48
0.0
 49
0.0
140
0.0
141
0.0
142
1.0
143
1.0
 70
0
 72
0
 73
0
 74
0
  7

 75
0
147
1.0
148
0.0
149
0.0
100
AcDbLayout
  1
Layout1
 70
0
 71
1
 10
0.0
 20
0.0
 11
16.5354330709
 21
11.6929133858
 12
0.0
 22
0.0
 32
0.0
 14
0.0
 24
0.0
 34
0.0
 15
0.0
 25
0.0
 35
0.0
146
0.0
 13
0.0
 23
0.0
 33
0.0
 16
1.0
 26
0.0
 36
0.0
 17
0.0
 27
1.0
 37
0.0
 76
0
330
205
345
0
346
0
  0
ENDSEC
  0
EOF
