  0
SECTION
  2
HEADER
  9
$ACADVER
  1
AC1015
  9
$DWGCODEPAGE
  3
ANSI_1252
  9
$EXTMAX
 10
33.1102362205
 20
23.3858267717
 30
0.0
  9
$EXTMIN
 10
0.0
 20
0.0
 30
0.0
  9
$LIMMIN
 10
0.0
 20
0.0
  9
$LIMMAX
 10
33.1102362205
 20
23.3858267717
  9
$VIEWCTR
 10
16.5551181102
 20
11.6929133858
  9
$VIEWSIZE
 40
23.3858267717
  9
$CLAYER
  8
0
  9
$LTSCALE
 40
1.8210629921
  9
$CELTYPE
  6
BYLAYER
  9
$DIMSCALE
 40
1.0
  9
$DIMASZ
 40
0.1
  9
$DIMEXO
 40
0.2069389764
  9
$DIMDLI
 40
1.2581889764
  9
$DIMEXE
 40
0.595984252
  9
$DIMCEN
 40
0.297992126
  9
$DIMLFAC
 40
1.0
  9
$DIMBLK
  1
_FILLED
  9
$DIMTXT
 40
0.08
  9
$DIMTOL
 70
1
  9
$DIMLIM
 70
0
  9
$DIMTFAC
 40
1.0
  9
$DIMTP
 40
0.01
  9
$DIMTM
 40
0.01
  9
$PDMODE
 70
3
  9
$PDSIZE
 40
0.06
  9
$HANDSEED
  5
2C9
  9
$TILEMODE
 70
1
  9
$MEASUREMENT
 70
0
  9
$INSUNITS
 70
1
  0
ENDSEC
  0
SECTION
  2
CLASSES
  0
CLASS
  1
ACDBDICTIONARYWDFLT
  2
AcDbDictionaryWithDefault
  3
AutoCAD 2000
 90
0
280
0
281
0
  0
CLASS
  1
ACDBPLACEHOLDER
  2
AcDbPlaceHolder
  3
AutoCAD 2000
 90
0
280
0
281
0
  0
CLASS
  1
LAYOUT
  2
AcDbLayout
  3
AutoCAD 2000
 90
0
280
0
281
0
  0
ENDSEC
  0
SECTION
  2
TABLES
  0
TABLE
  2
VPORT
  5
8
100
AcDbSymbolTable
 70
2
  0
VPORT
  5
1F4
100
AcDbSymbolTableRecord
100
AcDbViewportTableRecord
  2
*ACTIVE
 70
0
 10
0.0
 20
0.0
 11
1.0
 21
1.0
 12
16.5551181102
 22
11.6929133858
 13
0.0
 23
0.0
 14
1.0
 24
1.0
 15
0.0
 25
0.0
 16
0.0
 26
0.0
 36
1.0
 17
0.0
 27
0.0
 37
0.0
 40
23.3858267717
 41
1.4158249158
 42
50.0
 43
0.0
 44
0.0
 50
0.0
 51
0.0
 71
0
 72
100
 73
1
 74
1
 75
0
 76
0
 77
0
 78
0
  0
ENDTAB
  0
TABLE
  2
LTYPE
  5
5
100
AcDbSymbolTable
 70
6
  0
LTYPE
  5
14
100
AcDbSymbolTableRecord
100
AcDbLinetypeTableRecord
  2
BYBLOCK
 70
0
  3

 72
65
 73
0
 40
0.0
  0
LTYPE
  5
15
100
AcDbSymbolTableRecord
100
AcDbLinetypeTableRecord
  2
BYLAYER
 70
0
  3

 72
65
 73
0
 40
0.0
  0
LTYPE
  5
16
100
AcDbSymbolTableRecord
100
AcDbLinetypeTableRecord
  2
CONTINUOUS
 70
64
  3
Solid line
 72
65
 73
0
 40
0.0
  0
LTYPE
  5
1F5
100
AcDbSymbolTableRecord
100
AcDbLinetypeTableRecord
  2
CENTER
 70
64
  3
____ _ ____ _ ____ _ ____ _ ____ _ ____ _ ____
 72
65
 73
4
 40
0.6
 49
0.375
 74
0
 49
-0.075
 74
0
 49
0.075
 74
0
 49
-0.075
 74
0
  0
LTYPE
  5
1F6
100
AcDbSymbolTableRecord
100
AcDbLinetypeTableRecord
  2
HIDDEN
 70
64
  3
- - - - - - - - - - - - - - - - - - - -
 72
65
 73
2
 40
0.2
 49
0.1
 74
0
 49
-0.1
 74
0
  0
LTYPE
  5
1F7
100
AcDbSymbolTableRecord
100
AcDbLinetypeTableRecord
  2
PHANTOM
 70
64
  3
_____ _ _ _____ _ _ _____ _ _ _____
 72
65
 73
6
 40
0.8
 49
0.45
 74
0
 49
-0.05
 74
0
 49
0.1
 74
0
 49
-0.05
 74
0
 49
0.1
 74
0
 49
-0.05
 74
0
  0
LTYPE
  5
1F8
100
AcDbSymbolTableRecord
100
AcDbLinetypeTableRecord
  2
DOT
 70
64
  3
. . . . . . . . . . . . . . . . . . . .
 72
65
 73
2
 40
0.2
 49
0.1
 74
0
 49
-0.1
 74
0
  0
LTYPE
  5
1F9
100
AcDbSymbolTableRecord
100
AcDbLinetypeTableRecord
  2
DASHED
 70
64
  3
- - - - - - - - - - - - - - - - - - - -
 72
65
 73
2
 40
0.2
 49
0.1
 74
0
 49
-0.1
 74
0
  0
ENDTAB
  0
TABLE
  2
LAYER
  5
2
100
AcDbSymbolTable
 70
36
  0
LAYER
  5
10
100
AcDbSymbolTableRecord
100
AcDbLayerTableRecord
  2
0
 70
0
 62
7
  6
CONTINUOUS
370
-3
390
F
  0
LAYER
  5
1FA
100
AcDbSymbolTableRecord
100
AcDbLayerTableRecord
  2
DEFAULT_1
 70
0
 62
7
  6
CENTER
370
-3
390
F
  0
LAYER
  5
1FB
100
AcDbSymbolTableRecord
100
AcDbLayerTableRecord
  2
DEFAULT_2
 70
0
 62
8
  6
HIDDEN
370
-3
390
F
  0
LAYER
  5
1FC
100
AcDbSymbolTableRecord
100
AcDbLayerTableRecord
  2
DEFAULT_3
 70
0
 62
7
  6
PHANTOM
370
-3
390
F
  0
LAYER
  5
1FD
100
AcDbSymbolTableRecord
100
AcDbLayerTableRecord
  2
3_ALL_SYMBOLS
 70
0
 62
7
  6
CONTINUOUS
370
-3
390
F
  0
LAYER
  5
1FE
100
AcDbSymbolTableRecord
100
AcDbLayerTableRecord
  2
DEFAULT_COORDINATE_SYSTEM
 70
0
 62
7
  6
CONTINUOUS
370
-3
390
F
  0
LAYER
  5
1FF
100
AcDbSymbolTableRecord
100
AcDbLayerTableRecord
  2
DEFAULT_DATUM_AXES
 70
0
 62
7
  6
CONTINUOUS
370
-3
390
F
  0
LAYER
  5
200
100
AcDbSymbolTableRecord
100
AcDbLayerTableRecord
  2
DEFAULT_DATUM_CURVES
 70
0
 62
7
  6
CONTINUOUS
370
-3
390
F
  0
LAYER
  5
201
100
AcDbSymbolTableRecord
100
AcDbLayerTableRecord
  2
DEFAULT_DATUM_PLANES
 70
0
 62
7
  6
CONTINUOUS
370
-3
390
F
  0
ENDTAB
  0
TABLE
  2
STYLE
  5
3
100
AcDbSymbolTable
 70
1
  0
STYLE
  5
11
100
AcDbSymbolTableRecord
100
AcDbTextStyleTableRecord
  2
STANDARD
 70
0
 40
0.0
 41
0.8
 50
0.0
 71
0
 42
0.2
  3
txt
  4

  0
STYLE
  5
202
100
AcDbSymbolTableRecord
100
AcDbTextStyleTableRecord
  2
TEXTSTYLE_1
 70
0
 40
0.0
 41
0.8
 50
0.0
 71
0
 42
0.2
  3
gdt
  4

  0
ENDTAB
  0
TABLE
  2
VIEW
  5
6
100
AcDbSymbolTable
 70
0
  0
ENDTAB
  0
TABLE
  2
UCS
  5
7
100
AcDbSymbolTable
 70
0
  0
ENDTAB
  0
TABLE
  2
APPID
  5
9
100
AcDbSymbolTable
 70
1
  0
APPID
  5
203
100
AcDbSymbolTableRecord
100
AcDbRegAppTableRecord
  2
ACAD
 70
0
  0
ENDTAB
  0
TABLE
  2
BLOCK_RECORD
  5
1
100
AcDbSymbolTable
 70
0
  0
BLOCK_RECORD
  5
204
100
AcDbSymbolTableRecord
100
AcDbBlockTableRecord
  2
*Model_Space
  0
BLOCK_RECORD
  5
205
100
AcDbSymbolTableRecord
100
AcDbBlockTableRecord
  2
*Paper_Space
  0
ENDTAB
  0
TABLE
  2
DIMSTYLE
  5
A
100
AcDbSymbolTable
 70
1
100
AcDbDimStyleTable
 71
0
  0
DIMSTYLE
105
206
100
AcDbSymbolTableRecord
100
AcDbDimStyleTableRecord
  2
STANDARD
 70
0
  3

  4

 40
1.0
 41
0.1
 42
0.0625
 43
0.38
 44
0.18
 45
0.0
 46
0.0
 47
0.01
 48
0.01
140
0.08
141
0.09
142
0.0
143
25.4
144
1.0
145
0.0
146
1.0
147
0.09
 71
1.0
 72
0.0
 73
1
 74
1
 75
0
 76
0
 77
0
 78
4
170
0
171
2
172
0
173
0
174
0
175
0
176
0
177
0
178
0
270
2
271
2
272
2
273
2
274
2
275
0
280
0
281
0
282
0
283
1
284
4
285
0
286
0
287
3
288
0
340
11
  0
ENDTAB
  0
ENDSEC
  0
SECTION
  2
BLOCKS
  0
BLOCK
  5
20
100
AcDbEntity
  8
0
100
AcDbBlockBegin
  2
*Model_Space
 70
0
 10
0.0
 20
0.0
 30
0.0
  3
*Model_Space
  1

  0
ENDBLK
  5
21
100
AcDbEntity
  8
0
100
AcDbBlockEnd
  0
BLOCK
  5
1C
100
AcDbEntity
  8
0
100
AcDbBlockBegin
  2
*Paper_Space
 70
0
 10
0.0
 20
0.0
 30
0.0
  3
*Paper_Space
  1

  0
ENDBLK
  5
1D
100
AcDbEntity
  8
0
100
AcDbBlockEnd
  0
ENDSEC
  0
SECTION
  2
ENTITIES
  0
LINE
  5
207
100
AcDbEntity
  8
0
100
AcDbLine
 62
6
  6
CONTINUOUS
 10
5.594222728
 20
9.6530903165
 11
5.594222728
 21
9.7480903165
  0
LINE
  5
208
100
AcDbEntity
  8
0
100
AcDbLine
 62
6
  6
CONTINUOUS
 10
5.622222728
 20
9.7480903165
 11
5.622222728
 21
9.8980903165
  0
LINE
  5
209
100
AcDbEntity
  8
0
100
AcDbLine
 62
6
  6
CONTINUOUS
 10
6.492222728
 20
9.7480903165
 11
6.492222728
 21
9.8980903165
  0
LINE
  5
20A
100
AcDbEntity
  8
0
100
AcDbLine
 62
6
  6
CONTINUOUS
 10
6.520222728
 20
9.6530903165
 11
6.520222728
 21
9.7480903165
  0
LINE
  5
20B
100
AcDbEntity
  8
0
100
AcDbLine
 62
9
  6
CONTINUOUS
 10
9.682222728
 20
9.9630903165
 11
9.682222728
 21
9.7930903165
  0
LINE
  5
20C
100
AcDbEntity
  8
0
100
AcDbLine
 62
9
  6
CONTINUOUS
 10
9.722222728
 20
9.7530903165
 11
9.722222728
 21
10.0030903165
  0
LINE
  5
20D
100
AcDbEntity
  8
0
100
AcDbLine
 62
6
  6
CONTINUOUS
 10
9.857222728
 20
9.7380903165
 11
9.857222728
 21
9.4030903165
  0
LINE
  5
20E
100
AcDbEntity
  8
0
100
AcDbLine
 62
6
  6
CONTINUOUS
 10
10.257222728
 20
9.7380903165
 11
10.257222728
 21
9.4030903165
  0
LINE
  5
20F
100
AcDbEntity
  8
0
100
AcDbLine
 62
9
  6
CONTINUOUS
 10
10.392222728
 20
9.7530903165
 11
10.392222728
 21
10.0030903165
  0
LINE
  5
210
100
AcDbEntity
  8
0
100
AcDbLine
 62
9
  6
CONTINUOUS
 10
10.432222728
 20
9.9630903165
 11
10.432222728
 21
9.7930903165
  0
LINE
  5
211
100
AcDbEntity
  8
0
100
AcDbLine
 62
6
  6
CONTINUOUS
 10
5.2672319846
 20
9.1530903165
 11
6.8472134715
 21
9.1530903165
  0
LINE
  5
212
100
AcDbEntity
  8
0
100
AcDbLine
 62
6
  6
CONTINUOUS
 10
9.401222728
 20
9.1530903165
 11
10.713222728
 21
9.1530903165
  0
LINE
  5
213
100
AcDbEntity
  8
0
100
AcDbLine
 62
6
  6
CONTINUOUS
 10
16.9961958508
 20
9.1530903165
 11
19.1182496053
 21
9.1530903165
  0
LINE
  5
214
100
AcDbEntity
  8
0
100
AcDbLine
 62
6
  6
CONTINUOUS
 10
26.044722728
 20
9.1530903165
 11
28.069722728
 21
9.1530903165
  0
LINE
  5
215
100
AcDbEntity
  8
0
100
AcDbLine
 62
9
  6
CONTINUOUS
 10
9.5776470622
 20
9.2780903165
 11
10.5367983939
 21
9.2780903165
  0
LINE
  5
216
100
AcDbEntity
  8
0
100
AcDbLine
 62
9
  6
CONTINUOUS
 10
26.044722728
 20
9.4020577841
 11
28.069722728
 21
9.4020577841
  0
LINE
  5
217
100
AcDbEntity
  8
0
100
AcDbLine
 62
9
  6
CONTINUOUS
 10
9.7648978969
 20
9.4030903165
 11
10.3495475592
 21
9.4030903165
  0
LINE
  5
218
100
AcDbEntity
  8
0
100
AcDbLine
 62
6
  6
CONTINUOUS
 10
26.082222728
 20
9.4730903165
 11
28.032222728
 21
9.4730903165
  0
LINE
  5
219
100
AcDbEntity
  8
0
100
AcDbLine
 62
9
  6
CONTINUOUS
 10
6.5574069348
 20
9.6486056126
 11
5.5570385213
 21
9.6486056126
  0
LINE
  5
21A
100
AcDbEntity
  8
0
100
AcDbLine
 62
6
  6
CONTINUOUS
 10
5.5692393838
 20
9.6530903165
 11
6.5452060722
 21
9.6530903165
  0
LINE
  5
21B
100
AcDbEntity
  8
0
100
AcDbLine
 62
9
  6
CONTINUOUS
 10
10.257222728
 20
9.7380903165
 11
9.857222728
 21
9.7380903165
  0
LINE
  5
21C
100
AcDbEntity
  8
0
100
AcDbLine
 62
7
  6
CONTINUOUS
 10
5.594222728
 20
9.7480903165
 11
5.622222728
 21
9.7480903165
  0
LINE
  5
21D
100
AcDbEntity
  8
0
100
AcDbLine
 62
7
  6
CONTINUOUS
 10
6.492222728
 20
9.7480903165
 11
6.520222728
 21
9.7480903165
  0
LINE
  5
21E
100
AcDbEntity
  8
0
100
AcDbLine
 62
9
  6
CONTINUOUS
 10
10.392222728
 20
9.7530903165
 11
9.722222728
 21
9.7530903165
  0
LINE
  5
21F
100
AcDbEntity
  8
0
100
AcDbLine
 62
9
  6
CONTINUOUS
 10
10.432222728
 20
9.7930903165
 11
9.682222728
 21
9.7930903165
  0
LINE
  5
220
100
AcDbEntity
  8
0
100
AcDbLine
 62
9
  6
CONTINUOUS
 10
6.492222728
 20
9.8945903165
 11
5.622222728
 21
9.8945903165
  0
LINE
  5
221
100
AcDbEntity
  8
0
100
AcDbLine
 62
6
  6
CONTINUOUS
 10
5.622222728
 20
9.8980903165
 11
6.492222728
 21
9.8980903165
  0
LINE
  5
222
100
AcDbEntity
  8
0
100
AcDbLine
 62
9
  6
CONTINUOUS
 10
9.682222728
 20
9.9630903165
 11
10.432222728
 21
9.9630903165
  0
LINE
  5
223
100
AcDbEntity
  8
0
100
AcDbLine
 62
9
  6
CONTINUOUS
 10
9.722222728
 20
10.0030903165
 11
10.392222728
 21
10.0030903165
  0
LINE
  5
224
100
AcDbEntity
  8
0
100
AcDbLine
 62
9
  6
CONTINUOUS
 10
17.2060560614
 20
10.0503705311
 11
18.9083893947
 21
10.0503705311
  0
LINE
  5
225
100
AcDbEntity
  8
0
100
AcDbLine
 62
9
  6
CONTINUOUS
 10
27.7654149242
 20
10.3138354584
 11
26.3490305319
 21
10.3138354584
  0
LINE
  5
226
100
AcDbEntity
  8
0
100
AcDbLine
 62
9
  6
CONTINUOUS
 10
27.7140933314
 20
10.4564310895
 11
26.4003521247
 21
10.4564310895
  0
LINE
  5
227
100
AcDbEntity
  8
0
100
AcDbLine
 62
9
  6
CONTINUOUS
 10
17.344722728
 20
10.947897999
 11
18.769722728
 21
10.947897999
  0
LWPOLYLINE
  5
228
100
AcDbEntity
  8
0
100
AcDbPolyline
 62
6
  6
CONTINUOUS
 90
3
 70
0
 10
18.3944802345
 20
12.062912394
 10
18.3953539992
 20
12.0631317929
 10
18.3962023911
 20
12.0633184051
  0
LINE
  5
229
100
AcDbEntity
  8
0
100
AcDbLine
 62
6
  6
CONTINUOUS
 10
18.3941480224
 20
12.0628214678
 11
18.3968274493
 21
12.0634395795
  0
LINE
  5
22A
100
AcDbEntity
  8
0
100
AcDbLine
 62
6
  6
CONTINUOUS
 10
18.3962023911
 20
12.0633184051
 11
18.3970168022
 21
12.0634735206
  0
LINE
  5
22B
100
AcDbEntity
  8
0
100
AcDbLine
 62
6
  6
CONTINUOUS
 10
18.3968650782
 20
12.0634464852
 11
18.3968274401
 21
12.063439629
  0
LINE
  5
22C
100
AcDbEntity
  8
0
100
AcDbLine
 62
6
  6
CONTINUOUS
 10
18.3970168022
 20
12.0634735206
 11
18.3972214424
 21
12.0635088431
  0
LINE
  5
22D
100
AcDbEntity
  8
0
100
AcDbLine
 62
6
  6
CONTINUOUS
 10
18.3970214112
 20
12.0634710538
 11
18.396981526
 21
12.0634644349
  0
LINE
  5
22E
100
AcDbEntity
  8
0
100
AcDbLine
 62
6
  6
CONTINUOUS
 10
18.3968650873
 20
12.0634464357
 11
18.3970182605
 21
12.0634706032
  0
LINE
  5
22F
100
AcDbEntity
  8
0
100
AcDbLine
 62
9
  6
CONTINUOUS
 10
18.769722728
 20
11.4330903165
 11
17.344722728
 21
11.4330903165
  0
LINE
  5
230
100
AcDbEntity
  8
0
100
AcDbLine
 62
9
  6
CONTINUOUS
 10
18.739722728
 20
11.4630903165
 11
17.374722728
 21
11.4630903165
  0
LINE
  5
231
100
AcDbEntity
  8
0
100
AcDbLine
 62
6
  6
CONTINUOUS
 10
17.682222728
 20
11.5830903165
 11
18.432222728
 21
11.5830903165
  0
LINE
  5
232
100
AcDbEntity
  8
0
100
AcDbLine
 62
7
  6
CONTINUOUS
 10
17.742222728
 20
11.6130903165
 11
18.372222728
 21
11.6130903165
  0
LINE
  5
233
100
AcDbEntity
  8
0
100
AcDbLine
 62
6
  6
CONTINUOUS
 10
17.344722728
 20
11.4330903165
 11
17.344722728
 21
10.947897999
  0
LINE
  5
234
100
AcDbEntity
  8
0
100
AcDbLine
 62
9
  6
CONTINUOUS
 10
17.374722728
 20
10.947897999
 11
17.374722728
 21
11.4630903165
  0
LWPOLYLINE
  5
235
100
AcDbEntity
  8
0
100
AcDbPolyline
 62
6
  6
CONTINUOUS
 90
4
 70
0
 10
18.3837900581
 20
12.057598044
 10
18.3863841038
 20
12.0594068942
 10
18.3890133618
 20
12.060864029
 10
18.3916323915
 20
12.0619972271
  0
LWPOLYLINE
  5
236
100
AcDbEntity
  8
0
100
AcDbPolyline
 62
6
  6
CONTINUOUS
 90
3
 70
0
 10
18.3880493823
 20
12.0603695628
 10
18.3889727048
 20
12.0608441167
 10
18.3898993987
 20
12.0612808136
  0
LWPOLYLINE
  5
237
100
AcDbEntity
  8
0
100
AcDbPolyline
 62
6
  6
CONTINUOUS
 90
3
 70
0
 10
18.3908278677
 20
12.0616804472
 10
18.3917550135
 20
12.0620432687
 10
18.3926760122
 20
12.0623691973
  0
LINE
  5
238
100
AcDbEntity
  8
0
100
AcDbLine
 62
6
  6
CONTINUOUS
 10
18.3916323915
 20
12.0619972271
 11
18.3941480224
 21
12.0628214678
  0
LWPOLYLINE
  5
239
100
AcDbEntity
  8
0
100
AcDbPolyline
 62
6
  6
CONTINUOUS
 90
3
 70
0
 10
18.3926760122
 20
12.0623691973
 10
18.3935860076
 20
12.0626586201
 10
18.3944802345
 20
12.062912394
  0
LINE
  5
23A
100
AcDbEntity
  8
0
100
AcDbLine
 62
6
  6
CONTINUOUS
 10
17.722222728
 20
12.0630903165
 11
18.392222728
 21
12.0630903165
  0
LINE
  5
23B
100
AcDbEntity
  8
0
100
AcDbLine
 62
9
  6
CONTINUOUS
 10
18.392222728
 20
12.1524240087
 11
17.722222728
 21
12.1524240087
  0
LINE
  5
23C
100
AcDbEntity
  8
0
100
AcDbLine
 62
9
  6
CONTINUOUS
 10
17.692222728
 20
12.1810840033
 11
18.422222728
 21
12.1810840033
  0
LINE
  5
23D
100
AcDbEntity
  8
0
100
AcDbLine
 62
9
  6
CONTINUOUS
 10
17.692222728
 20
12.4199587953
 11
18.422222728
 21
12.4199587953
  0
LINE
  5
23E
100
AcDbEntity
  8
0
100
AcDbLine
 62
9
  6
CONTINUOUS
 10
18.392222728
 20
12.4472137747
 11
17.722222728
 21
12.4472137747
  0
LINE
  5
23F
100
AcDbEntity
  8
0
100
AcDbLine
 62
6
  6
CONTINUOUS
 10
26.317222728
 20
12.6210903165
 11
27.797222728
 21
12.6210903165
  0
LINE
  5
240
100
AcDbEntity
  8
0
100
AcDbLine
 62
6
  6
CONTINUOUS
 10
17.722222728
 20
12.6530903165
 11
18.392222728
 21
12.6530903165
  0
LINE
  5
241
100
AcDbEntity
  8
0
100
AcDbLine
 62
9
  6
CONTINUOUS
 10
26.297222728
 20
12.6959234642
 11
27.817222728
 21
12.6959234642
  0
LINE
  5
242
100
AcDbEntity
  8
0
100
AcDbLine
 62
6
  6
CONTINUOUS
 10
17.682222728
 20
11.4630903165
 11
17.682222728
 21
11.5830903165
  0
LINE
  5
243
100
AcDbEntity
  8
0
100
AcDbLine
 62
9
  6
CONTINUOUS
 10
17.692222728
 20
12.0931349402
 11
17.692222728
 21
12.6230863012
  0
LINE
  5
244
100
AcDbEntity
  8
0
100
AcDbLine
 62
9
  6
CONTINUOUS
 10
17.722222728
 20
12.0630906221
 11
17.722222728
 21
12.6530903165
  0
LINE
  5
245
100
AcDbEntity
  8
0
100
AcDbLine
 62
6
  6
CONTINUOUS
 10
17.742222728
 20
12.0339295187
 11
17.742222728
 21
11.6130903165
  0
LINE
  5
246
100
AcDbEntity
  8
0
100
AcDbLine
 62
6
  6
CONTINUOUS
 10
18.3722590294
 20
12.035404961
 11
18.3722532322
 21
12.0352821733
  0
LINE
  5
247
100
AcDbEntity
  8
0
100
AcDbLine
 62
6
  6
CONTINUOUS
 10
18.3722532322
 20
12.0352821733
 11
18.3723451708
 21
12.036636888
  0
LWPOLYLINE
  5
248
100
AcDbEntity
  8
0
100
AcDbPolyline
 62
6
  6
CONTINUOUS
 90
6
 70
0
 10
18.3723451708
 20
12.036636888
 10
18.3725120746
 20
12.0380856121
 10
18.3727447746
 20
12.0395012431
 10
18.3730395301
 20
12.0408816885
 10
18.3733926747
 20
12.0422251585
 10
18.3738006316
 20
12.0435301443
  0
LINE
  5
249
100
AcDbEntity
  8
0
100
AcDbLine
 62
6
  6
CONTINUOUS
 10
18.3722590313
 20
12.0354049611
 11
18.3727212118
 21
12.0393609201
  0
LINE
  5
24A
100
AcDbEntity
  8
0
100
AcDbLine
 62
6
  6
CONTINUOUS
 10
18.3727112246
 20
12.0393207178
 11
18.3736469747
 21
12.0430626127
  0
LWPOLYLINE
  5
24B
100
AcDbEntity
  8
0
100
AcDbPolyline
 62
6
  6
CONTINUOUS
 90
9
 70
0
 10
18.3738006316
 20
12.0435301443
 10
18.3742599256
 20
12.0447953953
 10
18.3747671934
 20
12.0460198984
 10
18.3753191914
 20
12.047202857
 10
18.3759128022
 20
12.048343671
 10
18.3765450393
 20
12.0494419179
 10
18.3772130498
 20
12.0504973349
 10
18.3779141168
 20
12.0515098009
 10
18.3786456596
 20
12.0524793211
  0
LINE
  5
24C
100
AcDbEntity
  8
0
100
AcDbLine
 62
6
  6
CONTINUOUS
 10
18.3736187744
 20
12.042973953
 11
18.3750263487
 21
12.046591976
  0
LINE
  5
24D
100
AcDbEntity
  8
0
100
AcDbLine
 62
6
  6
CONTINUOUS
 10
18.3749869762
 20
12.0465071155
 11
18.3768179042
 21
12.0498847643
  0
LINE
  5
24E
100
AcDbEntity
  8
0
100
AcDbLine
 62
6
  6
CONTINUOUS
 10
18.3767726154
 20
12.0498124743
 11
18.3789469776
 21
12.0528559253
  0
LWPOLYLINE
  5
24F
100
AcDbEntity
  8
0
100
AcDbPolyline
 62
6
  6
CONTINUOUS
 90
11
 70
0
 10
18.3786456596
 20
12.0524793211
 10
18.3794052332
 20
12.0534060107
 10
18.3801905275
 20
12.0542900809
 10
18.3809993375
 20
12.055131798
 10
18.381829363
 20
12.0559312975
 10
18.3826782887
 20
12.0566887193
 10
18.3835438786
 20
12.0574043066
 10
18.3844239793
 20
12.0580783995
 10
18.3853165212
 20
12.0587114262
 10
18.3862195202
 20
12.0593038961
 10
18.3871310781
 20
12.0598563919
  0
LINE
  5
250
100
AcDbEntity
  8
0
100
AcDbLine
 62
6
  6
CONTINUOUS
 10
18.3789014684
 20
12.0527998698
 11
18.3813164103
 21
12.0554444048
  0
LINE
  5
251
100
AcDbEntity
  8
0
100
AcDbLine
 62
6
  6
CONTINUOUS
 10
18.3812747204
 20
12.0554038654
 11
18.3838269726
 21
12.057626696
  0
LINE
  5
252
100
AcDbEntity
  8
0
100
AcDbLine
 62
9
  6
CONTINUOUS
 10
27.817222728
 20
13.2553510853
 11
26.297222728
 21
13.2553510853
  0
LINE
  5
253
100
AcDbEntity
  8
0
100
AcDbLine
 62
9
  6
CONTINUOUS
 10
27.8456915069
 20
13.3252315861
 11
26.2687539492
 21
13.3252315861
  0
LINE
  5
254
100
AcDbEntity
  8
0
100
AcDbLine
 62
6
  6
CONTINUOUS
 10
18.372222728
 20
12.0339295187
 11
18.372222728
 21
11.6130903165
  0
LINE
  5
255
100
AcDbEntity
  8
0
100
AcDbLine
 62
9
  6
CONTINUOUS
 10
18.392222728
 20
12.0630906221
 11
18.392222728
 21
12.6530903165
  0
LINE
  5
256
100
AcDbEntity
  8
0
100
AcDbLine
 62
9
  6
CONTINUOUS
 10
18.422222728
 20
12.6230863012
 11
18.422222728
 21
12.0931349402
  0
LINE
  5
257
100
AcDbEntity
  8
0
100
AcDbLine
 62
6
  6
CONTINUOUS
 10
18.432222728
 20
11.4630903165
 11
18.432222728
 21
11.5830903165
  0
LINE
  5
258
100
AcDbEntity
  8
0
100
AcDbLine
 62
9
  6
CONTINUOUS
 10
18.739722728
 20
10.947897999
 11
18.739722728
 21
11.4630903165
  0
LINE
  5
259
100
AcDbEntity
  8
0
100
AcDbLine
 62
9
  6
CONTINUOUS
 10
18.769722728
 20
11.4330903165
 11
18.769722728
 21
10.947897999
  0
LINE
  5
25A
100
AcDbEntity
  8
0
100
AcDbLine
 62
6
  6
CONTINUOUS
 10
18.3722532322
 20
12.0352821733
 11
18.3722226875
 21
12.0339295187
  0
LINE
  5
25B
100
AcDbEntity
  8
0
100
AcDbLine
 62
6
  6
CONTINUOUS
 10
26.8960494966
 20
13.6210903165
 11
26.4178536845
 21
13.6210903165
  0
LINE
  5
25C
100
AcDbEntity
  8
0
100
AcDbLine
 62
6
  6
CONTINUOUS
 10
26.1899203147
 20
13.6210903165
 11
25.9918451239
 21
13.6210903165
  0
LINE
  5
25D
100
AcDbEntity
  8
0
100
AcDbLine
 62
6
  6
CONTINUOUS
 10
27.2183959595
 20
13.6210903165
 11
27.6965917716
 21
13.6210903165
  0
LINE
  5
25E
100
AcDbEntity
  8
0
100
AcDbLine
 62
6
  6
CONTINUOUS
 10
27.9245251414
 20
13.6210903165
 11
28.1226003322
 21
13.6210903165
  0
LINE
  5
25F
100
AcDbEntity
  8
0
100
AcDbLine
 62
9
  6
CONTINUOUS
 10
26.8960494966
 20
14.2310903165
 11
26.4178536845
 21
14.2310903165
  0
LINE
  5
260
100
AcDbEntity
  8
0
100
AcDbLine
 62
9
  6
CONTINUOUS
 10
26.1899203147
 20
14.2310903165
 11
25.9918451239
 21
14.2310903165
  0
LINE
  5
261
100
AcDbEntity
  8
0
100
AcDbLine
 62
9
  6
CONTINUOUS
 10
27.2183959595
 20
14.2310903165
 11
27.6965917716
 21
14.2310903165
  0
LINE
  5
262
100
AcDbEntity
  8
0
100
AcDbLine
 62
9
  6
CONTINUOUS
 10
27.9245251414
 20
14.2310903165
 11
28.1226003322
 21
14.2310903165
  0
LINE
  5
263
100
AcDbEntity
  8
0
100
AcDbLine
 62
7
  6
CONTINUOUS
 10
26.129722728
 20
14.3810903165
 11
27.984722728
 21
14.3810903165
  0
LINE
  5
264
100
AcDbEntity
  8
0
100
AcDbLine
 62
9
  6
CONTINUOUS
 10
26.148086295
 20
14.4410903165
 11
27.9663591611
 21
14.4410903165
  0
LINE
  5
265
100
AcDbEntity
  8
0
100
AcDbLine
 62
6
  6
CONTINUOUS
 10
28.0472178666
 20
13.5315184111
 11
27.8456915068
 21
13.325231586
  0
LINE
  5
266
100
AcDbEntity
  8
0
100
AcDbLine
 62
6
  6
CONTINUOUS
 10
26.0672275894
 20
13.5315184111
 11
26.2687539493
 21
13.325231586
  0
LINE
  5
267
100
AcDbEntity
  8
0
100
AcDbLine
 62
6
  6
CONTINUOUS
 10
25.9918451239
 20
14.2310903165
 11
25.9918451239
 21
13.6210903165
  0
LINE
  5
268
100
AcDbEntity
  8
0
100
AcDbLine
 62
6
  6
CONTINUOUS
 10
26.044722728
 20
9.4020577841
 11
26.044722728
 21
9.1530903165
  0
LINE
  5
269
100
AcDbEntity
  8
0
100
AcDbLine
 62
6
  6
CONTINUOUS
 10
26.4178536845
 20
13.6210903165
 11
26.4186943745
 21
13.6048972814
  0
LINE
  5
26A
100
AcDbEntity
  8
0
100
AcDbLine
 62
6
  6
CONTINUOUS
 10
26.1899203147
 20
14.2310903165
 11
26.1899203147
 21
13.6210903165
  0
LINE
  5
26B
100
AcDbEntity
  8
0
100
AcDbLine
 62
6
  6
CONTINUOUS
 10
26.297222728
 20
13.2553510853
 11
26.297222728
 21
12.6959234642
  0
LINE
  5
26C
100
AcDbEntity
  8
0
100
AcDbLine
 62
6
  6
CONTINUOUS
 10
26.4178536845
 20
14.2310903165
 11
26.4178536845
 21
13.6210903165
  0
LINE
  5
26D
100
AcDbEntity
  8
0
100
AcDbLine
 62
6
  6
CONTINUOUS
 10
26.8960494966
 20
14.2310903165
 11
26.8960494966
 21
13.6210903165
  0
LINE
  5
26E
100
AcDbEntity
  8
0
100
AcDbLine
 62
6
  6
CONTINUOUS
 10
26.4816337952
 20
12.6210903165
 11
26.4003521247
 21
10.4564310895
  0
LINE
  5
26F
100
AcDbEntity
  8
0
100
AcDbLine
 62
6
  6
CONTINUOUS
 10
27.6328116608
 20
12.6210903165
 11
27.7140933314
 21
10.4564310895
  0
LINE
  5
270
100
AcDbEntity
  8
0
100
AcDbLine
 62
6
  6
CONTINUOUS
 10
27.2183959595
 20
14.2310903165
 11
27.2183959595
 21
13.6210903165
  0
LINE
  5
271
100
AcDbEntity
  8
0
100
AcDbLine
 62
6
  6
CONTINUOUS
 10
27.6965917716
 20
14.2310903165
 11
27.6965917716
 21
13.6210903165
  0
LINE
  5
272
100
AcDbEntity
  8
0
100
AcDbLine
 62
6
  6
CONTINUOUS
 10
27.817222728
 20
13.2553510853
 11
27.817222728
 21
12.6959234642
  0
LINE
  5
273
100
AcDbEntity
  8
0
100
AcDbLine
 62
6
  6
CONTINUOUS
 10
27.9245251414
 20
14.2310903165
 11
27.9245251414
 21
13.6210903165
  0
LINE
  5
274
100
AcDbEntity
  8
0
100
AcDbLine
 62
6
  6
CONTINUOUS
 10
28.069722728
 20
9.4020577841
 11
28.069722728
 21
9.1530903165
  0
LINE
  5
275
100
AcDbEntity
  8
0
100
AcDbLine
 62
6
  6
CONTINUOUS
 10
28.1226003322
 20
14.2310903165
 11
28.1226003322
 21
13.6210903165
  0
LINE
  5
276
100
AcDbEntity
  8
0
100
AcDbLine
 62
6
  6
CONTINUOUS
 10
27.6957510769
 20
13.6048994106
 11
27.6965917716
 21
13.6210903165
  0
ARC
  5
277
100
AcDbEntity
  8
0
100
AcDbCircle
 62
6
  6
CONTINUOUS
 10
6.1484431343
 20
8.9701952768
 40
0.9
100
AcDbArc
 50
131.0803096781
 51
168.2748731243
  0
ARC
  5
278
100
AcDbEntity
  8
0
100
AcDbCircle
 62
6
  6
CONTINUOUS
 10
5.9660023218
 20
8.9701952768
 40
0.9
100
AcDbArc
 50
11.7251268757
 51
48.9196903219
  0
ARC
  5
279
100
AcDbEntity
  8
0
100
AcDbCircle
 62
6
  6
CONTINUOUS
 10
10.5367999404
 20
9.0910903165
 40
0.187
100
AcDbArc
 50
19.3629299219
 51
90.0
  0
ARC
  5
27A
100
AcDbEntity
  8
0
100
AcDbCircle
 62
6
  6
CONTINUOUS
 10
10.3495499404
 20
9.2160903165
 40
0.187
100
AcDbArc
 50
19.3629299219
 51
90.0
  0
ARC
  5
27B
100
AcDbEntity
  8
0
100
AcDbCircle
 62
6
  6
CONTINUOUS
 10
9.5776455157
 20
9.0910903165
 40
0.187
100
AcDbArc
 50
90.0
 51
160.6370700781
  0
ARC
  5
27C
100
AcDbEntity
  8
0
100
AcDbCircle
 62
6
  6
CONTINUOUS
 10
9.7648955157
 20
9.2160903165
 40
0.187
100
AcDbArc
 50
90.0
 51
160.6370700781
  0
ARC
  5
27D
100
AcDbEntity
  8
0
100
AcDbCircle
 62
6
  6
CONTINUOUS
 10
9.722222728
 20
9.7930903165
 40
0.04
100
AcDbArc
 50
180.0
 51
270.0
  0
ARC
  5
27E
100
AcDbEntity
  8
0
100
AcDbCircle
 62
6
  6
CONTINUOUS
 10
10.392222728
 20
9.7930903165
 40
0.04
100
AcDbArc
 50
270.0
 51
360.0
  0
ARC
  5
27F
100
AcDbEntity
  8
0
100
AcDbCircle
 62
6
  6
CONTINUOUS
 10
6.5454376282
 20
9.6348754163
 40
0.0182149002
100
AcDbArc
 50
48.9196908212
 51
90.0
  0
ARC
  5
280
100
AcDbEntity
  8
0
100
AcDbCircle
 62
6
  6
CONTINUOUS
 10
5.5690078279
 20
9.6348754163
 40
0.0182149002
100
AcDbArc
 50
90.0
 51
131.0803091788
  0
ARC
  5
281
100
AcDbEntity
  8
0
100
AcDbCircle
 62
6
  6
CONTINUOUS
 10
10.272222728
 20
9.7380903165
 40
0.015
100
AcDbArc
 50
98.181793888
 51
180.0
  0
ARC
  5
282
100
AcDbEntity
  8
0
100
AcDbCircle
 62
6
  6
CONTINUOUS
 10
9.842222728
 20
9.7380903165
 40
0.015
100
AcDbArc
 50
0.0
 51
81.818206112
  0
ARC
  5
283
100
AcDbEntity
  8
0
100
AcDbCircle
 62
9
  6
CONTINUOUS
 10
9.722222728
 20
9.9630903165
 40
0.04
100
AcDbArc
 50
90.0
 51
180.0
  0
ARC
  5
284
100
AcDbEntity
  8
0
100
AcDbCircle
 62
9
  6
CONTINUOUS
 10
10.392222728
 20
9.9630903165
 40
0.04
100
AcDbArc
 50
0.0
 51
90.0
  0
ARC
  5
285
100
AcDbEntity
  8
0
100
AcDbCircle
 62
6
  6
CONTINUOUS
 10
16.369722728
 20
9.0630903165
 40
2.75
100
AcDbArc
 50
1.8754700483
 51
21.0394697813
  0
ARC
  5
286
100
AcDbEntity
  8
0
100
AcDbCircle
 62
6
  6
CONTINUOUS
 10
14.844722728
 20
10.947897999
 40
2.5
100
AcDbArc
 50
338.9605302187
 51
360.0
  0
ARC
  5
287
100
AcDbEntity
  8
0
100
AcDbCircle
 62
9
  6
CONTINUOUS
 10
14.900889112
 20
10.9482254507
 40
2.4738406549
100
AcDbArc
 50
338.7192505641
 51
359.9924159801
  0
ARC
  5
288
100
AcDbEntity
  8
0
100
AcDbCircle
 62
6
  6
CONTINUOUS
 10
17.374722728
 20
11.4330903165
 40
0.03
100
AcDbArc
 50
125.9163924523
 51
136.2269362981
  0
ARC
  5
289
100
AcDbEntity
  8
0
100
AcDbCircle
 62
6
  6
CONTINUOUS
 10
17.374722728
 20
11.4330903165
 40
0.03
100
AcDbArc
 50
90.0
 51
107.3026158986
  0
ARC
  5
28A
100
AcDbEntity
  8
0
100
AcDbCircle
 62
9
  6
CONTINUOUS
 10
17.374722728
 20
11.4330903165
 40
0.03
100
AcDbArc
 50
136.2269362981
 51
180.0
  0
ARC
  5
28B
100
AcDbEntity
  8
0
100
AcDbCircle
 62
9
  6
CONTINUOUS
 10
17.374722728
 20
11.4330903165
 40
0.03
100
AcDbArc
 50
107.3026158986
 51
125.9163924523
  0
ARC
  5
28C
100
AcDbEntity
  8
0
100
AcDbCircle
 62
6
  6
CONTINUOUS
 10
17.722222728
 20
12.0930903165
 40
0.03
100
AcDbArc
 50
180.0
 51
270.0
  0
ARC
  5
28D
100
AcDbEntity
  8
0
100
AcDbCircle
 62
6
  6
CONTINUOUS
 10
17.722222728
 20
12.6230903165
 40
0.03
100
AcDbArc
 50
90.0
 51
180.0
  0
ARC
  5
28E
100
AcDbEntity
  8
0
100
AcDbCircle
 62
6
  6
CONTINUOUS
 10
27.057222728
 20
8.1156745174
 40
6.3904157991
100
AcDbArc
 50
81.821031102
 51
98.178968898
  0
ARC
  5
28F
100
AcDbEntity
  8
0
100
AcDbCircle
 62
6
  6
CONTINUOUS
 10
19.744722728
 20
9.0630903165
 40
2.75
100
AcDbArc
 50
158.9605302187
 51
178.1245299268
  0
ARC
  5
290
100
AcDbEntity
  8
0
100
AcDbCircle
 62
6
  6
CONTINUOUS
 10
21.269722728
 20
10.947897999
 40
2.5
100
AcDbArc
 50
180.0
 51
201.0394697813
  0
ARC
  5
291
100
AcDbEntity
  8
0
100
AcDbCircle
 62
9
  6
CONTINUOUS
 10
21.2135563621
 20
10.9482254564
 40
2.4738406506
100
AcDbArc
 50
180.0075841518
 51
201.2807494072
  0
ARC
  5
292
100
AcDbEntity
  8
0
100
AcDbCircle
 62
6
  6
CONTINUOUS
 10
27.3812427361
 20
9.5235583137
 40
1.3
100
AcDbArc
 50
142.5617897107
 51
182.2248692774
  0
ARC
  5
293
100
AcDbEntity
  8
0
100
AcDbCircle
 62
6
  6
CONTINUOUS
 10
26.73320272
 20
9.5235583137
 40
1.3
100
AcDbArc
 50
357.7751307226
 51
37.4382102893
  0
ARC
  5
294
100
AcDbEntity
  8
0
100
AcDbCircle
 62
6
  6
CONTINUOUS
 10
27.9639172728
 20
10.4658118302
 40
0.25
100
AcDbArc
 50
182.1504122382
 51
217.438209623
  0
ARC
  5
295
100
AcDbEntity
  8
0
100
AcDbCircle
 62
6
  6
CONTINUOUS
 10
26.1505281832
 20
10.4658118302
 40
0.25
100
AcDbArc
 50
322.561790377
 51
357.8495877618
  0
ARC
  5
296
100
AcDbEntity
  8
0
100
AcDbCircle
 62
6
  6
CONTINUOUS
 10
26.1307476701
 20
9.4020577841
 40
0.0860249421
100
AcDbArc
 50
124.338423378
 51
180.0
  0
ARC
  5
297
100
AcDbEntity
  8
0
100
AcDbCircle
 62
6
  6
CONTINUOUS
 10
27.983697786
 20
9.4020577841
 40
0.0860249421
100
AcDbArc
 50
0.0
 51
55.661576622
  0
ARC
  5
298
100
AcDbEntity
  8
0
100
AcDbCircle
 62
6
  6
CONTINUOUS
 10
23.8910425457
 20
11.7765871659
 40
2.7956329059
100
AcDbArc
 50
38.9109152449
 51
41.2831093706
  0
ARC
  5
299
100
AcDbEntity
  8
0
100
AcDbCircle
 62
6
  6
CONTINUOUS
 10
30.2217053456
 20
11.7780218305
 40
2.7934106932
100
AcDbArc
 50
138.7160306338
 51
141.1043761105
  0
ARC
  5
29A
100
AcDbEntity
  8
0
100
AcDbCircle
 62
6
  6
CONTINUOUS
 10
26.129722728
 20
14.2310903165
 40
0.15
100
AcDbArc
 50
90.0
 51
114.6198844897
  0
ARC
  5
29B
100
AcDbEntity
  8
0
100
AcDbCircle
 62
6
  6
CONTINUOUS
 10
26.447222728
 20
12.6959234642
 40
0.15
100
AcDbArc
 50
180.0
 51
209.9264348666
  0
ARC
  5
29C
100
AcDbEntity
  8
0
100
AcDbCircle
 62
6
  6
CONTINUOUS
 10
27.984722728
 20
14.2310903165
 40
0.15
100
AcDbArc
 50
65.3801155103
 51
90.0
  0
ARC
  5
29D
100
AcDbEntity
  8
0
100
AcDbCircle
 62
6
  6
CONTINUOUS
 10
27.667222728
 20
12.6959234642
 40
0.15
100
AcDbArc
 50
330.0735651334
 51
360.0
  0
ARC
  5
29E
100
AcDbEntity
  8
0
100
AcDbCircle
 62
6
  6
CONTINUOUS
 10
26.197222728
 20
13.2553510853
 40
0.1
100
AcDbArc
 50
0.0
 51
44.3312080184
  0
ARC
  5
29F
100
AcDbEntity
  8
0
100
AcDbCircle
 62
6
  6
CONTINUOUS
 10
27.917222728
 20
13.2553510853
 40
0.1
100
AcDbArc
 50
135.6687919816
 51
180.0
  0
ARC
  5
2A0
100
AcDbEntity
  8
0
100
AcDbCircle
 62
6
  6
CONTINUOUS
 10
26.1523760802
 20
14.4112436686
 40
0.0301533521
100
AcDbArc
 50
98.178968898
 51
270.0
  0
ARC
  5
2A1
100
AcDbEntity
  8
0
100
AcDbCircle
 62
6
  6
CONTINUOUS
 10
27.9620693759
 20
14.4112436686
 40
0.0301533521
100
AcDbArc
 50
270.0
 51
81.821031102
  0
ARC
  5
2A2
100
AcDbEntity
  8
0
100
AcDbCircle
 62
6
  6
CONTINUOUS
 10
18.392222728
 20
12.0930903165
 40
0.03
100
AcDbArc
 50
270.0
 51
360.0
  0
ARC
  5
2A3
100
AcDbEntity
  8
0
100
AcDbCircle
 62
6
  6
CONTINUOUS
 10
18.392222728
 20
12.6230903165
 40
0.03
100
AcDbArc
 50
0.0
 51
90.0
  0
ARC
  5
2A4
100
AcDbEntity
  8
0
100
AcDbCircle
 62
6
  6
CONTINUOUS
 10
18.739722728
 20
11.4330903165
 40
0.03
100
AcDbArc
 50
0.0
 51
90.0
  0
ARC
  5
2A5
100
AcDbEntity
  8
0
100
AcDbCircle
 62
6
  6
CONTINUOUS
 10
18.4022226813
 20
12.0339286911
 40
0.0299999959
100
AcDbArc
 50
99.5937405674
 51
177.1853973739
  0
LINE
  5
2A6
100
AcDbEntity
  8
0
100
AcDbLine
 62
6
  6
CONTINUOUS
 10
28.0476186406
 20
13.5320145044
 11
28.0472290753
 21
13.5315314483
  0
SPLINE
  5
2A7
100
AcDbEntity
  8
0
100
AcDbSpline
 62
6
  6
CONTINUOUS
 70
0
 71
3
 72
29
 73
25
 74
23
 42
0.0000001
 43
0.0000001
 44
0.0000000001
 12
0.0
 22
0.1623866785
 32
0.0
 13
-0.1414950505
 23
0.0796780022
 33
0.0
 40
0.0
 40
0.0
 40
0.0
 40
0.0
 40
0.0926560636
 40
0.1848923795
 40
0.2759447963
 40
0.3651326442
 40
0.4088071661
 40
0.451710079
 40
0.4937137292
 40
0.534685033
 40
0.5745001095
 40
0.6130358077
 40
0.6501580083
 40
0.6857301929
 40
0.7518638169
 40
0.8107696108
 40
0.8619850636
 40
0.8846594459
 40
0.905339028
 40
0.9407293385
 40
0.9682526556
 40
0.9879781089
 40
0.9949464932
 40
1.0
 40
1.0
 40
1.0
 40
1.0
 10
28.1226003322
 20
14.2310903165
 30
0.0
 10
28.1226003322
 20
14.2361056866
 30
0.0
 10
28.1221446416
 20
14.2461192331
 30
0.0
 10
28.1201377021
 20
14.2609397862
 30
0.0
 10
28.1168475152
 20
14.275336835
 30
0.0
 10
28.1131153841
 20
14.2868859765
 30
0.0
 10
28.1095955137
 20
14.2957275687
 30
0.0
 10
28.1067463797
 20
14.3020800186
 30
0.0
 10
28.1036971949
 20
14.3081755438
 30
0.0
 10
28.1004738656
 20
14.3139903652
 30
0.0
 10
28.0971097905
 20
14.319505978
 30
0.0
 10
28.0936428615
 20
14.3247086993
 30
0.0
 10
28.0901093666
 20
14.3295855201
 30
0.0
 10
28.0854660709
 20
14.3354958362
 30
0.0
 10
28.079722395
 20
14.3420330524
 30
0.0
 10
28.0729420301
 20
14.3487543255
 30
0.0
 10
28.067521265
 20
14.3534821784
 30
0.0
 10
28.0635181179
 20
14.3566733738
 30
0.0
 10
28.0601179298
 20
14.3592442396
 30
0.0
 10
28.0564155098
 20
14.3618484372
 30
0.0
 10
28.0526525291
 20
14.3642684566
 30
0.0
 10
28.0501406211
 20
14.3657866515
 30
0.0
 10
28.0486522459
 20
14.3666456783
 30
0.0
 10
28.048085594
 20
14.3669656195
 30
0.0
 10
28.0478472452
 20
14.3670998372
 30
0.0
 11
28.1226003322
 21
14.2310903165
 31
0.0
 11
28.12192034
 21
14.2461210533
 31
0.0
 11
28.1199061951
 21
14.2609629594
 31
0.0
 11
28.1166137573
 21
14.2753774231
 31
0.0
 11
28.112155721
 21
14.2891571487
 31
0.0
 11
28.109533083
 21
14.2957465728
 31
0.0
 11
28.1066816852
 21
14.3021031985
 31
0.0
 11
28.1036290795
 21
14.3082028186
 31
0.0
 11
28.100403151
 21
14.3140216135
 31
0.0
 11
28.097036685
 21
14.3195414682
 31
0.0
 11
28.0935661977
 21
14.3247486102
 31
0.0
 11
28.0900282989
 21
14.3296293759
 31
0.0
 11
28.0864594399
 21
14.3341714688
 31
0.0
 11
28.079369204
 21
14.342237409
 31
0.0
 11
28.0725721019
 21
14.3489678253
 31
0.0
 11
28.0663026085
 21
14.3544323538
 31
0.0
 11
28.0634235989
 21
14.3567276878
 31
0.0
 11
28.060744669
 21
14.3587525566
 31
0.0
 11
28.056042304
 21
14.3620563112
 31
0.0
 11
28.0522847002
 21
14.3644762553
 31
0.0
 11
28.0495415427
 21
14.3661301182
 31
0.0
 11
28.0485614504
 21
14.366695694
 31
0.0
 11
28.0478472452
 21
14.3670998372
 31
0.0
  0
LINE
  5
2A8
100
AcDbEntity
  8
0
100
AcDbLine
 62
6
  6
CONTINUOUS
 10
28.0478472452
 20
14.3670998372
 11
28.0472231916
 21
14.3674512093
  0
SPLINE
  5
2A9
100
AcDbEntity
  8
0
100
AcDbSpline
 62
6
  6
CONTINUOUS
 70
0
 71
3
 72
14
 73
10
 74
8
 42
0.0000001
 43
0.0000001
 44
0.0000000001
 12
0.0
 22
0.0656219725
 32
0.0
 13
-0.000110683
 23
0.0656218792
 33
0.0
 40
0.0
 40
0.0
 40
0.0
 40
0.0
 40
0.2617474665
 40
0.391335074
 40
0.5191266133
 40
0.6444700038
 40
0.7667809812
 40
0.8854808419
 40
1.0
 40
1.0
 40
1.0
 40
1.0
 10
27.6965917716
 20
14.2310903165
 30
0.0
 10
27.6965917716
 20
14.2368157782
 30
0.0
 10
27.6965351767
 20
14.2453758898
 30
0.0
 10
27.6963806192
 20
14.2567302168
 30
0.0
 10
27.6962335263
 20
14.2651006148
 30
0.0
 10
27.696069742
 20
14.273311479
 30
0.0
 10
27.6959159117
 20
14.2813236402
 30
0.0
 10
27.6957967294
 20
14.2890996097
 30
0.0
 10
27.6957557681
 20
14.2942009789
 30
0.0
 10
27.695751543
 20
14.2967059664
 30
0.0
 11
27.6965917716
 21
14.2310903165
 31
0.0
 11
27.6964892592
 21
14.2482663956
 31
0.0
 11
27.6963744337
 21
14.2567694148
 31
0.0
 11
27.6962292367
 21
14.2651540906
 31
0.0
 11
27.696069456
 21
14.2733778191
 31
0.0
 11
27.6959196511
 21
14.2814027085
 31
0.0
 11
27.6958049694
 21
14.2891911833
 31
0.0
 11
27.695751543
 21
14.2967059664
 31
0.0
  0
LINE
  5
2AA
100
AcDbEntity
  8
0
100
AcDbLine
 62
7
  6
CONTINUOUS
 10
17.7513531628
 20
12.0344345471
 11
17.7511991085
 21
12.034412375
  0
SPLINE
  5
2AB
100
AcDbEntity
  8
0
100
AcDbSpline
 62
7
  6
CONTINUOUS
 70
0
 71
3
 72
29
 73
25
 74
23
 42
0.0000001
 43
0.0000001
 44
0.0000000001
 12
-0.0089109853
 22
-0.0012692775
 32
0.0
 13
-0.0002159186
 23
0.0089983389
 33
0.0
 40
0.0
 40
0.0
 40
0.0
 40
0.0
 40
0.2345012492
 40
0.4374680558
 40
0.5272184771
 40
0.6091661619
 40
0.6833247767
 40
0.7497022047
 40
0.8082993283
 40
0.8591104152
 40
0.9021247429
 40
0.9207055662
 40
0.9373345362
 40
0.9520108922
 40
0.9647338282
 40
0.9755024933
 40
0.9843159936
 40
0.991173394
 40
0.9938682575
 40
0.996073732
 40
0.9977896968
 40
0.9990160409
 40
0.9997526964
 40
1.0
 40
1.0
 40
1.0
 40
1.0
 10
17.7511991085
 20
12.034412375
 30
0.0
 10
17.7505025628
 20
12.0343131593
 30
0.0
 10
17.7491993073
 20
12.0341537315
 30
0.0
 10
17.747622575
 20
12.0340227029
 30
0.0
 10
17.7465002555
 20
12.0339586094
 30
0.0
 10
17.7457632485
 20
12.0339272899
 30
0.0
 10
17.7450959788
 20
12.0339082782
 30
0.0
 10
17.7444985738
 20
12.0338990405
 30
0.0
 10
17.7439711555
 20
12.033897043
 30
0.0
 10
17.7435138443
 20
12.0338998517
 30
0.0
 10
17.743176616
 20
12.0339041362
 30
0.0
 10
17.7429419539
 20
12.0339081813
 30
0.0
 10
17.7427923109
 20
12.0339112217
 30
0.0
 10
17.7426602476
 20
12.0339143137
 30
0.0
 10
17.742545775
 20
12.0339173642
 30
0.0
 10
17.742448885
 20
12.0339202616
 30
0.0
 10
17.7423696247
 20
12.0339229412
 30
0.0
 10
17.7423145098
 20
12.0339249662
 30
0.0
 10
17.7422793403
 20
12.0339264941
 30
0.0
 10
17.7422593474
 20
12.0339272455
 30
0.0
 10
17.7422443379
 20
12.0339283364
 30
0.0
 10
17.7422323711
 20
12.0339281549
 30
0.0
 10
17.7422274126
 20
12.0339299423
 30
0.0
 10
17.7422227458
 20
12.0339287769
 30
0.0
 10
17.742222728
 20
12.0339295187
 30
0.0
 11
17.7511991085
 21
12.034412375
 31
0.0
 11
17.7491039085
 21
12.0341568089
 31
0.0
 11
17.7472832982
 21
12.0340054666
 31
0.0
 11
17.7464767799
 21
12.0339593238
 31
0.0
 11
17.7457398357
 21
12.0339281017
 31
0.0
 11
17.7450726086
 21
12.0339091419
 31
0.0
 11
17.7444752213
 21
12.0338999144
 31
0.0
 11
17.7439477966
 21
12.0338978894
 31
0.0
 11
17.7434904573
 21
12.0339005371
 31
0.0
 11
17.7431033199
 21
12.0339054759
 31
0.0
 11
17.7429361003
 21
12.0339083728
 31
0.0
 11
17.7427864552
 21
12.0339114227
 31
0.0
 11
17.7426543909
 21
12.0339145271
 31
0.0
 11
17.7425399135
 21
12.0339175877
 31
0.0
 11
17.7424430295
 21
12.033920506
 31
0.0
 11
17.742363745
 21
12.0339231836
 31
0.0
 11
17.7423020663
 21
12.0339255221
 31
0.0
 11
17.7422778311
 21
12.0339265334
 31
0.0
 11
17.7422579998
 21
12.0339274231
 31
0.0
 11
17.742242573
 21
12.0339281787
 31
0.0
 11
17.7422315516
 21
12.0339287881
 31
0.0
 11
17.7422249363
 21
12.0339292388
 31
0.0
 11
17.742222728
 21
12.0339295187
 31
0.0
  0
SPLINE
  5
2AC
100
AcDbEntity
  8
0
100
AcDbSpline
 62
7
  6
CONTINUOUS
 70
0
 71
3
 72
16
 73
12
 74
10
 42
0.0000001
 43
0.0000001
 44
0.0000000001
 12
0.0450731606
 22
-0.0
 32
0.0
 13
0.0019397549
 23
-0.0450314019
 33
0.0
 40
0.0
 40
0.0
 40
0.0
 40
0.0
 40
0.1229495578
 40
0.2466532003
 40
0.3086976175
 40
0.370837221
 40
0.4953777709
 40
0.6205980677
 40
0.7465839864
 40
0.8732885617
 40
1.0
 40
1.0
 40
1.0
 40
1.0
 10
17.7222227281
 20
12.0630903165
 30
0.0
 10
17.7240699698
 20
12.0630903165
 30
0.0
 10
17.7277844235
 20
12.0627177636
 30
0.0
 10
17.732253739
 20
12.0613691782
 30
0.0
 10
17.7356268574
 20
12.0597773567
 30
0.0
 10
17.7388393812
 20
12.0578586787
 30
0.0
 10
17.7425006853
 20
12.0548835672
 30
0.0
 10
17.7461423647
 20
12.0505267825
 30
0.0
 10
17.7489250287
 20
12.0455381133
 30
0.0
 10
17.7507239254
 20
12.0400957103
 30
0.0
 10
17.7512430516
 20
12.036298351
 30
0.0
 10
17.7513249813
 20
12.0343963531
 30
0.0
 11
17.7222227281
 21
12.0630903165
 31
0.0
 11
17.7277374324
 21
12.0625437327
 31
0.0
 11
17.7330747226
 21
12.0609306854
 31
0.0
 11
17.735604128
 21
12.0597379018
 31
0.0
 11
17.7380090599
 21
12.0583023036
 31
0.0
 11
17.7423655949
 21
12.0547623504
 31
0.0
 11
17.7459895971
 21
12.0504354363
 31
0.0
 11
17.7487550466
 21
12.0454757387
 31
0.0
 11
17.7505532969
 21
12.0400552647
 31
0.0
 11
17.7513249813
 21
12.0343963531
 31
0.0
  0
SPLINE
  5
2AD
100
AcDbEntity
  8
0
100
AcDbSpline
 62
7
  6
CONTINUOUS
 70
0
 71
3
 72
19
 73
15
 74
13
 42
0.0000001
 43
0.0000001
 44
0.0000000001
 12
0.0387374277
 22
-0.0092717458
 32
0.0
 13
0.0003013577
 23
-0.0398304251
 33
0.0
 40
0.0
 40
0.0
 40
0.0
 40
0.0
 40
0.1233433936
 40
0.1852104801
 40
0.2471814535
 40
0.3713955754
 40
0.4961810147
 40
0.5588600396
 40
0.6216879805
 40
0.6846593023
 40
0.7477734825
 40
0.810981109
 40
0.8741805023
 40
1.0
 40
1.0
 40
1.0
 40
1.0
 10
17.7286157864
 20
12.0636324537
 30
0.0
 10
17.730208455
 20
12.0632512509
 30
0.0
 10
17.7325580146
 20
12.0624737139
 30
0.0
 10
17.7355170718
 20
12.0610475619
 30
0.0
 10
17.7383549466
 20
12.0593692638
 30
0.0
 10
17.7416334978
 20
12.0568260568
 30
0.0
 10
17.7444484725
 20
12.0537650492
 30
0.0
 10
17.7463810266
 20
12.0510577939
 30
0.0
 10
17.7476652123
 20
12.0489065725
 30
0.0
 10
17.7487713841
 20
12.0466522657
 30
0.0
 10
17.7496886782
 20
12.0443093375
 30
0.0
 10
17.7504119166
 20
12.0418960573
 30
0.0
 10
17.7511127262
 20
12.0386189766
 30
0.0
 10
17.7513407725
 20
12.0361050285
 30
0.0
 10
17.7513534114
 20
12.0344345471
 30
0.0
 11
17.7286157864
 21
12.0636324537
 31
0.0
 11
17.7332791897
 21
12.0620865397
 31
0.0
 11
17.7354994299
 21
12.0610173696
 31
0.0
 11
17.7376243293
 21
12.0597612623
 31
0.0
 11
17.7415338271
 21
12.0567289369
 31
0.0
 11
17.7449005443
 21
12.0530724243
 31
0.0
 11
17.7463514623
 21
12.051040709
 31
0.0
 11
17.7476341751
 21
12.0488919116
 31
0.0
 11
17.7487387972
 21
12.0466399992
 31
0.0
 11
17.7496557533
 21
12.0442992582
 31
0.0
 11
17.7503791525
 21
12.0418877651
 31
0.0
 11
17.7509055183
 21
12.0394260801
 31
0.0
 11
17.7513534114
 21
12.0344345471
 31
0.0
  0
LINE
  5
2AE
100
AcDbEntity
  8
0
100
AcDbLine
 62
6
  6
CONTINUOUS
 10
26.0672210884
 20
13.5315256339
 11
26.0663902158
 21
13.5325558043
  0
SPLINE
  5
2AF
100
AcDbEntity
  8
0
100
AcDbSpline
 62
6
  6
CONTINUOUS
 70
0
 71
3
 72
14
 73
10
 74
8
 42
0.0000001
 43
0.0000001
 44
0.0000000001
 12
-0.0001108784
 22
-0.0656200259
 32
0.0
 13
0.0
 23
-0.0656201195
 33
0.0
 40
0.0
 40
0.0
 40
0.0
 40
0.0
 40
0.1145200112
 40
0.2332203088
 40
0.3555313915
 40
0.4808746378
 40
0.6086658805
 40
0.7382531573
 40
1.0
 40
1.0
 40
1.0
 40
1.0
 10
26.4186939098
 20
14.2967041134
 30
0.0
 10
26.4186896772
 20
14.294199178
 30
0.0
 10
26.4186487029
 20
14.2890979247
 30
0.0
 10
26.4185295147
 20
14.2813221445
 30
0.0
 10
26.4183756891
 20
14.2733102008
 30
0.0
 10
26.4182119121
 20
14.2650995757
 30
0.0
 10
26.4180648218
 20
14.2567294309
 30
0.0
 10
26.4179102734
 20
14.2453754519
 30
0.0
 10
26.4178536845
 20
14.2368156029
 30
0.0
 10
26.4178536845
 20
14.2310903165
 30
0.0
 11
26.4186939098
 21
14.2967041134
 31
0.0
 11
26.4186404652
 21
14.2891894866
 31
0.0
 11
26.4185257769
 21
14.2814012033
 31
0.0
 11
26.4183759753
 21
14.2733765335
 31
0.0
 11
26.4182162007
 21
14.2651530467
 31
0.0
 11
26.4180710079
 21
14.2567686271
 31
0.0
 11
26.4179561885
 21
14.2482658697
 31
0.0
 11
26.4178536845
 21
14.2310903165
 31
0.0
  0
LINE
  5
2B0
100
AcDbEntity
  8
0
100
AcDbLine
 62
6
  6
CONTINUOUS
 10
26.0672222644
 20
14.3674512093
 11
26.0665585844
 21
14.3670775305
  0
SPLINE
  5
2B1
100
AcDbEntity
  8
0
100
AcDbSpline
 62
6
  6
CONTINUOUS
 70
0
 71
3
 72
27
 73
23
 74
21
 42
0.0000001
 43
0.0000001
 44
0.0000000001
 12
-0.14145905
 22
-0.0796482611
 32
0.0
 13
0.0
 23
-0.1623407167
 33
0.0
 40
0.0
 40
0.0
 40
0.0
 40
0.0
 40
0.0122488119
 40
0.0321740342
 40
0.0598684915
 40
0.0954014545
 40
0.1388651033
 40
0.1901572924
 40
0.2491074358
 40
0.3152427305
 40
0.350803107
 40
0.3879038898
 40
0.4264083935
 40
0.4661837082
 40
0.5071078164
 40
0.5490573063
 40
0.5918997572
 40
0.6355082536
 40
0.7245502643
 40
0.8154434765
 40
0.9075130369
 40
1.0
 40
1.0
 40
1.0
 40
1.0
 10
26.0665585844
 20
14.3670775305
 30
0.0
 10
26.065981016
 20
14.3667523317
 30
0.0
 10
26.0644694429
 20
14.3658881733
 30
0.0
 10
26.0616983531
 20
14.3642091097
 30
0.0
 10
26.0579149706
 20
14.361771693
 30
0.0
 10
26.0531955834
 20
14.3584425055
 30
0.0
 10
26.0476325379
 20
14.3541061009
 30
0.0
 10
26.041367275
 20
14.3486275487
 30
0.0
 10
26.0345929928
 20
14.3418943731
 30
0.0
 10
26.0288579744
 20
14.3353504331
 30
0.0
 10
26.0242245581
 20
14.3294372351
 30
0.0
 10
26.0206999052
 20
14.324560435
 30
0.0
 10
26.0172425445
 20
14.3193594827
 30
0.0
 10
26.0138886086
 20
14.3138473272
 30
0.0
 10
26.0106758484
 20
14.3080375429
 30
0.0
 10
26.0076371521
 20
14.3019487352
 30
0.0
 10
26.0047982507
 20
14.2956045842
 30
0.0
 10
26.0012916494
 20
14.2867764877
 30
0.0
 10
25.9975742035
 20
14.2752474121
 30
0.0
 10
25.9942974829
 20
14.2608778808
 30
0.0
 10
25.9922988723
 20
14.2460876232
 30
0.0
 10
25.9918451239
 20
14.2360951165
 30
0.0
 10
25.9918451239
 20
14.2310903165
 30
0.0
 11
26.0665585844
 21
14.3670775305
 31
0.0
 11
26.0648333298
 21
14.3660888179
 31
0.0
 11
26.0620645237
 21
14.3644164439
 31
0.0
 11
26.0582869631
 21
14.3619785155
 31
0.0
 11
26.0535709454
 21
14.3586567458
 31
0.0
 11
26.0480054053
 21
14.3543196076
 31
0.0
 11
26.0417355892
 21
14.3488400835
 31
0.0
 11
26.0349441942
 21
14.3420975308
 31
0.0
 11
26.0278661079
 21
14.3340246083
 31
0.0
 11
26.0243051578
 21
14.3294808242
 31
0.0
 11
26.0207761173
 21
14.3246000443
 31
0.0
 11
26.0173152595
 21
14.3193947035
 31
0.0
 11
26.0139589904
 21
14.3138783383
 31
0.0
 11
26.010743604
 21
14.3080646164
 31
0.0
 11
26.0077015171
 21
14.3019717263
 31
0.0
 11
26.0048603748
 21
14.295623422
 31
0.0
 11
26.0022475285
 21
14.2890437999
 31
0.0
 11
25.9978069314
 21
14.2752876274
 31
0.0
 11
25.9945279771
 21
14.2609008893
 31
0.0
 11
25.9925222404
 21
14.2460894404
 31
0.0
 11
25.9918451239
 21
14.2310903165
 31
0.0
  0
LINE
  5
2B2
100
AcDbEntity
  8
0
100
AcDbLine
 62
6
  6
CONTINUOUS
 10
28.0472231917
 20
14.3674512093
 11
28.0473110643
 21
14.3674017199
  0
SPLINE
  5
2B3
100
AcDbEntity
  8
0
100
AcDbSpline
 62
6
  6
CONTINUOUS
 70
0
 71
3
 72
29
 73
25
 74
23
 42
0.0000001
 43
0.0000001
 44
0.0000000001
 12
0.2428494131
 22
0.0
 32
0.0
 13
0.0
 23
-0.2428494131
 33
0.0
 40
0.0
 40
0.0
 40
0.0
 40
0.0
 40
0.0661115865
 40
0.1318949546
 40
0.1969077881
 40
0.260817388
 40
0.3234017239
 40
0.3845273464
 40
0.4145748189
 40
0.444310161
 40
0.4737847467
 40
0.5030717742
 40
0.5322549013
 40
0.5614239291
 40
0.5906776179
 40
0.6201134153
 40
0.6498120216
 40
0.6798419507
 40
0.7410544772
 40
0.8039271212
 40
0.8683223194
 40
0.9009988849
 40
0.9339023572
 40
1.0
 40
1.0
 40
1.0
 40
1.0
 10
27.057222728
 20
14.3674492179
 30
0.0
 10
27.062574448
 20
14.3674492179
 30
0.0
 10
27.0732529123
 20
14.3672279803
 30
0.0
 10
27.0891638326
 20
14.3661849464
 30
0.0
 10
27.1048295632
 20
14.3643834854
 30
0.0
 10
27.1201080111
 20
14.3616918938
 30
0.0
 10
27.1348506986
 20
14.3579786608
 30
0.0
 10
27.1466203471
 20
14.353858471
 30
0.0
 10
27.1555638732
 20
14.3498705719
 30
0.0
 10
27.1619811399
 20
14.3465401498
 30
0.0
 10
27.1681205081
 20
14.3428383082
 30
0.0
 10
27.1739550701
 20
14.3387489048
 30
0.0
 10
27.1794650672
 20
14.33427043
 30
0.0
 10
27.184633882
 20
14.3294056791
 30
0.0
 10
27.189441611
 20
14.324155719
 30
0.0
 10
27.193874505
 20
14.3185313781
 30
0.0
 10
27.1979311415
 20
14.3125540798
 30
0.0
 10
27.2028622621
 20
14.3040888008
 30
0.0
 10
27.2080528761
 20
14.29270513
 30
0.0
 10
27.2127528145
 20
14.2781604511
 30
0.0
 10
27.2154750416
 20
14.2654808945
 30
0.0
 10
27.2169920643
 20
14.2550666695
 30
0.0
 10
27.2180764025
 20
14.2444602508
 30
0.0
 10
27.2183959595
 20
14.2364409078
 30
0.0
 10
27.2183959595
 20
14.2310903165
 30
0.0
 11
27.057222728
 21
14.3674492179
 31
0.0
 11
27.0732742506
 21
14.3671074803
 31
0.0
 11
27.0892146655
 21
14.3660500068
 31
0.0
 11
27.1048960909
 21
14.3642158271
 31
0.0
 11
27.1201749083
 21
14.361488039
 31
0.0
 11
27.1349010264
 21
14.3577279921
 31
0.0
 11
27.1488936562
 21
14.3527721679
 31
0.0
 11
27.1555556511
 21
14.3497948882
 31
0.0
 11
27.1619622198
 21
14.3464629583
 31
0.0
 11
27.1680887191
 21
14.3427614267
 31
0.0
 11
27.1739110289
 21
14.3386765703
 31
0.0
 11
27.1794094621
 21
14.3342050723
 31
0.0
 11
27.1845665625
 21
14.329348854
 31
0.0
 11
27.1893650282
 21
14.3241100594
 31
0.0
 11
27.193793096
 21
14.3184982163
 31
0.0
 11
27.1978463195
 21
14.312532607
 31
0.0
 11
27.2015207545
 21
14.3062331833
 31
0.0
 11
27.2077329178
 21
14.292728002
 31
0.0
 11
27.2124689714
 21
14.2782125111
 31
0.0
 11
27.2157864212
 21
14.2629301002
 31
0.0
 11
27.2169334582
 21
14.2550779525
 31
0.0
 11
27.217748301
 21
14.2471290191
 31
0.0
 11
27.2183959595
 21
14.2310903165
 31
0.0
  0
SPLINE
  5
2B4
100
AcDbEntity
  8
0
100
AcDbSpline
 62
9
  6
CONTINUOUS
 70
0
 71
3
 72
18
 73
14
 74
12
 42
0.0000001
 43
0.0000001
 44
0.0000000001
 12
0.0
 22
-0.0460233817
 32
0.0
 13
0.0460233817
 23
0.0
 33
0.0
 40
0.0
 40
0.0
 40
0.0
 40
0.0
 40
0.1220274817
 40
0.1833897812
 40
0.2448713251
 40
0.3682196561
 40
0.4926174633
 40
0.6181241802
 40
0.6813315313
 40
0.7447873197
 40
0.808482902
 40
0.8723746043
 40
1.0
 40
1.0
 40
1.0
 40
1.0
 10
17.692222728
 20
12.1810840033
 30
0.0
 10
17.692222728
 20
12.1792119642
 30
0.0
 10
17.6925171935
 20
12.1763880553
 30
0.0
 10
17.6934688229
 20
12.1727492227
 30
0.0
 10
17.6947956721
 20
12.1692067089
 30
0.0
 10
17.6971315271
 20
12.1650373584
 30
0.0
 10
17.7008925124
 20
12.1606722626
 30
0.0
 10
17.7046995321
 20
12.1576892725
 30
0.0
 10
17.7080617039
 20
12.155765904
 30
0.0
 10
17.710726988
 20
12.1545613648
 30
0.0
 10
17.713505027
 20
12.1536125348
 30
0.0
 10
17.7173172909
 20
12.1527036335
 30
0.0
 10
17.7202648106
 20
12.1524240087
 30
0.0
 10
17.722222728
 20
12.1524240087
 30
0.0
 11
17.692222728
 21
12.1810840033
 31
0.0
 11
17.6927997773
 21
12.1754976102
 31
0.0
 11
17.693514436
 21
12.1727654303
 31
0.0
 11
17.6945065054
 21
12.1701154549
 31
0.0
 11
17.6972785077
 21
12.1651613374
 31
0.0
 11
17.701010288
 21
12.1608194692
 31
0.0
 11
17.705555028
 21
12.1572543145
 31
0.0
 11
17.7080794743
 21
12.1558087886
 31
0.0
 11
17.7107407329
 21
12.1546059873
 31
0.0
 11
17.7135147728
 21
12.1536581934
 31
0.0
 11
17.7163749136
 21
12.1529754001
 31
0.0
 11
17.722222728
 21
12.1524240087
 31
0.0
  0
SPLINE
  5
2B5
100
AcDbEntity
  8
0
100
AcDbSpline
 62
9
  6
CONTINUOUS
 70
0
 71
3
 72
19
 73
15
 74
13
 42
0.0000001
 43
0.0000001
 44
0.0000000001
 12
0.0
 22
0.0449472516
 32
0.0
 13
0.0449472516
 23
0.0
 33
0.0
 40
0.0
 40
0.0
 40
0.0
 40
0.0
 40
0.1188938834
 40
0.1788504829
 40
0.2391077053
 40
0.3607212463
 40
0.4845426579
 40
0.5474124049
 40
0.6108359954
 40
0.6747870061
 40
0.7392316399
 40
0.8041238734
 40
0.8693750822
 40
1.0
 40
1.0
 40
1.0
 40
1.0
 10
17.692222728
 20
12.4199587953
 30
0.0
 10
17.692222728
 20
12.4217401131
 30
0.0
 10
17.6925185287
 20
12.4244306298
 30
0.0
 10
17.6934702561
 20
12.4278891971
 30
0.0
 10
17.6948009133
 20
12.4312660208
 30
0.0
 10
17.6971468809
 20
12.4352403147
 30
0.0
 10
17.7002741204
 20
12.438683602
 30
0.0
 10
17.7031709141
 20
12.4410681048
 30
0.0
 10
17.7055385955
 20
12.4426632349
 30
0.0
 10
17.7080669336
 20
12.4440382985
 30
0.0
 10
17.7107314382
 20
12.4451828235
 30
0.0
 10
17.7135085639
 20
12.4460844899
 30
0.0
 10
17.7173223328
 20
12.4469487184
 30
0.0
 10
17.720265651
 20
12.4472137747
 30
0.0
 10
17.722222728
 20
12.4472137747
 30
0.0
 11
17.692222728
 21
12.4199587953
 31
0.0
 11
17.6927998784
 21
12.4252714909
 31
0.0
 11
17.6935145778
 21
12.4278698762
 31
0.0
 11
17.6945066577
 21
12.4303900328
 31
0.0
 11
17.697278722
 21
12.4351011835
 31
0.0
 11
17.7010105101
 21
12.4392300807
 31
0.0
 11
17.7031915282
 21
12.4410268645
 31
0.0
 11
17.7055552546
 21
12.4426204077
 31
0.0
 11
17.7080796765
 21
12.4439950337
 31
0.0
 11
17.7107408949
 21
12.4451388263
 31
0.0
 11
17.7135148723
 21
12.4460401301
 31
0.0
 11
17.7163749575
 21
12.446689434
 31
0.0
 11
17.722222728
 21
12.4472137747
 31
0.0
  0
SPLINE
  5
2B6
100
AcDbEntity
  8
0
100
AcDbSpline
 62
6
  6
CONTINUOUS
 70
0
 71
3
 72
52
 73
48
 74
46
 42
0.0000001
 43
0.0000001
 44
0.0000000001
 12
0.0
 22
0.3531330165
 32
0.0
 13
-0.0005966893
 23
-0.3531325124
 33
0.0
 40
0.0
 40
0.0
 40
0.0
 40
0.0
 40
0.0394045579
 40
0.0788698261
 40
0.1183209669
 40
0.1577500256
 40
0.1774723305
 40
0.1971994837
 40
0.236640654
 40
0.2563596951
 40
0.2760652499
 40
0.2957505092
 40
0.3154037093
 40
0.3350082214
 40
0.3545436912
 40
0.3933302658
 40
0.4316117998
 40
0.4691675371
 40
0.5058321988
 40
0.5414026586
 40
0.608576056
 40
0.6398951707
 40
0.669523885
 40
0.6836700461
 40
0.6973520991
 40
0.7232907345
 40
0.7473101471
 40
0.7586079561
 40
0.7694478157
 40
0.7898595658
 40
0.7995289978
 40
0.8089180407
 40
0.818113757
 40
0.827219769
 40
0.8363516084
 40
0.8456330328
 40
0.8551897571
 40
0.8651380418
 40
0.8755809426
 40
0.8866079997
 40
0.8982946469
 40
0.9106859603
 40
0.9237998188
 40
0.9376424878
 40
0.9522116347
 40
0.9674891902
 40
1.0
 40
1.0
 40
1.0
 40
1.0
 10
26.1899203147
 20
14.2310903165
 30
0.0
 10
26.1899203147
 20
14.2357286666
 30
0.0
 10
26.1904257358
 20
14.2450201116
 30
0.0
 10
26.1926817326
 20
14.2587906158
 30
0.0
 10
26.196435802
 20
14.2722349723
 30
0.0
 10
26.2007852053
 20
14.2830239267
 30
0.0
 10
26.2049706376
 20
14.2913168402
 30
0.0
 10
26.2096186726
 20
14.2993607214
 30
0.0
 10
26.2149349995
 20
14.3070021158
 30
0.0
 10
26.2208541864
 20
14.3141583009
 30
0.0
 10
26.2255832454
 20
14.3192671772
 30
0.0
 10
26.230576083
 20
14.3241066841
 30
0.0
 10
26.2358069538
 20
14.3286695701
 30
0.0
 10
26.2412502582
 20
14.3329483091
 30
0.0
 10
26.2487400016
 20
14.3382496215
 30
0.0
 10
26.2584877384
 20
14.3441394769
 30
0.0
 10
26.2706105658
 20
14.3500964802
 30
0.0
 10
26.2829312702
 20
14.3549850209
 30
0.0
 10
26.2952569005
 20
14.358902017
 30
0.0
 10
26.3111781057
 20
14.3629081782
 30
0.0
 10
26.3267739865
 20
14.3655159205
 30
0.0
 10
26.3417892881
 20
14.3669595939
 30
0.0
 10
26.3506221629
 20
14.3673915143
 30
0.0
 10
26.3573856321
 20
14.3674699019
 30
0.0
 10
26.3637145356
 20
14.3673826769
 30
0.0
 10
26.3711990558
 20
14.3669706896
 30
0.0
 10
26.3783621587
 20
14.3660789757
 30
0.0
 10
26.383700002
 20
14.3650537982
 30
0.0
 10
26.3885661375
 20
14.3638637665
 30
0.0
 10
26.3931477836
 20
14.3623227179
 30
0.0
 10
26.3973582037
 20
14.3603479557
 30
0.0
 10
26.4002441408
 20
14.3586861181
 30
0.0
 10
26.4029110359
 20
14.3568034424
 30
0.0
 10
26.4053564106
 20
14.3546859216
 30
0.0
 10
26.4075778223
 20
14.3523202251
 30
0.0
 10
26.4095725965
 20
14.3496934968
 30
0.0
 10
26.411339461
 20
14.3467957383
 30
0.0
 10
26.4128869359
 20
14.3436231679
 30
0.0
 10
26.4142230303
 20
14.3401704926
 30
0.0
 10
26.4153562895
 20
14.3364323943
 30
0.0
 10
26.4162931969
 20
14.3324051642
 30
0.0
 10
26.4170481072
 20
14.3280910086
 30
0.0
 10
26.4176388529
 20
14.3234958606
 30
0.0
 10
26.4180814121
 20
14.3186269938
 30
0.0
 10
26.4183918467
 20
14.313493017
 30
0.0
 10
26.4186568893
 20
14.3061571194
 30
0.0
 10
26.4187003761
 20
14.300530988
 30
0.0
 10
26.4186939098
 20
14.2967041134
 30
0.0
 11
26.1899203147
 21
14.2310903165
 31
0.0
 11
26.1906745553
 21
14.2449849107
 31
0.0
 11
26.1929317537
 21
14.2587373937
 31
0.0
 11
26.1966809548
 21
14.2721549267
 31
0.0
 11
26.2018897423
 21
14.2850676345
 31
0.0
 11
26.2050281172
 21
14.2912850467
 31
0.0
 11
26.2085129073
 21
14.2973171028
 31
0.0
 11
26.2164655868
 21
14.3087514152
 31
0.0
 11
26.2209040262
 21
14.3141170293
 31
0.0
 11
26.2256297885
 21
14.3192249082
 31
0.0
 11
26.2306200024
 21
14.3240644666
 31
0.0
 11
26.235849049
 21
14.3286277288
 31
0.0
 11
26.2412913027
 21
14.3329067252
 31
0.0
 11
26.2469210777
 21
14.3368937771
 31
0.0
 11
26.258633516
 21
14.343994599
 31
0.0
 11
26.270759863
 21
14.3499696165
 31
0.0
 11
26.2830810996
 21
14.3548759699
 31
0.0
 11
26.2954158584
 21
14.3588119004
 31
0.0
 11
26.3075950743
 21
14.3618856649
 31
0.0
 11
26.3309845669
 21
14.3658384271
 31
0.0
 11
26.3419942879
 21
14.3668898628
 31
0.0
 11
26.352445081
 21
14.36739258
 31
0.0
 11
26.3574402382
 21
14.3674490585
 31
0.0
 11
26.3622713241
 21
14.3673796387
 31
0.0
 11
26.3714157527
 21
14.3668494002
 31
0.0
 11
26.3798286803
 21
14.3657687606
 31
0.0
 11
26.3837455766
 21
14.3650104299
 31
0.0
 11
26.3874624263
 21
14.3640950387
 31
0.0
 11
26.3942772608
 21
14.3617468051
 31
0.0
 11
26.3973658833
 21
14.3602908261
 31
0.0
 11
26.4002362242
 21
14.3586312416
 31
0.0
 11
26.4028865386
 21
14.3567548454
 31
0.0
 11
26.4053158445
 21
14.3546480061
 31
0.0
 11
26.40752316
 21
14.3522970922
 31
0.0
 11
26.409507508
 21
14.3496884763
 31
0.0
 11
26.4112699792
 21
14.3468104673
 31
0.0
 11
26.4128169873
 21
14.3436563571
 31
0.0
 11
26.4141557904
 21
14.3402202283
 31
0.0
 11
26.4152936467
 21
14.3364961635
 31
0.0
 11
26.4162381388
 21
14.3324787543
 31
0.0
 11
26.4170016287
 21
14.3281700944
 31
0.0
 11
26.4176001216
 21
14.3235779949
 31
0.0
 11
26.4180497138
 21
14.3187104105
 31
0.0
 11
26.4183665084
 21
14.3135753263
 31
0.0
 11
26.4185673267
 21
14.3081840559
 31
0.0
 11
26.4186939098
 21
14.2967041134
 31
0.0
  0
SPLINE
  5
2B7
100
AcDbEntity
  8
0
100
AcDbSpline
 62
9
  6
CONTINUOUS
 70
0
 71
3
 72
19
 73
15
 74
13
 42
0.0000001
 43
0.0000001
 44
0.0000000001
 12
0.0
 22
0.0449472525
 32
0.0
 13
-0.0449472525
 23
-0.0
 33
0.0
 40
0.0
 40
0.0
 40
0.0
 40
0.0
 40
0.1188944098
 40
0.1788516758
 40
0.2391096771
 40
0.3607243903
 40
0.4845463524
 40
0.5474166826
 40
0.6108411897
 40
0.6747931057
 40
0.7392379531
 40
0.8041288318
 40
0.8693777495
 40
1.0
 40
1.0
 40
1.0
 40
1.0
 10
18.422222728
 20
12.4199587953
 30
0.0
 10
18.422222728
 20
12.421740121
 30
0.0
 10
18.4219269148
 20
12.4244306549
 30
0.0
 10
18.4209751776
 20
12.4278892496
 30
0.0
 10
18.4196445047
 20
12.4312661102
 30
0.0
 10
18.4172984913
 20
12.4352404207
 30
0.0
 10
18.4141712229
 20
12.4386837306
 30
0.0
 10
18.4112743759
 20
12.4410682173
 30
0.0
 10
18.4089066579
 20
12.4426633576
 30
0.0
 10
18.4063782716
 20
12.4440383985
 30
0.0
 10
18.4037137583
 20
12.4451828904
 30
0.0
 10
18.4009366921
 20
12.4460845704
 30
0.0
 10
18.3971230129
 20
12.4469487793
 30
0.0
 10
18.3941797651
 20
12.4472137747
 30
0.0
 10
18.392222728
 20
12.4472137747
 30
0.0
 11
18.422222728
 21
12.4199587953
 31
0.0
 11
18.4216455654
 21
12.4252715134
 31
0.0
 11
18.420930856
 21
12.4278699272
 31
0.0
 11
18.4199387605
 21
12.4303901153
 31
0.0
 11
18.4171666479
 21
12.4351012989
 31
0.0
 11
18.4134348239
 21
12.4392301971
 31
0.0
 11
18.4112537681
 21
12.4410269765
 31
0.0
 11
18.4088899959
 21
12.4426205255
 31
0.0
 11
18.4063655208
 21
12.443995139
 31
0.0
 11
18.4037042835
 21
12.445138912
 31
0.0
 11
18.4009303683
 21
12.4460402107
 31
0.0
 11
18.3980703835
 21
12.4466894916
 31
0.0
 11
18.392222728
 21
12.4472137747
 31
0.0
  0
SPLINE
  5
2B8
100
AcDbEntity
  8
0
100
AcDbSpline
 62
9
  6
CONTINUOUS
 70
0
 71
3
 72
17
 73
13
 74
11
 42
0.0000001
 43
0.0000001
 44
0.0000000001
 12
0.0
 22
-0.0460167287
 32
0.0
 13
-0.0460167287
 23
0.0
 33
0.0
 40
0.0
 40
0.0
 40
0.0
 40
0.0
 40
0.1220499555
 40
0.1834256123
 40
0.2449192937
 40
0.368285899
 40
0.4927004746
 40
0.6182266655
 40
0.7447629533
 40
0.8084643777
 40
0.8723608586
 40
1.0
 40
1.0
 40
1.0
 40
1.0
 10
18.422222728
 20
12.1810840033
 30
0.0
 10
18.422222728
 20
12.1792118901
 30
0.0
 10
18.4219281335
 20
12.1763878457
 30
0.0
 10
18.4209764639
 20
12.1727488367
 30
0.0
 10
18.4196496022
 20
12.1692061618
 30
0.0
 10
18.4173137619
 20
12.1650369979
 30
0.0
 10
18.4135518288
 20
12.1606714155
 30
0.0
 10
18.408978234
 20
12.1570874445
 30
0.0
 10
18.4046340496
 20
12.154874139
 30
0.0
 10
18.4009402116
 20
12.1536124306
 30
0.0
 10
18.3971278576
 20
12.1527034893
 30
0.0
 10
18.3941805733
 20
12.1524240087
 30
0.0
 10
18.392222728
 20
12.1524240087
 30
0.0
 11
18.422222728
 21
12.1810840033
 31
0.0
 11
18.4216455595
 21
12.175497399
 31
0.0
 11
18.4209308451
 21
12.1727650204
 31
0.0
 11
18.4199387417
 21
12.170114898
 31
0.0
 11
18.4171666054
 21
12.1651608323
 31
0.0
 11
18.4134347667
 21
12.1608190881
 31
0.0
 11
18.4088899055
 21
12.1572539889
 31
0.0
 11
18.4037041654
 21
12.1546057939
 31
0.0
 11
18.4009302772
 21
12.1536580353
 31
0.0
 11
18.398070335
 21
12.1529752937
 31
0.0
 11
18.392222728
 21
12.1524240087
 31
0.0
  0
SPLINE
  5
2B9
100
AcDbEntity
  8
0
100
AcDbSpline
 62
6
  6
CONTINUOUS
 70
0
 71
3
 72
36
 73
32
 74
30
 42
0.0000001
 43
0.0000001
 44
0.0000000001
 12
-0.2265646559
 22
-0.1990269653
 32
0.0
 13
-0.0005425941
 23
0.301567541
 33
0.0
 40
0.0
 40
0.0
 40
0.0
 40
0.0
 40
0.0812808152
 40
0.1625995195
 40
0.2434459042
 40
0.2834920616
 40
0.3231768942
 40
0.3623861641
 40
0.4009665152
 40
0.4387765048
 40
0.4756531156
 40
0.5113974654
 40
0.5458355289
 40
0.5788021182
 40
0.6101542323
 40
0.639819357
 40
0.6678126224
 40
0.6812087198
 40
0.6942269754
 40
0.7192406537
 40
0.7431203527
 40
0.7661577296
 40
0.7886741368
 40
0.8109425954
 40
0.8332064325
 40
0.8556677902
 40
0.8784598291
 40
0.9016830301
 40
0.9254200515
 40
0.9497134533
 40
1.0
 40
1.0
 40
1.0
 40
1.0
 10
27.9245251414
 20
13.6210903165
 30
0.0
 10
27.9183866881
 20
13.6156979585
 30
0.0
 10
27.905928973
 20
13.605110614
 30
0.0
 10
27.8866979231
 20
13.5899672342
 30
0.0
 10
27.8701989524
 20
13.5780799138
 30
0.0
 10
27.8567435925
 20
13.5691600196
 30
0.0
 10
27.846592489
 20
13.5628394872
 30
0.0
 10
27.8363740692
 20
13.5569162713
 30
0.0
 10
27.8261170873
 20
13.5514489187
 30
0.0
 10
27.8158590004
 20
13.5465002414
 30
0.0
 10
27.8056475097
 20
13.5421356582
 30
0.0
 10
27.7955406552
 20
13.5384222958
 30
0.0
 10
27.785603887
 20
13.5354354864
 30
0.0
 10
27.7759151638
 20
13.5332325682
 30
0.0
 10
27.7665556166
 20
13.5318644111
 30
0.0
 10
27.7576079854
 20
13.5313799082
 30
0.0
 10
27.7504579664
 20
13.5317161451
 30
0.0
 10
27.7450349216
 20
13.5324483536
 30
0.0
 10
27.7399602659
 20
13.5334482688
 30
0.0
 10
27.7339728538
 20
13.5352120565
 30
0.0
 10
27.727346771
 20
13.5381607255
 30
0.0
 10
27.7214014185
 20
13.5418590029
 30
0.0
 10
27.7161376315
 20
13.5462236892
 30
0.0
 10
27.7115444159
 20
13.5511811827
 30
0.0
 10
27.7076024212
 20
13.5566607724
 30
0.0
 10
27.7042818377
 20
13.5625950695
 30
0.0
 10
27.7015483819
 20
13.5689243376
 30
0.0
 10
27.6993719771
 20
13.575599085
 30
0.0
 10
27.6977250911
 20
13.5825777447
 30
0.0
 10
27.6961785964
 20
13.5923457652
 30
0.0
 10
27.6957592467
 20
13.5998560789
 30
0.0
 10
27.6957501517
 20
13.604911009
 30
0.0
 11
27.9245251414
 21
13.6210903165
 31
0.0
 11
27.9058352057
 21
13.6052312652
 31
0.0
 11
27.8865546887
 21
13.590077218
 31
0.0
 11
27.8667509579
 21
13.575856457
 31
0.0
 11
27.8566820868
 21
13.5691883924
 31
0.0
 11
27.8465192047
 21
13.5628684941
 31
0.0
 11
27.8362848898
 21
13.5569463343
 31
0.0
 11
27.8260129396
 21
13.5514827304
 31
0.0
 11
27.8157380256
 21
13.5465392272
 31
0.0
 11
27.8055065749
 21
13.542181503
 31
0.0
 11
27.7953822076
 21
13.5384812812
 31
0.0
 11
27.7854309413
 21
13.53550988
 31
0.0
 11
27.7757317674
 21
13.5333274924
 31
0.0
 11
27.7663725277
 21
13.5319866772
 31
0.0
 11
27.757438338
 21
13.5315261101
 31
0.0
 11
27.7490071345
 21
13.5319504242
 31
0.0
 11
27.7450040507
 21
13.5324941009
 31
0.0
 11
27.7411526733
 21
13.533255351
 31
0.0
 11
27.7339219445
 21
13.5354043795
 31
0.0
 11
27.7273480705
 21
13.5383443924
 31
0.0
 11
27.7214501886
 21
13.5420159687
 31
0.0
 11
27.716221471
 21
13.5463481408
 31
0.0
 11
27.7116517155
 21
13.5512689814
 31
0.0
 11
27.7077211035
 21
13.5567122259
 31
0.0
 11
27.7044013725
 21
13.5626165815
 31
0.0
 11
27.7016639921
 21
13.5689213171
 31
0.0
 11
27.6994809068
 21
13.5755757442
 31
0.0
 11
27.6978245648
 21
13.5825398072
 31
0.0
 11
27.6966674384
 21
13.5897739619
 31
0.0
 11
27.6957501517
 21
13.604911009
 31
0.0
  0
SPLINE
  5
2BA
100
AcDbEntity
  8
0
100
AcDbSpline
 62
6
  6
CONTINUOUS
 70
0
 71
3
 72
19
 73
15
 74
13
 42
0.0000001
 43
0.0000001
 44
0.0000000001
 12
0.1130497609
 22
-0.1542939313
 32
0.0
 13
0.1912769345
 23
-0.0
 33
0.0
 40
0.0
 40
0.0
 40
0.0
 40
0.0
 40
0.112786419
 40
0.2287791383
 40
0.3482093667
 40
0.4713388898
 40
0.5984407836
 40
0.6634730445
 40
0.7294528569
 40
0.7962544531
 40
0.8299378615
 40
0.8637908103
 40
0.9318254789
 40
1.0
 40
1.0
 40
1.0
 40
1.0
 10
26.8960494966
 20
13.6210903165
 30
0.0
 10
26.9002996558
 20
13.6152895632
 30
0.0
 10
26.9094181533
 20
13.6038774955
 30
0.0
 10
26.9247752409
 20
13.5878039823
 30
0.0
 10
26.9420781438
 20
13.5728051069
 30
0.0
 10
26.9614338419
 20
13.5592780406
 30
0.0
 10
26.9791617011
 20
13.5496893343
 30
0.0
 10
26.99432445
 20
13.5432655685
 30
0.0
 10
27.0062508054
 20
13.5391321802
 30
0.0
 10
27.016506736
 20
13.5363621028
 30
0.0
 10
27.0248873162
 20
13.5345846573
 30
0.0
 10
27.0334063671
 20
13.533110276
 30
0.0
 10
27.0441881502
 20
13.5318644178
 30
0.0
 10
27.0528759902
 20
13.5315233874
 30
0.0
 10
27.057222728
 20
13.5315233874
 30
0.0
 11
26.8960494966
 21
13.6210903165
 31
0.0
 11
26.909526439
 21
13.6042443865
 31
0.0
 11
26.9248610715
 21
13.5882100449
 31
0.0
 11
26.9421408943
 21
13.5732679101
 31
0.0
 11
26.9614603965
 21
13.5597977247
 31
0.0
 11
26.9828632495
 21
13.548266258
 31
0.0
 11
26.9943187079
 21
13.5434180148
 31
0.0
 11
27.006244515
 21
13.5392888466
 31
0.0
 11
27.0185815316
 21
13.5359624073
 31
0.0
 11
27.0248843662
 21
13.5346264767
 31
0.0
 11
27.0312647542
 21
13.5335219377
 31
0.0
 11
27.0441923326
 21
13.5320293115
 31
0.0
 11
27.057222728
 21
13.5315233874
 31
0.0
  0
SPLINE
  5
2BB
100
AcDbEntity
  8
0
100
AcDbSpline
 62
9
  6
CONTINUOUS
 70
0
 71
3
 72
14
 73
10
 74
8
 42
0.0000001
 43
0.0000001
 44
0.0000000001
 12
-0.3069354671
 22
-0.0000086698
 32
0.0
 13
-0.3037553866
 23
-0.0440686525
 33
0.0
 40
0.0
 40
0.0
 40
0.0
 40
0.0
 40
0.0852972816
 40
0.1700634548
 40
0.2536292365
 40
0.3354315734
 40
0.6342557569
 40
0.864232401
 40
1.0
 40
1.0
 40
1.0
 40
1.0
 10
18.057222728
 20
12.056723424
 30
0.0
 10
18.0484958077
 20
12.0567231775
 30
0.0
 10
18.0310961153
 20
12.0566131937
 30
0.0
 10
18.0051507658
 20
12.0561282426
 30
0.0
 10
17.9795707288
 20
12.0553317332
 30
0.0
 10
17.9321221053
 20
12.0532816443
 30
0.0
 10
17.8697846114
 20
12.0488481868
 30
0.0
 10
17.802183269
 20
12.0414545511
 30
0.0
 10
17.765099876
 20
12.0364289122
 30
0.0
 10
17.7513531628
 20
12.0344345471
 30
0.0
 11
18.057222728
 21
12.056723424
 31
0.0
 11
18.0310424852
 21
12.0565587173
 31
0.0
 11
18.0050292999
 21
12.0560716397
 31
0.0
 11
17.9793924004
 21
12.0552740865
 31
0.0
 11
17.9543077719
 21
12.0541901089
 31
0.0
 11
17.8628182462
 21
12.04769569
 31
0.0
 11
17.7926479237
 21
12.0400282275
 31
0.0
 11
17.7513531628
 21
12.0344345471
 31
0.0
  0
SPLINE
  5
2BC
100
AcDbEntity
  8
0
100
AcDbSpline
 62
9
  6
CONTINUOUS
 70
0
 71
3
 72
19
 73
15
 74
13
 42
0.0000001
 43
0.0000001
 44
0.0000000001
 12
-0.0387375046
 22
-0.009271674
 32
0.0
 13
-0.000301399
 23
-0.0398304828
 33
0.0
 40
0.0
 40
0.0
 40
0.0
 40
0.0
 40
0.1233433728
 40
0.1852104549
 40
0.247181425
 40
0.3713955443
 40
0.4961809848
 40
0.5588600113
 40
0.6216879546
 40
0.6846592795
 40
0.7477734634
 40
0.8109810947
 40
0.8741804932
 40
1.0
 40
1.0
 40
1.0
 40
1.0
 10
18.3858298146
 20
12.0636324581
 30
0.0
 10
18.3842371431
 20
12.0632512582
 30
0.0
 10
18.3818875787
 20
12.0624737252
 30
0.0
 10
18.3789285147
 20
12.0610475773
 30
0.0
 10
18.3760906328
 20
12.0593692821
 30
0.0
 10
18.3728120725
 20
12.0568260769
 30
0.0
 10
18.3699970889
 20
12.0537650693
 30
0.0
 10
18.3680645279
 20
12.0510578128
 30
0.0
 10
18.3667803373
 20
12.0489065899
 30
0.0
 10
18.3656741608
 20
12.0466522813
 30
0.0
 10
18.3647568622
 20
12.0443093507
 30
0.0
 10
18.3640336198
 20
12.0418960677
 30
0.0
 10
18.3633328053
 20
12.0386189828
 30
0.0
 10
18.363104756
 20
12.036105031
 30
0.0
 10
18.3630921153
 20
12.0344345471
 30
0.0
 11
18.3858298146
 21
12.0636324581
 31
0.0
 11
18.3811664021
 21
12.062086552
 31
0.0
 11
18.3789461566
 21
12.0610173848
 31
0.0
 11
18.3768212519
 21
12.0597612797
 31
0.0
 11
18.3729117434
 21
12.0567289567
 31
0.0
 11
18.3695450154
 21
12.053072444
 31
0.0
 11
18.3680940923
 21
12.0510407278
 31
0.0
 11
18.3668113745
 21
12.048891929
 31
0.0
 11
18.3657067477
 21
12.0466400147
 31
0.0
 11
18.3647897872
 21
12.0442992713
 31
0.0
 11
18.364066384
 21
12.0418877754
 31
0.0
 11
18.3635400145
 21
12.0394260872
 31
0.0
 11
18.3630921153
 21
12.0344345471
 31
0.0
  0
SPLINE
  5
2BD
100
AcDbEntity
  8
0
100
AcDbSpline
 62
9
  6
CONTINUOUS
 70
0
 71
3
 72
14
 73
10
 74
8
 42
0.0000001
 43
0.0000001
 44
0.0000000001
 12
-0.3037554656
 22
0.0440680862
 32
0.0
 13
-0.3069354638
 23
0.0000113852
 33
0.0
 40
0.0
 40
0.0
 40
0.0
 40
0.0
 40
0.1357530716
 40
0.3657193325
 40
0.6645528114
 40
0.7463582044
 40
0.8299301055
 40
0.9147020895
 40
1.0
 40
1.0
 40
1.0
 40
1.0
 10
18.3630922933
 20
12.0344345471
 30
0.0
 10
18.3493470474
 20
12.0364286731
 30
0.0
 10
18.3122661874
 20
12.0414540158
 30
0.0
 10
18.2446664514
 20
12.0488476113
 30
0.0
 10
18.1823287772
 20
12.0532814038
 30
0.0
 10
18.1348782679
 20
12.0553316083
 30
0.0
 10
18.1092966998
 20
12.056128233
 30
0.0
 10
18.0833500615
 20
12.0566129673
 30
0.0
 10
18.0659497126
 20
12.0567231002
 30
0.0
 10
18.057222728
 20
12.056723424
 30
0.0
 11
18.3630922933
 21
12.0344345471
 31
0.0
 11
18.3218019538
 21
12.0400276464
 31
0.0
 11
18.2516348204
 21
12.0476949482
 31
0.0
 11
18.1601424734
 21
12.0541899018
 31
0.0
 11
18.1350569094
 21
12.055273955
 31
0.0
 11
18.1094181332
 21
12.0560715762
 31
0.0
 11
18.0834031628
 21
12.0565585721
 31
0.0
 11
18.057222728
 21
12.056723424
 31
0.0
  0
SPLINE
  5
2BE
100
AcDbEntity
  8
0
100
AcDbSpline
 62
9
  6
CONTINUOUS
 70
0
 71
3
 72
29
 73
25
 74
23
 42
0.0000001
 43
0.0000001
 44
0.0000000001
 12
-0.0002068117
 22
-0.0091544687
 32
0.0
 13
-0.0090622545
 23
0.001312483
 33
0.0
 40
0.0
 40
0.0
 40
0.0
 40
0.0
 40
0.0002512095
 40
0.0009905452
 40
0.0022194124
 40
0.0039378511
 40
0.0061457528
 40
0.0088429732
 40
0.0157047433
 40
0.0245219596
 40
0.0352934736
 40
0.048018234
 40
0.0626952954
 40
0.0793238221
 40
0.0979030898
 40
0.1409113935
 40
0.1917167737
 40
0.2503175113
 40
0.3167131751
 40
0.3908966884
 40
0.4728611512
 40
0.5626111629
 40
0.7655425133
 40
1.0
 40
1.0
 40
1.0
 40
1.0
 10
18.372222728
 20
12.0339295187
 30
0.0
 10
18.3722227107
 20
12.0339287521
 30
0.0
 10
18.3722180005
 20
12.0339295185
 30
0.0
 10
18.3722128948
 20
12.0339277409
 30
0.0
 10
18.3722007469
 20
12.0339274972
 30
0.0
 10
18.3721854591
 20
12.0339261345
 30
0.0
 10
18.3721651221
 20
12.0339249924
 30
0.0
 10
18.3721293397
 20
12.0339229047
 30
0.0
 10
18.3720732702
 20
12.0339201415
 30
0.0
 10
18.3719926331
 20
12.0339166297
 30
0.0
 10
18.3718940644
 20
12.0339129432
 30
0.0
 10
18.371777611
 20
12.0339092118
 30
0.0
 10
18.3716432655
 20
12.033905605
 30
0.0
 10
18.3714910396
 20
12.0339022773
 30
0.0
 10
18.3712523366
 20
12.0338982245
 30
0.0
 10
18.370909293
 20
12.0338949727
 30
0.0
 10
18.3704440768
 20
12.033894871
 30
0.0
 10
18.3699074973
 20
12.0338997171
 30
0.0
 10
18.3692996346
 20
12.0339105595
 30
0.0
 10
18.3686206343
 20
12.033930055
 30
0.0
 10
18.3678707396
 20
12.0339620259
 30
0.0
 10
18.3667291234
 20
12.0340287558
 30
0.0
 10
18.3651256599
 20
12.034166221
 30
0.0
 10
18.3638005311
 20
12.0343319733
 30
0.0
 10
18.3630922933
 20
12.0344345471
 30
0.0
 11
18.372222728
 21
12.0339295187
 31
0.0
 11
18.372220478
 21
12.0339290405
 31
0.0
 11
18.3722137447
 21
12.033928337
 31
0.0
 11
18.372202529
 21
12.033927428
 31
0.0
 11
18.3721868317
 21
12.033926333
 31
0.0
 11
18.3721666538
 21
12.0339250718
 31
0.0
 11
18.372141996
 21
12.0339236642
 31
0.0
 11
18.3720792444
 21
12.0339204884
 31
0.0
 11
18.3719985839
 21
12.0339169633
 31
0.0
 11
18.3719000213
 21
12.0339132467
 31
0.0
 11
18.3717835635
 21
12.0339094962
 31
0.0
 11
18.3716492175
 21
12.0339058695
 31
0.0
 11
18.3714969901
 21
12.0339025244
 31
0.0
 11
18.3713268882
 21
12.0338996186
 31
0.0
 11
18.3709330885
 21
12.0338957556
 31
0.0
 11
18.3704678736
 21
12.0338955423
 31
0.0
 11
18.3699312987
 21
12.0339002404
 31
0.0
 11
18.3693234249
 21
12.0339111757
 31
0.0
 11
18.3686444265
 21
12.0339308682
 31
0.0
 11
18.3678945776
 21
12.0339628954
 31
0.0
 11
18.3670741559
 21
12.0340108715
 31
0.0
 11
18.3652227044
 21
12.0341691269
 31
0.0
 11
18.3630922933
 21
12.0344345471
 31
0.0
  0
SPLINE
  5
2BF
100
AcDbEntity
  8
0
100
AcDbSpline
 62
6
  6
CONTINUOUS
 70
0
 71
3
 72
36
 73
32
 74
30
 42
0.0000001
 43
0.0000001
 44
0.0000000001
 12
-0.000547866
 22
-0.3015650445
 32
0.0
 13
-0.2265627875
 23
0.199025324
 33
0.0
 40
0.0
 40
0.0
 40
0.0
 40
0.0
 40
0.0502861629
 40
0.0745793766
 40
0.0983162386
 40
0.1215392747
 40
0.144331144
 40
0.1667924263
 40
0.1890562335
 40
0.2113246643
 40
0.2338411646
 40
0.2568787043
 40
0.2807586238
 40
0.3057727155
 40
0.3187911739
 40
0.3321874392
 40
0.3601812872
 40
0.3898470682
 40
0.4211996302
 40
0.4541668238
 40
0.4886055322
 40
0.5243500054
 40
0.5612267649
 40
0.599037172
 40
0.6376171299
 40
0.6768259359
 40
0.7165108217
 40
0.7565565818
 40
0.8374016896
 40
0.9187196146
 40
1.0
 40
1.0
 40
1.0
 40
1.0
 10
26.4186953031
 20
13.6049085294
 30
0.0
 10
26.4186861197
 20
13.5998536798
 30
0.0
 10
26.4182666314
 20
13.5923434922
 30
0.0
 10
26.4167199494
 20
13.5825756585
 30
0.0
 10
26.4150729377
 20
13.5755971421
 30
0.0
 10
26.4128964086
 20
13.5689225476
 30
0.0
 10
26.4101628133
 20
13.5625934459
 30
0.0
 10
26.4068421015
 20
13.5566593167
 30
0.0
 10
26.4028999902
 20
13.5511798959
 30
0.0
 10
26.3983066609
 20
13.5462225774
 30
0.0
 10
26.3930427528
 20
13.5418580896
 30
0.0
 10
26.3870973013
 20
13.5381599926
 30
0.0
 10
26.3804711153
 20
13.5352115015
 30
0.0
 10
26.3744836134
 20
13.5334479046
 30
0.0
 10
26.3694089005
 20
13.5324481
 30
0.0
 10
26.3639857945
 20
13.5317159597
 30
0.0
 10
26.3568356782
 20
13.531379969
 30
0.0
 10
26.3478879685
 20
13.5318646445
 30
0.0
 10
26.3385283325
 20
13.5332328721
 30
0.0
 10
26.3288395909
 20
13.5354361082
 30
0.0
 10
26.3189027784
 20
13.5384229373
 30
0.0
 10
26.3087959586
 20
13.5421364149
 30
0.0
 10
26.2985845579
 20
13.5465011485
 30
0.0
 10
26.288326566
 20
13.5514498438
 30
0.0
 10
26.2780697261
 20
13.5569171656
 30
0.0
 10
26.2678514957
 20
13.5628403541
 30
0.0
 10
26.2577006066
 20
13.5691608898
 30
0.0
 10
26.2442455019
 20
13.5780806315
 30
0.0
 10
26.2277468771
 20
13.5899677246
 30
0.0
 10
26.2085162169
 20
13.6051108681
 30
0.0
 10
26.1960586849
 20
13.6156980315
 30
0.0
 10
26.1899203147
 20
13.6210903165
 30
0.0
 11
26.4186953031
 21
13.6049085294
 31
0.0
 11
26.4177777396
 21
13.5897717404
 31
0.0
 11
26.4166204769
 21
13.5825377261
 31
0.0
 11
26.4149640066
 21
13.5755738037
 31
0.0
 11
26.4127807949
 21
13.5689195313
 31
0.0
 11
26.4100432845
 21
13.5626149696
 31
0.0
 11
26.4067234242
 21
13.5567107769
 31
0.0
 11
26.4027926931
 21
13.5512676979
 31
0.0
 11
26.398222832
 21
13.5463470423
 31
0.0
 11
26.3929939962
 21
13.5420150565
 31
0.0
 11
26.3870960118
 21
13.5383436606
 31
0.0
 11
26.3805220457
 21
13.5354038361
 31
0.0
 11
26.3732911922
 21
13.5332550081
 31
0.0
 11
26.3694397691
 21
13.5324938402
 31
0.0
 11
26.3654366586
 21
13.5319502318
 31
0.0
 11
26.3570053375
 21
13.5315261446
 31
0.0
 11
26.3480710328
 21
13.5319868926
 31
0.0
 11
26.338711753
 21
13.5333278306
 31
0.0
 11
26.3290125285
 21
13.5355104498
 31
0.0
 11
26.3190611802
 21
13.538481957
 31
0.0
 11
26.3089368992
 21
13.5421822641
 31
0.0
 11
26.2987055486
 21
13.5465401041
 31
0.0
 11
26.2884306386
 21
13.551483689
 31
0.0
 11
26.2781589008
 21
13.5569472352
 31
0.0
 11
26.2679248279
 21
13.5628693393
 31
0.0
 11
26.2577620641
 21
13.5691892714
 31
0.0
 11
26.2476933918
 21
13.5758572389
 31
0.0
 11
26.2278901528
 21
13.5900776797
 31
0.0
 11
26.2086100011
 21
13.6052314841
 31
0.0
 11
26.1899203147
 21
13.6210903165
 31
0.0
  0
SPLINE
  5
2C0
100
AcDbEntity
  8
0
100
AcDbSpline
 62
6
  6
CONTINUOUS
 70
0
 71
3
 72
30
 73
26
 74
24
 42
0.0000001
 43
0.0000001
 44
0.0000000001
 12
0.0
 22
0.2428565053
 32
0.0
 13
0.2428565053
 23
0.0
 33
0.0
 40
0.0
 40
0.0
 40
0.0
 40
0.0
 40
0.0660961188
 40
0.0989992567
 40
0.1316757794
 40
0.196070753
 40
0.2589427225
 40
0.289769061
 40
0.3201836107
 40
0.3502126951
 40
0.3799100746
 40
0.4093447365
 40
0.4385974614
 40
0.4677654077
 40
0.4969475983
 40
0.5262338825
 40
0.5557074917
 40
0.5854417325
 40
0.6154881955
 40
0.6766116838
 40
0.7391937203
 40
0.8031009355
 40
0.8681105509
 40
0.9338908261
 40
1.0
 40
1.0
 40
1.0
 40
1.0
 10
26.8960494966
 20
14.2310903165
 30
0.0
 10
26.8960494966
 20
14.2364409406
 30
0.0
 10
26.8963690587
 20
14.2444603827
 30
0.0
 10
26.8974534109
 20
14.2550669169
 30
0.0
 10
26.8989705711
 20
14.2654815503
 30
0.0
 10
26.9016923594
 20
14.2781602279
 30
0.0
 10
26.905636442
 20
14.2903642786
 30
0.0
 10
26.9095479689
 20
14.2996245723
 30
0.0
 10
26.9128392749
 20
14.3062452715
 30
0.0
 10
26.9165149802
 20
14.3125554201
 30
0.0
 10
26.9205717434
 20
14.3185323881
 30
0.0
 10
26.925004765
 20
14.3241565909
 30
0.0
 10
26.9298122907
 20
14.3294066559
 30
0.0
 10
26.9349812517
 20
14.3342712218
 30
0.0
 10
26.9404914085
 20
14.3387494602
 30
0.0
 10
26.9463258878
 20
14.3428389616
 30
0.0
 10
26.9524652432
 20
14.3465407983
 30
0.0
 10
26.9588825602
 20
14.3498710424
 30
0.0
 10
26.9678261034
 20
14.3538587497
 30
0.0
 10
26.9795956382
 20
14.3579790267
 30
0.0
 10
26.9943382859
 20
14.3616919975
 30
0.0
 10
27.0096165415
 20
14.3643835639
 30
0.0
 10
27.0252820343
 20
14.3661849901
 30
0.0
 10
27.0411927188
 20
14.3672279107
 30
0.0
 10
27.0518710471
 20
14.3674492179
 30
0.0
 10
27.057222728
 20
14.3674492179
 30
0.0
 11
26.8960494966
 21
14.2310903165
 31
0.0
 11
26.896697159
 21
14.2471291176
 31
0.0
 11
26.8975120285
 21
14.2550782013
 31
0.0
 11
26.8986591171
 21
14.2629305652
 31
0.0
 11
26.9019766787
 21
14.2782133633
 31
0.0
 11
26.9067130001
 21
14.2927290635
 31
0.0
 11
26.9096314757
 21
14.2996231435
 31
0.0
 11
26.9129253511
 21
14.3062344115
 31
0.0
 11
26.916599798
 21
14.3125338374
 31
0.0
 11
26.9206531501
 21
14.3184992537
 31
0.0
 11
26.9250812829
 21
14.3241109602
 31
0.0
 11
26.9298796735
 21
14.3293497876
 31
0.0
 11
26.9350368479
 21
14.3342058459
 31
0.0
 11
26.9405353954
 21
14.3386771708
 31
0.0
 11
26.9463577058
 21
14.3427620738
 31
0.0
 11
26.9524841847
 21
14.3464635847
 31
0.0
 11
26.958890769
 21
14.3497953621
 31
0.0
 11
26.965552784
 21
14.3527725183
 31
0.0
 11
26.9795453385
 21
14.3577283011
 31
0.0
 11
26.9942713795
 21
14.3614881866
 31
0.0
 11
27.0095500798
 21
14.3642159148
 31
0.0
 11
27.0252311892
 21
14.3660500371
 31
0.0
 11
27.0411713233
 21
14.3671074442
 31
0.0
 11
27.057222728
 21
14.3674492179
 31
0.0
  0
SPLINE
  5
2C1
100
AcDbEntity
  8
0
100
AcDbSpline
 62
6
  6
CONTINUOUS
 70
0
 71
3
 72
53
 73
49
 74
47
 42
0.0000001
 43
0.0000001
 44
0.0000000001
 12
-0.0005956247
 22
0.3531346245
 32
0.0
 13
0.0
 23
-0.3531351268
 33
0.0
 40
0.0
 40
0.0
 40
0.0
 40
0.0
 40
0.0325100415
 40
0.0477872207
 40
0.0623560088
 40
0.0761983276
 40
0.089311857
 40
0.1017028739
 40
0.1133892571
 40
0.1244160198
 40
0.1348585892
 40
0.1448065167
 40
0.1543628693
 40
0.1636439294
 40
0.172775436
 40
0.1818811682
 40
0.1910766983
 40
0.2004657033
 40
0.2101351288
 40
0.2201494417
 40
0.2305579452
 40
0.2413977639
 40
0.2526955751
 40
0.2767148716
 40
0.30265334
 40
0.3163353598
 40
0.3304814932
 40
0.3601100559
 40
0.3914289871
 40
0.4586015721
 40
0.4941719698
 40
0.5308364498
 40
0.5683920955
 40
0.6066736167
 40
0.6454599392
 40
0.6649951874
 40
0.6845994154
 40
0.7042522977
 40
0.7239372414
 40
0.7436425226
 40
0.7633613513
 40
0.8028021759
 40
0.822529154
 40
0.8422512809
 40
0.8816800203
 40
0.9211308727
 40
0.9605958236
 40
1.0
 40
1.0
 40
1.0
 40
1.0
 10
27.695751543
 20
14.2967059664
 30
0.0
 10
27.6957450884
 20
14.3005327735
 30
0.0
 10
27.6957885948
 20
14.3061588038
 30
0.0
 10
27.6960536795
 20
14.3134945668
 30
0.0
 10
27.6963641554
 20
14.318628444
 30
0.0
 10
27.696806765
 20
14.3234972129
 30
0.0
 10
27.6973975603
 20
14.3280922667
 30
0.0
 10
27.6981525143
 20
14.3324063347
 30
0.0
 10
27.6990894416
 20
14.3364334821
 30
0.0
 10
27.7002227271
 20
14.3401714878
 30
0.0
 10
27.7015588523
 20
14.3436240512
 30
0.0
 10
27.7031063574
 20
14.3467964921
 30
0.0
 10
27.7048732575
 20
14.3496941027
 30
0.0
 10
27.706868047
 20
14.3523206835
 30
0.0
 10
27.7090894253
 20
14.3546862801
 30
0.0
 10
27.7115347571
 20
14.356803727
 30
0.0
 10
27.7142016498
 20
14.3586863751
 30
0.0
 10
27.717087537
 20
14.360348119
 30
0.0
 10
27.7201891055
 20
14.3618028711
 30
0.0
 10
27.7235023969
 20
14.3630638467
 30
0.0
 10
27.7270228863
 20
14.3641434511
 30
0.0
 10
27.7307461149
 20
14.3650538875
 30
0.0
 10
27.7360835738
 20
14.3660790664
 30
0.0
 10
27.7432469018
 20
14.3669707809
 30
0.0
 10
27.7507313697
 20
14.3673826309
 30
0.0
 10
27.757060292
 20
14.3674698951
 30
0.0
 10
27.7638237757
 20
14.3673915744
 30
0.0
 10
27.7726566579
 20
14.3669595439
 30
0.0
 10
27.7876719095
 20
14.3655158466
 30
0.0
 10
27.8032677506
 20
14.362908052
 30
0.0
 10
27.8191889348
 20
14.3589019203
 30
0.0
 10
27.8315146046
 20
14.3549849181
 30
0.0
 10
27.8438353179
 20
14.3500962732
 30
0.0
 10
27.8559581486
 20
14.3441391928
 30
0.0
 10
27.8657058885
 20
14.3382493229
 30
0.0
 10
27.8731955964
 20
14.33294802
 30
0.0
 10
27.8786388558
 20
14.3286693137
 30
0.0
 10
27.8838696699
 20
14.3241064637
 30
0.0
 10
27.8888624454
 20
14.3192669857
 30
0.0
 10
27.8935914254
 20
14.314158108
 30
0.0
 10
27.8995105494
 20
14.3070019274
 30
0.0
 10
27.9048268733
 20
14.2993605703
 30
0.0
 10
27.9094748969
 20
14.2913167125
 30
0.0
 10
27.9136603
 20
14.2830238109
 30
0.0
 10
27.918009691
 20
14.2722348769
 30
0.0
 10
27.9217637345
 20
14.2587905394
 30
0.0
 10
27.9240197195
 20
14.2450200675
 30
0.0
 10
27.9245251414
 20
14.2357286494
 30
0.0
 10
27.9245251414
 20
14.2310903165
 30
0.0
 11
27.695751543
 21
14.2967059664
 31
0.0
 11
27.6958781704
 21
14.3081857057
 31
0.0
 11
27.6960790205
 21
14.3135768742
 31
0.0
 11
27.6963958565
 21
14.3187118597
 31
0.0
 11
27.6968454974
 21
14.3235793447
 31
0.0
 11
27.6974440387
 21
14.3281713487
 31
0.0
 11
27.6982075691
 21
14.3324799216
 31
0.0
 11
27.699152088
 21
14.3364972541
 31
0.0
 11
27.7002899716
 21
14.3402212262
 31
0.0
 11
27.7016288045
 21
14.3436572414
 31
0.0
 11
27.7031758431
 21
14.3468112196
 31
0.0
 11
27.7049383432
 21
14.3496890806
 31
0.0
 11
27.7069226982
 21
14.3522975541
 31
0.0
 11
27.7091299828
 21
14.3546483622
 31
0.0
 11
27.7115592477
 21
14.3567551274
 31
0.0
 11
27.7142095393
 21
14.3586314756
 31
0.0
 11
27.7170799035
 21
14.3602910325
 31
0.0
 11
27.7201685638
 21
14.3617469738
 31
0.0
 11
27.7234712986
 21
14.3630111367
 31
0.0
 11
27.726983434
 21
14.3640951112
 31
0.0
 11
27.7307002962
 21
14.365010487
 31
0.0
 11
27.7346172109
 21
14.3657688524
 31
0.0
 11
27.7430301514
 21
14.366849467
 31
0.0
 11
27.752174581
 21
14.367379615
 31
0.0
 11
27.7570056838
 21
14.3674490543
 31
0.0
 11
27.7620008615
 21
14.3673926099
 31
0.0
 11
27.7724516607
 21
14.3668898329
 31
0.0
 11
27.7834613789
 21
14.365838354
 31
0.0
 11
27.8068507199
 21
14.3618855661
 31
0.0
 11
27.8190299896
 21
14.3588117975
 31
0.0
 11
27.8313647586
 21
14.3548758555
 31
0.0
 11
27.8436860121
 21
14.3499694179
 31
0.0
 11
27.8558123994
 21
14.3439943095
 31
0.0
 11
27.8675248188
 21
14.3368934704
 31
0.0
 11
27.8731545587
 21
14.332906433
 31
0.0
 11
27.8785967631
 21
14.3286274693
 31
0.0
 11
27.8838257492
 21
14.3240642454
 31
0.0
 11
27.8888158946
 21
14.3192247167
 31
0.0
 11
27.8935415839
 21
14.3141168453
 31
0.0
 11
27.8979799768
 21
14.308751236
 31
0.0
 11
27.9059326351
 21
14.2973169562
 31
0.0
 11
27.909417415
 21
14.2912849176
 31
0.0
 11
27.9125557705
 21
14.2850675193
 31
0.0
 11
27.9177645349
 21
14.2721548341
 31
0.0
 11
27.9215137166
 21
14.2587373149
 31
0.0
 11
27.9237709032
 21
14.2449848592
 31
0.0
 11
27.9245251414
 21
14.2310903165
 31
0.0
  0
SPLINE
  5
2C2
100
AcDbEntity
  8
0
100
AcDbSpline
 62
9
  6
CONTINUOUS
 70
0
 71
3
 72
18
 73
14
 74
12
 42
0.0000001
 43
0.0000001
 44
0.0000000001
 12
0.3268827036
 22
-0.8591989139
 32
0.0
 13
0.0297618861
 23
-0.9187977502
 33
0.0
 40
0.0
 40
0.0
 40
0.0
 40
0.0
 40
0.1211032113
 40
0.2435964818
 40
0.3053268517
 40
0.3673587994
 40
0.4922642694
 40
0.6181660087
 40
0.6814386657
 40
0.7448935601
 40
0.8085083265
 40
0.8722571705
 40
1.0
 40
1.0
 40
1.0
 40
1.0
 10
18.9083893947
 20
10.0503705311
 30
0.0
 10
18.9215849098
 20
10.0156866153
 30
0.0
 10
18.9467266244
 20
9.9453791607
 30
0.0
 10
18.9746559542
 20
9.8560568567
 30
0.0
 10
18.9949655944
 20
9.7833772444
 30
0.0
 10
19.0139662368
 20
9.7095809924
 30
0.0
 10
19.0349862854
 20
9.616022002
 30
0.0
 10
19.0521763891
 20
9.5212970236
 30
0.0
 10
19.0636073822
 20
9.4447285164
 30
0.0
 10
19.0710098615
 20
9.386869832
 30
0.0
 10
19.0772100676
 20
9.328722936
 30
0.0
 10
19.0838567369
 20
9.2508307587
 30
0.0
 10
19.0869967982
 20
9.1922136188
 30
0.0
 10
19.0882640874
 20
9.1530903441
 30
0.0
 11
18.9083893947
 21
10.0503705311
 31
0.0
 11
18.9458765198
 21
9.9455441214
 31
0.0
 11
18.9794811451
 21
9.8380697348
 31
0.0
 11
18.9947540093
 21
9.7834161412
 31
0.0
 11
19.008972331
 21
9.7281924456
 31
0.0
 11
19.0341442996
 21
9.6161625105
 31
0.0
 11
19.0548095387
 21
9.502283441
 31
0.0
 11
19.0633982899
 21
9.4447557822
 31
0.0
 11
19.0708009179
 21
9.3868946048
 31
0.0
 11
19.0770011445
 21
9.3287444582
 31
0.0
 11
19.0819844698
 21
9.2703537069
 31
0.0
 11
19.0882640874
 21
9.1530903441
 31
0.0
  0
SPLINE
  5
2C3
100
AcDbEntity
  8
0
100
AcDbSpline
 62
9
  6
CONTINUOUS
 70
0
 71
3
 72
20
 73
16
 74
14
 42
0.0000001
 43
0.0000001
 44
0.0000000001
 12
-0.0106276012
 22
0.0276286926
 32
0.0
 13
-0.0280684047
 23
-0.0094050633
 33
0.0
 40
0.0
 40
0.0
 40
0.0
 40
0.0
 40
0.0309847288
 40
0.0639299435
 40
0.1002838017
 40
0.141065947
 40
0.1869233549
 40
0.2381317037
 40
0.2947339374
 40
0.3566426995
 40
0.423668209
 40
0.4954771143
 40
0.6517939682
 40
0.8218153028
 40
1.0
 40
1.0
 40
1.0
 40
1.0
 10
18.9363893615
 20
10.0503705184
 30
0.0
 10
18.9362795971
 20
10.0506558742
 30
0.0
 10
18.9359694745
 20
10.0512153128
 30
0.0
 10
18.935281383
 20
10.0519382144
 30
0.0
 10
18.9343786043
 20
10.0525540344
 30
0.0
 10
18.9332704523
 20
10.0530600857
 30
0.0
 10
18.9319648505
 20
10.0534530679
 30
0.0
 10
18.9304725078
 20
10.0537339434
 30
0.0
 10
18.9288045594
 20
10.0539017804
 30
0.0
 10
18.9269732752
 20
10.0539551312
 30
0.0
 10
18.9249923941
 20
10.053892663
 30
0.0
 10
18.922089133
 20
10.0536495898
 30
0.0
 10
18.9182014829
 20
10.0530485516
 30
0.0
 10
18.9133489173
 20
10.0519210969
 30
0.0
 10
18.9100565148
 20
10.050929131
 30
0.0
 10
18.9083893947
 20
10.0503705183
 30
0.0
 11
18.9363893615
 21
10.0503705184
 31
0.0
 11
18.935948793
 21
10.0511749966
 31
0.0
 11
18.9352837902
 21
10.0518883588
 31
0.0
 11
18.9344010628
 21
10.0525039079
 31
0.0
 11
18.9333073209
 21
10.0530149466
 31
0.0
 11
18.9320103282
 21
10.0534156495
 31
0.0
 11
18.9305220638
 21
10.0537036797
 31
0.0
 11
18.9288555607
 21
10.0538775722
 31
0.0
 11
18.9270238521
 21
10.0539358619
 31
0.0
 11
18.9250406056
 21
10.0538775722
 31
0.0
 11
18.9229220282
 21
10.0537036797
 31
0.0
 11
18.9183462473
 21
10.0530149465
 31
0.0
 11
18.9134409488
 21
10.0518883587
 31
0.0
 11
18.9083893947
 21
10.0503705183
 31
0.0
  0
SPLINE
  5
2C4
100
AcDbEntity
  8
0
100
AcDbSpline
 62
6
  6
CONTINUOUS
 70
0
 71
3
 72
20
 73
16
 74
14
 42
0.0000001
 43
0.0000001
 44
0.0000000001
 12
0.1912845408
 22
0.0
 32
0.0
 13
0.1130542564
 23
0.154300067
 33
0.0
 40
0.0
 40
0.0
 40
0.0
 40
0.0
 40
0.0681947122
 40
0.1362096736
 40
0.2704020883
 40
0.3363552017
 40
0.4013978991
 40
0.4654712585
 40
0.5285346026
 40
0.5906196262
 40
0.6517301907
 40
0.7118973287
 40
0.7711782441
 40
0.887179597
 40
1.0
 40
1.0
 40
1.0
 40
1.0
 10
27.057222728
 20
13.5315233874
 30
0.0
 10
27.0615709261
 20
13.5315233874
 30
0.0
 10
27.070259932
 20
13.5318628283
 30
0.0
 10
27.0873996868
 20
13.5338402899
 30
0.0
 10
27.104127454
 20
13.537719904
 30
0.0
 10
27.1201118825
 20
13.5432621784
 30
0.0
 10
27.1315729067
 20
13.5481187516
 30
0.0
 10
27.1425357515
 20
13.553610135
 30
0.0
 10
27.1529825475
 20
13.5596599874
 30
0.0
 10
27.1629060157
 20
13.5661955978
 30
0.0
 10
27.1723113902
 20
13.5731494521
 30
0.0
 10
27.1812061373
 20
13.5804667689
 30
0.0
 10
27.1923154451
 20
13.5905719212
 30
0.0
 10
27.2050226179
 20
13.60387487
 30
0.0
 10
27.2141443506
 20
13.6152875846
 30
0.0
 10
27.2183959595
 20
13.6210903165
 30
0.0
 11
27.057222728
 21
13.5315233874
 31
0.0
 11
27.0702575633
 21
13.5320278763
 31
0.0
 11
27.0831819248
 21
13.533520009
 31
0.0
 11
27.1081949068
 21
13.5392858502
 31
0.0
 11
27.1201162146
 21
13.543413938
 31
0.0
 11
27.1315738693
 21
13.5482633827
 31
0.0
 11
27.1425340951
 21
13.5537487221
 31
0.0
 11
27.1529751812
 21
13.5597903048
 31
0.0
 11
27.1628958575
 21
13.566318498
 31
0.0
 11
27.1722972281
 21
13.5732653526
 31
0.0
 11
27.1811867882
 21
13.5805751954
 31
0.0
 11
27.1895774901
 21
13.5882028356
 31
0.0
 11
27.2049134307
 21
13.6042394322
 31
0.0
 11
27.2183959595
 21
13.6210903165
 31
0.0
  0
SPLINE
  5
2C5
100
AcDbEntity
  8
0
100
AcDbSpline
 62
9
  6
CONTINUOUS
 70
0
 71
3
 72
20
 73
16
 74
14
 42
0.0000001
 43
0.0000001
 44
0.0000000001
 12
-0.0280684045
 22
0.0094050633
 32
0.0
 13
-0.0106276009
 23
-0.0276286924
 33
0.0
 40
0.0
 40
0.0
 40
0.0
 40
0.0
 40
0.1781846985
 40
0.3482060339
 40
0.504522888
 40
0.5763317931
 40
0.6433573024
 40
0.7052660641
 40
0.7618682975
 40
0.8130766459
 40
0.8589340535
 40
0.8997161985
 40
0.9360700566
 40
0.9690152712
 40
1.0
 40
1.0
 40
1.0
 40
1.0
 10
17.2060560614
 20
10.0503705184
 30
0.0
 10
17.2043889413
 20
10.0509291312
 30
0.0
 10
17.2010965388
 20
10.051921097
 30
0.0
 10
17.1962439732
 20
10.0530485516
 30
0.0
 10
17.1923563232
 20
10.0536495898
 30
0.0
 10
17.1894530621
 20
10.053892663
 30
0.0
 10
17.1874721809
 20
10.0539551312
 30
0.0
 10
17.1856408968
 20
10.0539017804
 30
0.0
 10
17.1839729484
 20
10.0537339434
 30
0.0
 10
17.1824806057
 20
10.0534530678
 30
0.0
 10
17.181175004
 20
10.0530600856
 30
0.0
 10
17.180066852
 20
10.0525540343
 30
0.0
 10
17.1791640733
 20
10.0519382143
 30
0.0
 10
17.1784759818
 20
10.0512153127
 30
0.0
 10
17.1781658593
 20
10.0506558741
 30
0.0
 10
17.1780560949
 20
10.0503705183
 30
0.0
 11
17.2060560614
 21
10.0503705184
 31
0.0
 11
17.2010045073
 21
10.0518883588
 31
0.0
 11
17.1960992088
 21
10.0530149466
 31
0.0
 11
17.191523428
 21
10.0537036797
 31
0.0
 11
17.1894048506
 21
10.0538775722
 31
0.0
 11
17.1874216041
 21
10.0539358619
 31
0.0
 11
17.1855898955
 21
10.0538775722
 31
0.0
 11
17.1839233925
 21
10.0537036797
 31
0.0
 11
17.1824351281
 21
10.0534156494
 31
0.0
 11
17.1811381354
 21
10.0530149465
 31
0.0
 11
17.1800443935
 21
10.0525039078
 31
0.0
 11
17.1791616661
 21
10.0518883587
 31
0.0
 11
17.1784966633
 21
10.0511749965
 31
0.0
 11
17.1780560949
 21
10.0503705183
 31
0.0
  0
SPLINE
  5
2C6
100
AcDbEntity
  8
0
100
AcDbSpline
 62
9
  6
CONTINUOUS
 70
0
 71
3
 72
18
 73
14
 74
12
 42
0.0000001
 43
0.0000001
 44
0.0000000001
 12
-0.3268826923
 22
-0.8591989193
 32
0.0
 13
-0.0297618895
 23
-0.9187977511
 33
0.0
 40
0.0
 40
0.0
 40
0.0
 40
0.0
 40
0.1211032109
 40
0.2435964819
 40
0.3053268518
 40
0.3673587994
 40
0.4922642693
 40
0.6181660087
 40
0.6814386658
 40
0.7448935602
 40
0.8085083265
 40
0.8722571704
 40
1.0
 40
1.0
 40
1.0
 40
1.0
 10
17.2060560614
 20
10.0503705311
 30
0.0
 10
17.1928605468
 20
10.0156866152
 30
0.0
 10
17.167718832
 20
9.9453791606
 30
0.0
 10
17.1397895014
 20
9.8560568566
 30
0.0
 10
17.1194798612
 20
9.7833772442
 30
0.0
 10
17.1004792191
 20
9.709580992
 30
0.0
 10
17.0794591715
 20
9.6160220013
 30
0.0
 10
17.0622690686
 20
9.5212970227
 30
0.0
 10
17.0508380753
 20
9.4447285154
 30
0.0
 10
17.0434355956
 20
9.386869831
 30
0.0
 10
17.0372353892
 20
9.328722935
 30
0.0
 10
17.0305887197
 20
9.2508307576
 30
0.0
 10
17.0274486584
 20
9.1922136177
 30
0.0
 10
17.026181369
 20
9.1530903429
 30
0.0
 11
17.2060560614
 21
10.0503705311
 31
0.0
 11
17.1685689366
 21
9.9455441215
 31
0.0
 11
17.1349643105
 21
9.8380697346
 31
0.0
 11
17.1196914463
 21
9.7834161409
 31
0.0
 11
17.1054731249
 21
9.7281924453
 31
0.0
 11
17.0803011572
 21
9.6161625099
 31
0.0
 11
17.0596359188
 21
9.5022834401
 31
0.0
 11
17.0510471675
 21
9.4447557812
 31
0.0
 11
17.0436445392
 21
9.3868946037
 31
0.0
 11
17.0374443123
 21
9.3287444572
 31
0.0
 11
17.0324609869
 21
9.2703537059
 31
0.0
 11
17.026181369
 21
9.1530903429
 31
0.0
  0
ENDSEC
  0
SECTION
  2
OBJECTS
  0
DICTIONARY
  5
C
100
AcDbDictionary
280
0
281
1
  3
ACAD_GROUP
350
D
  3
ACAD_MLINESTYLE
350
17
  3
ACAD_LAYOUT
350
1A
  3
ACAD_PLOTSETTINGS
350
19
  3
ACAD_PLOTSTYLENAME
350
E
  0
DICTIONARY
  5
D
102
{ACAD_REACTORS
330
C
102
}
100
AcDbDictionary
280
0
281
1
  0
ACDBDICTIONARYWDFLT
  5
E
102
{ACAD_REACTORS
330
C
102
}
100
AcDbDictionary
281
1
  3
Normal
350
F
100
AcDbDictionaryWithDefault
340
F
  0
DICTIONARY
  5
17
102
{ACAD_REACTORS
330
C
102
}
100
AcDbDictionary
280
0
281
1
  3
Standard
350
18
  0
DICTIONARY
  5
19
102
{ACAD_REACTORS
330
C
102
}
100
AcDbDictionary
281
1
  0
DICTIONARY
  5
1A
102
{ACAD_REACTORS
330
C
102
}
100
AcDbDictionary
281
1
  3
Model
350
2C7
  3
Layout1
350
2C8
  0
ACDBPLACEHOLDER
  5
F
102
{ACAD_REACTORS
330
E
102
}
  0
MLINESTYLE
  5
18
102
{ACAD_REACTORS
330
17
102
}
100
AcDbMlineStyle
  2
STANDARD
 70
0
  3

 62
256
 51
90.0
 52
90.0
 71
2
 49
0.5
 62
256
  6
BYLAYER
 49
-0.5
 62
256
  6
BYLAYER
  0
LAYOUT
  5
2C7
102
{ACAD_REACTORS
330
1A
102
}
100
AcDbPlotSettings
  1

  2
none_device
  4
ISO_A1_(594.00_x_841.00_MM)
  6

 40
0.0
 41
0.0
 42
0.0
 43
0.0
 44
841.0
 45
594.0
 46
0.0
 47
0.0
 48
0.0
 49
0.0
140
0.0
141
0.0
142
1.0
143
1.0
 70
1024
 72
0
 73
0
 74
0
  7

 75
0
147
1.0
148
0.0
149
0.0
100
AcDbLayout
  1
Model
 70
0
 71
0
 10
0.0
 20
0.0
 11
33.1102362205
 21
23.3858267717
 12
0.0
 22
0.0
 32
0.0
 14
0.0
 24
0.0
 34
0.0
 15
0.0
 25
0.0
 35
0.0
146
0.0
 13
0.0
 23
0.0
 33
0.0
 16
1.0
 26
0.0
 36
0.0
 17
0.0
 27
1.0
 37
0.0
 76
0
330
204
345
0
346
0
  0
LAYOUT
  5
2C8
102
{ACAD_REACTORS
330
1A
102
}
100
AcDbPlotSettings
  1

  2
none_device
  4
ISO_A1_(594.00_x_841.00_MM)
  6

 40
0.0
 41
0.0
 42
0.0
 43
0.0
 44
841.0
 45
594.0
 46
0.0
 47
0.0
 48
0.0
 49
0.0
140
0.0
141
0.0
142
1.0
143
1.0
 70
0
 72
0
 73
0
 74
0
  7

 75
0
147
1.0
148
0.0
149
0.0
100
AcDbLayout
  1
Layout1
 70
0
 71
1
 10
0.0
 20
0.0
 11
33.1102362205
 21
23.3858267717
 12
0.0
 22
0.0
 32
0.0
 14
0.0
 24
0.0
 34
0.0
 15
0.0
 25
0.0
 35
0.0
146
0.0
 13
0.0
 23
0.0
 33
0.0
 16
1.0
 26
0.0
 36
0.0
 17
0.0
 27
1.0
 37
0.0
 76
0
330
205
345
0
346
0
  0
ENDSEC
  0
EOF
