999
DXF file: E:\BT Custom\CADOUTPUT\_FRONT.dxf
999
Pro/ENGINEER 2018400 by Parametric Technology Corporation
  0
SECTION
  2
HEADER
  9
$ACADVER
  1
AC1018
  9
$DWGCODEPAGE
  3
ANSI_1252
  9
$EXTMAX
 10
22.0
 20
17.0
 30
0.0
  9
$EXTMIN
 10
0.0
 20
0.0
 30
0.0
  9
$LIMMIN
 10
0.0
 20
0.0
  9
$LIMMAX
 10
22.0
 20
17.0
  9
$VIEWCTR
 10
11.0
 20
8.5
  9
$VIEWSIZE
 40
17.0
  9
$CLAYER
  8
0
  9
$LTSCALE
 40
1.21
  9
$CELTYPE
  6
BYLAYER
  9
$DIMSCALE
 40
1.0
  9
$DIMASZ
 40
0.1
  9
$DIMEXO
 40
0.0625
  9
$DIMDLI
 40
0.836
  9
$DIMEXE
 40
0.125
  9
$DIMCEN
 40
0.198
  9
$DIMLFAC
 40
1.0
  9
$DIMBLK
  1
_FILLED
  9
$DIMALT
 70
1
  9
$DIMALTD
 70
2
  9
$DIMALTTD
 70
2
  9
$DIMALTF
 40
25.4
  9
$DIMTXT
 40
0.08
  9
$DIMTOL
 70
1
  9
$DIMLIM
 70
0
  9
$DIMTFAC
 40
1.0
  9
$DIMTP
 40
0.001
  9
$DIMTM
 40
0.001
  9
$DIMGAP
 40
0.09
  9
$DIMDSEP
 70
46
  9
$AUNITS
 70
0
  9
$PDMODE
 70
3
  9
$PDSIZE
 40
0.06
  9
$HANDSEED
  5
2B0
  9
$TILEMODE
 70
1
  9
$MEASUREMENT
 70
0
  9
$INSUNITS
 70
1
  0
ENDSEC
  0
SECTION
  2
CLASSES
  0
CLASS
  1
ACDBDICTIONARYWDFLT
  2
AcDbDictionaryWithDefault
  3
AutoCAD 2000
 90
0
 91
1
280
0
281
0
  0
CLASS
  1
ACDBPLACEHOLDER
  2
AcDbPlaceHolder
  3
AutoCAD 2000
 90
0
 91
1
280
0
281
0
  0
CLASS
  1
LAYOUT
  2
AcDbLayout
  3
AutoCAD 2000
 90
0
 91
0
280
0
281
0
  0
ENDSEC
  0
SECTION
  2
TABLES
  0
TABLE
  2
VPORT
  5
8
100
AcDbSymbolTable
 70
2
  0
VPORT
  5
1F4
100
AcDbSymbolTableRecord
100
AcDbViewportTableRecord
  2
*ACTIVE
 70
0
 10
0.0
 20
0.0
 11
1.0
 21
1.0
 12
11.0
 22
8.5
 13
0.0
 23
0.0
 14
1.0
 24
1.0
 15
0.0
 25
0.0
 16
0.0
 26
0.0
 36
1.0
 17
0.0
 27
0.0
 37
0.0
 40
17.0
 41
1.2941176471
 42
50.0
 43
0.0
 44
0.0
 50
0.0
 51
0.0
 71
0
 72
100
 73
1
 74
1
 75
0
 76
0
 77
0
 78
0
  0
ENDTAB
  0
TABLE
  2
LTYPE
  5
5
100
AcDbSymbolTable
 70
6
  0
LTYPE
  5
14
100
AcDbSymbolTableRecord
100
AcDbLinetypeTableRecord
  2
BYBLOCK
 70
0
  3

 72
65
 73
0
 40
0.0
  0
LTYPE
  5
15
100
AcDbSymbolTableRecord
100
AcDbLinetypeTableRecord
  2
BYLAYER
 70
0
  3

 72
65
 73
0
 40
0.0
  0
LTYPE
  5
16
100
AcDbSymbolTableRecord
100
AcDbLinetypeTableRecord
  2
CONTINUOUS
 70
64
  3
Solid line
 72
65
 73
0
 40
0.0
  0
LTYPE
  5
1F5
100
AcDbSymbolTableRecord
100
AcDbLinetypeTableRecord
  2
CENTER
 70
64
  3
____ _ ____ _ ____ _ ____ _ ____ _ ____ _ ____
 72
65
 73
4
 40
0.6
 49
0.375
 74
0
 49
-0.075
 74
0
 49
0.075
 74
0
 49
-0.075
 74
0
  0
LTYPE
  5
1F6
100
AcDbSymbolTableRecord
100
AcDbLinetypeTableRecord
  2
HIDDEN
 70
64
  3
- - - - - - - - - - - - - - - - - - - -
 72
65
 73
2
 40
0.2
 49
0.1
 74
0
 49
-0.1
 74
0
  0
LTYPE
  5
1F7
100
AcDbSymbolTableRecord
100
AcDbLinetypeTableRecord
  2
PHANTOM
 70
64
  3
_____ _ _ _____ _ _ _____ _ _ _____
 72
65
 73
6
 40
0.8
 49
0.45
 74
0
 49
-0.05
 74
0
 49
0.1
 74
0
 49
-0.05
 74
0
 49
0.1
 74
0
 49
-0.05
 74
0
  0
LTYPE
  5
1F8
100
AcDbSymbolTableRecord
100
AcDbLinetypeTableRecord
  2
DOT
 70
64
  3
. . . . . . . . . . . . . . . . . . . .
 72
65
 73
2
 40
0.2
 49
0.1
 74
0
 49
-0.1
 74
0
  0
LTYPE
  5
1F9
100
AcDbSymbolTableRecord
100
AcDbLinetypeTableRecord
  2
DASHED
 70
64
  3
- - - - - - - - - - - - - - - - - - - -
 72
65
 73
2
 40
0.2
 49
0.1
 74
0
 49
-0.1
 74
0
  0
ENDTAB
  0
TABLE
  2
LAYER
  5
2
100
AcDbSymbolTable
 70
36
  0
LAYER
  5
10
100
AcDbSymbolTableRecord
100
AcDbLayerTableRecord
  2
0
 70
0
 62
7
  6
CONTINUOUS
370
-3
390
F
  0
LAYER
  5
1FA
100
AcDbSymbolTableRecord
100
AcDbLayerTableRecord
  2
DEFAULT_1
 70
0
 62
7
  6
CENTER
370
-3
390
F
  0
LAYER
  5
1FB
100
AcDbSymbolTableRecord
100
AcDbLayerTableRecord
  2
DEFAULT_2
 70
0
 62
8
  6
HIDDEN
370
-3
390
F
  0
LAYER
  5
1FC
100
AcDbSymbolTableRecord
100
AcDbLayerTableRecord
  2
DEFAULT_3
 70
0
 62
7
  6
PHANTOM
370
-3
390
F
  0
LAYER
  5
1FD
100
AcDbSymbolTableRecord
100
AcDbLayerTableRecord
  2
ALL_FEATURES
 70
0
 62
7
  6
CONTINUOUS
370
-3
390
F
  0
LAYER
  5
1FE
100
AcDbSymbolTableRecord
100
AcDbLayerTableRecord
  2
AXES_FEATURES
 70
0
 62
7
  6
CONTINUOUS
370
-3
390
F
  0
LAYER
  5
1FF
100
AcDbSymbolTableRecord
100
AcDbLayerTableRecord
  2
DEFAULT_COORDINATE_SYSTEM
 70
0
 62
7
  6
CONTINUOUS
370
-3
390
F
  0
LAYER
  5
200
100
AcDbSymbolTableRecord
100
AcDbLayerTableRecord
  2
DEFAULT_DATUM_AXES
 70
0
 62
7
  6
CONTINUOUS
370
-3
390
F
  0
LAYER
  5
201
100
AcDbSymbolTableRecord
100
AcDbLayerTableRecord
  2
DEFAULT_DATUM_PLANES
 70
0
 62
7
  6
CONTINUOUS
370
-3
390
F
  0
LAYER
  5
202
100
AcDbSymbolTableRecord
100
AcDbLayerTableRecord
  2
DIMENSIONS
 70
0
 62
7
  6
CONTINUOUS
370
-3
390
F
  0
ENDTAB
  0
TABLE
  2
STYLE
  5
3
100
AcDbSymbolTable
 70
1
  0
STYLE
  5
11
100
AcDbSymbolTableRecord
100
AcDbTextStyleTableRecord
  2
STANDARD
 70
0
 40
0.0
 41
0.8
 50
0.0
 71
0
 42
0.2
  3
txt
  4

  0
STYLE
  5
203
100
AcDbSymbolTableRecord
100
AcDbTextStyleTableRecord
  2
TEXTSTYLE_1
 70
0
 40
0.0
 41
0.8
 50
0.0
 71
0
 42
0.2
  3
gdt
  4

  0
ENDTAB
  0
TABLE
  2
VIEW
  5
6
100
AcDbSymbolTable
 70
0
  0
ENDTAB
  0
TABLE
  2
UCS
  5
7
100
AcDbSymbolTable
 70
0
  0
ENDTAB
  0
TABLE
  2
APPID
  5
9
100
AcDbSymbolTable
 70
1
  0
APPID
  5
204
100
AcDbSymbolTableRecord
100
AcDbRegAppTableRecord
  2
ACAD
 70
0
  0
ENDTAB
  0
TABLE
  2
BLOCK_RECORD
  5
1
100
AcDbSymbolTable
 70
0
  0
BLOCK_RECORD
  5
205
100
AcDbSymbolTableRecord
100
AcDbBlockTableRecord
  2
*Model_Space
  0
BLOCK_RECORD
  5
206
100
AcDbSymbolTableRecord
100
AcDbBlockTableRecord
  2
*Paper_Space
  0
BLOCK_RECORD
  5
207
100
AcDbSymbolTableRecord
100
AcDbBlockTableRecord
  2
_FILLED
  0
ENDTAB
  0
TABLE
  2
DIMSTYLE
  5
A
100
AcDbSymbolTable
 70
1
100
AcDbDimStyleTable
 71
0
  0
DIMSTYLE
105
208
100
AcDbSymbolTableRecord
100
AcDbDimStyleTableRecord
  2
STANDARD
 70
0
  3

  4

 40
1.0
 41
0.1
 42
0.0625
 43
0.38
 44
0.125
 45
0.0
 46
0.0
 47
0.001
 48
0.001
140
0.08
141
0.09
142
0.0
143
25.4
144
1.0
145
0.0
146
1.0
147
0.09
 71
1.0
 72
0.0
 73
1
 74
1
 75
0
 76
0
 77
0
 78
4
 79
1
170
1
171
2
172
0
173
0
174
0
175
0
176
0
177
0
178
0
270
2
179
3
271
3
272
3
273
2
274
2
275
0
280
0
281
0
282
0
283
1
284
4
285
0
286
0
287
3
288
0
340
11
278
46
341
207
342
207
343
207
344
207
  0
ENDTAB
  0
ENDSEC
  0
SECTION
  2
BLOCKS
  0
BLOCK
  5
20
100
AcDbEntity
  8
0
100
AcDbBlockBegin
  2
*Model_Space
 70
0
 10
0.0
 20
0.0
 30
0.0
  3
*Model_Space
  1

  0
ENDBLK
  5
21
100
AcDbEntity
  8
0
100
AcDbBlockEnd
  0
BLOCK
  5
1C
100
AcDbEntity
  8
0
100
AcDbBlockBegin
  2
*Paper_Space
 70
0
 10
0.0
 20
0.0
 30
0.0
  3
*Paper_Space
  1

  0
ENDBLK
  5
1D
100
AcDbEntity
  8
0
100
AcDbBlockEnd
  0
BLOCK
  5
209
100
AcDbEntity
  8
0
100
AcDbBlockBegin
  2
_FILLED
 70
64
 10
0.0
 20
0.0
  3
_FILLED
  1

  0
SOLID
  5
20A
100
AcDbEntity
  8
0
  6
BYBLOCK
 62
0
100
AcDbTrace
 10
0.0
 20
0.0
 11
-1.0
 21
0.2
 12
-1.0
 22
-0.2
 13
-1.0
 23
-0.2
  0
ENDBLK
  5
20B
100
AcDbEntity
  8
0
  6
BYBLOCK
 62
0
100
AcDbBlockEnd
  0
ENDSEC
  0
SECTION
  2
ENTITIES
  0
LINE
  5
20C
100
AcDbEntity
  8
0
100
AcDbLine
 62
7
  6
CONTINUOUS
 10
9.8376923427
 20
4.514175362
 11
12.0376923427
 21
4.514175362
  0
LINE
  5
20D
100
AcDbEntity
  8
0
100
AcDbLine
 62
7
  6
CONTINUOUS
 10
9.9876923427
 20
4.7078245293
 11
11.8876923427
 21
4.7078245293
  0
LINE
  5
20E
100
AcDbEntity
  8
0
100
AcDbLine
 62
7
  6
CONTINUOUS
 10
10.1276923427
 20
4.939175362
 11
11.7476923427
 21
4.939175362
  0
LINE
  5
20F
100
AcDbEntity
  8
0
100
AcDbLine
 62
9
  6
CONTINUOUS
 10
10.1326923427
 20
5.0172805985
 11
11.7426923427
 21
5.0172805985
  0
LINE
  5
210
100
AcDbEntity
  8
0
100
AcDbLine
 62
9
  6
CONTINUOUS
 10
10.1693086218
 20
5.1287569145
 11
11.7060760637
 21
5.1287569145
  0
LINE
  5
211
100
AcDbEntity
  8
0
100
AcDbLine
 62
9
  6
CONTINUOUS
 10
10.2475494856
 20
5.5622635129
 11
11.6278351999
 21
5.5622635129
  0
LINE
  5
212
100
AcDbEntity
  8
0
100
AcDbLine
 62
7
  6
CONTINUOUS
 10
10.1865718279
 20
5.9094257195
 11
10.1626524512
 21
5.9094257195
  0
LINE
  5
213
100
AcDbEntity
  8
0
100
AcDbLine
 62
7
  6
CONTINUOUS
 10
11.6888128574
 20
5.9094257195
 11
11.7127322343
 21
5.9094257195
  0
LINE
  5
214
100
AcDbEntity
  8
0
100
AcDbLine
 62
7
  6
CONTINUOUS
 10
9.3126524512
 20
6.0844257195
 11
9.0743523311
 21
6.0844257195
  0
LINE
  5
215
100
AcDbEntity
  8
0
100
AcDbLine
 62
7
  6
CONTINUOUS
 10
12.5627322343
 20
6.0844257195
 11
12.8010323544
 21
6.0844257195
  0
LINE
  5
216
100
AcDbEntity
  8
0
100
AcDbLine
 62
7
  6
CONTINUOUS
 10
12.5627322343
 20
6.2344257195
 11
12.5427322343
 21
6.2344257195
  0
LINE
  5
217
100
AcDbEntity
  8
0
100
AcDbLine
 62
7
  6
CONTINUOUS
 10
9.3126524512
 20
6.2344257195
 11
9.3326524512
 21
6.2344257195
  0
LINE
  5
218
100
AcDbEntity
  8
0
100
AcDbLine
 62
7
  6
CONTINUOUS
 10
12.5627322343
 20
6.5344257195
 11
12.5427322343
 21
6.5344257195
  0
LINE
  5
219
100
AcDbEntity
  8
0
100
AcDbLine
 62
7
  6
CONTINUOUS
 10
9.3126524512
 20
6.5344257195
 11
9.3326524512
 21
6.5344257195
  0
LINE
  5
21A
100
AcDbEntity
  8
0
100
AcDbLine
 62
7
  6
CONTINUOUS
 10
9.3126524512
 20
6.6844257195
 11
9.0743523311
 21
6.6844257195
  0
LINE
  5
21B
100
AcDbEntity
  8
0
100
AcDbLine
 62
7
  6
CONTINUOUS
 10
12.5627322343
 20
6.6844257195
 11
12.8010323544
 21
6.6844257195
  0
LINE
  5
21C
100
AcDbEntity
  8
0
100
AcDbLine
 62
7
  6
CONTINUOUS
 10
8.5196524512
 20
6.9342228077
 11
8.5196524512
 21
6.8293976287
  0
LINE
  5
21D
100
AcDbEntity
  8
0
100
AcDbLine
 62
7
  6
CONTINUOUS
 10
8.5196524512
 20
6.8293976287
 11
8.8796524512
 21
6.8293976287
  0
LINE
  5
21E
100
AcDbEntity
  8
0
100
AcDbLine
 62
7
  6
CONTINUOUS
 10
12.9957322343
 20
6.8293976287
 11
13.3557322343
 21
6.8293976287
  0
LINE
  5
21F
100
AcDbEntity
  8
0
100
AcDbLine
 62
7
  6
CONTINUOUS
 10
10.1865718278
 20
6.8594257195
 11
10.1626524512
 21
6.8594257195
  0
LINE
  5
220
100
AcDbEntity
  8
0
100
AcDbLine
 62
7
  6
CONTINUOUS
 10
11.6888128575
 20
6.8594257195
 11
11.7127322343
 21
6.8594257195
  0
LINE
  5
221
100
AcDbEntity
  8
0
100
AcDbLine
 62
7
  6
CONTINUOUS
 10
13.3600464551
 20
6.9342228077
 11
12.9912322343
 21
6.9342228077
  0
LINE
  5
222
100
AcDbEntity
  8
0
100
AcDbLine
 62
7
  6
CONTINUOUS
 10
8.883966672
 20
6.9342228077
 11
8.5151524512
 21
6.9342228077
  0
LINE
  5
223
100
AcDbEntity
  8
0
100
AcDbLine
 62
7
  6
CONTINUOUS
 10
13.3602322343
 20
7.0342228077
 11
12.9912322343
 21
7.0342228077
  0
LINE
  5
224
100
AcDbEntity
  8
0
100
AcDbLine
 62
7
  6
CONTINUOUS
 10
8.8841524512
 20
7.0342228077
 11
8.5151524512
 21
7.0342228077
  0
LINE
  5
225
100
AcDbEntity
  8
0
100
AcDbLine
 62
9
  6
CONTINUOUS
 10
8.5367061819
 20
7.0584241903
 11
8.8625987205
 21
7.0584241903
  0
LINE
  5
226
100
AcDbEntity
  8
0
100
AcDbLine
 62
9
  6
CONTINUOUS
 10
13.012785965
 20
7.0584241903
 11
13.3386785036
 21
7.0584241903
  0
LINE
  5
227
100
AcDbEntity
  8
0
100
AcDbLine
 62
7
  6
CONTINUOUS
 10
8.8496524512
 20
8.368860285
 11
8.8661524512
 21
8.3014257195
  0
LINE
  5
228
100
AcDbEntity
  8
0
100
AcDbLine
 62
7
  6
CONTINUOUS
 10
8.8796524512
 20
6.9342228077
 11
8.8796524512
 21
6.8293976287
  0
LINE
  5
229
100
AcDbEntity
  8
0
100
AcDbLine
 62
7
  6
CONTINUOUS
 10
9.0743523311
 20
6.6844257195
 11
9.0743523311
 21
6.0844257195
  0
LINE
  5
22A
100
AcDbEntity
  8
0
100
AcDbLine
 62
7
  6
CONTINUOUS
 10
8.5496524512
 20
8.368860285
 11
8.5331524512
 21
8.3014257195
  0
LINE
  5
22B
100
AcDbEntity
  8
0
100
AcDbLine
 62
7
  6
CONTINUOUS
 10
11.6376923427
 20
7.171175362
 11
10.2376923427
 21
7.171175362
  0
LINE
  5
22C
100
AcDbEntity
  8
0
100
AcDbLine
 62
7
  6
CONTINUOUS
 10
10.4121923427
 20
7.308175362
 11
11.4631923427
 21
7.308175362
  0
LINE
  5
22D
100
AcDbEntity
  8
0
100
AcDbLine
 62
7
  6
CONTINUOUS
 10
9.3126524512
 20
6.6844257195
 11
9.3126524512
 21
6.0844257195
  0
LINE
  5
22E
100
AcDbEntity
  8
0
100
AcDbLine
 62
7
  6
CONTINUOUS
 10
9.3326524512
 20
6.0844257195
 11
9.3326524512
 21
6.6844257195
  0
LINE
  5
22F
100
AcDbEntity
  8
0
100
AcDbLine
 62
7
  6
CONTINUOUS
 10
11.2751923427
 20
7.496175362
 11
10.6001923427
 21
7.496175362
  0
LINE
  5
230
100
AcDbEntity
  8
0
100
AcDbLine
 62
7
  6
CONTINUOUS
 10
11.2751923427
 20
7.571175362
 11
10.6001923427
 21
7.571175362
  0
LINE
  5
231
100
AcDbEntity
  8
0
100
AcDbLine
 62
7
  6
CONTINUOUS
 10
11.2626923427
 20
7.821175362
 11
10.6126923427
 21
7.821175362
  0
LINE
  5
232
100
AcDbEntity
  8
0
100
AcDbLine
 62
9
  6
CONTINUOUS
 10
9.7102465751
 20
5.9123546885
 11
9.7102465751
 21
6.8564967504
  0
LINE
  5
233
100
AcDbEntity
  8
0
100
AcDbLine
 62
9
  6
CONTINUOUS
 10
9.8348472909
 20
5.9010923861
 11
9.8348472909
 21
6.8677590528
  0
LINE
  5
234
100
AcDbEntity
  8
0
100
AcDbLine
 62
7
  6
CONTINUOUS
 10
8.4911524512
 20
8.0994257195
 11
8.9081524512
 21
8.0994257195
  0
LINE
  5
235
100
AcDbEntity
  8
0
100
AcDbLine
 62
7
  6
CONTINUOUS
 10
12.9672322343
 20
8.0994257195
 11
13.3842322343
 21
8.0994257195
  0
LINE
  5
236
100
AcDbEntity
  8
0
100
AcDbLine
 62
7
  6
CONTINUOUS
 10
8.5064702953
 20
8.196729228
 11
8.8928346071
 21
8.196729228
  0
LINE
  5
237
100
AcDbEntity
  8
0
100
AcDbLine
 62
7
  6
CONTINUOUS
 10
12.9825500784
 20
8.196729228
 11
13.3689143902
 21
8.196729228
  0
LINE
  5
238
100
AcDbEntity
  8
0
100
AcDbLine
 62
9
  6
CONTINUOUS
 10
9.9053667766
 20
5.8851400052
 11
9.9053667766
 21
6.8837114337
  0
LINE
  5
239
100
AcDbEntity
  8
0
100
AcDbLine
 62
9
  6
CONTINUOUS
 10
10.1197715054
 20
5.8851400052
 11
10.1197715054
 21
6.8837114337
  0
LINE
  5
23A
100
AcDbEntity
  8
0
100
AcDbLine
 62
7
  6
CONTINUOUS
 10
10.1326923427
 20
4.939175362
 11
10.1326923427
 21
5.0172805985
  0
LINE
  5
23B
100
AcDbEntity
  8
0
100
AcDbLine
 62
9
  6
CONTINUOUS
 10
10.1626524512
 20
5.9094257195
 11
10.1626524512
 21
6.8594257195
  0
LINE
  5
23C
100
AcDbEntity
  8
0
100
AcDbLine
 62
7
  6
CONTINUOUS
 10
13.3572322343
 20
8.3014257195
 11
12.9942322343
 21
8.3014257195
  0
LINE
  5
23D
100
AcDbEntity
  8
0
100
AcDbLine
 62
7
  6
CONTINUOUS
 10
8.8811524512
 20
8.3014257195
 11
8.5181524512
 21
8.3014257195
  0
LINE
  5
23E
100
AcDbEntity
  8
0
100
AcDbLine
 62
7
  6
CONTINUOUS
 10
8.5496524512
 20
8.368860285
 11
8.8496524512
 21
8.368860285
  0
LINE
  5
23F
100
AcDbEntity
  8
0
100
AcDbLine
 62
7
  6
CONTINUOUS
 10
13.0257322343
 20
8.368860285
 11
13.3257322343
 21
8.368860285
  0
LINE
  5
240
100
AcDbEntity
  8
0
100
AcDbLine
 62
7
  6
CONTINUOUS
 10
10.6001923427
 20
7.571175362
 11
10.6001923427
 21
7.496175362
  0
LINE
  5
241
100
AcDbEntity
  8
0
100
AcDbLine
 62
7
  6
CONTINUOUS
 10
10.652798549
 20
11.588612089
 11
10.6482853665
 21
11.5320864378
  0
LINE
  5
242
100
AcDbEntity
  8
0
100
AcDbLine
 62
9
  6
CONTINUOUS
 10
10.6251923427
 20
11.3238626279
 11
10.6254193198
 21
11.3197897269
  0
LINE
  5
243
100
AcDbEntity
  8
0
100
AcDbLine
 62
7
  6
CONTINUOUS
 10
10.6561923427
 20
11.0456279619
 11
10.6563972875
 21
11.0419590991
  0
LINE
  5
244
100
AcDbEntity
  8
0
100
AcDbLine
 62
7
  6
CONTINUOUS
 10
10.6251923427
 20
11.4704790121
 11
10.6251923427
 21
11.4919819568
  0
LINE
  5
245
100
AcDbEntity
  8
0
100
AcDbLine
 62
7
  6
CONTINUOUS
 10
10.6876923427
 20
13.7711648143
 11
10.6876923427
 21
11.6326818046
  0
LINE
  5
246
100
AcDbEntity
  8
0
100
AcDbLine
 62
7
  6
CONTINUOUS
 10
10.6876923427
 20
7.821175362
 11
10.6876923427
 21
11.0015539194
  0
LINE
  5
247
100
AcDbEntity
  8
0
100
AcDbLine
 62
7
  6
CONTINUOUS
 10
10.6254193198
 20
11.3197897269
 11
10.6563968037
 21
11.0419590928
  0
LINE
  5
248
100
AcDbEntity
  8
0
100
AcDbLine
 62
7
  6
CONTINUOUS
 10
11.1876923427
 20
13.7711648143
 11
11.1876923427
 21
11.6326818046
  0
LINE
  5
249
100
AcDbEntity
  8
0
100
AcDbLine
 62
7
  6
CONTINUOUS
 10
11.1876923427
 20
7.821175362
 11
11.1876923427
 21
11.0015539194
  0
LINE
  5
24A
100
AcDbEntity
  8
0
100
AcDbLine
 62
7
  6
CONTINUOUS
 10
11.2501923427
 20
11.4704387785
 11
11.2501923427
 21
11.4919819568
  0
LINE
  5
24B
100
AcDbEntity
  8
0
100
AcDbLine
 62
7
  6
CONTINUOUS
 10
11.2751923427
 20
7.571175362
 11
11.2751923427
 21
7.496175362
  0
LINE
  5
24C
100
AcDbEntity
  8
0
100
AcDbLine
 62
9
  6
CONTINUOUS
 10
11.2499653656
 20
11.3197897269
 11
11.2501923427
 21
11.3238626279
  0
LINE
  5
24D
100
AcDbEntity
  8
0
100
AcDbLine
 62
7
  6
CONTINUOUS
 10
11.218987398
 20
11.0419590991
 11
11.2191923427
 21
11.0456279619
  0
LINE
  5
24E
100
AcDbEntity
  8
0
100
AcDbLine
 62
7
  6
CONTINUOUS
 10
11.2499653656
 20
11.3197897269
 11
11.2189878818
 21
11.0419590928
  0
LINE
  5
24F
100
AcDbEntity
  8
0
100
AcDbLine
 62
7
  6
CONTINUOUS
 10
11.2225861365
 20
11.588612089
 11
11.227099319
 21
11.5320864378
  0
LINE
  5
250
100
AcDbEntity
  8
0
100
AcDbLine
 62
9
  6
CONTINUOUS
 10
11.7127322343
 20
6.8594257195
 11
11.7127322343
 21
5.9094257195
  0
LINE
  5
251
100
AcDbEntity
  8
0
100
AcDbLine
 62
7
  6
CONTINUOUS
 10
11.7426923427
 20
4.939175362
 11
11.7426923427
 21
5.0172805985
  0
LINE
  5
252
100
AcDbEntity
  8
0
100
AcDbLine
 62
9
  6
CONTINUOUS
 10
11.7556131801
 20
6.8837114337
 11
11.7556131801
 21
5.8851400052
  0
LINE
  5
253
100
AcDbEntity
  8
0
100
AcDbLine
 62
9
  6
CONTINUOUS
 10
11.9700179089
 20
6.8837114337
 11
11.9700179089
 21
5.8851400052
  0
LINE
  5
254
100
AcDbEntity
  8
0
100
AcDbLine
 62
9
  6
CONTINUOUS
 10
12.0405373946
 20
6.8677590528
 11
12.0405373946
 21
5.9010923861
  0
LINE
  5
255
100
AcDbEntity
  8
0
100
AcDbLine
 62
9
  6
CONTINUOUS
 10
12.1651381104
 20
6.8564967504
 11
12.1651381104
 21
5.9123546885
  0
LINE
  5
256
100
AcDbEntity
  8
0
100
AcDbLine
 62
7
  6
CONTINUOUS
 10
12.5427322343
 20
6.6844257195
 11
12.5427322343
 21
6.0844257195
  0
LINE
  5
257
100
AcDbEntity
  8
0
100
AcDbLine
 62
7
  6
CONTINUOUS
 10
12.5627322343
 20
6.6844257195
 11
12.5627322343
 21
6.0844257195
  0
LINE
  5
258
100
AcDbEntity
  8
0
100
AcDbLine
 62
7
  6
CONTINUOUS
 10
12.8010323544
 20
6.6844257195
 11
12.8010323544
 21
6.0844257195
  0
LINE
  5
259
100
AcDbEntity
  8
0
100
AcDbLine
 62
7
  6
CONTINUOUS
 10
12.9957322343
 20
6.9342228077
 11
12.9957322343
 21
6.8293976287
  0
LINE
  5
25A
100
AcDbEntity
  8
0
100
AcDbLine
 62
7
  6
CONTINUOUS
 10
13.3257322343
 20
8.368860285
 11
13.3422322343
 21
8.3014257195
  0
LINE
  5
25B
100
AcDbEntity
  8
0
100
AcDbLine
 62
7
  6
CONTINUOUS
 10
13.3557322343
 20
6.9342228077
 11
13.3557322343
 21
6.8293976287
  0
LINE
  5
25C
100
AcDbEntity
  8
0
100
AcDbLine
 62
7
  6
CONTINUOUS
 10
13.0257322343
 20
8.368860285
 11
13.0092322343
 21
8.3014257195
  0
ARC
  5
25D
100
AcDbEntity
  8
0
100
AcDbCircle
 62
7
  6
CONTINUOUS
 10
5.8147587141
 20
7.7132936855
 40
3.1174
100
AcDbArc
 50
347.8735967305
 51
7.115128326
  0
ARC
  5
25E
100
AcDbEntity
  8
0
100
AcDbCircle
 62
7
  6
CONTINUOUS
 10
10.2908384972
 20
7.7132936855
 40
3.1174
100
AcDbArc
 50
347.8735967305
 51
7.115128326
  0
ARC
  5
25F
100
AcDbEntity
  8
0
100
AcDbCircle
 62
7
  6
CONTINUOUS
 10
8.7426923427
 20
6.3844257195
 40
3.0
100
AcDbArc
 50
9.5940682269
 51
15.2036040933
  0
ARC
  5
260
100
AcDbEntity
  8
0
100
AcDbCircle
 62
7
  6
CONTINUOUS
 10
8.7426923427
 20
6.3844257195
 40
3.0
100
AcDbArc
 50
344.0943492185
 51
350.4059317731
  0
ARC
  5
261
100
AcDbEntity
  8
0
100
AcDbCircle
 62
7
  6
CONTINUOUS
 10
9.2769738507
 20
7.3069406939
 40
0.625
100
AcDbArc
 50
275.111013774
 51
313.8868439077
  0
ARC
  5
262
100
AcDbEntity
  8
0
100
AcDbCircle
 62
7
  6
CONTINUOUS
 10
9.2769738507
 20
5.461910745
 40
0.625
100
AcDbArc
 50
46.1131560923
 51
84.888986226
  0
ARC
  5
263
100
AcDbEntity
  8
0
100
AcDbCircle
 62
7
  6
CONTINUOUS
 10
9.7666923427
 20
5.4252364785
 40
0.5
100
AcDbArc
 50
323.6327207052
 51
15.9056507815
  0
ARC
  5
264
100
AcDbEntity
  8
0
100
AcDbCircle
 62
7
  6
CONTINUOUS
 10
8.6996524512
 20
6.3844257195
 40
0.48
100
AcDbArc
 50
112.024312837
 51
321.3178125465
  0
ARC
  5
265
100
AcDbEntity
  8
0
100
AcDbCircle
 62
7
  6
CONTINUOUS
 10
8.6996524512
 20
6.3844257195
 40
0.48
100
AcDbArc
 50
38.6821874535
 51
67.975687163
  0
ARC
  5
266
100
AcDbEntity
  8
0
100
AcDbCircle
 62
7
  6
CONTINUOUS
 10
8.6996524512
 20
8.6344257195
 40
0.305
100
AcDbArc
 50
299.4591749118
 51
240.5408250882
  0
ARC
  5
267
100
AcDbEntity
  8
0
100
AcDbCircle
 62
7
  6
CONTINUOUS
 10
10.237599682
 20
4.7146305407
 40
0.25
100
AcDbArc
 50
116.0802350496
 51
181.5600156492
  0
ARC
  5
268
100
AcDbEntity
  8
0
100
AcDbCircle
 62
7
  6
CONTINUOUS
 10
10.7642971467
 20
7.6882826218
 40
0.201604804
100
AcDbArc
 50
138.7630563183
 51
215.5121332295
  0
ARC
  5
269
100
AcDbEntity
  8
0
100
AcDbCircle
 62
7
  6
CONTINUOUS
 10
10.0376923427
 20
4.514175362
 40
0.2
100
AcDbArc
 50
104.4775121859
 51
180.0
  0
ARC
  5
26A
100
AcDbEntity
  8
0
100
AcDbCircle
 62
7
  6
CONTINUOUS
 10
10.3206923427
 20
5.0172805985
 40
0.188
100
AcDbArc
 50
143.6327207052
 51
180.0
  0
ARC
  5
26B
100
AcDbEntity
  8
0
100
AcDbCircle
 62
7
  6
CONTINUOUS
 10
10.4186740766
 20
7.1202871316
 40
0.188
100
AcDbArc
 50
91.9757958016
 51
164.2951415934
  0
ARC
  5
26C
100
AcDbEntity
  8
0
100
AcDbCircle
 62
7
  6
CONTINUOUS
 10
10.6001923427
 20
7.308175362
 40
0.188
100
AcDbArc
 50
90.0
 51
180.0
  0
ARC
  5
26D
100
AcDbEntity
  8
0
100
AcDbCircle
 62
7
  6
CONTINUOUS
 10
10.012569141
 20
5.9494257195
 40
0.125
100
AcDbArc
 50
210.9497230789
 51
329.0502769211
  0
ARC
  5
26E
100
AcDbEntity
  8
0
100
AcDbCircle
 62
7
  6
CONTINUOUS
 10
10.012569141
 20
6.8194257195
 40
0.125
100
AcDbArc
 50
30.9497230789
 51
149.0502769211
  0
ARC
  5
26F
100
AcDbEntity
  8
0
100
AcDbCircle
 62
7
  6
CONTINUOUS
 10
9.779570211
 20
5.9844257195
 40
0.1
100
AcDbArc
 50
226.1131560923
 51
303.5573097619
  0
ARC
  5
270
100
AcDbEntity
  8
0
100
AcDbCircle
 62
7
  6
CONTINUOUS
 10
9.779570211
 20
6.7844257195
 40
0.1
100
AcDbArc
 50
56.4426902381
 51
133.8868439077
  0
ARC
  5
271
100
AcDbEntity
  8
0
100
AcDbCircle
 62
7
  6
CONTINUOUS
 10
8.5181524512
 20
8.2484257195
 40
0.053
100
AcDbArc
 50
90.0
 51
257.2664125554
  0
ARC
  5
272
100
AcDbEntity
  8
0
100
AcDbCircle
 62
7
  6
CONTINUOUS
 10
8.5181524512
 20
8.1450327365
 40
0.053
100
AcDbArc
 50
102.7335874446
 51
239.3738663938
  0
ARC
  5
273
100
AcDbEntity
  8
0
100
AcDbCircle
 62
7
  6
CONTINUOUS
 10
8.8811524512
 20
8.2484257195
 40
0.053
100
AcDbArc
 50
282.7335874446
 51
90.0
  0
ARC
  5
274
100
AcDbEntity
  8
0
100
AcDbCircle
 62
7
  6
CONTINUOUS
 10
8.8811524512
 20
8.1450327365
 40
0.053
100
AcDbArc
 50
300.6261336062
 51
77.2664125554
  0
ARC
  5
275
100
AcDbEntity
  8
0
100
AcDbCircle
 62
7
  6
CONTINUOUS
 10
8.5151524512
 20
6.9842228077
 40
0.05
100
AcDbArc
 50
90.0
 51
270.0
  0
ARC
  5
276
100
AcDbEntity
  8
0
100
AcDbCircle
 62
7
  6
CONTINUOUS
 10
10.1626524512
 20
5.8594257195
 40
0.05
100
AcDbArc
 50
90.0
 51
149.0502769211
  0
ARC
  5
277
100
AcDbEntity
  8
0
100
AcDbCircle
 62
7
  6
CONTINUOUS
 10
10.1626524512
 20
6.9094257195
 40
0.05
100
AcDbArc
 50
210.9497230789
 51
270.0
  0
ARC
  5
278
100
AcDbEntity
  8
0
100
AcDbCircle
 62
7
  6
CONTINUOUS
 10
9.8624858308
 20
5.8594257195
 40
0.05
100
AcDbArc
 50
30.9497230789
 51
123.5573097619
  0
ARC
  5
279
100
AcDbEntity
  8
0
100
AcDbCircle
 62
7
  6
CONTINUOUS
 10
9.8624858308
 20
6.9094257195
 40
0.05
100
AcDbArc
 50
236.4426902381
 51
329.0502769211
  0
ARC
  5
27A
100
AcDbEntity
  8
0
100
AcDbCircle
 62
7
  6
CONTINUOUS
 10
8.8841524512
 20
6.9842228077
 40
0.05
100
AcDbArc
 50
270.0
 51
90.0
  0
ARC
  5
27B
100
AcDbEntity
  8
0
100
AcDbCircle
 62
7
  6
CONTINUOUS
 10
8.5171524512
 20
7.0542228077
 40
0.02
100
AcDbArc
 50
270.0
 51
12.1264032695
  0
ARC
  5
27C
100
AcDbEntity
  8
0
100
AcDbCircle
 62
7
  6
CONTINUOUS
 10
8.8821524512
 20
7.0542228077
 40
0.02
100
AcDbArc
 50
167.8735967305
 51
270.0
  0
ARC
  5
27D
100
AcDbEntity
  8
0
100
AcDbCircle
 62
7
  6
CONTINUOUS
 10
11.5845461882
 20
7.7132936855
 40
3.1174
100
AcDbArc
 50
172.884871674
 51
192.1264032695
  0
ARC
  5
27E
100
AcDbEntity
  8
0
100
AcDbCircle
 62
7
  6
CONTINUOUS
 10
16.0606259713
 20
7.7132936855
 40
3.1174
100
AcDbArc
 50
172.884871674
 51
192.1264032695
  0
ARC
  5
27F
100
AcDbEntity
  8
0
100
AcDbCircle
 62
7
  6
CONTINUOUS
 10
13.1326923427
 20
6.3844257195
 40
3.0
100
AcDbArc
 50
189.5940682269
 51
195.9056507815
  0
ARC
  5
280
100
AcDbEntity
  8
0
100
AcDbCircle
 62
7
  6
CONTINUOUS
 10
13.1326923427
 20
6.3844257195
 40
3.0
100
AcDbArc
 50
164.7963959067
 51
170.4059317731
  0
ARC
  5
281
100
AcDbEntity
  8
0
100
AcDbCircle
 62
7
  6
CONTINUOUS
 10
12.5984108348
 20
5.461910745
 40
0.625
100
AcDbArc
 50
95.111013774
 51
133.8868439077
  0
ARC
  5
282
100
AcDbEntity
  8
0
100
AcDbCircle
 62
7
  6
CONTINUOUS
 10
12.5984108348
 20
7.3069406939
 40
0.625
100
AcDbArc
 50
226.1131560923
 51
264.888986226
  0
ARC
  5
283
100
AcDbEntity
  8
0
100
AcDbCircle
 62
7
  6
CONTINUOUS
 10
12.1086923427
 20
5.4252364785
 40
0.5
100
AcDbArc
 50
164.0943492185
 51
216.3672792948
  0
ARC
  5
284
100
AcDbEntity
  8
0
100
AcDbCircle
 62
7
  6
CONTINUOUS
 10
13.1757322343
 20
6.3844257195
 40
0.48
100
AcDbArc
 50
218.6821874535
 51
67.975687163
  0
ARC
  5
285
100
AcDbEntity
  8
0
100
AcDbCircle
 62
7
  6
CONTINUOUS
 10
13.1757322343
 20
6.3844257195
 40
0.48
100
AcDbArc
 50
112.024312837
 51
141.3178125465
  0
ARC
  5
286
100
AcDbEntity
  8
0
100
AcDbCircle
 62
7
  6
CONTINUOUS
 10
13.1757322343
 20
8.6344257195
 40
0.305
100
AcDbArc
 50
299.4591749118
 51
240.5408250882
  0
ARC
  5
287
100
AcDbEntity
  8
0
100
AcDbCircle
 62
7
  6
CONTINUOUS
 10
11.6377850035
 20
4.7146305407
 40
0.25
100
AcDbArc
 50
358.4399843508
 51
63.9197649504
  0
ARC
  5
288
100
AcDbEntity
  8
0
100
AcDbCircle
 62
7
  6
CONTINUOUS
 10
11.1110875388
 20
7.6882826218
 40
0.201604804
100
AcDbArc
 50
324.4878667705
 51
41.2369436817
  0
ARC
  5
289
100
AcDbEntity
  8
0
100
AcDbCircle
 62
7
  6
CONTINUOUS
 10
11.8376923427
 20
4.514175362
 40
0.2
100
AcDbArc
 50
0.0
 51
75.5224878141
  0
ARC
  5
28A
100
AcDbEntity
  8
0
100
AcDbCircle
 62
7
  6
CONTINUOUS
 10
11.5546923427
 20
5.0172805985
 40
0.188
100
AcDbArc
 50
0.0
 51
36.3672792948
  0
ARC
  5
28B
100
AcDbEntity
  8
0
100
AcDbCircle
 62
7
  6
CONTINUOUS
 10
11.4567106088
 20
7.1202871316
 40
0.188
100
AcDbArc
 50
15.7048584066
 51
88.0242041984
  0
ARC
  5
28C
100
AcDbEntity
  8
0
100
AcDbCircle
 62
7
  6
CONTINUOUS
 10
11.2751923427
 20
7.308175362
 40
0.188
100
AcDbArc
 50
0.0
 51
90.0
  0
ARC
  5
28D
100
AcDbEntity
  8
0
100
AcDbCircle
 62
7
  6
CONTINUOUS
 10
11.8628155445
 20
6.8194257195
 40
0.125
100
AcDbArc
 50
30.9497230789
 51
149.0502769211
  0
ARC
  5
28E
100
AcDbEntity
  8
0
100
AcDbCircle
 62
7
  6
CONTINUOUS
 10
11.8628155445
 20
5.9494257195
 40
0.125
100
AcDbArc
 50
210.9497230789
 51
329.0502769211
  0
ARC
  5
28F
100
AcDbEntity
  8
0
100
AcDbCircle
 62
7
  6
CONTINUOUS
 10
12.0958144744
 20
6.7844257195
 40
0.1
100
AcDbArc
 50
46.1131560923
 51
123.5573097619
  0
ARC
  5
290
100
AcDbEntity
  8
0
100
AcDbCircle
 62
7
  6
CONTINUOUS
 10
12.0958144744
 20
5.9844257195
 40
0.1
100
AcDbArc
 50
236.4426902381
 51
313.8868439077
  0
ARC
  5
291
100
AcDbEntity
  8
0
100
AcDbCircle
 62
7
  6
CONTINUOUS
 10
12.9942322343
 20
8.2484257195
 40
0.053
100
AcDbArc
 50
90.0
 51
257.2664125554
  0
ARC
  5
292
100
AcDbEntity
  8
0
100
AcDbCircle
 62
7
  6
CONTINUOUS
 10
12.9942322343
 20
8.1450327365
 40
0.053
100
AcDbArc
 50
102.7335874446
 51
239.3738663938
  0
ARC
  5
293
100
AcDbEntity
  8
0
100
AcDbCircle
 62
7
  6
CONTINUOUS
 10
13.3572322343
 20
8.2484257195
 40
0.053
100
AcDbArc
 50
282.7335874446
 51
90.0
  0
ARC
  5
294
100
AcDbEntity
  8
0
100
AcDbCircle
 62
7
  6
CONTINUOUS
 10
13.3572322343
 20
8.1450327365
 40
0.053
100
AcDbArc
 50
300.6261336062
 51
77.2664125554
  0
ARC
  5
295
100
AcDbEntity
  8
0
100
AcDbCircle
 62
7
  6
CONTINUOUS
 10
11.7127322343
 20
6.9094257195
 40
0.05
100
AcDbArc
 50
270.0
 51
329.0502769211
  0
ARC
  5
296
100
AcDbEntity
  8
0
100
AcDbCircle
 62
7
  6
CONTINUOUS
 10
11.7127322343
 20
5.8594257195
 40
0.05
100
AcDbArc
 50
30.9497230789
 51
90.0
  0
ARC
  5
297
100
AcDbEntity
  8
0
100
AcDbCircle
 62
7
  6
CONTINUOUS
 10
12.0128988547
 20
6.9094257195
 40
0.05
100
AcDbArc
 50
210.9497230789
 51
303.5573097619
  0
ARC
  5
298
100
AcDbEntity
  8
0
100
AcDbCircle
 62
7
  6
CONTINUOUS
 10
12.0128988547
 20
5.8594257195
 40
0.05
100
AcDbArc
 50
56.4426902381
 51
149.0502769211
  0
ARC
  5
299
100
AcDbEntity
  8
0
100
AcDbCircle
 62
7
  6
CONTINUOUS
 10
12.9912322343
 20
6.9842228077
 40
0.05
100
AcDbArc
 50
90.0
 51
270.0
  0
ARC
  5
29A
100
AcDbEntity
  8
0
100
AcDbCircle
 62
7
  6
CONTINUOUS
 10
13.3602322343
 20
6.9842228077
 40
0.05
100
AcDbArc
 50
270.0
 51
90.0
  0
ARC
  5
29B
100
AcDbEntity
  8
0
100
AcDbCircle
 62
7
  6
CONTINUOUS
 10
12.9932322343
 20
7.0542228077
 40
0.02
100
AcDbArc
 50
270.0
 51
12.1264032695
  0
ARC
  5
29C
100
AcDbEntity
  8
0
100
AcDbCircle
 62
7
  6
CONTINUOUS
 10
13.3582322343
 20
7.0542228077
 40
0.02
100
AcDbArc
 50
167.8735967305
 51
270.0
  0
ARC
  5
29D
100
AcDbEntity
  8
0
100
AcDbCircle
 62
7
  6
CONTINUOUS
 10
10.9376923427
 20
13.771175362
 40
0.25
100
AcDbArc
 50
0.0
 51
180.0
  0
SPLINE
  5
29E
100
AcDbEntity
  8
0
100
AcDbSpline
 62
7
  6
CONTINUOUS
 70
0
 71
3
 72
31
 73
27
 74
0
 42
0.0000001
 43
0.0000001
 44
0.0000000001
 40
0.0
 40
0.0
 40
0.0
 40
0.0
 40
0.0105476179
 40
0.041273521
 40
0.0898281419
 40
0.1532638803
 40
0.1896505501
 40
0.2286941793
 40
0.2700720059
 40
0.3134635188
 40
0.3585351978
 40
0.4049242082
 40
0.4522271633
 40
0.4999999961
 40
0.5477728309
 40
0.595075785
 40
0.6414647968
 40
0.6865364759
 40
0.7299279878
 40
0.7713058155
 40
0.8103494462
 40
0.8467361184
 40
0.9101718576
 40
0.9587264785
 40
0.9894523817
 40
1.0
 40
1.0
 40
1.0
 40
1.0
 10
11.7007322555
 20
5.8844257195
 30
0.0
 10
11.6991281015
 20
5.8877247582
 30
0.0
 10
11.6928865631
 20
5.9006515292
 30
0.0
 10
11.6796145575
 20
5.9289355799
 30
0.0
 10
11.6595590375
 20
5.9743461318
 30
0.0
 10
11.6404228904
 20
6.0222918218
 30
0.0
 10
11.6242020851
 20
6.067789111
 30
0.0
 10
11.6117324162
 20
6.1064609378
 30
0.0
 10
11.5999721604
 20
6.1478958583
 30
0.0
 10
11.5894053975
 20
6.1918142909
 30
0.0
 10
11.5805180292
 20
6.2378835583
 30
0.0
 10
11.5737683689
 20
6.2856926684
 30
0.0
 10
11.5695427558
 20
6.3347371136
 30
0.0
 10
11.5681031066
 20
6.3844257161
 30
0.0
 10
11.5695427554
 20
6.4341143182
 30
0.0
 10
11.5737683685
 20
6.4831587643
 30
0.0
 10
11.5805180282
 20
6.5309678746
 30
0.0
 10
11.5894053962
 20
6.5770371423
 30
0.0
 10
11.599972159
 20
6.620955575
 30
0.0
 10
11.6117324146
 20
6.6623904961
 30
0.0
 10
11.6242020839
 20
6.7010623246
 30
0.0
 10
11.6404228897
 20
6.7465596155
 30
0.0
 10
11.6595590372
 20
6.7945053065
 30
0.0
 10
11.6796145574
 20
6.8399158587
 30
0.0
 10
11.6928865629
 20
6.8681999096
 30
0.0
 10
11.6991281016
 20
6.8811266807
 30
0.0
 10
11.7007322557
 20
6.8844257195
 30
0.0
  0
SPLINE
  5
29F
100
AcDbEntity
  8
0
100
AcDbSpline
 62
7
  6
CONTINUOUS
 70
0
 71
3
 72
31
 73
27
 74
0
 42
0.0000001
 43
0.0000001
 44
0.0000000001
 40
0.0
 40
0.0
 40
0.0
 40
0.0
 40
0.0105476098
 40
0.0412735135
 40
0.0898281355
 40
0.1532638762
 40
0.1896505491
 40
0.2286941806
 40
0.2700720088
 40
0.3134635213
 40
0.358535201
 40
0.4049242135
 40
0.4522271685
 40
0.5000000039
 40
0.5477728373
 40
0.5950757931
 40
0.6414648044
 40
0.686536484
 40
0.7299279973
 40
0.7713058246
 40
0.8103494546
 40
0.8467361253
 40
0.9101718651
 40
0.9587264871
 40
0.9894523905
 40
1.0
 40
1.0
 40
1.0
 40
1.0
 10
10.1746524512
 20
6.8844257195
 30
0.0
 10
10.176256596
 20
6.8811266795
 30
0.0
 10
10.1824981124
 20
6.8681999011
 30
0.0
 10
10.1957701352
 20
6.8399158617
 30
0.0
 10
10.2158256455
 20
6.7945053046
 30
0.0
 10
10.2349617965
 20
6.746559615
 30
0.0
 10
10.2511826017
 20
6.7010623237
 30
0.0
 10
10.2636522711
 20
6.6623904953
 30
0.0
 10
10.2754125266
 20
6.6209555743
 30
0.0
 10
10.2859792893
 20
6.5770371417
 30
0.0
 10
10.2948666573
 20
6.5309678743
 30
0.0
 10
10.3016163171
 20
6.483158764
 30
0.0
 10
10.3058419301
 20
6.434114318
 30
0.0
 10
10.3072815789
 20
6.384425716
 30
0.0
 10
10.3058419297
 20
6.3347371138
 30
0.0
 10
10.3016163165
 20
6.2856926687
 30
0.0
 10
10.2948666564
 20
6.2378835587
 30
0.0
 10
10.2859792881
 20
6.1918142915
 30
0.0
 10
10.2754125252
 20
6.147895859
 30
0.0
 10
10.2636522696
 20
6.1064609386
 30
0.0
 10
10.2511826006
 20
6.0677891118
 30
0.0
 10
10.2349617958
 20
6.0222918221
 30
0.0
 10
10.2158256451
 20
5.9743461335
 30
0.0
 10
10.195770135
 20
5.9289355767
 30
0.0
 10
10.1824981123
 20
5.9006515375
 30
0.0
 10
10.1762565959
 20
5.8877247593
 30
0.0
 10
10.1746524512
 20
5.8844257195
 30
0.0
  0
SPLINE
  5
2A0
100
AcDbEntity
  8
0
100
AcDbSpline
 62
7
  6
CONTINUOUS
 70
0
 71
3
 72
61
 73
57
 74
0
 42
0.0000001
 43
0.0000001
 44
0.0000000001
 40
0.0
 40
0.0
 40
0.0
 40
0.0
 40
0.0075225928
 40
0.0151810054
 40
0.0231001288
 40
0.0313928663
 40
0.0401539856
 40
0.0494596207
 40
0.0593685693
 40
0.0699244581
 40
0.0811575706
 40
0.093087085
 40
0.105722986
 40
0.1190672171
 40
0.1331153336
 40
0.1478570657
 40
0.1632773507
 40
0.1793569784
 40
0.1960728636
 40
0.2133988628
 40
0.2313057462
 40
0.2497617973
 40
0.2687330064
 40
0.2881831824
 40
0.3283650902
 40
0.3699874512
 40
0.4127074991
 40
0.4561675329
 40
0.5
 40
0.5438324671
 40
0.5872925009
 40
0.6300125488
 40
0.6716349098
 40
0.7118168176
 40
0.7312669936
 40
0.7502382027
 40
0.7686942538
 40
0.7866011372
 40
0.8039271364
 40
0.8206430216
 40
0.8367226493
 40
0.8521429343
 40
0.8668846664
 40
0.8809327829
 40
0.894277014
 40
0.906912915
 40
0.9188424294
 40
0.9300755419
 40
0.9406314307
 40
0.9505403793
 40
0.9598460144
 40
0.9686071337
 40
0.9768998712
 40
0.9848189946
 40
0.9924774072
 40
1.0
 40
1.0
 40
1.0
 40
1.0
 10
10.6251923427
 20
11.4919819568
 30
0.0
 10
10.6251923427
 20
11.4937344796
 30
0.0
 10
10.6254488903
 20
11.4972762314
 30
0.0
 10
10.6265965554
 20
11.5025507956
 30
0.0
 10
10.628502226
 20
11.5077918518
 30
0.0
 10
10.6311563707
 20
11.5129840506
 30
0.0
 10
10.634548699
 20
11.5181165146
 30
0.0
 10
10.6386689239
 20
11.5231784629
 30
0.0
 10
10.643505677
 20
11.5281599845
 30
0.0
 10
10.6490471094
 20
11.5330507561
 30
0.0
 10
10.6552799669
 20
11.537840457
 30
0.0
 10
10.6621896024
 20
11.5425186038
 30
0.0
 10
10.6697598978
 20
11.5470744906
 30
0.0
 10
10.6779729865
 20
11.5514977853
 30
0.0
 10
10.6868095666
 20
11.5557779709
 30
0.0
 10
10.6962486694
 20
11.5599050118
 30
0.0
 10
10.7062678627
 20
11.56386908
 30
0.0
 10
10.7168432879
 20
11.5676605923
 30
0.0
 10
10.727949647
 20
11.571270586
 30
0.0
 10
10.7395603881
 20
11.5746902249
 30
0.0
 10
10.7516476685
 20
11.5779113668
 30
0.0
 10
10.7641824834
 20
11.5809262021
 30
0.0
 10
10.7771347904
 20
11.5837274498
 30
0.0
 10
10.7951145924
 20
11.587206249
 30
0.0
 10
10.8184108437
 20
11.5909554638
 30
0.0
 10
10.8472145501
 20
11.5944638717
 30
0.0
 10
10.8768869451
 20
11.5969945869
 30
0.0
 10
10.9071429743
 20
11.5985229822
 30
0.0
 10
10.9376923427
 20
11.5990341122
 30
0.0
 10
10.9682417112
 20
11.5985229822
 30
0.0
 10
10.9984977404
 20
11.5969945869
 30
0.0
 10
11.0281701354
 20
11.5944638717
 30
0.0
 10
11.0569738417
 20
11.5909554638
 30
0.0
 10
11.0802700931
 20
11.587206249
 30
0.0
 10
11.0982498951
 20
11.5837274498
 30
0.0
 10
11.1112022021
 20
11.5809262021
 30
0.0
 10
11.123737017
 20
11.5779113668
 30
0.0
 10
11.1358242974
 20
11.5746902249
 30
0.0
 10
11.1474350384
 20
11.571270586
 30
0.0
 10
11.1585413975
 20
11.5676605923
 30
0.0
 10
11.1691168228
 20
11.56386908
 30
0.0
 10
11.1791360161
 20
11.5599050118
 30
0.0
 10
11.1885751189
 20
11.5557779709
 30
0.0
 10
11.197411699
 20
11.5514977853
 30
0.0
 10
11.2056247877
 20
11.5470744906
 30
0.0
 10
11.213195083
 20
11.5425186038
 30
0.0
 10
11.2201047186
 20
11.537840457
 30
0.0
 10
11.2263375761
 20
11.5330507561
 30
0.0
 10
11.2318790085
 20
11.5281599845
 30
0.0
 10
11.2367157616
 20
11.5231784629
 30
0.0
 10
11.2408359865
 20
11.5181165146
 30
0.0
 10
11.2442283148
 20
11.5129840506
 30
0.0
 10
11.2468824595
 20
11.5077918518
 30
0.0
 10
11.2487881301
 20
11.5025507956
 30
0.0
 10
11.2499357952
 20
11.4972762314
 30
0.0
 10
11.2501923427
 20
11.4937344796
 30
0.0
 10
11.2501923427
 20
11.4919819568
 30
0.0
  0
SPLINE
  5
2A1
100
AcDbEntity
  8
0
100
AcDbSpline
 62
7
  6
CONTINUOUS
 70
0
 71
3
 72
59
 73
55
 74
0
 42
0.0000001
 43
0.0000001
 44
0.0000000001
 40
0.0
 40
0.0
 40
0.0
 40
0.0
 40
0.0075120044
 40
0.015222875
 40
0.0232467872
 40
0.0316834194
 40
0.0406143641
 40
0.050104388
 40
0.060202789
 40
0.0709453499
 40
0.0823563743
 40
0.0944502936
 40
0.1072336336
 40
0.1207057262
 40
0.134860307
 40
0.1496858863
 40
0.1651667155
 40
0.1812832642
 40
0.1980125166
 40
0.2153286907
 40
0.2332031282
 40
0.2516050327
 40
0.2898548429
 40
0.3297947716
 40
0.3711146467
 40
0.4134855049
 40
0.4565645744
 40
0.5
 40
0.5434354256
 40
0.5865144951
 40
0.6288853533
 40
0.6702052284
 40
0.7101451571
 40
0.7483949673
 40
0.7667968718
 40
0.7846713093
 40
0.8019874834
 40
0.8187167358
 40
0.8348332845
 40
0.8503141137
 40
0.865139693
 40
0.8792942738
 40
0.8927663664
 40
0.9055497064
 40
0.9176436257
 40
0.9290546501
 40
0.939797211
 40
0.949895612
 40
0.9593856359
 40
0.9683165806
 40
0.9767532128
 40
0.984777125
 40
0.9924879956
 40
1.0
 40
1.0
 40
1.0
 40
1.0
 10
10.6527986115
 20
11.5886120884
 30
0.0
 10
10.6529246221
 20
11.5901897867
 30
0.0
 10
10.6534075385
 20
11.5933729096
 30
0.0
 10
10.6547963722
 20
11.5980838105
 30
0.0
 10
10.6568481993
 20
11.6027588002
 30
0.0
 10
10.6595546744
 20
11.6073858053
 30
0.0
 10
10.6629067333
 20
11.6119559506
 30
0.0
 10
10.6668953058
 20
11.616460028
 30
0.0
 10
10.6715103535
 20
11.6208893398
 30
0.0
 10
10.6767410827
 20
11.6252349691
 30
0.0
 10
10.682575623
 20
11.6294877272
 30
0.0
 10
10.6890006632
 20
11.6336386234
 30
0.0
 10
10.6960017533
 20
11.6376782946
 30
0.0
 10
10.7035628832
 20
11.6415978824
 30
0.0
 10
10.7116668628
 20
11.6453883124
 30
0.0
 10
10.7202950872
 20
11.6490409994
 30
0.0
 10
10.7294277377
 20
11.652547503
 30
0.0
 10
10.739043784
 20
11.6558996481
 30
0.0
 10
10.7491210027
 20
11.6590897794
 30
0.0
 10
10.7596361125
 20
11.6621103022
 30
0.0
 10
10.7705647826
 20
11.6649544106
 30
0.0
 10
10.7858512839
 20
11.6685484265
 30
0.0
 10
10.8058154927
 20
11.6725330737
 30
0.0
 10
10.8306935248
 20
11.6764587533
 30
0.0
 10
10.8565632279
 20
11.6795510449
 30
0.0
 10
10.8831847572
 20
11.6817808744
 30
0.0
 10
10.9103116214
 20
11.6831272265
 30
0.0
 10
10.9376923427
 20
11.6835774236
 30
0.0
 10
10.965073064
 20
11.6831272265
 30
0.0
 10
10.9921999283
 20
11.6817808744
 30
0.0
 10
11.0188214576
 20
11.6795510449
 30
0.0
 10
11.0446911607
 20
11.6764587533
 30
0.0
 10
11.0695691928
 20
11.6725330737
 30
0.0
 10
11.0895334016
 20
11.6685484265
 30
0.0
 10
11.1048199029
 20
11.6649544106
 30
0.0
 10
11.1157485729
 20
11.6621103022
 30
0.0
 10
11.1262636828
 20
11.6590897794
 30
0.0
 10
11.1363409015
 20
11.6558996481
 30
0.0
 10
11.1459569478
 20
11.652547503
 30
0.0
 10
11.1550895983
 20
11.6490409994
 30
0.0
 10
11.1637178227
 20
11.6453883124
 30
0.0
 10
11.1718218022
 20
11.6415978824
 30
0.0
 10
11.1793829321
 20
11.6376782946
 30
0.0
 10
11.1863840222
 20
11.6336386234
 30
0.0
 10
11.1928090624
 20
11.6294877272
 30
0.0
 10
11.1986436028
 20
11.6252349691
 30
0.0
 10
11.203874332
 20
11.6208893398
 30
0.0
 10
11.2084893796
 20
11.616460028
 30
0.0
 10
11.2124779522
 20
11.6119559506
 30
0.0
 10
11.215830011
 20
11.6073858053
 30
0.0
 10
11.2185364862
 20
11.6027588002
 30
0.0
 10
11.2205883133
 20
11.5980838105
 30
0.0
 10
11.2219771469
 20
11.5933729096
 30
0.0
 10
11.2224600634
 20
11.5901897867
 30
0.0
 10
11.222586074
 20
11.5886120884
 30
0.0
  0
SPLINE
  5
2A2
100
AcDbEntity
  8
0
100
AcDbSpline
 62
7
  6
CONTINUOUS
 70
0
 71
3
 72
71
 73
67
 74
0
 42
0.0000001
 43
0.0000001
 44
0.0000000001
 40
0.0
 40
0.0
 40
0.0
 40
0.0
 40
0.0064133785
 40
0.0127998716
 40
0.0191748063
 40
0.0255355206
 40
0.0318700749
 40
0.0381732192
 40
0.0444452686
 40
0.0506867102
 40
0.0630878994
 40
0.0754195124
 40
0.0877432985
 40
0.1001345055
 40
0.1126679588
 40
0.1190125161
 40
0.1254195356
 40
0.1384505568
 40
0.1518177157
 40
0.1655639913
 40
0.1797228743
 40
0.1943165842
 40
0.2093593943
 40
0.224856568
 40
0.2408069141
 40
0.2572027419
 40
0.2740309062
 40
0.2912738217
 40
0.3089093475
 40
0.3452513972
 40
0.3828202813
 40
0.4213396433
 40
0.4605067481
 40
0.5000018507
 40
0.5394969255
 40
0.5786639619
 40
0.6171832165
 40
0.6547519127
 40
0.6910937223
 40
0.7087291832
 40
0.725971903
 40
0.7427999673
 40
0.7591956967
 40
0.775145786
 40
0.7906429347
 40
0.8056854271
 40
0.820279135
 40
0.8344377249
 40
0.8481839128
 40
0.8615508007
 40
0.8745817771
 40
0.8873315561
 40
0.8998650563
 40
0.9060742447
 40
0.9122579111
 40
0.9245815787
 40
0.9369131253
 40
0.949313829
 40
0.9555553518
 40
0.9618272316
 40
0.9681302357
 40
0.9744644164
 40
0.9808250338
 40
0.9872003983
 40
0.9935873691
 40
1.0
 40
1.0
 40
1.0
 40
1.0
 10
11.3076923427
 20
11.3792188423
 30
0.0
 10
11.3076923427
 20
11.3810846191
 30
0.0
 10
11.3075733749
 20
11.3848094546
 30
0.0
 10
11.3070395098
 20
11.3903657865
 30
0.0
 10
11.3061570251
 20
11.3958620921
 30
0.0
 10
11.3049394986
 20
11.401278301
 30
0.0
 10
11.3033996211
 20
11.4065899976
 30
0.0
 10
11.3015539253
 20
11.4117756761
 30
0.0
 10
11.299422999
 20
11.4168213258
 30
0.0
 10
11.296233284
 20
11.4233333547
 30
0.0
 10
11.2916249117
 20
11.4310972829
 30
0.0
 10
11.2852286542
 20
11.4397940627
 30
0.0
 10
11.2780900926
 20
11.4478857422
 30
0.0
 10
11.2702877882
 20
11.4554201964
 30
0.0
 10
11.26330486
 20
11.4612618562
 30
0.0
 10
11.257443034
 20
11.4657072817
 30
0.0
 10
11.2513324292
 20
11.4700587932
 30
0.0
 10
11.2433222628
 20
11.4752566233
 30
0.0
 10
11.2332092411
 20
11.4811067682
 30
0.0
 10
11.2225456752
 20
11.4866338172
 30
0.0
 10
11.2113377568
 20
11.4918611792
 30
0.0
 10
11.1995914208
 20
11.4968035333
 30
0.0
 10
11.1873164631
 20
11.5014718853
 30
0.0
 10
11.1745248822
 20
11.5058716249
 30
0.0
 10
11.1612325144
 20
11.5100059153
 30
0.0
 10
11.1474580887
 20
11.5138749459
 30
0.0
 10
11.1332235445
 20
11.5174774904
 30
0.0
 10
11.1185536167
 20
11.5208110626
 30
0.0
 10
11.0982469241
 20
11.5249337286
 30
0.0
 10
11.0719762377
 20
11.529362593
 30
0.0
 10
11.0395222719
 20
11.5334960049
 30
0.0
 10
11.0061167746
 20
11.5364712854
 30
0.0
 10
10.9720664524
 20
11.5382659874
 30
0.0
 10
10.9376904102
 20
11.538865794
 30
0.0
 10
10.9033143905
 20
11.5382658411
 30
0.0
 10
10.8692641343
 20
11.5364710169
 30
0.0
 10
10.8358587534
 20
11.5334956198
 30
0.0
 10
10.8034049602
 20
11.5293620819
 30
0.0
 10
10.7771344379
 20
11.5249331094
 30
0.0
 10
10.7568279044
 20
11.5208103905
 30
0.0
 10
10.7421581004
 20
11.5174767484
 30
0.0
 10
10.7279236776
 20
11.5138741888
 30
0.0
 10
10.714149418
 20
11.5100050601
 30
0.0
 10
10.7008571502
 20
11.5058708165
 30
0.0
 10
10.6880658057
 20
11.5014709294
 30
0.0
 10
10.6757909155
 20
11.4968026796
 30
0.0
 10
10.6640448291
 20
11.4918601955
 30
0.0
 10
10.6528370233
 20
11.4866328371
 30
0.0
 10
10.6421736608
 20
11.4811058878
 30
0.0
 10
10.6320607949
 20
11.4752554106
 30
0.0
 10
10.622502367
 20
11.4690530461
 30
0.0
 10
10.6135093996
 20
11.4624566534
 30
0.0
 10
10.6064755278
 20
11.4565741514
 30
0.0
 10
10.6011704923
 20
11.4516280349
 30
0.0
 10
10.5960981632
 20
11.4465294991
 30
0.0
 10
10.5901552328
 20
11.4397932242
 30
0.0
 10
10.5837594205
 20
11.4310966444
 30
0.0
 10
10.5791510683
 20
11.4233328016
 30
0.0
 10
10.5759615269
 20
11.416820882
 30
0.0
 10
10.5738305963
 20
11.411775304
 30
0.0
 10
10.5719850626
 20
11.4065897813
 30
0.0
 10
10.5704450718
 20
11.4012783041
 30
0.0
 10
10.5692275956
 20
11.3958620914
 30
0.0
 10
10.5683451716
 20
11.3903655376
 30
0.0
 10
10.5678113504
 20
11.3848091567
 30
0.0
 10
10.5676923427
 20
11.3810844016
 30
0.0
 10
10.5676923427
 20
11.3792188423
 30
0.0
  0
SPLINE
  5
2A3
100
AcDbEntity
  8
0
100
AcDbSpline
 62
7
  6
CONTINUOUS
 70
0
 71
3
 72
21
 73
17
 74
0
 42
0.0000001
 43
0.0000001
 44
0.0000000001
 40
0.0
 40
0.0
 40
0.0
 40
0.0
 40
0.0637150416
 40
0.1271484005
 40
0.1904180594
 40
0.2533456009
 40
0.3158586899
 40
0.3779620341
 40
0.4397093845
 40
0.5011606089
 40
0.5624491115
 40
0.6237080395
 40
0.7467816587
 40
0.8089704978
 40
0.8718079987
 40
1.0
 40
1.0
 40
1.0
 40
1.0
 10
10.5676923427
 20
11.3792188423
 30
0.0
 10
10.5676923427
 20
11.3767267464
 30
0.0
 10
10.5679045829
 20
11.3717508958
 30
0.0
 10
10.5688568424
 20
11.3643556632
 30
0.0
 10
10.5704157903
 20
11.3570955545
 30
0.0
 10
10.5725507025
 20
11.3500217054
 30
0.0
 10
10.5752202415
 20
11.343181411
 30
0.0
 10
10.5783776601
 20
11.3366041735
 30
0.0
 10
10.5819766602
 20
11.3303063942
 30
0.0
 10
10.5859750016
 20
11.3242933884
 30
0.0
 10
10.5903354634
 20
11.3185621578
 30
0.0
 10
10.5965970595
 20
11.3112702253
 30
0.0
 10
10.6034788689
 20
11.3044875264
 30
0.0
 10
10.610857919
 20
11.2981819872
 30
0.0
 10
10.6186674123
 20
11.2920863216
 30
0.0
 10
10.6248372004
 20
11.2878550502
 30
0.0
 10
10.6290687308
 20
11.2851653896
 30
0.0
  0
SPLINE
  5
2A4
100
AcDbEntity
  8
0
100
AcDbSpline
 62
7
  6
CONTINUOUS
 70
0
 71
3
 72
20
 73
16
 74
0
 42
0.0000001
 43
0.0000001
 44
0.0000000001
 40
0.0
 40
0.0
 40
0.0
 40
0.0
 40
0.1282297144
 40
0.2532493236
 40
0.3149640721
 40
0.3763703362
 40
0.4988606048
 40
0.5603084257
 40
0.6220507381
 40
0.6841513098
 40
0.7466604831
 40
0.8095828113
 40
0.8728514478
 40
0.9362900605
 40
1.0
 40
1.0
 40
1.0
 40
1.0
 10
11.2461716699
 20
11.2850739959
 30
0.0
 10
11.250412554
 20
11.2877648789
 30
0.0
 10
11.2586066153
 20
11.2933738189
 30
0.0
 10
11.2681964291
 20
11.3011618939
 30
0.0
 10
11.2752845734
 20
11.3078177194
 30
0.0
 10
11.281953914
 20
11.314754871
 30
0.0
 10
11.2880336858
 20
11.3222317772
 30
0.0
 10
11.2933709471
 20
11.330245814
 30
0.0
 10
11.2969788081
 20
11.3365500782
 30
0.0
 10
11.3001442442
 20
11.3431343219
 30
0.0
 10
11.30282064
 20
11.3499825911
 30
0.0
 10
11.3049614619
 20
11.3570651439
 30
0.0
 10
11.3065246323
 20
11.3643350547
 30
0.0
 10
11.3074794341
 20
11.3717405505
 30
0.0
 10
11.3076923427
 20
11.3767234302
 30
0.0
 10
11.3076923427
 20
11.3792188423
 30
0.0
  0
SPLINE
  5
2A5
100
AcDbEntity
  8
0
100
AcDbSpline
 62
7
  6
CONTINUOUS
 70
0
 71
3
 72
57
 73
53
 74
0
 42
0.0000001
 43
0.0000001
 44
0.0000000001
 40
0.0
 40
0.0
 40
0.0
 40
0.0
 40
0.0075179032
 40
0.0152579809
 40
0.0233298943
 40
0.0318279884
 40
0.0408289988
 40
0.0503934548
 40
0.0605672511
 40
0.0713832875
 40
0.0828637469
 40
0.0950213527
 40
0.1078613688
 40
0.1213822417
 40
0.1355770063
 40
0.1504338189
 40
0.1659366311
 40
0.1820658832
 40
0.1987985706
 40
0.2161090828
 40
0.2523454224
 40
0.2905254318
 40
0.3303672064
 40
0.3715653551
 40
0.4137963014
 40
0.4567230979
 40
0.5
 40
0.5432769021
 40
0.5862036986
 40
0.6284346449
 40
0.6696327936
 40
0.7094745682
 40
0.7476545776
 40
0.7838909172
 40
0.8012014294
 40
0.8179341168
 40
0.8340633689
 40
0.8495661811
 40
0.8644229937
 40
0.8786177583
 40
0.8921386312
 40
0.9049786473
 40
0.9171362531
 40
0.9286167125
 40
0.9394327489
 40
0.9496065452
 40
0.9591710012
 40
0.9681720116
 40
0.9766701057
 40
0.9847420191
 40
0.9924820968
 40
1.0
 40
1.0
 40
1.0
 40
1.0
 10
10.6563968865
 20
11.0419590938
 30
0.0
 10
10.6565696902
 20
11.0404094262
 30
0.0
 10
10.6571419433
 20
11.0372851046
 30
0.0
 10
10.6586434378
 20
11.0326718249
 30
0.0
 10
10.6607889108
 20
11.0280957854
 30
0.0
 10
10.6635701669
 20
11.0235682417
 30
0.0
 10
10.6669785486
 20
11.0190977698
 30
0.0
 10
10.6710050368
 20
11.014693125
 30
0.0
 10
10.675639934
 20
11.010362883
 30
0.0
 10
10.6808725136
 20
11.006115588
 30
0.0
 10
10.6866911615
 20
11.0019602594
 30
0.0
 10
10.6930827506
 20
10.9979055503
 30
0.0
 10
10.7000330981
 20
10.9939605161
 30
0.0
 10
10.7075265367
 20
10.990133753
 30
0.0
 10
10.7155462254
 20
10.986433938
 30
0.0
 10
10.7240740272
 20
10.9828694319
 30
0.0
 10
10.733090595
 20
10.9794482726
 30
0.0
 10
10.7425754569
 20
10.976178417
 30
0.0
 10
10.7525070136
 20
10.9730671155
 30
0.0
 10
10.766528898
 20
10.9690792153
 30
0.0
 10
10.7850185723
 20
10.9645656254
 30
0.0
 10
10.8082721194
 20
10.9599630879
 30
0.0
 10
10.8327078649
 20
10.9561376893
 30
0.0
 10
10.8581026426
 20
10.9531248924
 30
0.0
 10
10.8842248539
 20
10.9509526893
 30
0.0
 10
10.9108358275
 20
10.9496412457
 30
0.0
 10
10.9376923427
 20
10.9492027414
 30
0.0
 10
10.964548858
 20
10.9496412457
 30
0.0
 10
10.9911598316
 20
10.9509526893
 30
0.0
 10
11.0172820429
 20
10.9531248924
 30
0.0
 10
11.0426768206
 20
10.9561376893
 30
0.0
 10
11.0671125661
 20
10.9599630879
 30
0.0
 10
11.0903661132
 20
10.9645656254
 30
0.0
 10
11.1088557875
 20
10.9690792153
 30
0.0
 10
11.1228776718
 20
10.9730671155
 30
0.0
 10
11.1328092286
 20
10.976178417
 30
0.0
 10
11.1422940905
 20
10.9794482726
 30
0.0
 10
11.1513106583
 20
10.9828694319
 30
0.0
 10
11.1598384601
 20
10.986433938
 30
0.0
 10
11.1678581488
 20
10.990133753
 30
0.0
 10
11.1753515873
 20
10.9939605161
 30
0.0
 10
11.1823019349
 20
10.9979055503
 30
0.0
 10
11.188693524
 20
11.0019602594
 30
0.0
 10
11.1945121718
 20
11.006115588
 30
0.0
 10
11.1997447515
 20
11.010362883
 30
0.0
 10
11.2043796487
 20
11.014693125
 30
0.0
 10
11.2084061368
 20
11.0190977698
 30
0.0
 10
11.2118145186
 20
11.0235682417
 30
0.0
 10
11.2145957746
 20
11.0280957854
 30
0.0
 10
11.2167412476
 20
11.0326718249
 30
0.0
 10
11.2182427422
 20
11.0372851046
 30
0.0
 10
11.2188149953
 20
11.0404094262
 30
0.0
 10
11.218987799
 20
11.0419590938
 30
0.0
  0
SPLINE
  5
2A6
100
AcDbEntity
  8
0
100
AcDbSpline
 62
9
  6
CONTINUOUS
 70
0
 71
3
 72
61
 73
57
 74
0
 42
0.0000001
 43
0.0000001
 44
0.0000000001
 40
0.0
 40
0.0
 40
0.0
 40
0.0
 40
0.0075225924
 40
0.0151810052
 40
0.0231001298
 40
0.0313928665
 40
0.0401539846
 40
0.0494596204
 40
0.0593685699
 40
0.0699244588
 40
0.0811575702
 40
0.093087084
 40
0.1057229868
 40
0.1190672185
 40
0.1331153327
 40
0.1478570642
 40
0.163277351
 40
0.1793569798
 40
0.1960728643
 40
0.2133988614
 40
0.2313057456
 40
0.2497617994
 40
0.2687330069
 40
0.2881831802
 40
0.3283650915
 40
0.3699874507
 40
0.4127075
 40
0.4561675317
 40
0.5
 40
0.5438324683
 40
0.5872925
 40
0.6300125493
 40
0.6716349085
 40
0.7118168198
 40
0.7312669931
 40
0.7502382006
 40
0.7686942544
 40
0.7866011386
 40
0.8039271357
 40
0.8206430202
 40
0.836722649
 40
0.8521429358
 40
0.8668846673
 40
0.8809327815
 40
0.8942770132
 40
0.906912916
 40
0.9188424298
 40
0.9300755412
 40
0.9406314301
 40
0.9505403796
 40
0.9598460154
 40
0.9686071335
 40
0.9768998702
 40
0.9848189948
 40
0.9924774076
 40
1.0
 40
1.0
 40
1.0
 40
1.0
 10
10.6251923427
 20
11.3238626279
 30
0.0
 10
10.6251923427
 20
11.3256151506
 30
0.0
 10
10.6254488901
 20
11.3291569024
 30
0.0
 10
10.6265965555
 20
11.3344314668
 30
0.0
 10
10.6285022262
 20
11.3396725231
 30
0.0
 10
10.6311563705
 20
11.3448647218
 30
0.0
 10
10.6345486989
 20
11.3499971855
 30
0.0
 10
10.6386689239
 20
11.3550591337
 30
0.0
 10
10.6435056771
 20
11.3600406558
 30
0.0
 10
10.6490471096
 20
11.3649314273
 30
0.0
 10
10.6552799667
 20
11.369721128
 30
0.0
 10
10.6621896023
 20
11.3743992748
 30
0.0
 10
10.6697598981
 20
11.3789551616
 30
0.0
 10
10.6779729867
 20
11.3833784566
 30
0.0
 10
10.6868095664
 20
11.387658642
 30
0.0
 10
10.696248669
 20
11.3917856826
 30
0.0
 10
10.7062678627
 20
11.3957497512
 30
0.0
 10
10.7168432885
 20
11.3995412635
 30
0.0
 10
10.7279496472
 20
11.4031512571
 30
0.0
 10
10.7395603878
 20
11.406570896
 30
0.0
 10
10.7516476685
 20
11.4097920378
 30
0.0
 10
10.7641824838
 20
11.4128068733
 30
0.0
 10
10.7771347904
 20
11.415608121
 30
0.0
 10
10.7951145923
 20
11.4190869199
 30
0.0
 10
10.8184108434
 20
11.4228361348
 30
0.0
 10
10.8472145505
 20
11.4263445429
 30
0.0
 10
10.8768869449
 20
11.4288752578
 30
0.0
 10
10.9071429742
 20
11.4304036533
 30
0.0
 10
10.9376923427
 20
11.4309147832
 30
0.0
 10
10.9682417113
 20
11.4304036533
 30
0.0
 10
10.9984977405
 20
11.4288752578
 30
0.0
 10
11.028170135
 20
11.4263445429
 30
0.0
 10
11.0569738421
 20
11.4228361348
 30
0.0
 10
11.0802700932
 20
11.4190869199
 30
0.0
 10
11.0982498951
 20
11.415608121
 30
0.0
 10
11.1112022017
 20
11.4128068733
 30
0.0
 10
11.123737017
 20
11.4097920378
 30
0.0
 10
11.1358242977
 20
11.406570896
 30
0.0
 10
11.1474350383
 20
11.4031512571
 30
0.0
 10
11.158541397
 20
11.3995412635
 30
0.0
 10
11.1691168228
 20
11.3957497512
 30
0.0
 10
11.1791360165
 20
11.3917856826
 30
0.0
 10
11.1885751191
 20
11.387658642
 30
0.0
 10
11.1974116988
 20
11.3833784566
 30
0.0
 10
11.2056247874
 20
11.3789551616
 30
0.0
 10
11.2131950832
 20
11.3743992748
 30
0.0
 10
11.2201047188
 20
11.369721128
 30
0.0
 10
11.2263375759
 20
11.3649314273
 30
0.0
 10
11.2318790084
 20
11.3600406558
 30
0.0
 10
11.2367157616
 20
11.3550591337
 30
0.0
 10
11.2408359866
 20
11.3499971855
 30
0.0
 10
11.244228315
 20
11.3448647218
 30
0.0
 10
11.2468824592
 20
11.3396725231
 30
0.0
 10
11.24878813
 20
11.3344314668
 30
0.0
 10
11.2499357954
 20
11.3291569024
 30
0.0
 10
11.2501923427
 20
11.3256151506
 30
0.0
 10
11.2501923427
 20
11.3238626279
 30
0.0
  0
SPLINE
  5
2A7
100
AcDbEntity
  8
0
100
AcDbSpline
 62
9
  6
CONTINUOUS
 70
0
 71
3
 72
61
 73
57
 74
0
 42
0.0000001
 43
0.0000001
 44
0.0000000001
 40
0.0
 40
0.0
 40
0.0
 40
0.0
 40
0.0075225924
 40
0.0151810052
 40
0.0231001298
 40
0.0313928665
 40
0.0401539846
 40
0.0494596204
 40
0.0593685699
 40
0.0699244588
 40
0.0811575702
 40
0.093087084
 40
0.1057229868
 40
0.1190672185
 40
0.1331153327
 40
0.1478570642
 40
0.163277351
 40
0.1793569798
 40
0.1960728643
 40
0.2133988614
 40
0.2313057456
 40
0.2497617994
 40
0.2687330069
 40
0.2881831802
 40
0.3283650915
 40
0.3699874507
 40
0.4127075
 40
0.4561675317
 40
0.5
 40
0.5438324683
 40
0.5872925
 40
0.6300125493
 40
0.6716349085
 40
0.7118168198
 40
0.7312669931
 40
0.7502382006
 40
0.7686942544
 40
0.7866011386
 40
0.8039271357
 40
0.8206430202
 40
0.836722649
 40
0.8521429358
 40
0.8668846673
 40
0.8809327815
 40
0.8942770132
 40
0.906912916
 40
0.9188424298
 40
0.9300755412
 40
0.9406314301
 40
0.9505403796
 40
0.9598460154
 40
0.9686071335
 40
0.9768998702
 40
0.9848189948
 40
0.9924774076
 40
1.0
 40
1.0
 40
1.0
 40
1.0
 10
10.6156543105
 20
11.3322732583
 30
0.0
 10
10.6156543105
 20
11.334079271
 30
0.0
 10
10.6159186881
 20
11.3377291231
 30
0.0
 10
10.6171013822
 20
11.3431646762
 30
0.0
 10
10.6190652173
 20
11.3485656984
 30
0.0
 10
10.6218003705
 20
11.353916372
 30
0.0
 10
10.6252962385
 20
11.3592054871
 30
0.0
 10
10.6295422199
 20
11.3644219347
 30
0.0
 10
10.634526599
 20
11.3695555013
 30
0.0
 10
10.6402371654
 20
11.3745955474
 30
0.0
 10
10.64666026
 20
11.379531438
 30
0.0
 10
10.6537807894
 20
11.3843523698
 30
0.0
 10
10.6615821435
 20
11.3890473101
 30
0.0
 10
10.6700459096
 20
11.3936056115
 30
0.0
 10
10.6791521967
 20
11.3980164354
 30
0.0
 10
10.6888793968
 20
11.4022694404
 30
0.0
 10
10.6992043934
 20
11.4063544991
 30
0.0
 10
10.7101025992
 20
11.4102617348
 30
0.0
 10
10.7215479429
 20
11.4139819116
 30
0.0
 10
10.733513063
 20
11.4175059237
 30
0.0
 10
10.7459692682
 20
11.4208253802
 30
0.0
 10
10.7588866674
 20
11.4239322336
 30
0.0
 10
10.7722343005
 20
11.4268189802
 30
0.0
 10
10.7907628765
 20
11.430403958
 30
0.0
 10
10.8147701689
 20
11.4342676053
 30
0.0
 10
10.8444530141
 20
11.4378830959
 30
0.0
 10
10.8750310606
 20
11.4404910526
 30
0.0
 10
10.9062105554
 20
11.4420660973
 30
0.0
 10
10.9376923427
 20
11.4425928278
 30
0.0
 10
10.96917413
 20
11.4420660973
 30
0.0
 10
11.0003536248
 20
11.4404910526
 30
0.0
 10
11.0309316713
 20
11.4378830959
 30
0.0
 10
11.0606145166
 20
11.4342676053
 30
0.0
 10
11.084621809
 20
11.430403958
 30
0.0
 10
11.103150385
 20
11.4268189802
 30
0.0
 10
11.1164980181
 20
11.4239322336
 30
0.0
 10
11.1294154173
 20
11.4208253802
 30
0.0
 10
11.1418716224
 20
11.4175059237
 30
0.0
 10
11.1538367426
 20
11.4139819116
 30
0.0
 10
11.1652820863
 20
11.4102617348
 30
0.0
 10
11.1761802921
 20
11.4063544991
 30
0.0
 10
11.1865052886
 20
11.4022694404
 30
0.0
 10
11.1962324888
 20
11.3980164354
 30
0.0
 10
11.2053387759
 20
11.3936056115
 30
0.0
 10
11.2138025419
 20
11.3890473101
 30
0.0
 10
11.2216038961
 20
11.3843523698
 30
0.0
 10
11.2287244255
 20
11.379531438
 30
0.0
 10
11.23514752
 20
11.3745955474
 30
0.0
 10
11.2408580865
 20
11.3695555013
 30
0.0
 10
11.2458424656
 20
11.3644219347
 30
0.0
 10
11.2500884469
 20
11.3592054871
 30
0.0
 10
11.253584315
 20
11.353916372
 30
0.0
 10
11.2563194682
 20
11.3485656984
 30
0.0
 10
11.2582833033
 20
11.3431646762
 30
0.0
 10
11.2594659974
 20
11.3377291231
 30
0.0
 10
11.259730375
 20
11.334079271
 30
0.0
 10
11.259730375
 20
11.3322732583
 30
0.0
  0
SPLINE
  5
2A8
100
AcDbEntity
  8
0
100
AcDbSpline
 62
9
  6
CONTINUOUS
 70
0
 71
3
 72
31
 73
27
 74
0
 42
0.0000001
 43
0.0000001
 44
0.0000000001
 40
0.0
 40
0.0
 40
0.0
 40
0.0
 40
0.0254790947
 40
0.0520117797
 40
0.0795508758
 40
0.1080438646
 40
0.1374334371
 40
0.1676583508
 40
0.1986534873
 40
0.2303505217
 40
0.2955599051
 40
0.3626923555
 40
0.4311206403
 40
0.5001982457
 40
0.5692691157
 40
0.6376772944
 40
0.7047765641
 40
0.7699401873
 40
0.8016098485
 40
0.832574747
 40
0.8627666999
 40
0.8921207168
 40
0.9205757183
 40
0.9480745904
 40
0.9745649952
 40
1.0
 40
1.0
 40
1.0
 40
1.0
 10
10.7072230871
 20
11.5077332228
 30
0.0
 10
10.7109533417
 20
11.5091264707
 30
0.0
 10
10.718618084
 20
11.5118381852
 30
0.0
 10
10.7304643322
 20
11.5156165336
 30
0.0
 10
10.7428677287
 20
11.5191801933
 30
0.0
 10
10.7557948636
 20
11.5225194735
 30
0.0
 10
10.7692111162
 20
11.5256254714
 30
0.0
 10
10.7830804674
 20
11.5284896751
 30
0.0
 10
10.7973657197
 20
11.5311044603
 30
0.0
 10
10.817102243
 20
11.5342785767
 30
0.0
 10
10.8425357903
 20
11.5375573904
 30
0.0
 10
10.8737936196
 20
11.5403694735
 30
0.0
 10
10.9057372266
 20
11.5420643525
 30
0.0
 10
10.9380235884
 20
11.5426235786
 30
0.0
 10
10.9703063961
 20
11.5420409845
 30
0.0
 10
11.0022393808
 20
11.5403229954
 30
0.0
 10
11.0334796355
 20
11.5374883113
 30
0.0
 10
11.0588940469
 20
11.5341909454
 30
0.0
 10
11.0786118729
 20
11.5310023368
 30
0.0
 10
11.0928808348
 20
11.528377183
 30
0.0
 10
11.1067323478
 20
11.5255029239
 30
0.0
 10
11.1201292609
 20
11.5223871963
 30
0.0
 10
11.1330356089
 20
11.5190385411
 30
0.0
 10
11.1454168308
 20
11.515465898
 30
0.0
 10
11.1572395718
 20
11.5116789607
 30
0.0
 10
11.1648879701
 20
11.5089615139
 30
0.0
 10
11.1686098155
 20
11.5075654561
 30
0.0
  0
SPLINE
  5
2A9
100
AcDbEntity
  8
0
100
AcDbSpline
 62
9
  6
CONTINUOUS
 70
0
 71
3
 72
33
 73
29
 74
0
 42
0.0000001
 43
0.0000001
 44
0.0000000001
 40
0.0
 40
0.0
 40
0.0
 40
0.0
 40
0.0876660013
 40
0.1745855371
 40
0.2600263735
 40
0.3432713549
 40
0.4236355537
 40
0.5004740792
 40
0.5373863598
 40
0.5732003468
 40
0.6078523973
 40
0.6412844545
 40
0.6734437259
 40
0.7042845425
 40
0.7337680967
 40
0.7618644287
 40
0.7885530954
 40
0.8138249017
 40
0.837684167
 40
0.8601503931
 40
0.8812623235
 40
0.9010803141
 40
0.9196916302
 40
0.9372139115
 40
0.9537996375
 40
0.9696380843
 40
0.9849537656
 40
1.0
 40
1.0
 40
1.0
 40
1.0
 10
10.9376923427
 20
12.3762257203
 30
0.0
 10
10.9295230339
 20
12.3762257203
 30
0.0
 10
10.9132526366
 20
12.3759535184
 30
0.0
 10
10.8890480121
 20
12.3747307769
 30
0.0
 10
10.8653101804
 20
12.3727062153
 30
0.0
 10
10.8422669286
 20
12.3698995178
 30
0.0
 10
10.8201394951
 20
12.3663380724
 30
0.0
 10
10.8024087888
 20
12.3627235987
 30
0.0
 10
10.7888566221
 20
12.3594642322
 30
0.0
 10
10.7791867736
 20
12.3568873141
 30
0.0
 10
10.7698981961
 20
12.3541515529
 30
0.0
 10
10.7610130926
 20
12.3512636328
 30
0.0
 10
10.7525527703
 20
12.3482303457
 30
0.0
 10
10.7445374001
 20
12.3450591509
 30
0.0
 10
10.7369861258
 20
12.3417574908
 30
0.0
 10
10.7299168686
 20
12.3383333307
 30
0.0
 10
10.7233463768
 20
12.3347947422
 30
0.0
 10
10.717290175
 20
12.331149961
 30
0.0
 10
10.7117624224
 20
12.3274075224
 30
0.0
 10
10.7067761773
 20
12.3235756958
 30
0.0
 10
10.702343
 20
12.3196631226
 30
0.0
 10
10.6984736129
 20
12.3156778844
 30
0.0
 10
10.6951774546
 20
12.3116283222
 30
0.0
 10
10.6924635257
 20
12.307522381
 30
0.0
 10
10.6903402777
 20
12.3033685568
 30
0.0
 10
10.6888157631
 20
12.2991758021
 30
0.0
 10
10.6878975325
 20
12.2949561802
 30
0.0
 10
10.6876923427
 20
12.292122794
 30
0.0
 10
10.6876923427
 20
12.2907206845
 30
0.0
  0
SPLINE
  5
2AA
100
AcDbEntity
  8
0
100
AcDbSpline
 62
9
  6
CONTINUOUS
 70
0
 71
3
 72
14
 73
10
 74
0
 42
0.0000001
 43
0.0000001
 44
0.0000000001
 40
0.0
 40
0.0
 40
0.0
 40
0.0
 40
0.1156219623
 40
0.2322326096
 40
0.3507478579
 40
0.4720462992
 40
0.5969477752
 40
0.7261894503
 40
1.0
 40
1.0
 40
1.0
 40
1.0
 10
10.6156543105
 20
11.3322732583
 30
0.0
 10
10.6156543105
 20
11.3310460989
 30
0.0
 10
10.6157753195
 20
11.3285796219
 30
0.0
 10
10.6163181612
 20
11.3248912346
 30
0.0
 10
10.617221858
 20
11.321212121
 30
0.0
 10
10.6184847527
 20
11.3175477132
 30
0.0
 10
10.620104713
 20
11.3139017846
 30
0.0
 10
10.6227883697
 20
11.3089775698
 30
0.0
 10
10.6252628484
 20
11.305465288
 30
0.0
 10
10.6270786375
 20
11.3031962932
 30
0.0
  0
SPLINE
  5
2AB
100
AcDbEntity
  8
0
100
AcDbSpline
 62
9
  6
CONTINUOUS
 70
0
 71
3
 72
14
 73
10
 74
0
 42
0.0000001
 43
0.0000001
 44
0.0000000001
 40
0.0
 40
0.0
 40
0.0
 40
0.0
 40
0.2738105497
 40
0.4030522248
 40
0.5279537008
 40
0.6492521421
 40
0.7677673904
 40
0.8843780377
 40
1.0
 40
1.0
 40
1.0
 40
1.0
 10
11.248306048
 20
11.3031962932
 30
0.0
 10
11.250121837
 20
11.305465288
 30
0.0
 10
11.2525963158
 20
11.3089775698
 30
0.0
 10
11.2552799725
 20
11.3139017846
 30
0.0
 10
11.2568999327
 20
11.3175477132
 30
0.0
 10
11.2581628275
 20
11.321212121
 30
0.0
 10
11.2590665243
 20
11.3248912346
 30
0.0
 10
11.259609366
 20
11.3285796219
 30
0.0
 10
11.259730375
 20
11.3310460989
 30
0.0
 10
11.259730375
 20
11.3322732583
 30
0.0
  0
SPLINE
  5
2AC
100
AcDbEntity
  8
0
100
AcDbSpline
 62
9
  6
CONTINUOUS
 70
0
 71
3
 72
33
 73
29
 74
0
 42
0.0000001
 43
0.0000001
 44
0.0000000001
 40
0.0
 40
0.0
 40
0.0
 40
0.0
 40
0.0150462344
 40
0.0303619157
 40
0.0462003625
 40
0.0627860885
 40
0.0803083698
 40
0.0989196859
 40
0.1187376765
 40
0.1398496069
 40
0.162315833
 40
0.1861750983
 40
0.2114469046
 40
0.2381355713
 40
0.2662319033
 40
0.2957154575
 40
0.3265562741
 40
0.3587155455
 40
0.3921476027
 40
0.4267996532
 40
0.4626136402
 40
0.4995259208
 40
0.5763644463
 40
0.6567286451
 40
0.7399736265
 40
0.8254144629
 40
0.9123339987
 40
1.0
 40
1.0
 40
1.0
 40
1.0
 10
11.1876923427
 20
12.2907206845
 30
0.0
 10
11.1876923427
 20
12.292122794
 30
0.0
 10
11.187487153
 20
12.2949561802
 30
0.0
 10
11.1865689224
 20
12.2991758021
 30
0.0
 10
11.1850444078
 20
12.3033685568
 30
0.0
 10
11.1829211598
 20
12.307522381
 30
0.0
 10
11.1802072309
 20
12.3116283222
 30
0.0
 10
11.1769110726
 20
12.3156778844
 30
0.0
 10
11.1730416855
 20
12.3196631226
 30
0.0
 10
11.1686085082
 20
12.3235756958
 30
0.0
 10
11.1636222631
 20
12.3274075224
 30
0.0
 10
11.1580945105
 20
12.331149961
 30
0.0
 10
11.1520383086
 20
12.3347947422
 30
0.0
 10
11.1454678169
 20
12.3383333307
 30
0.0
 10
11.1383985597
 20
12.3417574908
 30
0.0
 10
11.1308472854
 20
12.3450591509
 30
0.0
 10
11.1228319152
 20
12.3482303457
 30
0.0
 10
11.1143715928
 20
12.3512636328
 30
0.0
 10
11.1054864894
 20
12.3541515529
 30
0.0
 10
11.0961979119
 20
12.3568873141
 30
0.0
 10
11.0865280634
 20
12.3594642322
 30
0.0
 10
11.0729758967
 20
12.3627235987
 30
0.0
 10
11.0552451903
 20
12.3663380724
 30
0.0
 10
11.0331177569
 20
12.3698995178
 30
0.0
 10
11.0100745051
 20
12.3727062153
 30
0.0
 10
10.9863366733
 20
12.3747307769
 30
0.0
 10
10.9621320489
 20
12.3759535184
 30
0.0
 10
10.9458616516
 20
12.3762257203
 30
0.0
 10
10.9376923427
 20
12.3762257203
 30
0.0
  0
SPLINE
  5
2AD
100
AcDbEntity
  8
0
100
AcDbSpline
 62
7
  6
CONTINUOUS
 70
0
 71
3
 72
59
 73
55
 74
0
 42
0.0000001
 43
0.0000001
 44
0.0000000001
 40
0.0
 40
0.0
 40
0.0
 40
0.0
 40
0.0075225704
 40
0.015181068
 40
0.0231002589
 40
0.0313930055
 40
0.0401541676
 40
0.0494598507
 40
0.0593688328
 40
0.0699247927
 40
0.0811579306
 40
0.0930875273
 40
0.1057234676
 40
0.1190677614
 40
0.1331159599
 40
0.1478577226
 40
0.1632781243
 40
0.1793577898
 40
0.1960737772
 40
0.2133998496
 40
0.2313067898
 40
0.2497629719
 40
0.2881822182
 40
0.3283642957
 40
0.3699868375
 40
0.4127070893
 40
0.4561673301
 40
0.5
 40
0.5438326699
 40
0.5872929107
 40
0.6300131625
 40
0.6716357043
 40
0.7118177818
 40
0.7502370281
 40
0.7686932102
 40
0.7866001504
 40
0.8039262228
 40
0.8206422102
 40
0.8367218757
 40
0.8521422774
 40
0.8668840401
 40
0.8809322386
 40
0.8942765324
 40
0.9069124727
 40
0.9188420694
 40
0.9300752073
 40
0.9406311672
 40
0.9505401493
 40
0.9598458324
 40
0.9686069945
 40
0.9768997411
 40
0.984818932
 40
0.9924774296
 40
1.0
 40
1.0
 40
1.0
 40
1.0
 10
10.6561923427
 20
11.0456279619
 30
0.0
 10
10.6561923427
 20
11.0472066225
 30
0.0
 10
10.6564234571
 20
11.0503970288
 30
0.0
 10
10.6574572469
 20
11.0551483669
 30
0.0
 10
10.6591738909
 20
11.0598695171
 30
0.0
 10
10.6615647371
 20
11.0645466539
 30
0.0
 10
10.6646205575
 20
11.0691699654
 30
0.0
 10
10.6683320498
 20
11.0737297705
 30
0.0
 10
10.6726889843
 20
11.0782171438
 30
0.0
 10
10.6776807323
 20
11.0826227157
 30
0.0
 10
10.6832952637
 20
11.0869373205
 30
0.0
 10
10.6895194867
 20
11.0911513554
 30
0.0
 10
10.6963387953
 20
11.0952553221
 30
0.0
 10
10.7037371458
 20
11.0992398277
 30
0.0
 10
10.7116971449
 20
11.1030953918
 30
0.0
 10
10.7201998742
 20
11.1068130773
 30
0.0
 10
10.7292251797
 20
11.1103838536
 30
0.0
 10
10.7387515122
 20
11.1137992954
 30
0.0
 10
10.7487561273
 20
11.1170511535
 30
0.0
 10
10.7592150752
 20
11.1201315527
 30
0.0
 10
10.7701033148
 20
11.1230332273
 30
0.0
 10
10.7853630633
 20
11.1267032146
 30
0.0
 10
10.8053278305
 20
11.1307731526
 30
0.0
 10
10.8302433197
 20
11.1347833436
 30
0.0
 10
10.8561900103
 20
11.1379436733
 30
0.0
 10
10.8829188165
 20
11.1402233481
 30
0.0
 10
10.910173475
 20
11.1416001098
 30
0.0
 10
10.9376923427
 20
11.1420605276
 30
0.0
 10
10.9652112105
 20
11.1416001098
 30
0.0
 10
10.9924658689
 20
11.1402233481
 30
0.0
 10
11.0191946752
 20
11.1379436733
 30
0.0
 10
11.0451413658
 20
11.1347833436
 30
0.0
 10
11.070056855
 20
11.1307731526
 30
0.0
 10
11.0900216221
 20
11.1267032146
 30
0.0
 10
11.1052813707
 20
11.1230332273
 30
0.0
 10
11.1161696102
 20
11.1201315527
 30
0.0
 10
11.1266285582
 20
11.1170511535
 30
0.0
 10
11.1366331733
 20
11.1137992954
 30
0.0
 10
11.1461595058
 20
11.1103838536
 30
0.0
 10
11.1551848113
 20
11.1068130773
 30
0.0
 10
11.1636875406
 20
11.1030953918
 30
0.0
 10
11.1716475397
 20
11.0992398277
 30
0.0
 10
11.1790458902
 20
11.0952553221
 30
0.0
 10
11.1858651987
 20
11.0911513554
 30
0.0
 10
11.1920894218
 20
11.0869373205
 30
0.0
 10
11.1977039532
 20
11.0826227157
 30
0.0
 10
11.2026957011
 20
11.0782171438
 30
0.0
 10
11.2070526357
 20
11.0737297705
 30
0.0
 10
11.210764128
 20
11.0691699654
 30
0.0
 10
11.2138199484
 20
11.0645466539
 30
0.0
 10
11.2162107946
 20
11.0598695171
 30
0.0
 10
11.2179274386
 20
11.0551483669
 30
0.0
 10
11.2189612284
 20
11.0503970288
 30
0.0
 10
11.2191923427
 20
11.0472066225
 30
0.0
 10
11.2191923427
 20
11.0456279619
 30
0.0
  0
ENDSEC
  0
SECTION
  2
OBJECTS
  0
DICTIONARY
  5
C
100
AcDbDictionary
280
0
281
1
  3
ACAD_GROUP
350
D
  3
ACAD_MLINESTYLE
350
17
  3
ACAD_LAYOUT
350
1A
  3
ACAD_PLOTSETTINGS
350
19
  3
ACAD_PLOTSTYLENAME
350
E
  0
DICTIONARY
  5
D
102
{ACAD_REACTORS
330
C
102
}
100
AcDbDictionary
280
0
281
1
  0
ACDBDICTIONARYWDFLT
  5
E
102
{ACAD_REACTORS
330
C
102
}
100
AcDbDictionary
281
1
  3
Normal
350
F
100
AcDbDictionaryWithDefault
340
F
  0
DICTIONARY
  5
17
102
{ACAD_REACTORS
330
C
102
}
100
AcDbDictionary
280
0
281
1
  3
Standard
350
18
  0
DICTIONARY
  5
19
102
{ACAD_REACTORS
330
C
102
}
100
AcDbDictionary
281
1
  0
DICTIONARY
  5
1A
102
{ACAD_REACTORS
330
C
102
}
100
AcDbDictionary
281
1
  3
Model
350
2AE
  3
Layout1
350
2AF
  0
ACDBPLACEHOLDER
  5
F
102
{ACAD_REACTORS
330
E
102
}
  0
MLINESTYLE
  5
18
102
{ACAD_REACTORS
330
17
102
}
100
AcDbMlineStyle
  2
STANDARD
 70
0
  3

 62
256
 51
90.0
 52
90.0
 71
2
 49
0.5
 62
256
  6
BYLAYER
 49
-0.5
 62
256
  6
BYLAYER
  0
LAYOUT
  5
2AE
102
{ACAD_REACTORS
330
1A
102
}
100
AcDbPlotSettings
  1

  2
none_device
  4
ANSI_C_(22.00_x_17.00_Inches)
  6

 40
0.0
 41
0.0
 42
0.0
 43
0.0
 44
558.8
 45
431.8
 46
0.0
 47
0.0
 48
0.0
 49
0.0
140
0.0
141
0.0
142
1.0
143
1.0
 70
1024
 72
0
 73
0
 74
0
  7

 75
0
147
1.0
148
0.0
149
0.0
100
AcDbLayout
  1
Model
 70
0
 71
0
 10
0.0
 20
0.0
 11
22.0
 21
17.0
 12
0.0
 22
0.0
 32
0.0
 14
0.0
 24
0.0
 34
0.0
 15
0.0
 25
0.0
 35
0.0
146
0.0
 13
0.0
 23
0.0
 33
0.0
 16
1.0
 26
0.0
 36
0.0
 17
0.0
 27
1.0
 37
0.0
 76
0
330
205
345
0
346
0
  0
LAYOUT
  5
2AF
102
{ACAD_REACTORS
330
1A
102
}
100
AcDbPlotSettings
  1

  2
none_device
  4
ANSI_C_(22.00_x_17.00_Inches)
  6

 40
0.0
 41
0.0
 42
0.0
 43
0.0
 44
558.8
 45
431.8
 46
0.0
 47
0.0
 48
0.0
 49
0.0
140
0.0
141
0.0
142
1.0
143
1.0
 70
0
 72
0
 73
0
 74
0
  7

 75
0
147
1.0
148
0.0
149
0.0
100
AcDbLayout
  1
Layout1
 70
0
 71
1
 10
0.0
 20
0.0
 11
22.0
 21
17.0
 12
0.0
 22
0.0
 32
0.0
 14
0.0
 24
0.0
 34
0.0
 15
0.0
 25
0.0
 35
0.0
146
0.0
 13
0.0
 23
0.0
 33
0.0
 16
1.0
 26
0.0
 36
0.0
 17
0.0
 27
1.0
 37
0.0
 76
0
330
206
345
0
346
0
  0
ENDSEC
  0
EOF
