999
DXF file: E:\BT Custom\CADOUTPUT\_FRONT.dxf
999
Pro/ENGINEER 2018400 by Parametric Technology Corporation
  0
SECTION
  2
HEADER
  9
$ACADVER
  1
AC1018
  9
$DWGCODEPAGE
  3
ANSI_1252
  9
$EXTMAX
 10
22.0
 20
17.0
 30
0.0
  9
$EXTMIN
 10
0.0
 20
0.0
 30
0.0
  9
$LIMMIN
 10
0.0
 20
0.0
  9
$LIMMAX
 10
22.0
 20
17.0
  9
$VIEWCTR
 10
11.0
 20
8.5
  9
$VIEWSIZE
 40
17.0
  9
$CLAYER
  8
0
  9
$LTSCALE
 40
1.21
  9
$CELTYPE
  6
BYLAYER
  9
$DIMSCALE
 40
1.0
  9
$DIMASZ
 40
0.1
  9
$DIMEXO
 40
0.0625
  9
$DIMDLI
 40
0.836
  9
$DIMEXE
 40
0.125
  9
$DIMCEN
 40
0.198
  9
$DIMLFAC
 40
1.0
  9
$DIMBLK
  1
_FILLED
  9
$DIMALT
 70
1
  9
$DIMALTD
 70
2
  9
$DIMALTTD
 70
2
  9
$DIMALTF
 40
25.4
  9
$DIMTXT
 40
0.08
  9
$DIMTOL
 70
1
  9
$DIMLIM
 70
0
  9
$DIMTFAC
 40
1.0
  9
$DIMTP
 40
0.001
  9
$DIMTM
 40
0.001
  9
$DIMGAP
 40
0.09
  9
$DIMDSEP
 70
46
  9
$AUNITS
 70
0
  9
$PDMODE
 70
3
  9
$PDSIZE
 40
0.06
  9
$HANDSEED
  5
280
  9
$TILEMODE
 70
1
  9
$MEASUREMENT
 70
0
  9
$INSUNITS
 70
1
  0
ENDSEC
  0
SECTION
  2
CLASSES
  0
CLASS
  1
ACDBDICTIONARYWDFLT
  2
AcDbDictionaryWithDefault
  3
AutoCAD 2000
 90
0
 91
1
280
0
281
0
  0
CLASS
  1
ACDBPLACEHOLDER
  2
AcDbPlaceHolder
  3
AutoCAD 2000
 90
0
 91
1
280
0
281
0
  0
CLASS
  1
LAYOUT
  2
AcDbLayout
  3
AutoCAD 2000
 90
0
 91
0
280
0
281
0
  0
ENDSEC
  0
SECTION
  2
TABLES
  0
TABLE
  2
VPORT
  5
8
100
AcDbSymbolTable
 70
2
  0
VPORT
  5
1F4
100
AcDbSymbolTableRecord
100
AcDbViewportTableRecord
  2
*ACTIVE
 70
0
 10
0.0
 20
0.0
 11
1.0
 21
1.0
 12
11.0
 22
8.5
 13
0.0
 23
0.0
 14
1.0
 24
1.0
 15
0.0
 25
0.0
 16
0.0
 26
0.0
 36
1.0
 17
0.0
 27
0.0
 37
0.0
 40
17.0
 41
1.2941176471
 42
50.0
 43
0.0
 44
0.0
 50
0.0
 51
0.0
 71
0
 72
100
 73
1
 74
1
 75
0
 76
0
 77
0
 78
0
  0
ENDTAB
  0
TABLE
  2
LTYPE
  5
5
100
AcDbSymbolTable
 70
6
  0
LTYPE
  5
14
100
AcDbSymbolTableRecord
100
AcDbLinetypeTableRecord
  2
BYBLOCK
 70
0
  3

 72
65
 73
0
 40
0.0
  0
LTYPE
  5
15
100
AcDbSymbolTableRecord
100
AcDbLinetypeTableRecord
  2
BYLAYER
 70
0
  3

 72
65
 73
0
 40
0.0
  0
LTYPE
  5
16
100
AcDbSymbolTableRecord
100
AcDbLinetypeTableRecord
  2
CONTINUOUS
 70
64
  3
Solid line
 72
65
 73
0
 40
0.0
  0
LTYPE
  5
1F5
100
AcDbSymbolTableRecord
100
AcDbLinetypeTableRecord
  2
CENTER
 70
64
  3
____ _ ____ _ ____ _ ____ _ ____ _ ____ _ ____
 72
65
 73
4
 40
0.6
 49
0.375
 74
0
 49
-0.075
 74
0
 49
0.075
 74
0
 49
-0.075
 74
0
  0
LTYPE
  5
1F6
100
AcDbSymbolTableRecord
100
AcDbLinetypeTableRecord
  2
HIDDEN
 70
64
  3
- - - - - - - - - - - - - - - - - - - -
 72
65
 73
2
 40
0.2
 49
0.1
 74
0
 49
-0.1
 74
0
  0
LTYPE
  5
1F7
100
AcDbSymbolTableRecord
100
AcDbLinetypeTableRecord
  2
PHANTOM
 70
64
  3
_____ _ _ _____ _ _ _____ _ _ _____
 72
65
 73
6
 40
0.8
 49
0.45
 74
0
 49
-0.05
 74
0
 49
0.1
 74
0
 49
-0.05
 74
0
 49
0.1
 74
0
 49
-0.05
 74
0
  0
LTYPE
  5
1F8
100
AcDbSymbolTableRecord
100
AcDbLinetypeTableRecord
  2
DOT
 70
64
  3
. . . . . . . . . . . . . . . . . . . .
 72
65
 73
2
 40
0.2
 49
0.1
 74
0
 49
-0.1
 74
0
  0
LTYPE
  5
1F9
100
AcDbSymbolTableRecord
100
AcDbLinetypeTableRecord
  2
DASHED
 70
64
  3
- - - - - - - - - - - - - - - - - - - -
 72
65
 73
2
 40
0.2
 49
0.1
 74
0
 49
-0.1
 74
0
  0
ENDTAB
  0
TABLE
  2
LAYER
  5
2
100
AcDbSymbolTable
 70
36
  0
LAYER
  5
10
100
AcDbSymbolTableRecord
100
AcDbLayerTableRecord
  2
0
 70
0
 62
7
  6
CONTINUOUS
370
-3
390
F
  0
LAYER
  5
1FA
100
AcDbSymbolTableRecord
100
AcDbLayerTableRecord
  2
DEFAULT_1
 70
0
 62
7
  6
CENTER
370
-3
390
F
  0
LAYER
  5
1FB
100
AcDbSymbolTableRecord
100
AcDbLayerTableRecord
  2
DEFAULT_2
 70
0
 62
8
  6
HIDDEN
370
-3
390
F
  0
LAYER
  5
1FC
100
AcDbSymbolTableRecord
100
AcDbLayerTableRecord
  2
DEFAULT_3
 70
0
 62
7
  6
PHANTOM
370
-3
390
F
  0
LAYER
  5
1FD
100
AcDbSymbolTableRecord
100
AcDbLayerTableRecord
  2
ALL_FEATURES
 70
0
 62
7
  6
CONTINUOUS
370
-3
390
F
  0
LAYER
  5
1FE
100
AcDbSymbolTableRecord
100
AcDbLayerTableRecord
  2
AXES_FEATURES
 70
0
 62
7
  6
CONTINUOUS
370
-3
390
F
  0
LAYER
  5
1FF
100
AcDbSymbolTableRecord
100
AcDbLayerTableRecord
  2
DEFAULT_COORDINATE_SYSTEM
 70
0
 62
7
  6
CONTINUOUS
370
-3
390
F
  0
LAYER
  5
200
100
AcDbSymbolTableRecord
100
AcDbLayerTableRecord
  2
DEFAULT_DATUM_AXES
 70
0
 62
7
  6
CONTINUOUS
370
-3
390
F
  0
LAYER
  5
201
100
AcDbSymbolTableRecord
100
AcDbLayerTableRecord
  2
DEFAULT_DATUM_PLANES
 70
0
 62
7
  6
CONTINUOUS
370
-3
390
F
  0
LAYER
  5
202
100
AcDbSymbolTableRecord
100
AcDbLayerTableRecord
  2
DIMENSIONS
 70
0
 62
7
  6
CONTINUOUS
370
-3
390
F
  0
ENDTAB
  0
TABLE
  2
STYLE
  5
3
100
AcDbSymbolTable
 70
1
  0
STYLE
  5
11
100
AcDbSymbolTableRecord
100
AcDbTextStyleTableRecord
  2
STANDARD
 70
0
 40
0.0
 41
0.8
 50
0.0
 71
0
 42
0.2
  3
txt
  4

  0
STYLE
  5
203
100
AcDbSymbolTableRecord
100
AcDbTextStyleTableRecord
  2
TEXTSTYLE_1
 70
0
 40
0.0
 41
0.8
 50
0.0
 71
0
 42
0.2
  3
gdt
  4

  0
ENDTAB
  0
TABLE
  2
VIEW
  5
6
100
AcDbSymbolTable
 70
0
  0
ENDTAB
  0
TABLE
  2
UCS
  5
7
100
AcDbSymbolTable
 70
0
  0
ENDTAB
  0
TABLE
  2
APPID
  5
9
100
AcDbSymbolTable
 70
1
  0
APPID
  5
204
100
AcDbSymbolTableRecord
100
AcDbRegAppTableRecord
  2
ACAD
 70
0
  0
ENDTAB
  0
TABLE
  2
BLOCK_RECORD
  5
1
100
AcDbSymbolTable
 70
0
  0
BLOCK_RECORD
  5
205
100
AcDbSymbolTableRecord
100
AcDbBlockTableRecord
  2
*Model_Space
  0
BLOCK_RECORD
  5
206
100
AcDbSymbolTableRecord
100
AcDbBlockTableRecord
  2
*Paper_Space
  0
BLOCK_RECORD
  5
207
100
AcDbSymbolTableRecord
100
AcDbBlockTableRecord
  2
_FILLED
  0
ENDTAB
  0
TABLE
  2
DIMSTYLE
  5
A
100
AcDbSymbolTable
 70
1
100
AcDbDimStyleTable
 71
0
  0
DIMSTYLE
105
208
100
AcDbSymbolTableRecord
100
AcDbDimStyleTableRecord
  2
STANDARD
 70
0
  3

  4

 40
1.0
 41
0.1
 42
0.0625
 43
0.38
 44
0.125
 45
0.0
 46
0.0
 47
0.001
 48
0.001
140
0.08
141
0.09
142
0.0
143
25.4
144
1.0
145
0.0
146
1.0
147
0.09
 71
1.0
 72
0.0
 73
1
 74
1
 75
0
 76
0
 77
0
 78
4
 79
1
170
1
171
2
172
0
173
0
174
0
175
0
176
0
177
0
178
0
270
2
179
3
271
3
272
3
273
2
274
2
275
0
280
0
281
0
282
0
283
1
284
4
285
0
286
0
287
3
288
0
340
11
278
46
341
207
342
207
343
207
344
207
  0
ENDTAB
  0
ENDSEC
  0
SECTION
  2
BLOCKS
  0
BLOCK
  5
20
100
AcDbEntity
  8
0
100
AcDbBlockBegin
  2
*Model_Space
 70
0
 10
0.0
 20
0.0
 30
0.0
  3
*Model_Space
  1

  0
ENDBLK
  5
21
100
AcDbEntity
  8
0
100
AcDbBlockEnd
  0
BLOCK
  5
1C
100
AcDbEntity
  8
0
100
AcDbBlockBegin
  2
*Paper_Space
 70
0
 10
0.0
 20
0.0
 30
0.0
  3
*Paper_Space
  1

  0
ENDBLK
  5
1D
100
AcDbEntity
  8
0
100
AcDbBlockEnd
  0
BLOCK
  5
209
100
AcDbEntity
  8
0
100
AcDbBlockBegin
  2
_FILLED
 70
64
 10
0.0
 20
0.0
  3
_FILLED
  1

  0
SOLID
  5
20A
100
AcDbEntity
  8
0
  6
BYBLOCK
 62
0
100
AcDbTrace
 10
0.0
 20
0.0
 11
-1.0
 21
0.2
 12
-1.0
 22
-0.2
 13
-1.0
 23
-0.2
  0
ENDBLK
  5
20B
100
AcDbEntity
  8
0
  6
BYBLOCK
 62
0
100
AcDbBlockEnd
  0
ENDSEC
  0
SECTION
  2
ENTITIES
  0
LINE
  5
20C
100
AcDbEntity
  8
0
100
AcDbLine
 62
7
  6
CONTINUOUS
 10
10.6517122885
 20
4.511675362
 11
12.8517122885
 21
4.511675362
  0
LINE
  5
20D
100
AcDbEntity
  8
0
100
AcDbLine
 62
7
  6
CONTINUOUS
 10
10.8017122885
 20
4.7053245293
 11
12.7017122885
 21
4.7053245293
  0
LINE
  5
20E
100
AcDbEntity
  8
0
100
AcDbLine
 62
7
  6
CONTINUOUS
 10
10.9417122885
 20
4.936675362
 11
12.5617122885
 21
4.936675362
  0
LINE
  5
20F
100
AcDbEntity
  8
0
100
AcDbLine
 62
7
  6
CONTINUOUS
 10
10.9467122885
 20
4.941675362
 11
12.5567122885
 21
4.941675362
  0
LINE
  5
210
100
AcDbEntity
  8
0
100
AcDbLine
 62
9
  6
CONTINUOUS
 10
10.9467122885
 20
5.0197805985
 11
12.5567122885
 21
5.0197805985
  0
LINE
  5
211
100
AcDbEntity
  8
0
100
AcDbLine
 62
9
  6
CONTINUOUS
 10
10.9833285676
 20
5.1312569145
 11
12.5200960094
 21
5.1312569145
  0
LINE
  5
212
100
AcDbEntity
  8
0
100
AcDbLine
 62
9
  6
CONTINUOUS
 10
11.0615694314
 20
5.5647635129
 11
12.4418551457
 21
5.5647635129
  0
LINE
  5
213
100
AcDbEntity
  8
0
100
AcDbLine
 62
7
  6
CONTINUOUS
 10
11.0005917737
 20
5.9119257195
 11
10.976672397
 21
5.9119257195
  0
LINE
  5
214
100
AcDbEntity
  8
0
100
AcDbLine
 62
7
  6
CONTINUOUS
 10
10.116672397
 20
6.0869257195
 11
9.8783722769
 21
6.0869257195
  0
LINE
  5
215
100
AcDbEntity
  8
0
100
AcDbLine
 62
7
  6
CONTINUOUS
 10
10.116672397
 20
6.2369257195
 11
10.146672397
 21
6.2369257195
  0
LINE
  5
216
100
AcDbEntity
  8
0
100
AcDbLine
 62
7
  6
CONTINUOUS
 10
10.116672397
 20
6.5369257195
 11
10.146672397
 21
6.5369257195
  0
LINE
  5
217
100
AcDbEntity
  8
0
100
AcDbLine
 62
7
  6
CONTINUOUS
 10
10.116672397
 20
6.6869257195
 11
9.8783722769
 21
6.6869257195
  0
LINE
  5
218
100
AcDbEntity
  8
0
100
AcDbLine
 62
7
  6
CONTINUOUS
 10
9.323672397
 20
6.8318976287
 11
9.683672397
 21
6.8318976287
  0
LINE
  5
219
100
AcDbEntity
  8
0
100
AcDbLine
 62
7
  6
CONTINUOUS
 10
11.0005917735
 20
6.8619257195
 11
10.976672397
 21
6.8619257195
  0
LINE
  5
21A
100
AcDbEntity
  8
0
100
AcDbLine
 62
7
  6
CONTINUOUS
 10
9.6879866177
 20
6.9367228077
 11
9.319172397
 21
6.9367228077
  0
LINE
  5
21B
100
AcDbEntity
  8
0
100
AcDbLine
 62
7
  6
CONTINUOUS
 10
9.688172397
 20
7.0367228077
 11
9.319172397
 21
7.0367228077
  0
LINE
  5
21C
100
AcDbEntity
  8
0
100
AcDbLine
 62
9
  6
CONTINUOUS
 10
9.3407261277
 20
7.0609241903
 11
9.6666186662
 21
7.0609241903
  0
LINE
  5
21D
100
AcDbEntity
  8
0
100
AcDbLine
 62
7
  6
CONTINUOUS
 10
12.4517122885
 20
7.173675362
 11
11.0517122885
 21
7.173675362
  0
LINE
  5
21E
100
AcDbEntity
  8
0
100
AcDbLine
 62
7
  6
CONTINUOUS
 10
11.2262122885
 20
7.310675362
 11
12.2772122885
 21
7.310675362
  0
LINE
  5
21F
100
AcDbEntity
  8
0
100
AcDbLine
 62
7
  6
CONTINUOUS
 10
12.0892122885
 20
7.498675362
 11
11.4142122885
 21
7.498675362
  0
LINE
  5
220
100
AcDbEntity
  8
0
100
AcDbLine
 62
7
  6
CONTINUOUS
 10
12.0892122885
 20
7.573675362
 11
11.4142122885
 21
7.573675362
  0
LINE
  5
221
100
AcDbEntity
  8
0
100
AcDbLine
 62
7
  6
CONTINUOUS
 10
9.323672397
 20
6.9367228077
 11
9.323672397
 21
6.8318976287
  0
LINE
  5
222
100
AcDbEntity
  8
0
100
AcDbLine
 62
7
  6
CONTINUOUS
 10
9.353672397
 20
8.371360285
 11
9.337172397
 21
8.3039257195
  0
LINE
  5
223
100
AcDbEntity
  8
0
100
AcDbLine
 62
7
  6
CONTINUOUS
 10
12.0767122885
 20
7.823675362
 11
11.4267122885
 21
7.823675362
  0
LINE
  5
224
100
AcDbEntity
  8
0
100
AcDbLine
 62
7
  6
CONTINUOUS
 10
9.653672397
 20
8.371360285
 11
9.670172397
 21
8.3039257195
  0
LINE
  5
225
100
AcDbEntity
  8
0
100
AcDbLine
 62
7
  6
CONTINUOUS
 10
9.683672397
 20
6.9367228077
 11
9.683672397
 21
6.8318976287
  0
LINE
  5
226
100
AcDbEntity
  8
0
100
AcDbLine
 62
7
  6
CONTINUOUS
 10
9.8783722769
 20
6.6869257195
 11
9.8783722769
 21
6.0869257195
  0
LINE
  5
227
100
AcDbEntity
  8
0
100
AcDbLine
 62
7
  6
CONTINUOUS
 10
9.295172397
 20
8.1019257195
 11
9.712172397
 21
8.1019257195
  0
LINE
  5
228
100
AcDbEntity
  8
0
100
AcDbLine
 62
7
  6
CONTINUOUS
 10
9.310490241
 20
8.199229228
 11
9.6968545529
 21
8.199229228
  0
LINE
  5
229
100
AcDbEntity
  8
0
100
AcDbLine
 62
7
  6
CONTINUOUS
 10
10.116672397
 20
6.6869257195
 11
10.116672397
 21
6.0869257195
  0
LINE
  5
22A
100
AcDbEntity
  8
0
100
AcDbLine
 62
7
  6
CONTINUOUS
 10
10.146672397
 20
6.0869257195
 11
10.146672397
 21
6.6869257195
  0
LINE
  5
22B
100
AcDbEntity
  8
0
100
AcDbLine
 62
7
  6
CONTINUOUS
 10
9.685172397
 20
8.3039257195
 11
9.322172397
 21
8.3039257195
  0
LINE
  5
22C
100
AcDbEntity
  8
0
100
AcDbLine
 62
7
  6
CONTINUOUS
 10
9.353672397
 20
8.371360285
 11
9.653672397
 21
8.371360285
  0
LINE
  5
22D
100
AcDbEntity
  8
0
100
AcDbLine
 62
9
  6
CONTINUOUS
 10
10.5242665209
 20
5.9148546885
 11
10.5242665209
 21
6.8589967504
  0
LINE
  5
22E
100
AcDbEntity
  8
0
100
AcDbLine
 62
9
  6
CONTINUOUS
 10
10.6488672366
 20
5.9035923861
 11
10.6488672366
 21
6.8702590528
  0
LINE
  5
22F
100
AcDbEntity
  8
0
100
AcDbLine
 62
9
  6
CONTINUOUS
 10
10.7193867223
 20
5.8876400052
 11
10.7193867223
 21
6.8862114337
  0
LINE
  5
230
100
AcDbEntity
  8
0
100
AcDbLine
 62
9
  6
CONTINUOUS
 10
10.9337914512
 20
5.8876400052
 11
10.9337914512
 21
6.8862114337
  0
LINE
  5
231
100
AcDbEntity
  8
0
100
AcDbLine
 62
7
  6
CONTINUOUS
 10
10.9467122885
 20
4.941675362
 11
10.9467122885
 21
5.0197805985
  0
LINE
  5
232
100
AcDbEntity
  8
0
100
AcDbLine
 62
9
  6
CONTINUOUS
 10
10.976672397
 20
5.9119257195
 11
10.976672397
 21
6.8619257195
  0
LINE
  5
233
100
AcDbEntity
  8
0
100
AcDbLine
 62
7
  6
CONTINUOUS
 10
11.0117122885
 20
4.936675362
 11
11.0117122885
 21
4.941675362
  0
LINE
  5
234
100
AcDbEntity
  8
0
100
AcDbLine
 62
7
  6
CONTINUOUS
 10
11.4668184948
 20
11.591112089
 11
11.4623053123
 21
11.5345864378
  0
LINE
  5
235
100
AcDbEntity
  8
0
100
AcDbLine
 62
9
  6
CONTINUOUS
 10
11.4392122885
 20
11.3263626279
 11
11.4394392656
 21
11.3222897269
  0
LINE
  5
236
100
AcDbEntity
  8
0
100
AcDbLine
 62
7
  6
CONTINUOUS
 10
11.4702122885
 20
11.0481279619
 11
11.4704172333
 21
11.0444590991
  0
LINE
  5
237
100
AcDbEntity
  8
0
100
AcDbLine
 62
7
  6
CONTINUOUS
 10
11.4142122885
 20
7.573675362
 11
11.4142122885
 21
7.498675362
  0
LINE
  5
238
100
AcDbEntity
  8
0
100
AcDbLine
 62
7
  6
CONTINUOUS
 10
11.4392122885
 20
11.472935588
 11
11.4392122885
 21
11.4944819568
  0
LINE
  5
239
100
AcDbEntity
  8
0
100
AcDbLine
 62
7
  6
CONTINUOUS
 10
11.5017122885
 20
13.7736648143
 11
11.5017122885
 21
11.6351818046
  0
LINE
  5
23A
100
AcDbEntity
  8
0
100
AcDbLine
 62
7
  6
CONTINUOUS
 10
11.5017122885
 20
7.823675362
 11
11.5017122885
 21
11.0040539194
  0
LINE
  5
23B
100
AcDbEntity
  8
0
100
AcDbLine
 62
7
  6
CONTINUOUS
 10
11.4394392656
 20
11.3222897269
 11
11.4704167495
 21
11.0444590928
  0
LINE
  5
23C
100
AcDbEntity
  8
0
100
AcDbLine
 62
7
  6
CONTINUOUS
 10
12.0017122885
 20
13.7736648143
 11
12.0017122885
 21
11.6351818046
  0
LINE
  5
23D
100
AcDbEntity
  8
0
100
AcDbLine
 62
7
  6
CONTINUOUS
 10
12.0017122885
 20
7.823675362
 11
12.0017122885
 21
11.0040539194
  0
LINE
  5
23E
100
AcDbEntity
  8
0
100
AcDbLine
 62
9
  6
CONTINUOUS
 10
12.0639853114
 20
11.3222897269
 11
12.0642122885
 21
11.3263626279
  0
LINE
  5
23F
100
AcDbEntity
  8
0
100
AcDbLine
 62
7
  6
CONTINUOUS
 10
12.0330073437
 20
11.0444590991
 11
12.0332122885
 21
11.0481279619
  0
LINE
  5
240
100
AcDbEntity
  8
0
100
AcDbLine
 62
7
  6
CONTINUOUS
 10
12.0639853114
 20
11.3222897269
 11
12.0330078275
 21
11.0444590928
  0
LINE
  5
241
100
AcDbEntity
  8
0
100
AcDbLine
 62
7
  6
CONTINUOUS
 10
12.0366060823
 20
11.591112089
 11
12.0411192647
 21
11.5345864378
  0
LINE
  5
242
100
AcDbEntity
  8
0
100
AcDbLine
 62
7
  6
CONTINUOUS
 10
12.0642122885
 20
11.4729877489
 11
12.0642122885
 21
11.4944819568
  0
LINE
  5
243
100
AcDbEntity
  8
0
100
AcDbLine
 62
7
  6
CONTINUOUS
 10
12.0892122885
 20
7.573675362
 11
12.0892122885
 21
7.498675362
  0
LINE
  5
244
100
AcDbEntity
  8
0
100
AcDbLine
 62
7
  6
CONTINUOUS
 10
12.4917122885
 20
4.936675362
 11
12.4917122885
 21
4.941675362
  0
LINE
  5
245
100
AcDbEntity
  8
0
100
AcDbLine
 62
7
  6
CONTINUOUS
 10
12.5567122885
 20
4.941675362
 11
12.5567122885
 21
5.0197805985
  0
ARC
  5
246
100
AcDbEntity
  8
0
100
AcDbCircle
 62
7
  6
CONTINUOUS
 10
6.6187786599
 20
7.7157936855
 40
3.1174
100
AcDbArc
 50
347.8735967305
 51
7.115128326
  0
ARC
  5
247
100
AcDbEntity
  8
0
100
AcDbCircle
 62
7
  6
CONTINUOUS
 10
9.5567122885
 20
6.3869257195
 40
3.0
100
AcDbArc
 50
344.0943492185
 51
15.2036040933
  0
ARC
  5
248
100
AcDbEntity
  8
0
100
AcDbCircle
 62
7
  6
CONTINUOUS
 10
10.0909937964
 20
7.3094406939
 40
0.625
100
AcDbArc
 50
275.111013774
 51
313.8868439077
  0
ARC
  5
249
100
AcDbEntity
  8
0
100
AcDbCircle
 62
7
  6
CONTINUOUS
 10
10.0909937964
 20
5.464410745
 40
0.625
100
AcDbArc
 50
46.1131560923
 51
84.888986226
  0
ARC
  5
24A
100
AcDbEntity
  8
0
100
AcDbCircle
 62
7
  6
CONTINUOUS
 10
9.503672397
 20
6.3869257195
 40
0.48
100
AcDbArc
 50
112.024312837
 51
321.3178125465
  0
ARC
  5
24B
100
AcDbEntity
  8
0
100
AcDbCircle
 62
7
  6
CONTINUOUS
 10
9.503672397
 20
6.3869257195
 40
0.48
100
AcDbArc
 50
38.6821874535
 51
67.975687163
  0
ARC
  5
24C
100
AcDbEntity
  8
0
100
AcDbCircle
 62
7
  6
CONTINUOUS
 10
9.503672397
 20
8.6369257195
 40
0.305
100
AcDbArc
 50
299.4591749118
 51
240.5408250882
  0
ARC
  5
24D
100
AcDbEntity
  8
0
100
AcDbCircle
 62
7
  6
CONTINUOUS
 10
9.322172397
 20
8.2509257195
 40
0.053
100
AcDbArc
 50
90.0
 51
257.2664125554
  0
ARC
  5
24E
100
AcDbEntity
  8
0
100
AcDbCircle
 62
7
  6
CONTINUOUS
 10
9.322172397
 20
8.1475327365
 40
0.053
100
AcDbArc
 50
102.7335874446
 51
239.3738663938
  0
ARC
  5
24F
100
AcDbEntity
  8
0
100
AcDbCircle
 62
7
  6
CONTINUOUS
 10
9.685172397
 20
8.2509257195
 40
0.053
100
AcDbArc
 50
282.7335874446
 51
90.0
  0
ARC
  5
250
100
AcDbEntity
  8
0
100
AcDbCircle
 62
7
  6
CONTINUOUS
 10
9.685172397
 20
8.1475327365
 40
0.053
100
AcDbArc
 50
300.6261336062
 51
77.2664125554
  0
ARC
  5
251
100
AcDbEntity
  8
0
100
AcDbCircle
 62
7
  6
CONTINUOUS
 10
9.319172397
 20
6.9867228077
 40
0.05
100
AcDbArc
 50
90.0
 51
270.0
  0
ARC
  5
252
100
AcDbEntity
  8
0
100
AcDbCircle
 62
7
  6
CONTINUOUS
 10
9.688172397
 20
6.9867228077
 40
0.05
100
AcDbArc
 50
270.0
 51
90.0
  0
ARC
  5
253
100
AcDbEntity
  8
0
100
AcDbCircle
 62
7
  6
CONTINUOUS
 10
9.321172397
 20
7.0567228077
 40
0.02
100
AcDbArc
 50
270.0
 51
12.1264032695
  0
ARC
  5
254
100
AcDbEntity
  8
0
100
AcDbCircle
 62
7
  6
CONTINUOUS
 10
9.686172397
 20
7.0567228077
 40
0.02
100
AcDbArc
 50
167.8735967305
 51
270.0
  0
ARC
  5
255
100
AcDbEntity
  8
0
100
AcDbCircle
 62
7
  6
CONTINUOUS
 10
12.388566134
 20
7.7157936855
 40
3.1174
100
AcDbArc
 50
172.884871674
 51
192.1264032695
  0
ARC
  5
256
100
AcDbEntity
  8
0
100
AcDbCircle
 62
7
  6
CONTINUOUS
 10
13.9467122885
 20
6.3869257195
 40
3.0
100
AcDbArc
 50
189.5940682269
 51
195.9056507815
  0
ARC
  5
257
100
AcDbEntity
  8
0
100
AcDbCircle
 62
7
  6
CONTINUOUS
 10
13.9467122885
 20
6.3869257195
 40
3.0
100
AcDbArc
 50
164.7963959067
 51
170.4059317731
  0
ARC
  5
258
100
AcDbEntity
  8
0
100
AcDbCircle
 62
7
  6
CONTINUOUS
 10
10.5807122885
 20
5.4277364785
 40
0.5
100
AcDbArc
 50
323.6327207052
 51
15.9056507815
  0
ARC
  5
259
100
AcDbEntity
  8
0
100
AcDbCircle
 62
7
  6
CONTINUOUS
 10
12.9227122885
 20
5.4277364785
 40
0.5
100
AcDbArc
 50
164.0943492185
 51
216.3672792948
  0
ARC
  5
25A
100
AcDbEntity
  8
0
100
AcDbCircle
 62
7
  6
CONTINUOUS
 10
11.0516196278
 20
4.7121305407
 40
0.25
100
AcDbArc
 50
116.0802350496
 51
181.5600156492
  0
ARC
  5
25B
100
AcDbEntity
  8
0
100
AcDbCircle
 62
7
  6
CONTINUOUS
 10
12.4518049493
 20
4.7121305407
 40
0.25
100
AcDbArc
 50
358.4399843508
 51
63.9197649504
  0
ARC
  5
25C
100
AcDbEntity
  8
0
100
AcDbCircle
 62
7
  6
CONTINUOUS
 10
11.9251074845
 20
7.6907826218
 40
0.201604804
100
AcDbArc
 50
324.4878667705
 51
41.2369436817
  0
ARC
  5
25D
100
AcDbEntity
  8
0
100
AcDbCircle
 62
7
  6
CONTINUOUS
 10
11.5783170925
 20
7.6907826218
 40
0.201604804
100
AcDbArc
 50
138.7630563183
 51
215.5121332295
  0
ARC
  5
25E
100
AcDbEntity
  8
0
100
AcDbCircle
 62
7
  6
CONTINUOUS
 10
10.8517122885
 20
4.511675362
 40
0.2
100
AcDbArc
 50
104.4775121859
 51
180.0
  0
ARC
  5
25F
100
AcDbEntity
  8
0
100
AcDbCircle
 62
7
  6
CONTINUOUS
 10
12.6517122885
 20
4.511675362
 40
0.2
100
AcDbArc
 50
0.0
 51
75.5224878141
  0
ARC
  5
260
100
AcDbEntity
  8
0
100
AcDbCircle
 62
7
  6
CONTINUOUS
 10
11.1347122885
 20
5.0197805985
 40
0.188
100
AcDbArc
 50
143.6327207052
 51
180.0
  0
ARC
  5
261
100
AcDbEntity
  8
0
100
AcDbCircle
 62
7
  6
CONTINUOUS
 10
12.3687122885
 20
5.0197805985
 40
0.188
100
AcDbArc
 50
0.0
 51
36.3672792948
  0
ARC
  5
262
100
AcDbEntity
  8
0
100
AcDbCircle
 62
7
  6
CONTINUOUS
 10
11.2326940224
 20
7.1227871316
 40
0.188
100
AcDbArc
 50
91.9757958016
 51
164.2951415934
  0
ARC
  5
263
100
AcDbEntity
  8
0
100
AcDbCircle
 62
7
  6
CONTINUOUS
 10
12.2707305546
 20
7.1227871316
 40
0.188
100
AcDbArc
 50
15.7048584066
 51
88.0242041984
  0
ARC
  5
264
100
AcDbEntity
  8
0
100
AcDbCircle
 62
7
  6
CONTINUOUS
 10
12.0892122885
 20
7.310675362
 40
0.188
100
AcDbArc
 50
0.0
 51
90.0
  0
ARC
  5
265
100
AcDbEntity
  8
0
100
AcDbCircle
 62
7
  6
CONTINUOUS
 10
11.4142122885
 20
7.310675362
 40
0.188
100
AcDbArc
 50
90.0
 51
180.0
  0
ARC
  5
266
100
AcDbEntity
  8
0
100
AcDbCircle
 62
7
  6
CONTINUOUS
 10
10.8265890868
 20
5.9519257195
 40
0.125
100
AcDbArc
 50
210.9497230789
 51
329.0502769211
  0
ARC
  5
267
100
AcDbEntity
  8
0
100
AcDbCircle
 62
7
  6
CONTINUOUS
 10
10.8265890868
 20
6.8219257195
 40
0.125
100
AcDbArc
 50
30.9497230789
 51
149.0502769211
  0
ARC
  5
268
100
AcDbEntity
  8
0
100
AcDbCircle
 62
7
  6
CONTINUOUS
 10
10.5935901568
 20
5.9869257195
 40
0.1
100
AcDbArc
 50
226.1131560923
 51
303.5573097619
  0
ARC
  5
269
100
AcDbEntity
  8
0
100
AcDbCircle
 62
7
  6
CONTINUOUS
 10
10.5935901568
 20
6.7869257195
 40
0.1
100
AcDbArc
 50
56.4426902381
 51
133.8868439077
  0
ARC
  5
26A
100
AcDbEntity
  8
0
100
AcDbCircle
 62
7
  6
CONTINUOUS
 10
10.976672397
 20
5.8619257195
 40
0.05
100
AcDbArc
 50
90.0
 51
149.0502769211
  0
ARC
  5
26B
100
AcDbEntity
  8
0
100
AcDbCircle
 62
7
  6
CONTINUOUS
 10
10.976672397
 20
6.9119257195
 40
0.05
100
AcDbArc
 50
210.9497230789
 51
270.0
  0
ARC
  5
26C
100
AcDbEntity
  8
0
100
AcDbCircle
 62
7
  6
CONTINUOUS
 10
10.6765057766
 20
5.8619257195
 40
0.05
100
AcDbArc
 50
30.9497230789
 51
123.5573097619
  0
ARC
  5
26D
100
AcDbEntity
  8
0
100
AcDbCircle
 62
7
  6
CONTINUOUS
 10
10.6765057766
 20
6.9119257195
 40
0.05
100
AcDbArc
 50
236.4426902381
 51
329.0502769211
  0
ARC
  5
26E
100
AcDbEntity
  8
0
100
AcDbCircle
 62
7
  6
CONTINUOUS
 10
11.7517122885
 20
13.773675362
 40
0.25
100
AcDbArc
 50
0.0
 51
180.0
  0
SPLINE
  5
26F
100
AcDbEntity
  8
0
100
AcDbSpline
 62
7
  6
CONTINUOUS
 70
0
 71
3
 72
31
 73
27
 74
0
 42
0.0000001
 43
0.0000001
 44
0.0000000001
 40
0.0
 40
0.0
 40
0.0
 40
0.0
 40
0.0105476098
 40
0.0412735135
 40
0.0898281355
 40
0.1532638762
 40
0.1896505491
 40
0.2286941806
 40
0.2700720088
 40
0.3134635213
 40
0.358535201
 40
0.4049242135
 40
0.4522271685
 40
0.5000000039
 40
0.5477728373
 40
0.5950757931
 40
0.6414648044
 40
0.686536484
 40
0.7299279973
 40
0.7713058246
 40
0.8103494546
 40
0.8467361253
 40
0.9101718651
 40
0.9587264871
 40
0.9894523905
 40
1.0
 40
1.0
 40
1.0
 40
1.0
 10
10.988672397
 20
6.8869257195
 30
0.0
 10
10.9902765417
 20
6.8836266795
 30
0.0
 10
10.9965180582
 20
6.8706999011
 30
0.0
 10
11.009790081
 20
6.8424158617
 30
0.0
 10
11.0298455912
 20
6.7970053046
 30
0.0
 10
11.0489817423
 20
6.749059615
 30
0.0
 10
11.0652025475
 20
6.7035623237
 30
0.0
 10
11.0776722169
 20
6.6648904953
 30
0.0
 10
11.0894324724
 20
6.6234555743
 30
0.0
 10
11.0999992351
 20
6.5795371417
 30
0.0
 10
11.1088866031
 20
6.5334678743
 30
0.0
 10
11.1156362628
 20
6.485658764
 30
0.0
 10
11.1198618759
 20
6.436614318
 30
0.0
 10
11.1213015247
 20
6.386925716
 30
0.0
 10
11.1198618755
 20
6.3372371138
 30
0.0
 10
11.1156362623
 20
6.2881926687
 30
0.0
 10
11.1088866022
 20
6.2403835587
 30
0.0
 10
11.0999992338
 20
6.1943142915
 30
0.0
 10
11.089432471
 20
6.150395859
 30
0.0
 10
11.0776722153
 20
6.1089609386
 30
0.0
 10
11.0652025463
 20
6.0702891118
 30
0.0
 10
11.0489817416
 20
6.0247918221
 30
0.0
 10
11.0298455909
 20
5.9768461335
 30
0.0
 10
11.0097900808
 20
5.9314355767
 30
0.0
 10
10.996518058
 20
5.9031515375
 30
0.0
 10
10.9902765417
 20
5.8902247593
 30
0.0
 10
10.988672397
 20
5.8869257195
 30
0.0
  0
SPLINE
  5
270
100
AcDbEntity
  8
0
100
AcDbSpline
 62
7
  6
CONTINUOUS
 70
0
 71
3
 72
61
 73
57
 74
0
 42
0.0000001
 43
0.0000001
 44
0.0000000001
 40
0.0
 40
0.0
 40
0.0
 40
0.0
 40
0.0075225928
 40
0.0151810054
 40
0.0231001288
 40
0.0313928663
 40
0.0401539856
 40
0.0494596207
 40
0.0593685693
 40
0.0699244581
 40
0.0811575706
 40
0.093087085
 40
0.105722986
 40
0.1190672171
 40
0.1331153336
 40
0.1478570657
 40
0.1632773507
 40
0.1793569784
 40
0.1960728636
 40
0.2133988628
 40
0.2313057462
 40
0.2497617973
 40
0.2687330064
 40
0.2881831824
 40
0.3283650902
 40
0.3699874512
 40
0.4127074991
 40
0.4561675329
 40
0.5
 40
0.5438324671
 40
0.5872925009
 40
0.6300125488
 40
0.6716349098
 40
0.7118168176
 40
0.7312669936
 40
0.7502382027
 40
0.7686942538
 40
0.7866011372
 40
0.8039271364
 40
0.8206430216
 40
0.8367226493
 40
0.8521429343
 40
0.8668846664
 40
0.8809327829
 40
0.894277014
 40
0.906912915
 40
0.9188424294
 40
0.9300755419
 40
0.9406314307
 40
0.9505403793
 40
0.9598460144
 40
0.9686071337
 40
0.9768998712
 40
0.9848189946
 40
0.9924774072
 40
1.0
 40
1.0
 40
1.0
 40
1.0
 10
11.4392122885
 20
11.4944819568
 30
0.0
 10
11.4392122885
 20
11.4962344796
 30
0.0
 10
11.4394688361
 20
11.4997762314
 30
0.0
 10
11.4406165011
 20
11.5050507956
 30
0.0
 10
11.4425221717
 20
11.5102918518
 30
0.0
 10
11.4451763165
 20
11.5154840506
 30
0.0
 10
11.4485686448
 20
11.5206165146
 30
0.0
 10
11.4526888697
 20
11.5256784629
 30
0.0
 10
11.4575256227
 20
11.5306599845
 30
0.0
 10
11.4630670551
 20
11.5355507561
 30
0.0
 10
11.4692999127
 20
11.540340457
 30
0.0
 10
11.4762095482
 20
11.5450186038
 30
0.0
 10
11.4837798435
 20
11.5495744906
 30
0.0
 10
11.4919929323
 20
11.5539977853
 30
0.0
 10
11.5008295124
 20
11.5582779709
 30
0.0
 10
11.5102686152
 20
11.5624050118
 30
0.0
 10
11.5202878085
 20
11.56636908
 30
0.0
 10
11.5308632337
 20
11.5701605923
 30
0.0
 10
11.5419695928
 20
11.573770586
 30
0.0
 10
11.5535803339
 20
11.5771902249
 30
0.0
 10
11.5656676142
 20
11.5804113668
 30
0.0
 10
11.5782024291
 20
11.5834262021
 30
0.0
 10
11.5911547361
 20
11.5862274498
 30
0.0
 10
11.6091345381
 20
11.589706249
 30
0.0
 10
11.6324307895
 20
11.5934554638
 30
0.0
 10
11.6612344959
 20
11.5969638717
 30
0.0
 10
11.6909068909
 20
11.5994945869
 30
0.0
 10
11.72116292
 20
11.6010229822
 30
0.0
 10
11.7517122885
 20
11.6015341122
 30
0.0
 10
11.782261657
 20
11.6010229822
 30
0.0
 10
11.8125176861
 20
11.5994945869
 30
0.0
 10
11.8421900812
 20
11.5969638717
 30
0.0
 10
11.8709937875
 20
11.5934554638
 30
0.0
 10
11.8942900389
 20
11.589706249
 30
0.0
 10
11.9122698409
 20
11.5862274498
 30
0.0
 10
11.9252221479
 20
11.5834262021
 30
0.0
 10
11.9377569628
 20
11.5804113668
 30
0.0
 10
11.9498442432
 20
11.5771902249
 30
0.0
 10
11.9614549842
 20
11.573770586
 30
0.0
 10
11.9725613433
 20
11.5701605923
 30
0.0
 10
11.9831367686
 20
11.56636908
 30
0.0
 10
11.9931559619
 20
11.5624050118
 30
0.0
 10
12.0025950646
 20
11.5582779709
 30
0.0
 10
12.0114316448
 20
11.5539977853
 30
0.0
 10
12.0196447335
 20
11.5495744906
 30
0.0
 10
12.0272150288
 20
11.5450186038
 30
0.0
 10
12.0341246643
 20
11.540340457
 30
0.0
 10
12.0403575219
 20
11.5355507561
 30
0.0
 10
12.0458989543
 20
11.5306599845
 30
0.0
 10
12.0507357073
 20
11.5256784629
 30
0.0
 10
12.0548559323
 20
11.5206165146
 30
0.0
 10
12.0582482606
 20
11.5154840506
 30
0.0
 10
12.0609024053
 20
11.5102918518
 30
0.0
 10
12.0628080759
 20
11.5050507956
 30
0.0
 10
12.063955741
 20
11.4997762314
 30
0.0
 10
12.0642122885
 20
11.4962344796
 30
0.0
 10
12.0642122885
 20
11.4944819568
 30
0.0
  0
SPLINE
  5
271
100
AcDbEntity
  8
0
100
AcDbSpline
 62
7
  6
CONTINUOUS
 70
0
 71
3
 72
59
 73
55
 74
0
 42
0.0000001
 43
0.0000001
 44
0.0000000001
 40
0.0
 40
0.0
 40
0.0
 40
0.0
 40
0.0075120044
 40
0.015222875
 40
0.0232467872
 40
0.0316834194
 40
0.0406143641
 40
0.050104388
 40
0.060202789
 40
0.0709453499
 40
0.0823563743
 40
0.0944502936
 40
0.1072336336
 40
0.1207057262
 40
0.134860307
 40
0.1496858863
 40
0.1651667155
 40
0.1812832642
 40
0.1980125166
 40
0.2153286907
 40
0.2332031282
 40
0.2516050327
 40
0.2898548429
 40
0.3297947716
 40
0.3711146467
 40
0.4134855049
 40
0.4565645744
 40
0.5
 40
0.5434354256
 40
0.5865144951
 40
0.6288853533
 40
0.6702052284
 40
0.7101451571
 40
0.7483949673
 40
0.7667968718
 40
0.7846713093
 40
0.8019874834
 40
0.8187167358
 40
0.8348332845
 40
0.8503141137
 40
0.865139693
 40
0.8792942738
 40
0.8927663664
 40
0.9055497064
 40
0.9176436257
 40
0.9290546501
 40
0.939797211
 40
0.949895612
 40
0.9593856359
 40
0.9683165806
 40
0.9767532128
 40
0.984777125
 40
0.9924879956
 40
1.0
 40
1.0
 40
1.0
 40
1.0
 10
11.4668185573
 20
11.5911120884
 30
0.0
 10
11.4669445679
 20
11.5926897867
 30
0.0
 10
11.4674274843
 20
11.5958729096
 30
0.0
 10
11.468816318
 20
11.6005838105
 30
0.0
 10
11.4708681451
 20
11.6052588002
 30
0.0
 10
11.4735746202
 20
11.6098858053
 30
0.0
 10
11.4769266791
 20
11.6144559506
 30
0.0
 10
11.4809152516
 20
11.618960028
 30
0.0
 10
11.4855302993
 20
11.6233893398
 30
0.0
 10
11.4907610285
 20
11.6277349691
 30
0.0
 10
11.4965955688
 20
11.6319877272
 30
0.0
 10
11.503020609
 20
11.6361386234
 30
0.0
 10
11.5100216991
 20
11.6401782946
 30
0.0
 10
11.517582829
 20
11.6440978824
 30
0.0
 10
11.5256868086
 20
11.6478883124
 30
0.0
 10
11.534315033
 20
11.6515409994
 30
0.0
 10
11.5434476835
 20
11.655047503
 30
0.0
 10
11.5530637298
 20
11.6583996481
 30
0.0
 10
11.5631409484
 20
11.6615897794
 30
0.0
 10
11.5736560583
 20
11.6646103022
 30
0.0
 10
11.5845847284
 20
11.6674544106
 30
0.0
 10
11.5998712297
 20
11.6710484265
 30
0.0
 10
11.6198354385
 20
11.6750330737
 30
0.0
 10
11.6447134705
 20
11.6789587533
 30
0.0
 10
11.6705831737
 20
11.6820510449
 30
0.0
 10
11.697204703
 20
11.6842808744
 30
0.0
 10
11.7243315672
 20
11.6856272265
 30
0.0
 10
11.7517122885
 20
11.6860774236
 30
0.0
 10
11.7790930098
 20
11.6856272265
 30
0.0
 10
11.806219874
 20
11.6842808744
 30
0.0
 10
11.8328414034
 20
11.6820510449
 30
0.0
 10
11.8587111065
 20
11.6789587533
 30
0.0
 10
11.8835891386
 20
11.6750330737
 30
0.0
 10
11.9035533473
 20
11.6710484265
 30
0.0
 10
11.9188398486
 20
11.6674544106
 30
0.0
 10
11.9297685187
 20
11.6646103022
 30
0.0
 10
11.9402836286
 20
11.6615897794
 30
0.0
 10
11.9503608473
 20
11.6583996481
 30
0.0
 10
11.9599768936
 20
11.655047503
 30
0.0
 10
11.9691095441
 20
11.6515409994
 30
0.0
 10
11.9777377684
 20
11.6478883124
 30
0.0
 10
11.985841748
 20
11.6440978824
 30
0.0
 10
11.9934028779
 20
11.6401782946
 30
0.0
 10
12.000403968
 20
11.6361386234
 30
0.0
 10
12.0068290082
 20
11.6319877272
 30
0.0
 10
12.0126635486
 20
11.6277349691
 30
0.0
 10
12.0178942778
 20
11.6233893398
 30
0.0
 10
12.0225093254
 20
11.618960028
 30
0.0
 10
12.026497898
 20
11.6144559506
 30
0.0
 10
12.0298499568
 20
11.6098858053
 30
0.0
 10
12.0325564319
 20
11.6052588002
 30
0.0
 10
12.034608259
 20
11.6005838105
 30
0.0
 10
12.0359970927
 20
11.5958729096
 30
0.0
 10
12.0364800091
 20
11.5926897867
 30
0.0
 10
12.0366060197
 20
11.5911120884
 30
0.0
  0
SPLINE
  5
272
100
AcDbEntity
  8
0
100
AcDbSpline
 62
7
  6
CONTINUOUS
 70
0
 71
3
 72
70
 73
66
 74
0
 42
0.0000001
 43
0.0000001
 44
0.0000000001
 40
0.0
 40
0.0
 40
0.0
 40
0.0
 40
0.006414328
 40
0.0128006447
 40
0.019174754
 40
0.0255352412
 40
0.0318702534
 40
0.03817351
 40
0.0444456822
 40
0.0506869922
 40
0.063088386
 40
0.0754197128
 40
0.0877437797
 40
0.1001349459
 40
0.1126684559
 40
0.1254185818
 40
0.1384496876
 40
0.1518167163
 40
0.1655631971
 40
0.1797219694
 40
0.1943158034
 40
0.2093585796
 40
0.2248557352
 40
0.2408061998
 40
0.2572019641
 40
0.2740302822
 40
0.2912731364
 40
0.3089087206
 40
0.3452508204
 40
0.3828197907
 40
0.4213392611
 40
0.4605064389
 40
0.5000016175
 40
0.5394967718
 40
0.5786638677
 40
0.6171831874
 40
0.6547519774
 40
0.6910938807
 40
0.7087293006
 40
0.7259721096
 40
0.7428001725
 40
0.7591958644
 40
0.7751461012
 40
0.7906431224
 40
0.8056857997
 40
0.8202793516
 40
0.8344380892
 40
0.8481841963
 40
0.8615512014
 40
0.8745820557
 40
0.8809889792
 40
0.8873334515
 40
0.8998667332
 40
0.91225771
 40
0.9245813039
 40
0.936912688
 40
0.9493136363
 40
0.9555549654
 40
0.9618269646
 40
0.9681300534
 40
0.9744646555
 40
0.9808250841
 40
0.9871996909
 40
0.9935864994
 40
1.0
 40
1.0
 40
1.0
 40
1.0
 10
12.1217122885
 20
11.3817188423
 30
0.0
 10
12.1217122885
 20
11.3835848913
 30
0.0
 10
12.1215933135
 20
11.3873099438
 30
0.0
 10
12.1210594541
 20
11.3928662484
 30
0.0
 10
12.120176954
 20
11.3983621823
 30
0.0
 10
12.1189592392
 20
11.4037781518
 30
0.0
 10
12.1174196478
 20
11.4090900208
 30
0.0
 10
12.1155738072
 20
11.4142758556
 30
0.0
 10
12.1134428694
 20
11.4193215165
 30
0.0
 10
12.1102531583
 20
11.4258335961
 30
0.0
 10
12.1056446909
 20
11.4335973705
 30
0.0
 10
12.099248505
 20
11.4422942436
 30
0.0
 10
12.0921100702
 20
11.4503859557
 30
0.0
 10
12.0843072818
 20
11.4579202044
 30
0.0
 10
12.0758946512
 20
11.4649585187
 30
0.0
 10
12.06690012
 20
11.4715534378
 30
0.0
 10
12.0573424891
 20
11.4777571378
 30
0.0
 10
12.0472287854
 20
11.4836065326
 30
0.0
 10
12.0365656358
 20
11.4891341676
 30
0.0
 10
12.0253574414
 20
11.494361082
 30
0.0
 10
12.01361127
 20
11.4993037105
 30
0.0
 10
12.0013362455
 20
11.5039718827
 30
0.0
 10
11.9885447009
 20
11.5083716856
 30
0.0
 10
11.9752523444
 20
11.5125059522
 30
0.0
 10
11.9614778867
 20
11.516374975
 30
0.0
 10
11.9472433691
 20
11.5199775289
 30
0.0
 10
11.9325734261
 20
11.5233110843
 30
0.0
 10
11.9122667671
 20
11.5274337562
 30
0.0
 10
11.8859960812
 20
11.5318626163
 30
0.0
 10
11.8535421146
 20
11.5359960203
 30
0.0
 10
11.8201366108
 20
11.5389712809
 30
0.0
 10
11.7860862884
 20
11.5407659798
 30
0.0
 10
11.7517102551
 20
11.5413658032
 30
0.0
 10
11.7173342476
 20
11.5407658506
 30
0.0
 10
11.6832840076
 20
11.5389710048
 30
0.0
 10
11.6498786373
 20
11.5359956006
 30
0.0
 10
11.6174248417
 20
11.5318620689
 30
0.0
 10
11.5911543317
 20
11.5274331126
 30
0.0
 10
11.5708478075
 20
11.5233103694
 30
0.0
 10
11.556178016
 20
11.5199767575
 30
0.0
 10
11.5419436212
 20
11.5163741614
 30
0.0
 10
11.528169341
 20
11.5125051009
 30
0.0
 10
11.5148771404
 20
11.5083707649
 30
0.0
 10
11.5020857186
 20
11.5039710064
 30
0.0
 10
11.4898109428
 20
11.4993026198
 30
0.0
 10
11.4780647761
 20
11.4943602613
 30
0.0
 10
11.4668570545
 20
11.4891328675
 30
0.0
 10
11.4561936547
 20
11.4836058491
 30
0.0
 10
11.4460808565
 20
11.4777556541
 30
0.0
 10
11.4380708154
 20
11.4725578931
 30
0.0
 10
11.4319603541
 20
11.4682063809
 30
0.0
 10
11.4260986976
 20
11.46376093
 30
0.0
 10
11.4191158788
 20
11.4579193906
 30
0.0
 10
11.4113138404
 20
11.4503849432
 30
0.0
 10
11.4041754343
 20
11.4422934124
 30
0.0
 10
11.3977794003
 20
11.4335967372
 30
0.0
 10
11.393171115
 20
11.4258329792
 30
0.0
 10
11.3899815035
 20
11.419321047
 30
0.0
 10
11.3878506215
 20
11.4142754621
 30
0.0
 10
11.3860049234
 20
11.4090898122
 30
0.0
 10
11.3844652051
 20
11.4037781733
 30
0.0
 10
11.3832475589
 20
11.3983621748
 30
0.0
 10
11.3823651203
 20
11.3928659577
 30
0.0
 10
11.381831306
 20
11.3873096035
 30
0.0
 10
11.3817122885
 20
11.3835846506
 30
0.0
 10
11.3817122885
 20
11.3817188423
 30
0.0
  0
SPLINE
  5
273
100
AcDbEntity
  8
0
100
AcDbSpline
 62
7
  6
CONTINUOUS
 70
0
 71
3
 72
22
 73
18
 74
0
 42
0.0000001
 43
0.0000001
 44
0.0000000001
 40
0.0
 40
0.0
 40
0.0
 40
0.0
 40
0.0637234919
 40
0.1271515377
 40
0.1904189564
 40
0.2219449203
 40
0.253364788
 40
0.3158802881
 40
0.3779850923
 40
0.4397334878
 40
0.5011885694
 40
0.5624765017
 40
0.6237391836
 40
0.7468090974
 40
0.871796889
 40
0.935429318
 40
1.0
 40
1.0
 40
1.0
 40
1.0
 10
11.3817122885
 20
11.3817188423
 30
0.0
 10
11.3817122885
 20
11.3792277947
 30
0.0
 10
11.381924336
 20
11.3742545438
 30
0.0
 10
11.3828753724
 20
11.3668634534
 30
0.0
 10
11.3841755015
 20
11.3608086681
 30
0.0
 10
11.3855037028
 20
11.3560557673
 30
0.0
 10
11.3870136768
 20
11.351388304
 30
0.0
 10
11.389232518
 20
11.3456992229
 30
0.0
 10
11.3923867375
 20
11.3391248961
 30
0.0
 10
11.3959825566
 20
11.3328295967
 30
0.0
 10
11.3999769729
 20
11.3268185807
 30
0.0
 10
11.4043335902
 20
11.3210891379
 30
0.0
 10
11.4105899132
 20
11.3137993835
 30
0.0
 10
11.4192158656
 20
11.3052921928
 30
0.0
 10
11.4286771685
 20
11.2975892425
 30
0.0
 10
11.4367218447
 20
11.2918201433
 30
0.0
 10
11.4409035289
 20
11.289055289
 30
0.0
 10
11.4430333131
 20
11.2877005082
 30
0.0
  0
SPLINE
  5
274
100
AcDbEntity
  8
0
100
AcDbSpline
 62
7
  6
CONTINUOUS
 70
0
 71
3
 72
21
 73
17
 74
0
 42
0.0000001
 43
0.0000001
 44
0.0000000001
 40
0.0
 40
0.0
 40
0.0
 40
0.0
 40
0.1281932354
 40
0.1910312191
 40
0.2532202289
 40
0.3762934168
 40
0.43755197
 40
0.4988398164
 40
0.5602907392
 40
0.6220371306
 40
0.6841400787
 40
0.7466529756
 40
0.8095813863
 40
0.8728485553
 40
0.9362823066
 40
1.0
 40
1.0
 40
1.0
 40
1.0
 10
12.0603309773
 20
11.2876622675
 30
0.0
 10
12.0645628395
 20
11.29035196
 30
0.0
 10
12.0707331004
 20
11.2945833207
 30
0.0
 10
12.0785431892
 20
11.3006791405
 30
0.0
 10
12.0859228295
 20
11.3069847452
 30
0.0
 10
12.0928050969
 20
11.3137676285
 30
0.0
 10
12.0990671871
 20
11.321059689
 30
0.0
 10
12.1034279688
 20
11.3267910615
 30
0.0
 10
12.1074266097
 20
11.3328042067
 30
0.0
 10
12.1110259454
 20
11.3391021366
 30
0.0
 10
12.1141835866
 20
11.3456796
 30
0.0
 10
12.1168534636
 20
11.3525201703
 30
0.0
 10
12.1189884055
 20
11.3595943159
 30
0.0
 10
12.120547747
 20
11.3668546684
 30
0.0
 10
12.1214999484
 20
11.374250309
 30
0.0
 10
12.1217122885
 20
11.379226519
 30
0.0
 10
12.1217122885
 20
11.3817188423
 30
0.0
  0
SPLINE
  5
275
100
AcDbEntity
  8
0
100
AcDbSpline
 62
7
  6
CONTINUOUS
 70
0
 71
3
 72
57
 73
53
 74
0
 42
0.0000001
 43
0.0000001
 44
0.0000000001
 40
0.0
 40
0.0
 40
0.0
 40
0.0
 40
0.0075179032
 40
0.0152579809
 40
0.0233298943
 40
0.0318279884
 40
0.0408289988
 40
0.0503934548
 40
0.0605672511
 40
0.0713832875
 40
0.0828637469
 40
0.0950213527
 40
0.1078613688
 40
0.1213822417
 40
0.1355770063
 40
0.1504338189
 40
0.1659366311
 40
0.1820658832
 40
0.1987985706
 40
0.2161090828
 40
0.2523454224
 40
0.2905254318
 40
0.3303672064
 40
0.3715653551
 40
0.4137963014
 40
0.4567230979
 40
0.5
 40
0.5432769021
 40
0.5862036986
 40
0.6284346449
 40
0.6696327936
 40
0.7094745682
 40
0.7476545776
 40
0.7838909172
 40
0.8012014294
 40
0.8179341168
 40
0.8340633689
 40
0.8495661811
 40
0.8644229937
 40
0.8786177583
 40
0.8921386312
 40
0.9049786473
 40
0.9171362531
 40
0.9286167125
 40
0.9394327489
 40
0.9496065452
 40
0.9591710012
 40
0.9681720116
 40
0.9766701057
 40
0.9847420191
 40
0.9924820968
 40
1.0
 40
1.0
 40
1.0
 40
1.0
 10
11.4704168323
 20
11.0444590938
 30
0.0
 10
11.4705896359
 20
11.0429094262
 30
0.0
 10
11.471161889
 20
11.0397851046
 30
0.0
 10
11.4726633836
 20
11.0351718249
 30
0.0
 10
11.4748088566
 20
11.0305957854
 30
0.0
 10
11.4775901126
 20
11.0260682417
 30
0.0
 10
11.4809984944
 20
11.0215977698
 30
0.0
 10
11.4850249826
 20
11.017193125
 30
0.0
 10
11.4896598798
 20
11.012862883
 30
0.0
 10
11.4948924594
 20
11.008615588
 30
0.0
 10
11.5007111073
 20
11.0044602594
 30
0.0
 10
11.5071026964
 20
11.0004055503
 30
0.0
 10
11.5140530439
 20
10.9964605161
 30
0.0
 10
11.5215464825
 20
10.992633753
 30
0.0
 10
11.5295661712
 20
10.988933938
 30
0.0
 10
11.538093973
 20
10.9853694319
 30
0.0
 10
11.5471105407
 20
10.9819482726
 30
0.0
 10
11.5565954027
 20
10.978678417
 30
0.0
 10
11.5665269594
 20
10.9755671155
 30
0.0
 10
11.5805488437
 20
10.9715792153
 30
0.0
 10
11.5990385181
 20
10.9670656254
 30
0.0
 10
11.6222920652
 20
10.9624630879
 30
0.0
 10
11.6467278106
 20
10.9586376893
 30
0.0
 10
11.6721225883
 20
10.9556248924
 30
0.0
 10
11.6982447997
 20
10.9534526893
 30
0.0
 10
11.7248557732
 20
10.9521412457
 30
0.0
 10
11.7517122885
 20
10.9517027414
 30
0.0
 10
11.7785688038
 20
10.9521412457
 30
0.0
 10
11.8051797773
 20
10.9534526893
 30
0.0
 10
11.8313019887
 20
10.9556248924
 30
0.0
 10
11.8566967664
 20
10.9586376893
 30
0.0
 10
11.8811325118
 20
10.9624630879
 30
0.0
 10
11.9043860589
 20
10.9670656254
 30
0.0
 10
11.9228757333
 20
10.9715792153
 30
0.0
 10
11.9368976176
 20
10.9755671155
 30
0.0
 10
11.9468291744
 20
10.978678417
 30
0.0
 10
11.9563140363
 20
10.9819482726
 30
0.0
 10
11.965330604
 20
10.9853694319
 30
0.0
 10
11.9738584059
 20
10.988933938
 30
0.0
 10
11.9818780946
 20
10.992633753
 30
0.0
 10
11.9893715331
 20
10.9964605161
 30
0.0
 10
11.9963218806
 20
11.0004055503
 30
0.0
 10
12.0027134697
 20
11.0044602594
 30
0.0
 10
12.0085321176
 20
11.008615588
 30
0.0
 10
12.0137646973
 20
11.012862883
 30
0.0
 10
12.0183995945
 20
11.017193125
 30
0.0
 10
12.0224260826
 20
11.0215977698
 30
0.0
 10
12.0258344644
 20
11.0260682417
 30
0.0
 10
12.0286157204
 20
11.0305957854
 30
0.0
 10
12.0307611934
 20
11.0351718249
 30
0.0
 10
12.032262688
 20
11.0397851046
 30
0.0
 10
12.0328349411
 20
11.0429094262
 30
0.0
 10
12.0330077447
 20
11.0444590938
 30
0.0
  0
SPLINE
  5
276
100
AcDbEntity
  8
0
100
AcDbSpline
 62
9
  6
CONTINUOUS
 70
0
 71
3
 72
61
 73
57
 74
0
 42
0.0000001
 43
0.0000001
 44
0.0000000001
 40
0.0
 40
0.0
 40
0.0
 40
0.0
 40
0.0075225924
 40
0.0151810052
 40
0.0231001298
 40
0.0313928665
 40
0.0401539846
 40
0.0494596204
 40
0.0593685699
 40
0.0699244588
 40
0.0811575702
 40
0.093087084
 40
0.1057229868
 40
0.1190672185
 40
0.1331153327
 40
0.1478570642
 40
0.163277351
 40
0.1793569798
 40
0.1960728643
 40
0.2133988614
 40
0.2313057456
 40
0.2497617994
 40
0.2687330069
 40
0.2881831802
 40
0.3283650915
 40
0.3699874507
 40
0.4127075
 40
0.4561675317
 40
0.5
 40
0.5438324683
 40
0.5872925
 40
0.6300125493
 40
0.6716349085
 40
0.7118168198
 40
0.7312669931
 40
0.7502382006
 40
0.7686942544
 40
0.7866011386
 40
0.8039271357
 40
0.8206430202
 40
0.836722649
 40
0.8521429358
 40
0.8668846673
 40
0.8809327815
 40
0.8942770132
 40
0.906912916
 40
0.9188424298
 40
0.9300755412
 40
0.9406314301
 40
0.9505403796
 40
0.9598460154
 40
0.9686071335
 40
0.9768998702
 40
0.9848189948
 40
0.9924774076
 40
1.0
 40
1.0
 40
1.0
 40
1.0
 10
11.4392122885
 20
11.3263626279
 30
0.0
 10
11.4392122885
 20
11.3281151506
 30
0.0
 10
11.4394688359
 20
11.3316569024
 30
0.0
 10
11.4406165013
 20
11.3369314668
 30
0.0
 10
11.442522172
 20
11.3421725231
 30
0.0
 10
11.4451763162
 20
11.3473647218
 30
0.0
 10
11.4485686446
 20
11.3524971855
 30
0.0
 10
11.4526888697
 20
11.3575591337
 30
0.0
 10
11.4575256228
 20
11.3625406558
 30
0.0
 10
11.4630670553
 20
11.3674314273
 30
0.0
 10
11.4692999125
 20
11.372221128
 30
0.0
 10
11.4762095481
 20
11.3768992748
 30
0.0
 10
11.4837798439
 20
11.3814551616
 30
0.0
 10
11.4919929325
 20
11.3858784566
 30
0.0
 10
11.5008295121
 20
11.390158642
 30
0.0
 10
11.5102686147
 20
11.3942856826
 30
0.0
 10
11.5202878085
 20
11.3982497512
 30
0.0
 10
11.5308632342
 20
11.4020412635
 30
0.0
 10
11.5419695929
 20
11.4056512571
 30
0.0
 10
11.5535803335
 20
11.409070896
 30
0.0
 10
11.5656676143
 20
11.4122920378
 30
0.0
 10
11.5782024296
 20
11.4153068733
 30
0.0
 10
11.5911547362
 20
11.418108121
 30
0.0
 10
11.6091345381
 20
11.4215869199
 30
0.0
 10
11.6324307892
 20
11.4253361348
 30
0.0
 10
11.6612344962
 20
11.4288445429
 30
0.0
 10
11.6909068907
 20
11.4313752578
 30
0.0
 10
11.72116292
 20
11.4329036533
 30
0.0
 10
11.7517122885
 20
11.4334147832
 30
0.0
 10
11.7822616571
 20
11.4329036533
 30
0.0
 10
11.8125176863
 20
11.4313752578
 30
0.0
 10
11.8421900808
 20
11.4288445429
 30
0.0
 10
11.8709937878
 20
11.4253361348
 30
0.0
 10
11.894290039
 20
11.4215869199
 30
0.0
 10
11.9122698408
 20
11.418108121
 30
0.0
 10
11.9252221474
 20
11.4153068733
 30
0.0
 10
11.9377569628
 20
11.4122920378
 30
0.0
 10
11.9498442435
 20
11.409070896
 30
0.0
 10
11.9614549841
 20
11.4056512571
 30
0.0
 10
11.9725613428
 20
11.4020412635
 30
0.0
 10
11.9831367685
 20
11.3982497512
 30
0.0
 10
11.9931559623
 20
11.3942856826
 30
0.0
 10
12.0025950649
 20
11.390158642
 30
0.0
 10
12.0114316446
 20
11.3858784566
 30
0.0
 10
12.0196447332
 20
11.3814551616
 30
0.0
 10
12.027215029
 20
11.3768992748
 30
0.0
 10
12.0341246645
 20
11.372221128
 30
0.0
 10
12.0403575217
 20
11.3674314273
 30
0.0
 10
12.0458989542
 20
11.3625406558
 30
0.0
 10
12.0507357073
 20
11.3575591337
 30
0.0
 10
12.0548559324
 20
11.3524971855
 30
0.0
 10
12.0582482608
 20
11.3473647218
 30
0.0
 10
12.060902405
 20
11.3421725231
 30
0.0
 10
12.0628080758
 20
11.3369314668
 30
0.0
 10
12.0639557412
 20
11.3316569024
 30
0.0
 10
12.0642122885
 20
11.3281151506
 30
0.0
 10
12.0642122885
 20
11.3263626279
 30
0.0
  0
SPLINE
  5
277
100
AcDbEntity
  8
0
100
AcDbSpline
 62
9
  6
CONTINUOUS
 70
0
 71
3
 72
61
 73
57
 74
0
 42
0.0000001
 43
0.0000001
 44
0.0000000001
 40
0.0
 40
0.0
 40
0.0
 40
0.0
 40
0.0075225924
 40
0.0151810052
 40
0.0231001298
 40
0.0313928665
 40
0.0401539846
 40
0.0494596204
 40
0.0593685699
 40
0.0699244588
 40
0.0811575702
 40
0.093087084
 40
0.1057229868
 40
0.1190672185
 40
0.1331153327
 40
0.1478570642
 40
0.163277351
 40
0.1793569798
 40
0.1960728643
 40
0.2133988614
 40
0.2313057456
 40
0.2497617994
 40
0.2687330069
 40
0.2881831802
 40
0.3283650915
 40
0.3699874507
 40
0.4127075
 40
0.4561675317
 40
0.5
 40
0.5438324683
 40
0.5872925
 40
0.6300125493
 40
0.6716349085
 40
0.7118168198
 40
0.7312669931
 40
0.7502382006
 40
0.7686942544
 40
0.7866011386
 40
0.8039271357
 40
0.8206430202
 40
0.836722649
 40
0.8521429358
 40
0.8668846673
 40
0.8809327815
 40
0.8942770132
 40
0.906912916
 40
0.9188424298
 40
0.9300755412
 40
0.9406314301
 40
0.9505403796
 40
0.9598460154
 40
0.9686071335
 40
0.9768998702
 40
0.9848189948
 40
0.9924774076
 40
1.0
 40
1.0
 40
1.0
 40
1.0
 10
11.4296742563
 20
11.3347732583
 30
0.0
 10
11.4296742563
 20
11.336579271
 30
0.0
 10
11.4299386339
 20
11.3402291231
 30
0.0
 10
11.431121328
 20
11.3456646762
 30
0.0
 10
11.433085163
 20
11.3510656984
 30
0.0
 10
11.4358203163
 20
11.356416372
 30
0.0
 10
11.4393161843
 20
11.3617054871
 30
0.0
 10
11.4435621657
 20
11.3669219347
 30
0.0
 10
11.4485465448
 20
11.3720555013
 30
0.0
 10
11.4542571112
 20
11.3770955474
 30
0.0
 10
11.4606802058
 20
11.382031438
 30
0.0
 10
11.4678007352
 20
11.3868523698
 30
0.0
 10
11.4756020893
 20
11.3915473101
 30
0.0
 10
11.4840658554
 20
11.3961056115
 30
0.0
 10
11.4931721425
 20
11.4005164354
 30
0.0
 10
11.5028993426
 20
11.4047694404
 30
0.0
 10
11.5132243392
 20
11.4088544991
 30
0.0
 10
11.524122545
 20
11.4127617348
 30
0.0
 10
11.5355678887
 20
11.4164819116
 30
0.0
 10
11.5475330088
 20
11.4200059237
 30
0.0
 10
11.5599892139
 20
11.4233253802
 30
0.0
 10
11.5729066132
 20
11.4264322336
 30
0.0
 10
11.5862542462
 20
11.4293189802
 30
0.0
 10
11.6047828223
 20
11.432903958
 30
0.0
 10
11.6287901147
 20
11.4367676053
 30
0.0
 10
11.6584729599
 20
11.4403830959
 30
0.0
 10
11.6890510064
 20
11.4429910526
 30
0.0
 10
11.7202305012
 20
11.4445660973
 30
0.0
 10
11.7517122885
 20
11.4450928278
 30
0.0
 10
11.7831940758
 20
11.4445660973
 30
0.0
 10
11.8143735706
 20
11.4429910526
 30
0.0
 10
11.8449516171
 20
11.4403830959
 30
0.0
 10
11.8746344624
 20
11.4367676053
 30
0.0
 10
11.8986417547
 20
11.432903958
 30
0.0
 10
11.9171703308
 20
11.4293189802
 30
0.0
 10
11.9305179639
 20
11.4264322336
 30
0.0
 10
11.9434353631
 20
11.4233253802
 30
0.0
 10
11.9558915682
 20
11.4200059237
 30
0.0
 10
11.9678566884
 20
11.4164819116
 30
0.0
 10
11.9793020321
 20
11.4127617348
 30
0.0
 10
11.9902002378
 20
11.4088544991
 30
0.0
 10
12.0005252344
 20
11.4047694404
 30
0.0
 10
12.0102524345
 20
11.4005164354
 30
0.0
 10
12.0193587216
 20
11.3961056115
 30
0.0
 10
12.0278224877
 20
11.3915473101
 30
0.0
 10
12.0356238418
 20
11.3868523698
 30
0.0
 10
12.0427443712
 20
11.382031438
 30
0.0
 10
12.0491674658
 20
11.3770955474
 30
0.0
 10
12.0548780323
 20
11.3720555013
 30
0.0
 10
12.0598624114
 20
11.3669219347
 30
0.0
 10
12.0641083927
 20
11.3617054871
 30
0.0
 10
12.0676042607
 20
11.356416372
 30
0.0
 10
12.070339414
 20
11.3510656984
 30
0.0
 10
12.072303249
 20
11.3456646762
 30
0.0
 10
12.0734859431
 20
11.3402291231
 30
0.0
 10
12.0737503208
 20
11.336579271
 30
0.0
 10
12.0737503208
 20
11.3347732583
 30
0.0
  0
SPLINE
  5
278
100
AcDbEntity
  8
0
100
AcDbSpline
 62
9
  6
CONTINUOUS
 70
0
 71
3
 72
31
 73
27
 74
0
 42
0.0000001
 43
0.0000001
 44
0.0000000001
 40
0.0
 40
0.0
 40
0.0
 40
0.0
 40
0.0254306863
 40
0.0519168448
 40
0.0794115726
 40
0.1078625571
 40
0.1372127118
 40
0.1674009827
 40
0.1983624026
 40
0.2300288134
 40
0.2951867064
 40
0.3622814154
 40
0.4306863556
 40
0.4997554449
 40
0.5688328428
 40
0.6372625855
 40
0.7043982256
 40
0.7696125678
 40
0.8013127458
 40
0.8323114669
 40
0.8625403981
 40
0.8919344141
 40
0.9204322596
 40
0.9479766081
 40
0.9745149238
 40
1.0
 40
1.0
 40
1.0
 40
1.0
 10
11.5207551038
 20
11.5100505573
 30
0.0
 10
11.5244759287
 20
11.5114467615
 30
0.0
 10
11.5321222988
 20
11.5141645224
 30
0.0
 10
11.543942039
 20
11.5179519719
 30
0.0
 10
11.5563203026
 20
11.5215251945
 30
0.0
 10
11.5692237472
 20
11.524874498
 30
0.0
 10
11.5826178249
 20
11.5279909416
 30
0.0
 10
11.5964665833
 20
11.5308659831
 30
0.0
 10
11.6107328841
 20
11.5334919863
 30
0.0
 10
11.6304473698
 20
11.5366818401
 30
0.0
 10
11.6558579369
 20
11.5399809086
 30
0.0
 10
11.687094049
 20
11.5428178332
 30
0.0
 10
11.7190235552
 20
11.5445382781
 30
0.0
 10
11.7513036351
 20
11.5451235199
 30
0.0
 10
11.7835880991
 20
11.544567105
 30
0.0
 10
11.815530708
 20
11.5428751685
 30
0.0
 10
11.8467884986
 20
11.5400661248
 30
0.0
 10
11.87222267
 20
11.5367899423
 30
0.0
 10
11.891960219
 20
11.5336179662
 30
0.0
 10
11.9062466144
 20
11.5310047539
 30
0.0
 10
11.9201173766
 20
11.5281421171
 30
0.0
 10
11.9335353098
 20
11.5250376765
 30
0.0
 10
11.9464643955
 20
11.5216999382
 30
0.0
 10
11.958870012
 20
11.5181377981
 30
0.0
 10
11.970718749
 20
11.5143609444
 30
0.0
 10
11.9783852799
 20
11.5116502552
 30
0.0
 10
11.9821164777
 20
11.5102575176
 30
0.0
  0
SPLINE
  5
279
100
AcDbEntity
  8
0
100
AcDbSpline
 62
9
  6
CONTINUOUS
 70
0
 71
3
 72
33
 73
29
 74
0
 42
0.0000001
 43
0.0000001
 44
0.0000000001
 40
0.0
 40
0.0
 40
0.0
 40
0.0
 40
0.0876660013
 40
0.1745855371
 40
0.2600263735
 40
0.3432713549
 40
0.4236355537
 40
0.5004740792
 40
0.5373863598
 40
0.5732003468
 40
0.6078523973
 40
0.6412844545
 40
0.6734437259
 40
0.7042845425
 40
0.7337680967
 40
0.7618644287
 40
0.7885530954
 40
0.8138249017
 40
0.837684167
 40
0.8601503931
 40
0.8812623235
 40
0.9010803141
 40
0.9196916302
 40
0.9372139115
 40
0.9537996375
 40
0.9696380843
 40
0.9849537656
 40
1.0
 40
1.0
 40
1.0
 40
1.0
 10
11.7517122885
 20
12.3787257203
 30
0.0
 10
11.7435429797
 20
12.3787257203
 30
0.0
 10
11.7272725824
 20
12.3784535184
 30
0.0
 10
11.7030679579
 20
12.3772307769
 30
0.0
 10
11.6793301262
 20
12.3752062153
 30
0.0
 10
11.6562868744
 20
12.3723995178
 30
0.0
 10
11.6341594409
 20
12.3688380724
 30
0.0
 10
11.6164287345
 20
12.3652235987
 30
0.0
 10
11.6028765678
 20
12.3619642322
 30
0.0
 10
11.5932067194
 20
12.3593873141
 30
0.0
 10
11.5839181419
 20
12.3566515529
 30
0.0
 10
11.5750330384
 20
12.3537636328
 30
0.0
 10
11.5665727161
 20
12.3507303457
 30
0.0
 10
11.5585573459
 20
12.3475591509
 30
0.0
 10
11.5510060716
 20
12.3442574908
 30
0.0
 10
11.5439368144
 20
12.3408333307
 30
0.0
 10
11.5373663226
 20
12.3372947422
 30
0.0
 10
11.5313101207
 20
12.333649961
 30
0.0
 10
11.5257823682
 20
12.3299075224
 30
0.0
 10
11.520796123
 20
12.3260756958
 30
0.0
 10
11.5163629458
 20
12.3221631226
 30
0.0
 10
11.5124935587
 20
12.3181778844
 30
0.0
 10
11.5091974003
 20
12.3141283222
 30
0.0
 10
11.5064834714
 20
12.310022381
 30
0.0
 10
11.5043602235
 20
12.3058685568
 30
0.0
 10
11.5028357089
 20
12.3016758021
 30
0.0
 10
11.5019174783
 20
12.2974561802
 30
0.0
 10
11.5017122885
 20
12.294622794
 30
0.0
 10
11.5017122885
 20
12.2932206845
 30
0.0
  0
SPLINE
  5
27A
100
AcDbEntity
  8
0
100
AcDbSpline
 62
9
  6
CONTINUOUS
 70
0
 71
3
 72
14
 73
10
 74
0
 42
0.0000001
 43
0.0000001
 44
0.0000000001
 40
0.0
 40
0.0
 40
0.0
 40
0.0
 40
0.1156219623
 40
0.2322326096
 40
0.3507478579
 40
0.4720462992
 40
0.5969477752
 40
0.7261894503
 40
1.0
 40
1.0
 40
1.0
 40
1.0
 10
11.4296742563
 20
11.3347732583
 30
0.0
 10
11.4296742563
 20
11.3335460989
 30
0.0
 10
11.4297952653
 20
11.3310796219
 30
0.0
 10
11.430338107
 20
11.3273912346
 30
0.0
 10
11.4312418037
 20
11.323712121
 30
0.0
 10
11.4325046985
 20
11.3200477132
 30
0.0
 10
11.4341246588
 20
11.3164017846
 30
0.0
 10
11.4368083154
 20
11.3114775698
 30
0.0
 10
11.4392827942
 20
11.307965288
 30
0.0
 10
11.4410985832
 20
11.3056962932
 30
0.0
  0
SPLINE
  5
27B
100
AcDbEntity
  8
0
100
AcDbSpline
 62
9
  6
CONTINUOUS
 70
0
 71
3
 72
14
 73
10
 74
0
 42
0.0000001
 43
0.0000001
 44
0.0000000001
 40
0.0
 40
0.0
 40
0.0
 40
0.0
 40
0.2738105497
 40
0.4030522248
 40
0.5279537008
 40
0.6492521421
 40
0.7677673904
 40
0.8843780377
 40
1.0
 40
1.0
 40
1.0
 40
1.0
 10
12.0623259938
 20
11.3056962932
 30
0.0
 10
12.0641417828
 20
11.307965288
 30
0.0
 10
12.0666162616
 20
11.3114775698
 30
0.0
 10
12.0692999182
 20
11.3164017846
 30
0.0
 10
12.0709198785
 20
11.3200477132
 30
0.0
 10
12.0721827733
 20
11.323712121
 30
0.0
 10
12.07308647
 20
11.3273912346
 30
0.0
 10
12.0736293117
 20
11.3310796219
 30
0.0
 10
12.0737503208
 20
11.3335460989
 30
0.0
 10
12.0737503208
 20
11.3347732583
 30
0.0
  0
SPLINE
  5
27C
100
AcDbEntity
  8
0
100
AcDbSpline
 62
7
  6
CONTINUOUS
 70
0
 71
3
 72
59
 73
55
 74
0
 42
0.0000001
 43
0.0000001
 44
0.0000000001
 40
0.0
 40
0.0
 40
0.0
 40
0.0
 40
0.0075225704
 40
0.015181068
 40
0.0231002589
 40
0.0313930055
 40
0.0401541676
 40
0.0494598507
 40
0.0593688328
 40
0.0699247927
 40
0.0811579306
 40
0.0930875273
 40
0.1057234676
 40
0.1190677614
 40
0.1331159599
 40
0.1478577226
 40
0.1632781243
 40
0.1793577898
 40
0.1960737772
 40
0.2133998496
 40
0.2313067898
 40
0.2497629719
 40
0.2881822182
 40
0.3283642957
 40
0.3699868375
 40
0.4127070893
 40
0.4561673301
 40
0.5
 40
0.5438326699
 40
0.5872929107
 40
0.6300131625
 40
0.6716357043
 40
0.7118177818
 40
0.7502370281
 40
0.7686932102
 40
0.7866001504
 40
0.8039262228
 40
0.8206422102
 40
0.8367218757
 40
0.8521422774
 40
0.8668840401
 40
0.8809322386
 40
0.8942765324
 40
0.9069124727
 40
0.9188420694
 40
0.9300752073
 40
0.9406311672
 40
0.9505401493
 40
0.9598458324
 40
0.9686069945
 40
0.9768997411
 40
0.984818932
 40
0.9924774296
 40
1.0
 40
1.0
 40
1.0
 40
1.0
 10
11.4702122885
 20
11.0481279619
 30
0.0
 10
11.4702122885
 20
11.0497066225
 30
0.0
 10
11.4704434029
 20
11.0528970288
 30
0.0
 10
11.4714771927
 20
11.0576483669
 30
0.0
 10
11.4731938367
 20
11.0623695171
 30
0.0
 10
11.4755846829
 20
11.0670466539
 30
0.0
 10
11.4786405033
 20
11.0716699654
 30
0.0
 10
11.4823519956
 20
11.0762297705
 30
0.0
 10
11.4867089301
 20
11.0807171438
 30
0.0
 10
11.4917006781
 20
11.0851227157
 30
0.0
 10
11.4973152094
 20
11.0894373205
 30
0.0
 10
11.5035394325
 20
11.0936513554
 30
0.0
 10
11.510358741
 20
11.0977553221
 30
0.0
 10
11.5177570915
 20
11.1017398277
 30
0.0
 10
11.5257170906
 20
11.1055953918
 30
0.0
 10
11.53421982
 20
11.1093130773
 30
0.0
 10
11.5432451255
 20
11.1128838536
 30
0.0
 10
11.5527714579
 20
11.1162992954
 30
0.0
 10
11.5627760731
 20
11.1195511535
 30
0.0
 10
11.573235021
 20
11.1226315527
 30
0.0
 10
11.5841232605
 20
11.1255332273
 30
0.0
 10
11.5993830091
 20
11.1292032146
 30
0.0
 10
11.6193477763
 20
11.1332731526
 30
0.0
 10
11.6442632654
 20
11.1372833436
 30
0.0
 10
11.670209956
 20
11.1404436733
 30
0.0
 10
11.6969387623
 20
11.1427233481
 30
0.0
 10
11.7241934207
 20
11.1441001098
 30
0.0
 10
11.7517122885
 20
11.1445605276
 30
0.0
 10
11.7792311563
 20
11.1441001098
 30
0.0
 10
11.8064858147
 20
11.1427233481
 30
0.0
 10
11.833214621
 20
11.1404436733
 30
0.0
 10
11.8591613116
 20
11.1372833436
 30
0.0
 10
11.8840768007
 20
11.1332731526
 30
0.0
 10
11.9040415679
 20
11.1292032146
 30
0.0
 10
11.9193013165
 20
11.1255332273
 30
0.0
 10
11.930189556
 20
11.1226315527
 30
0.0
 10
11.940648504
 20
11.1195511535
 30
0.0
 10
11.9506531191
 20
11.1162992954
 30
0.0
 10
11.9601794515
 20
11.1128838536
 30
0.0
 10
11.969204757
 20
11.1093130773
 30
0.0
 10
11.9777074864
 20
11.1055953918
 30
0.0
 10
11.9856674855
 20
11.1017398277
 30
0.0
 10
11.993065836
 20
11.0977553221
 30
0.0
 10
11.9998851445
 20
11.0936513554
 30
0.0
 10
12.0061093676
 20
11.0894373205
 30
0.0
 10
12.0117238989
 20
11.0851227157
 30
0.0
 10
12.0167156469
 20
11.0807171438
 30
0.0
 10
12.0210725815
 20
11.0762297705
 30
0.0
 10
12.0247840738
 20
11.0716699654
 30
0.0
 10
12.0278398941
 20
11.0670466539
 30
0.0
 10
12.0302307404
 20
11.0623695171
 30
0.0
 10
12.0319473843
 20
11.0576483669
 30
0.0
 10
12.0329811741
 20
11.0528970288
 30
0.0
 10
12.0332122885
 20
11.0497066225
 30
0.0
 10
12.0332122885
 20
11.0481279619
 30
0.0
  0
SPLINE
  5
27D
100
AcDbEntity
  8
0
100
AcDbSpline
 62
9
  6
CONTINUOUS
 70
0
 71
3
 72
33
 73
29
 74
0
 42
0.0000001
 43
0.0000001
 44
0.0000000001
 40
0.0
 40
0.0
 40
0.0
 40
0.0
 40
0.0150462344
 40
0.0303619157
 40
0.0462003625
 40
0.0627860885
 40
0.0803083698
 40
0.0989196859
 40
0.1187376765
 40
0.1398496069
 40
0.162315833
 40
0.1861750983
 40
0.2114469046
 40
0.2381355713
 40
0.2662319033
 40
0.2957154575
 40
0.3265562741
 40
0.3587155455
 40
0.3921476027
 40
0.4267996532
 40
0.4626136402
 40
0.4995259208
 40
0.5763644463
 40
0.6567286451
 40
0.7399736265
 40
0.8254144629
 40
0.9123339987
 40
1.0
 40
1.0
 40
1.0
 40
1.0
 10
12.0017122885
 20
12.2932206845
 30
0.0
 10
12.0017122885
 20
12.294622794
 30
0.0
 10
12.0015070987
 20
12.2974561802
 30
0.0
 10
12.0005888681
 20
12.3016758021
 30
0.0
 10
11.9990643536
 20
12.3058685568
 30
0.0
 10
11.9969411056
 20
12.310022381
 30
0.0
 10
11.9942271767
 20
12.3141283222
 30
0.0
 10
11.9909310183
 20
12.3181778844
 30
0.0
 10
11.9870616312
 20
12.3221631226
 30
0.0
 10
11.982628454
 20
12.3260756958
 30
0.0
 10
11.9776422089
 20
12.3299075224
 30
0.0
 10
11.9721144563
 20
12.333649961
 30
0.0
 10
11.9660582544
 20
12.3372947422
 30
0.0
 10
11.9594877626
 20
12.3408333307
 30
0.0
 10
11.9524185055
 20
12.3442574908
 30
0.0
 10
11.9448672312
 20
12.3475591509
 30
0.0
 10
11.9368518609
 20
12.3507303457
 30
0.0
 10
11.9283915386
 20
12.3537636328
 30
0.0
 10
11.9195064351
 20
12.3566515529
 30
0.0
 10
11.9102178577
 20
12.3593873141
 30
0.0
 10
11.9005480092
 20
12.3619642322
 30
0.0
 10
11.8869958425
 20
12.3652235987
 30
0.0
 10
11.8692651361
 20
12.3688380724
 30
0.0
 10
11.8471377026
 20
12.3723995178
 30
0.0
 10
11.8240944509
 20
12.3752062153
 30
0.0
 10
11.8003566191
 20
12.3772307769
 30
0.0
 10
11.7761519946
 20
12.3784535184
 30
0.0
 10
11.7598815974
 20
12.3787257203
 30
0.0
 10
11.7517122885
 20
12.3787257203
 30
0.0
  0
ENDSEC
  0
SECTION
  2
OBJECTS
  0
DICTIONARY
  5
C
100
AcDbDictionary
280
0
281
1
  3
ACAD_GROUP
350
D
  3
ACAD_MLINESTYLE
350
17
  3
ACAD_LAYOUT
350
1A
  3
ACAD_PLOTSETTINGS
350
19
  3
ACAD_PLOTSTYLENAME
350
E
  0
DICTIONARY
  5
D
102
{ACAD_REACTORS
330
C
102
}
100
AcDbDictionary
280
0
281
1
  0
ACDBDICTIONARYWDFLT
  5
E
102
{ACAD_REACTORS
330
C
102
}
100
AcDbDictionary
281
1
  3
Normal
350
F
100
AcDbDictionaryWithDefault
340
F
  0
DICTIONARY
  5
17
102
{ACAD_REACTORS
330
C
102
}
100
AcDbDictionary
280
0
281
1
  3
Standard
350
18
  0
DICTIONARY
  5
19
102
{ACAD_REACTORS
330
C
102
}
100
AcDbDictionary
281
1
  0
DICTIONARY
  5
1A
102
{ACAD_REACTORS
330
C
102
}
100
AcDbDictionary
281
1
  3
Model
350
27E
  3
Layout1
350
27F
  0
ACDBPLACEHOLDER
  5
F
102
{ACAD_REACTORS
330
E
102
}
  0
MLINESTYLE
  5
18
102
{ACAD_REACTORS
330
17
102
}
100
AcDbMlineStyle
  2
STANDARD
 70
0
  3

 62
256
 51
90.0
 52
90.0
 71
2
 49
0.5
 62
256
  6
BYLAYER
 49
-0.5
 62
256
  6
BYLAYER
  0
LAYOUT
  5
27E
102
{ACAD_REACTORS
330
1A
102
}
100
AcDbPlotSettings
  1

  2
none_device
  4
ANSI_C_(22.00_x_17.00_Inches)
  6

 40
0.0
 41
0.0
 42
0.0
 43
0.0
 44
558.8
 45
431.8
 46
0.0
 47
0.0
 48
0.0
 49
0.0
140
0.0
141
0.0
142
1.0
143
1.0
 70
1024
 72
0
 73
0
 74
0
  7

 75
0
147
1.0
148
0.0
149
0.0
100
AcDbLayout
  1
Model
 70
0
 71
0
 10
0.0
 20
0.0
 11
22.0
 21
17.0
 12
0.0
 22
0.0
 32
0.0
 14
0.0
 24
0.0
 34
0.0
 15
0.0
 25
0.0
 35
0.0
146
0.0
 13
0.0
 23
0.0
 33
0.0
 16
1.0
 26
0.0
 36
0.0
 17
0.0
 27
1.0
 37
0.0
 76
0
330
205
345
0
346
0
  0
LAYOUT
  5
27F
102
{ACAD_REACTORS
330
1A
102
}
100
AcDbPlotSettings
  1

  2
none_device
  4
ANSI_C_(22.00_x_17.00_Inches)
  6

 40
0.0
 41
0.0
 42
0.0
 43
0.0
 44
558.8
 45
431.8
 46
0.0
 47
0.0
 48
0.0
 49
0.0
140
0.0
141
0.0
142
1.0
143
1.0
 70
0
 72
0
 73
0
 74
0
  7

 75
0
147
1.0
148
0.0
149
0.0
100
AcDbLayout
  1
Layout1
 70
0
 71
1
 10
0.0
 20
0.0
 11
22.0
 21
17.0
 12
0.0
 22
0.0
 32
0.0
 14
0.0
 24
0.0
 34
0.0
 15
0.0
 25
0.0
 35
0.0
146
0.0
 13
0.0
 23
0.0
 33
0.0
 16
1.0
 26
0.0
 36
0.0
 17
0.0
 27
1.0
 37
0.0
 76
0
330
206
345
0
346
0
  0
ENDSEC
  0
EOF
