999
DXF file: E:\BT Custom\CADOUTPUT\_TOP.dxf
999
Pro/ENGINEER 2018400 by Parametric Technology Corporation
  0
SECTION
  2
HEADER
  9
$ACADVER
  1
AC1018
  9
$DWGCODEPAGE
  3
ANSI_1252
  9
$EXTMAX
 10
22.0
 20
17.0
 30
0.0
  9
$EXTMIN
 10
0.0
 20
0.0
 30
0.0
  9
$LIMMIN
 10
0.0
 20
0.0
  9
$LIMMAX
 10
22.0
 20
17.0
  9
$VIEWCTR
 10
11.0
 20
8.5
  9
$VIEWSIZE
 40
17.0
  9
$CLAYER
  8
0
  9
$LTSCALE
 40
1.21
  9
$CELTYPE
  6
BYLAYER
  9
$DIMSCALE
 40
1.0
  9
$DIMASZ
 40
0.1
  9
$DIMEXO
 40
0.0625
  9
$DIMDLI
 40
0.836
  9
$DIMEXE
 40
0.125
  9
$DIMCEN
 40
0.198
  9
$DIMLFAC
 40
1.0
  9
$DIMBLK
  1
_FILLED
  9
$DIMALT
 70
1
  9
$DIMALTD
 70
2
  9
$DIMALTTD
 70
2
  9
$DIMALTF
 40
25.4
  9
$DIMTXT
 40
0.08
  9
$DIMTOL
 70
1
  9
$DIMLIM
 70
0
  9
$DIMTFAC
 40
1.0
  9
$DIMTP
 40
0.001
  9
$DIMTM
 40
0.001
  9
$DIMGAP
 40
0.09
  9
$DIMDSEP
 70
46
  9
$AUNITS
 70
0
  9
$PDMODE
 70
3
  9
$PDSIZE
 40
0.06
  9
$HANDSEED
  5
29A
  9
$TILEMODE
 70
1
  9
$MEASUREMENT
 70
0
  9
$INSUNITS
 70
1
  0
ENDSEC
  0
SECTION
  2
CLASSES
  0
CLASS
  1
ACDBDICTIONARYWDFLT
  2
AcDbDictionaryWithDefault
  3
AutoCAD 2000
 90
0
 91
1
280
0
281
0
  0
CLASS
  1
ACDBPLACEHOLDER
  2
AcDbPlaceHolder
  3
AutoCAD 2000
 90
0
 91
1
280
0
281
0
  0
CLASS
  1
LAYOUT
  2
AcDbLayout
  3
AutoCAD 2000
 90
0
 91
0
280
0
281
0
  0
ENDSEC
  0
SECTION
  2
TABLES
  0
TABLE
  2
VPORT
  5
8
100
AcDbSymbolTable
 70
2
  0
VPORT
  5
1F4
100
AcDbSymbolTableRecord
100
AcDbViewportTableRecord
  2
*ACTIVE
 70
0
 10
0.0
 20
0.0
 11
1.0
 21
1.0
 12
11.0
 22
8.5
 13
0.0
 23
0.0
 14
1.0
 24
1.0
 15
0.0
 25
0.0
 16
0.0
 26
0.0
 36
1.0
 17
0.0
 27
0.0
 37
0.0
 40
17.0
 41
1.2941176471
 42
50.0
 43
0.0
 44
0.0
 50
0.0
 51
0.0
 71
0
 72
100
 73
1
 74
1
 75
0
 76
0
 77
0
 78
0
  0
ENDTAB
  0
TABLE
  2
LTYPE
  5
5
100
AcDbSymbolTable
 70
6
  0
LTYPE
  5
14
100
AcDbSymbolTableRecord
100
AcDbLinetypeTableRecord
  2
BYBLOCK
 70
0
  3

 72
65
 73
0
 40
0.0
  0
LTYPE
  5
15
100
AcDbSymbolTableRecord
100
AcDbLinetypeTableRecord
  2
BYLAYER
 70
0
  3

 72
65
 73
0
 40
0.0
  0
LTYPE
  5
16
100
AcDbSymbolTableRecord
100
AcDbLinetypeTableRecord
  2
CONTINUOUS
 70
64
  3
Solid line
 72
65
 73
0
 40
0.0
  0
LTYPE
  5
1F5
100
AcDbSymbolTableRecord
100
AcDbLinetypeTableRecord
  2
CENTER
 70
64
  3
____ _ ____ _ ____ _ ____ _ ____ _ ____ _ ____
 72
65
 73
4
 40
0.6
 49
0.375
 74
0
 49
-0.075
 74
0
 49
0.075
 74
0
 49
-0.075
 74
0
  0
LTYPE
  5
1F6
100
AcDbSymbolTableRecord
100
AcDbLinetypeTableRecord
  2
HIDDEN
 70
64
  3
- - - - - - - - - - - - - - - - - - - -
 72
65
 73
2
 40
0.2
 49
0.1
 74
0
 49
-0.1
 74
0
  0
LTYPE
  5
1F7
100
AcDbSymbolTableRecord
100
AcDbLinetypeTableRecord
  2
PHANTOM
 70
64
  3
_____ _ _ _____ _ _ _____ _ _ _____
 72
65
 73
6
 40
0.8
 49
0.45
 74
0
 49
-0.05
 74
0
 49
0.1
 74
0
 49
-0.05
 74
0
 49
0.1
 74
0
 49
-0.05
 74
0
  0
LTYPE
  5
1F8
100
AcDbSymbolTableRecord
100
AcDbLinetypeTableRecord
  2
DOT
 70
64
  3
. . . . . . . . . . . . . . . . . . . .
 72
65
 73
2
 40
0.2
 49
0.1
 74
0
 49
-0.1
 74
0
  0
LTYPE
  5
1F9
100
AcDbSymbolTableRecord
100
AcDbLinetypeTableRecord
  2
DASHED
 70
64
  3
- - - - - - - - - - - - - - - - - - - -
 72
65
 73
2
 40
0.2
 49
0.1
 74
0
 49
-0.1
 74
0
  0
ENDTAB
  0
TABLE
  2
LAYER
  5
2
100
AcDbSymbolTable
 70
36
  0
LAYER
  5
10
100
AcDbSymbolTableRecord
100
AcDbLayerTableRecord
  2
0
 70
0
 62
7
  6
CONTINUOUS
370
-3
390
F
  0
LAYER
  5
1FA
100
AcDbSymbolTableRecord
100
AcDbLayerTableRecord
  2
DEFAULT_1
 70
0
 62
7
  6
CENTER
370
-3
390
F
  0
LAYER
  5
1FB
100
AcDbSymbolTableRecord
100
AcDbLayerTableRecord
  2
DEFAULT_2
 70
0
 62
8
  6
HIDDEN
370
-3
390
F
  0
LAYER
  5
1FC
100
AcDbSymbolTableRecord
100
AcDbLayerTableRecord
  2
DEFAULT_3
 70
0
 62
7
  6
PHANTOM
370
-3
390
F
  0
LAYER
  5
1FD
100
AcDbSymbolTableRecord
100
AcDbLayerTableRecord
  2
ALL_FEATURES
 70
0
 62
7
  6
CONTINUOUS
370
-3
390
F
  0
LAYER
  5
1FE
100
AcDbSymbolTableRecord
100
AcDbLayerTableRecord
  2
AXES_FEATURES
 70
0
 62
7
  6
CONTINUOUS
370
-3
390
F
  0
LAYER
  5
1FF
100
AcDbSymbolTableRecord
100
AcDbLayerTableRecord
  2
DEFAULT_COORDINATE_SYSTEM
 70
0
 62
7
  6
CONTINUOUS
370
-3
390
F
  0
LAYER
  5
200
100
AcDbSymbolTableRecord
100
AcDbLayerTableRecord
  2
DEFAULT_DATUM_AXES
 70
0
 62
7
  6
CONTINUOUS
370
-3
390
F
  0
LAYER
  5
201
100
AcDbSymbolTableRecord
100
AcDbLayerTableRecord
  2
DEFAULT_DATUM_PLANES
 70
0
 62
7
  6
CONTINUOUS
370
-3
390
F
  0
LAYER
  5
202
100
AcDbSymbolTableRecord
100
AcDbLayerTableRecord
  2
DIMENSIONS
 70
0
 62
7
  6
CONTINUOUS
370
-3
390
F
  0
ENDTAB
  0
TABLE
  2
STYLE
  5
3
100
AcDbSymbolTable
 70
1
  0
STYLE
  5
11
100
AcDbSymbolTableRecord
100
AcDbTextStyleTableRecord
  2
STANDARD
 70
0
 40
0.0
 41
0.8
 50
0.0
 71
0
 42
0.2
  3
txt
  4

  0
STYLE
  5
203
100
AcDbSymbolTableRecord
100
AcDbTextStyleTableRecord
  2
TEXTSTYLE_1
 70
0
 40
0.0
 41
0.8
 50
0.0
 71
0
 42
0.2
  3
gdt
  4

  0
ENDTAB
  0
TABLE
  2
VIEW
  5
6
100
AcDbSymbolTable
 70
0
  0
ENDTAB
  0
TABLE
  2
UCS
  5
7
100
AcDbSymbolTable
 70
0
  0
ENDTAB
  0
TABLE
  2
APPID
  5
9
100
AcDbSymbolTable
 70
1
  0
APPID
  5
204
100
AcDbSymbolTableRecord
100
AcDbRegAppTableRecord
  2
ACAD
 70
0
  0
ENDTAB
  0
TABLE
  2
BLOCK_RECORD
  5
1
100
AcDbSymbolTable
 70
0
  0
BLOCK_RECORD
  5
205
100
AcDbSymbolTableRecord
100
AcDbBlockTableRecord
  2
*Model_Space
  0
BLOCK_RECORD
  5
206
100
AcDbSymbolTableRecord
100
AcDbBlockTableRecord
  2
*Paper_Space
  0
BLOCK_RECORD
  5
207
100
AcDbSymbolTableRecord
100
AcDbBlockTableRecord
  2
_FILLED
  0
ENDTAB
  0
TABLE
  2
DIMSTYLE
  5
A
100
AcDbSymbolTable
 70
1
100
AcDbDimStyleTable
 71
0
  0
DIMSTYLE
105
208
100
AcDbSymbolTableRecord
100
AcDbDimStyleTableRecord
  2
STANDARD
 70
0
  3

  4

 40
1.0
 41
0.1
 42
0.0625
 43
0.38
 44
0.125
 45
0.0
 46
0.0
 47
0.001
 48
0.001
140
0.08
141
0.09
142
0.0
143
25.4
144
1.0
145
0.0
146
1.0
147
0.09
 71
1.0
 72
0.0
 73
1
 74
1
 75
0
 76
0
 77
0
 78
4
 79
1
170
1
171
2
172
0
173
0
174
0
175
0
176
0
177
0
178
0
270
2
179
3
271
3
272
3
273
2
274
2
275
0
280
0
281
0
282
0
283
1
284
4
285
0
286
0
287
3
288
0
340
11
278
46
341
207
342
207
343
207
344
207
  0
ENDTAB
  0
ENDSEC
  0
SECTION
  2
BLOCKS
  0
BLOCK
  5
20
100
AcDbEntity
  8
0
100
AcDbBlockBegin
  2
*Model_Space
 70
0
 10
0.0
 20
0.0
 30
0.0
  3
*Model_Space
  1

  0
ENDBLK
  5
21
100
AcDbEntity
  8
0
100
AcDbBlockEnd
  0
BLOCK
  5
1C
100
AcDbEntity
  8
0
100
AcDbBlockBegin
  2
*Paper_Space
 70
0
 10
0.0
 20
0.0
 30
0.0
  3
*Paper_Space
  1

  0
ENDBLK
  5
1D
100
AcDbEntity
  8
0
100
AcDbBlockEnd
  0
BLOCK
  5
209
100
AcDbEntity
  8
0
100
AcDbBlockBegin
  2
_FILLED
 70
64
 10
0.0
 20
0.0
  3
_FILLED
  1

  0
SOLID
  5
20A
100
AcDbEntity
  8
0
  6
BYBLOCK
 62
0
100
AcDbTrace
 10
0.0
 20
0.0
 11
-1.0
 21
0.2
 12
-1.0
 22
-0.2
 13
-1.0
 23
-0.2
  0
ENDBLK
  5
20B
100
AcDbEntity
  8
0
  6
BYBLOCK
 62
0
100
AcDbBlockEnd
  0
ENDSEC
  0
SECTION
  2
ENTITIES
  0
LINE
  5
20C
100
AcDbEntity
  8
0
100
AcDbLine
 62
7
  6
CONTINUOUS
 10
9.1839783266
 20
9.4071475101
 11
9.1839783266
 21
10.0071475101
  0
LINE
  5
20D
100
AcDbEntity
  8
0
100
AcDbLine
 62
7
  6
CONTINUOUS
 10
9.4222784467
 20
9.4071478397
 11
9.4222784467
 21
10.0071475907
  0
LINE
  5
20E
100
AcDbEntity
  8
0
100
AcDbLine
 62
7
  6
CONTINUOUS
 10
9.4422784467
 20
9.4071475101
 11
9.4422784467
 21
10.0071475101
  0
LINE
  5
20F
100
AcDbEntity
  8
0
100
AcDbLine
 62
9
  6
CONTINUOUS
 10
9.8198725707
 20
9.2350764791
 11
9.8198725707
 21
10.179218541
  0
LINE
  5
210
100
AcDbEntity
  8
0
100
AcDbLine
 62
9
  6
CONTINUOUS
 10
9.9444732864
 20
9.2238141768
 11
9.9444732864
 21
10.1904808434
  0
LINE
  5
211
100
AcDbEntity
  8
0
100
AcDbLine
 62
9
  6
CONTINUOUS
 10
10.0149927721
 20
9.2078617958
 11
10.0149927721
 21
10.2064332244
  0
LINE
  5
212
100
AcDbEntity
  8
0
100
AcDbLine
 62
9
  6
CONTINUOUS
 10
10.229397501
 20
9.2078617958
 11
10.229397501
 21
10.2064332244
  0
LINE
  5
213
100
AcDbEntity
  8
0
100
AcDbLine
 62
9
  6
CONTINUOUS
 10
10.2722784467
 20
9.2321475101
 11
10.2722784467
 21
10.1821475101
  0
LINE
  5
214
100
AcDbEntity
  8
0
100
AcDbLine
 62
7
  6
CONTINUOUS
 10
10.7473183383
 20
9.1798057664
 11
10.7473183383
 21
8.9708318578
  0
LINE
  5
215
100
AcDbEntity
  8
0
100
AcDbLine
 62
7
  6
CONTINUOUS
 10
10.7663183383
 20
10.6258318578
 11
10.7663183383
 21
10.6618318578
  0
LINE
  5
216
100
AcDbEntity
  8
0
100
AcDbLine
 62
7
  6
CONTINUOUS
 10
10.7973183383
 20
8.8458318578
 11
10.7973183383
 21
4.5258318578
  0
LINE
  5
217
100
AcDbEntity
  8
0
100
AcDbLine
 62
7
  6
CONTINUOUS
 10
10.8448183383
 20
10.1588318578
 11
10.8448183383
 21
10.3128318578
  0
LINE
  5
218
100
AcDbEntity
  8
0
100
AcDbLine
 62
7
  6
CONTINUOUS
 10
10.8688183383
 20
10.5348318578
 11
10.8688183383
 21
10.5658318578
  0
LINE
  5
219
100
AcDbEntity
  8
0
100
AcDbLine
 62
7
  6
CONTINUOUS
 10
11.2258183383
 20
10.5348318578
 11
11.2258183383
 21
10.5658318578
  0
LINE
  5
21A
100
AcDbEntity
  8
0
100
AcDbLine
 62
7
  6
CONTINUOUS
 10
11.2498183383
 20
10.1588318578
 11
11.2498183383
 21
10.3128318578
  0
LINE
  5
21B
100
AcDbEntity
  8
0
100
AcDbLine
 62
7
  6
CONTINUOUS
 10
11.2973183383
 20
8.8458318578
 11
11.2973183383
 21
4.5258318578
  0
LINE
  5
21C
100
AcDbEntity
  8
0
100
AcDbLine
 62
7
  6
CONTINUOUS
 10
11.3283183383
 20
10.6258318578
 11
11.3283183383
 21
10.6618318578
  0
LINE
  5
21D
100
AcDbEntity
  8
0
100
AcDbLine
 62
7
  6
CONTINUOUS
 10
11.3473183383
 20
9.1798057664
 11
11.3473183383
 21
8.9708318578
  0
LINE
  5
21E
100
AcDbEntity
  8
0
100
AcDbLine
 62
9
  6
CONTINUOUS
 10
11.8223582298
 20
9.2321475101
 11
11.8223582298
 21
10.1821475101
  0
LINE
  5
21F
100
AcDbEntity
  8
0
100
AcDbLine
 62
9
  6
CONTINUOUS
 10
11.8652391756
 20
9.2078617958
 11
11.8652391756
 21
10.2064332244
  0
LINE
  5
220
100
AcDbEntity
  8
0
100
AcDbLine
 62
9
  6
CONTINUOUS
 10
11.2973183383
 20
8.2098318578
 11
10.7973183383
 21
8.2098318578
  0
LINE
  5
221
100
AcDbEntity
  8
0
100
AcDbLine
 62
9
  6
CONTINUOUS
 10
12.0796439045
 20
9.2078617958
 11
12.0796439045
 21
10.2064332244
  0
LINE
  5
222
100
AcDbEntity
  8
0
100
AcDbLine
 62
9
  6
CONTINUOUS
 10
12.1501633901
 20
9.2238141768
 11
12.1501633901
 21
10.1904808434
  0
LINE
  5
223
100
AcDbEntity
  8
0
100
AcDbLine
 62
9
  6
CONTINUOUS
 10
12.2747641059
 20
9.2350764791
 11
12.2747641059
 21
10.179218541
  0
LINE
  5
224
100
AcDbEntity
  8
0
100
AcDbLine
 62
7
  6
CONTINUOUS
 10
11.3473181701
 20
8.8458318578
 11
10.7473183383
 21
8.8458318578
  0
LINE
  5
225
100
AcDbEntity
  8
0
100
AcDbLine
 62
7
  6
CONTINUOUS
 10
12.6523582298
 20
9.4071475101
 11
12.6523582298
 21
10.0071475101
  0
LINE
  5
226
100
AcDbEntity
  8
0
100
AcDbLine
 62
7
  6
CONTINUOUS
 10
12.6723582298
 20
9.4071474295
 11
12.6723582298
 21
10.0071471805
  0
LINE
  5
227
100
AcDbEntity
  8
0
100
AcDbLine
 62
7
  6
CONTINUOUS
 10
11.3473183383
 20
8.9708318578
 11
10.7473183383
 21
8.9708318578
  0
LINE
  5
228
100
AcDbEntity
  8
0
100
AcDbLine
 62
9
  6
CONTINUOUS
 10
10.7473183383
 20
9.1798057664
 11
11.3473183383
 21
9.1798057664
  0
LINE
  5
229
100
AcDbEntity
  8
0
100
AcDbLine
 62
9
  6
CONTINUOUS
 10
10.7594805004
 20
9.2039265363
 11
11.3351561761
 21
9.2039265363
  0
LINE
  5
22A
100
AcDbEntity
  8
0
100
AcDbLine
 62
7
  6
CONTINUOUS
 10
11.8223582298
 20
9.2321475101
 11
11.6921807704
 21
9.2321475101
  0
LINE
  5
22B
100
AcDbEntity
  8
0
100
AcDbLine
 62
7
  6
CONTINUOUS
 10
10.2722784467
 20
9.2321475101
 11
10.4024559062
 21
9.2321475101
  0
LINE
  5
22C
100
AcDbEntity
  8
0
100
AcDbLine
 62
7
  6
CONTINUOUS
 10
12.9106583499
 20
9.4071475101
 11
12.9106583499
 21
10.0071475101
  0
LINE
  5
22D
100
AcDbEntity
  8
0
100
AcDbLine
 62
9
  6
CONTINUOUS
 10
10.7587533159
 20
9.3049594597
 11
11.3358833607
 21
9.3049594597
  0
LINE
  5
22E
100
AcDbEntity
  8
0
100
AcDbLine
 62
7
  6
CONTINUOUS
 10
12.9106583499
 20
9.4071475101
 11
12.6723582298
 21
9.4071475101
  0
LINE
  5
22F
100
AcDbEntity
  8
0
100
AcDbLine
 62
7
  6
CONTINUOUS
 10
9.1839783266
 20
9.4071475101
 11
9.4222784467
 21
9.4071475101
  0
LINE
  5
230
100
AcDbEntity
  8
0
100
AcDbLine
 62
7
  6
CONTINUOUS
 10
12.6723582298
 20
9.5571475101
 11
12.6523582298
 21
9.5571475101
  0
LINE
  5
231
100
AcDbEntity
  8
0
100
AcDbLine
 62
7
  6
CONTINUOUS
 10
9.4222784467
 20
9.5571475101
 11
9.4422784467
 21
9.5571475101
  0
LINE
  5
232
100
AcDbEntity
  8
0
100
AcDbLine
 62
7
  6
CONTINUOUS
 10
12.6723582298
 20
9.8571475101
 11
12.6523582298
 21
9.8571475101
  0
LINE
  5
233
100
AcDbEntity
  8
0
100
AcDbLine
 62
7
  6
CONTINUOUS
 10
9.4222784467
 20
9.8571475101
 11
9.4422784467
 21
9.8571475101
  0
LINE
  5
234
100
AcDbEntity
  8
0
100
AcDbLine
 62
7
  6
CONTINUOUS
 10
12.9106583499
 20
10.0071475101
 11
12.6723582298
 21
10.0071475101
  0
LINE
  5
235
100
AcDbEntity
  8
0
100
AcDbLine
 62
7
  6
CONTINUOUS
 10
9.1839783266
 20
10.0071475101
 11
9.4222784467
 21
10.0071475101
  0
LINE
  5
236
100
AcDbEntity
  8
0
100
AcDbLine
 62
7
  6
CONTINUOUS
 10
11.2498183383
 20
10.1588318578
 11
10.8448183383
 21
10.1588318578
  0
LINE
  5
237
100
AcDbEntity
  8
0
100
AcDbLine
 62
7
  6
CONTINUOUS
 10
11.8223582298
 20
10.1821475101
 11
11.6921807812
 21
10.1821475101
  0
LINE
  5
238
100
AcDbEntity
  8
0
100
AcDbLine
 62
7
  6
CONTINUOUS
 10
10.2722784467
 20
10.1821475101
 11
10.4024559088
 21
10.1821475101
  0
LINE
  5
239
100
AcDbEntity
  8
0
100
AcDbLine
 62
9
  6
CONTINUOUS
 10
11.2498183383
 20
10.3128318578
 11
10.8448183383
 21
10.3128318578
  0
LINE
  5
23A
100
AcDbEntity
  8
0
100
AcDbLine
 62
9
  6
CONTINUOUS
 10
11.2294402081
 20
10.3510355198
 11
10.8651964685
 21
10.3510355198
  0
LINE
  5
23B
100
AcDbEntity
  8
0
100
AcDbLine
 62
9
  6
CONTINUOUS
 10
11.21893327
 20
10.5197322365
 11
10.8757034065
 21
10.5197322365
  0
LINE
  5
23C
100
AcDbEntity
  8
0
100
AcDbLine
 62
9
  6
CONTINUOUS
 10
11.2258183383
 20
10.5348318578
 11
10.8688183383
 21
10.5348318578
  0
LINE
  5
23D
100
AcDbEntity
  8
0
100
AcDbLine
 62
7
  6
CONTINUOUS
 10
11.2683183383
 20
10.5658318578
 11
10.8263183383
 21
10.5658318578
  0
LINE
  5
23E
100
AcDbEntity
  8
0
100
AcDbLine
 62
9
  6
CONTINUOUS
 10
11.3283183383
 20
10.6258318578
 11
10.7663183383
 21
10.6258318578
  0
LINE
  5
23F
100
AcDbEntity
  8
0
100
AcDbLine
 62
9
  6
CONTINUOUS
 10
11.3283183383
 20
10.6618318578
 11
10.7663183383
 21
10.6618318578
  0
LINE
  5
240
100
AcDbEntity
  8
0
100
AcDbLine
 62
7
  6
CONTINUOUS
 10
11.2683183383
 20
10.7218318578
 11
10.8263183383
 21
10.7218318578
  0
LINE
  5
241
100
AcDbEntity
  8
0
100
AcDbLine
 62
7
  6
CONTINUOUS
 10
11.1603617755
 20
10.8088318578
 11
10.934274901
 21
10.8088318578
  0
ARC
  5
242
100
AcDbEntity
  8
0
100
AcDbCircle
 62
7
  6
CONTINUOUS
 10
9.3865998462
 20
8.7846325356
 40
0.625
100
AcDbArc
 50
46.1131560923
 51
84.888986226
  0
ARC
  5
243
100
AcDbEntity
  8
0
100
AcDbCircle
 62
7
  6
CONTINUOUS
 10
9.3865998462
 20
10.6296624846
 40
0.625
100
AcDbArc
 50
275.111013774
 51
313.8868439077
  0
ARC
  5
244
100
AcDbEntity
  8
0
100
AcDbCircle
 62
7
  6
CONTINUOUS
 10
8.8092784467
 20
9.7071475101
 40
0.48
100
AcDbArc
 50
38.6821874535
 51
321.3178125465
  0
CIRCLE
  5
245
100
AcDbEntity
  8
0
100
AcDbCircle
 62
7
  6
CONTINUOUS
 10
8.8092784467
 20
9.7071475101
 40
0.305
  0
ARC
  5
246
100
AcDbEntity
  8
0
100
AcDbCircle
 62
7
  6
CONTINUOUS
 10
10.1221951365
 20
9.2721475101
 40
0.125
100
AcDbArc
 50
210.9497230789
 51
329.0502769211
  0
ARC
  5
247
100
AcDbEntity
  8
0
100
AcDbCircle
 62
7
  6
CONTINUOUS
 10
10.1221951365
 20
10.1421475101
 40
0.125
100
AcDbArc
 50
30.9497230789
 51
149.0502769211
  0
ARC
  5
248
100
AcDbEntity
  8
0
100
AcDbCircle
 62
7
  6
CONTINUOUS
 10
10.8059319695
 20
10.4394022509
 40
0.1064
100
AcDbArc
 50
303.8483853713
 51
49.0237155137
  0
ARC
  5
249
100
AcDbEntity
  8
0
100
AcDbCircle
 62
7
  6
CONTINUOUS
 10
9.8891962066
 20
9.3071475101
 40
0.1
100
AcDbArc
 50
226.1131560923
 51
303.5573097619
  0
ARC
  5
24A
100
AcDbEntity
  8
0
100
AcDbCircle
 62
7
  6
CONTINUOUS
 10
9.8891962066
 20
10.1071475101
 40
0.1
100
AcDbArc
 50
56.4426902381
 51
133.8868439077
  0
ARC
  5
24B
100
AcDbEntity
  8
0
100
AcDbCircle
 62
7
  6
CONTINUOUS
 10
10.9573183383
 20
10.7218318578
 40
0.09
100
AcDbArc
 50
104.835111582
 51
180.0
  0
ARC
  5
24C
100
AcDbEntity
  8
0
100
AcDbCircle
 62
7
  6
CONTINUOUS
 10
10.7473183383
 20
8.9083318578
 40
0.0625
100
AcDbArc
 50
90.0
 51
270.0
  0
ARC
  5
24D
100
AcDbEntity
  8
0
100
AcDbCircle
 62
7
  6
CONTINUOUS
 10
10.7223183383
 20
9.2541781403
 40
0.0625
100
AcDbArc
 50
306.4837370614
 51
54.3410215756
  0
ARC
  5
24E
100
AcDbEntity
  8
0
100
AcDbCircle
 62
7
  6
CONTINUOUS
 10
10.8263183383
 20
10.6258318578
 40
0.06
100
AcDbArc
 50
180.0
 51
270.0
  0
ARC
  5
24F
100
AcDbEntity
  8
0
100
AcDbCircle
 62
7
  6
CONTINUOUS
 10
10.8263183383
 20
10.6618318578
 40
0.06
100
AcDbArc
 50
90.0
 51
180.0
  0
ARC
  5
250
100
AcDbEntity
  8
0
100
AcDbCircle
 62
7
  6
CONTINUOUS
 10
9.9721118263
 20
9.1821475101
 40
0.05
100
AcDbArc
 50
30.9497230789
 51
123.5573097619
  0
ARC
  5
251
100
AcDbEntity
  8
0
100
AcDbCircle
 62
7
  6
CONTINUOUS
 10
10.2722784467
 20
9.1821475101
 40
0.05
100
AcDbArc
 50
90.0
 51
149.0502769211
  0
ARC
  5
252
100
AcDbEntity
  8
0
100
AcDbCircle
 62
7
  6
CONTINUOUS
 10
9.9721118263
 20
10.2321475101
 40
0.05
100
AcDbArc
 50
236.4426902381
 51
329.0502769211
  0
ARC
  5
253
100
AcDbEntity
  8
0
100
AcDbCircle
 62
7
  6
CONTINUOUS
 10
10.2722784467
 20
10.2321475101
 40
0.05
100
AcDbArc
 50
210.9497230789
 51
270.0
  0
ARC
  5
254
100
AcDbEntity
  8
0
100
AcDbCircle
 62
7
  6
CONTINUOUS
 10
10.8908183383
 20
10.3128318578
 40
0.046
100
AcDbArc
 50
123.8483853713
 51
180.0
  0
ARC
  5
255
100
AcDbEntity
  8
0
100
AcDbCircle
 62
7
  6
CONTINUOUS
 10
10.7773183383
 20
9.1798057664
 40
0.03
100
AcDbArc
 50
126.4837370614
 51
180.0
  0
ARC
  5
256
100
AcDbEntity
  8
0
100
AcDbCircle
 62
7
  6
CONTINUOUS
 10
10.8888183383
 20
10.5348318578
 40
0.02
100
AcDbArc
 50
180.0
 51
229.0237155137
  0
ARC
  5
257
100
AcDbEntity
  8
0
100
AcDbCircle
 62
7
  6
CONTINUOUS
 10
11.0473183383
 20
4.5258318578
 40
0.37
100
AcDbArc
 50
132.5263805817
 51
47.4736194183
  0
ARC
  5
258
100
AcDbEntity
  8
0
100
AcDbCircle
 62
9
  6
CONTINUOUS
 10
11.0473183383
 20
4.5258318578
 40
0.3220833333
100
AcDbArc
 50
140.9304318852
 51
39.0695681148
  0
ARC
  5
259
100
AcDbEntity
  8
0
100
AcDbCircle
 62
7
  6
CONTINUOUS
 10
11.0473183383
 20
4.5258318578
 40
0.3125
100
AcDbArc
 50
143.1693050162
 51
36.8306949838
  0
ARC
  5
25A
100
AcDbEntity
  8
0
100
AcDbCircle
 62
7
  6
CONTINUOUS
 10
11.0473183383
 20
4.5258318578
 40
0.2925
100
AcDbArc
 50
148.7713599866
 51
31.2286400134
  0
ARC
  5
25B
100
AcDbEntity
  8
0
100
AcDbCircle
 62
7
  6
CONTINUOUS
 10
11.0473183383
 20
4.5258318578
 40
0.285
100
AcDbArc
 50
151.3573782189
 51
28.6426214769
  0
ARC
  5
25C
100
AcDbEntity
  8
0
100
AcDbCircle
 62
7
  6
CONTINUOUS
 10
11.0473183383
 20
4.5258318578
 40
0.25
100
AcDbArc
 50
180.0
 51
360.0
  0
ARC
  5
25D
100
AcDbEntity
  8
0
100
AcDbCircle
 62
7
  6
CONTINUOUS
 10
11.3473183383
 20
8.9083318578
 40
0.0625
100
AcDbArc
 50
270.0
 51
90.0
  0
ARC
  5
25E
100
AcDbEntity
  8
0
100
AcDbCircle
 62
7
  6
CONTINUOUS
 10
11.3723183383
 20
9.2541781403
 40
0.0625
100
AcDbArc
 50
125.6589784244
 51
233.5162629386
  0
ARC
  5
25F
100
AcDbEntity
  8
0
100
AcDbCircle
 62
7
  6
CONTINUOUS
 10
11.3173183383
 20
9.1798057664
 40
0.03
100
AcDbArc
 50
0.0
 51
53.5162629386
  0
ARC
  5
260
100
AcDbEntity
  8
0
100
AcDbCircle
 62
7
  6
CONTINUOUS
 10
11.0473183383
 20
9.7071475101
 40
1.1
100
AcDbArc
 50
97.2077682612
 51
149.5086300863
  0
ARC
  5
261
100
AcDbEntity
  8
0
100
AcDbCircle
 62
7
  6
CONTINUOUS
 10
11.0473183383
 20
9.7071475101
 40
1.1
100
AcDbArc
 50
30.4913699137
 51
82.7922317388
  0
ARC
  5
262
100
AcDbEntity
  8
0
100
AcDbCircle
 62
7
  6
CONTINUOUS
 10
11.0473183383
 20
9.7071475101
 40
1.1
100
AcDbArc
 50
210.4913699137
 51
256.86150242
  0
ARC
  5
263
100
AcDbEntity
  8
0
100
AcDbCircle
 62
7
  6
CONTINUOUS
 10
11.0473183383
 20
9.7071475101
 40
1.1
100
AcDbArc
 50
283.13849758
 51
329.5086300863
  0
ARC
  5
264
100
AcDbEntity
  8
0
100
AcDbCircle
 62
7
  6
CONTINUOUS
 10
11.0473183383
 20
9.7071475101
 40
0.9500926608
100
AcDbArc
 50
107.1411374466
 51
148.808192107
  0
ARC
  5
265
100
AcDbEntity
  8
0
100
AcDbCircle
 62
7
  6
CONTINUOUS
 10
11.0473183383
 20
9.7071475101
 40
0.9500926608
100
AcDbArc
 50
31.191807893
 51
72.8588625534
  0
ARC
  5
266
100
AcDbEntity
  8
0
100
AcDbCircle
 62
7
  6
CONTINUOUS
 10
11.0473183383
 20
9.7071475101
 40
0.9500926608
100
AcDbArc
 50
285.2602173993
 51
328.808192107
  0
ARC
  5
267
100
AcDbEntity
  8
0
100
AcDbCircle
 62
7
  6
CONTINUOUS
 10
11.0473183383
 20
9.7071475101
 40
0.9500926608
100
AcDbArc
 50
211.191807893
 51
254.7397826007
  0
ARC
  5
268
100
AcDbEntity
  8
0
100
AcDbCircle
 62
7
  6
CONTINUOUS
 10
11.0473183383
 20
9.7071475101
 40
0.81
100
AcDbArc
 50
215.9056984134
 51
246.3456631132
  0
ARC
  5
269
100
AcDbEntity
  8
0
100
AcDbCircle
 62
7
  6
CONTINUOUS
 10
11.0473183383
 20
9.7071475101
 40
0.81
100
AcDbArc
 50
293.6543368868
 51
324.0943015866
  0
ARC
  5
26A
100
AcDbEntity
  8
0
100
AcDbCircle
 62
7
  6
CONTINUOUS
 10
11.0473183383
 20
9.7071475101
 40
0.81
100
AcDbArc
 50
101.0570833186
 51
144.0943015866
  0
ARC
  5
26B
100
AcDbEntity
  8
0
100
AcDbCircle
 62
7
  6
CONTINUOUS
 10
11.0473183383
 20
9.7071475101
 40
0.81
100
AcDbArc
 50
35.9056984134
 51
78.9429166814
  0
ARC
  5
26C
100
AcDbEntity
  8
0
100
AcDbCircle
 62
7
  6
CONTINUOUS
 10
11.0473183383
 20
9.7071475101
 40
0.805
100
AcDbArc
 50
141.7380548581
 51
143.8183091341
  0
ARC
  5
26D
100
AcDbEntity
  8
0
100
AcDbCircle
 62
7
  6
CONTINUOUS
 10
11.0473183383
 20
9.7071475101
 40
0.805
100
AcDbArc
 50
36.1816908659
 51
38.2619454125
  0
ARC
  5
26E
100
AcDbEntity
  8
0
100
AcDbCircle
 62
7
  6
CONTINUOUS
 10
11.0473183383
 20
9.7071475101
 40
0.805
100
AcDbArc
 50
216.1816908659
 51
218.2619451815
  0
ARC
  5
26F
100
AcDbEntity
  8
0
100
AcDbCircle
 62
7
  6
CONTINUOUS
 10
11.0473183383
 20
9.7071475101
 40
0.805
100
AcDbArc
 50
321.738054535
 51
323.8183091341
  0
ARC
  5
270
100
AcDbEntity
  8
0
100
AcDbCircle
 62
7
  6
CONTINUOUS
 10
11.0473183383
 20
9.7071475101
 40
0.805
100
AcDbArc
 50
100.9055158203
 51
141.6021762933
  0
ARC
  5
271
100
AcDbEntity
  8
0
100
AcDbCircle
 62
7
  6
CONTINUOUS
 10
11.0473183383
 20
9.7071475101
 40
0.805
100
AcDbArc
 50
38.3978237067
 51
79.0944841797
  0
ARC
  5
272
100
AcDbEntity
  8
0
100
AcDbCircle
 62
7
  6
CONTINUOUS
 10
11.0473183383
 20
9.7071475101
 40
0.805
100
AcDbArc
 50
293.304579094
 51
321.6021762933
  0
ARC
  5
273
100
AcDbEntity
  8
0
100
AcDbCircle
 62
7
  6
CONTINUOUS
 10
11.0473183383
 20
9.7071475101
 40
0.805
100
AcDbArc
 50
218.3978237067
 51
246.695420906
  0
ARC
  5
274
100
AcDbEntity
  8
0
100
AcDbCircle
 62
7
  6
CONTINUOUS
 10
11.0473183383
 20
9.7071475101
 40
0.7
100
AcDbArc
 50
102.0850416793
 51
244.6130066043
  0
ARC
  5
275
100
AcDbEntity
  8
0
100
AcDbCircle
 62
7
  6
CONTINUOUS
 10
11.0473183383
 20
9.7071475101
 40
0.7
100
AcDbArc
 50
295.3869933957
 51
77.9149583207
  0
ARC
  5
276
100
AcDbEntity
  8
0
100
AcDbCircle
 62
7
  6
CONTINUOUS
 10
11.0473183383
 20
9.7071475101
 40
0.5255
100
AcDbArc
 50
112.6737148095
 51
240.0176182908
  0
ARC
  5
277
100
AcDbEntity
  8
0
100
AcDbCircle
 62
7
  6
CONTINUOUS
 10
11.0473183383
 20
9.7071475101
 40
0.5255
100
AcDbArc
 50
299.9823817092
 51
67.3262851905
  0
ARC
  5
278
100
AcDbEntity
  8
0
100
AcDbCircle
 62
7
  6
CONTINUOUS
 10
11.0473183383
 20
9.7071475101
 40
0.495
100
AcDbArc
 50
114.147739917
 51
234.3410215756
  0
ARC
  5
279
100
AcDbEntity
  8
0
100
AcDbCircle
 62
7
  6
CONTINUOUS
 10
11.0473183383
 20
9.7071475101
 40
0.495
100
AcDbArc
 50
305.6589784244
 51
65.852260083
  0
CIRCLE
  5
27A
100
AcDbEntity
  8
0
100
AcDbCircle
 62
7
  6
CONTINUOUS
 10
11.0473183383
 20
9.7071475101
 40
0.281
  0
CIRCLE
  5
27B
100
AcDbEntity
  8
0
100
AcDbCircle
 62
9
  6
CONTINUOUS
 10
11.0473183383
 20
9.7071475101
 40
0.221
  0
CIRCLE
  5
27C
100
AcDbEntity
  8
0
100
AcDbCircle
 62
7
  6
CONTINUOUS
 10
11.0473183383
 20
9.7071475101
 40
0.18
  0
CIRCLE
  5
27D
100
AcDbEntity
  8
0
100
AcDbCircle
 62
7
  6
CONTINUOUS
 10
11.0473183383
 20
9.7071475101
 40
0.1130434372
  0
ARC
  5
27E
100
AcDbEntity
  8
0
100
AcDbCircle
 62
7
  6
CONTINUOUS
 10
11.97244154
 20
9.2721475101
 40
0.125
100
AcDbArc
 50
210.9497230789
 51
329.0502769211
  0
ARC
  5
27F
100
AcDbEntity
  8
0
100
AcDbCircle
 62
7
  6
CONTINUOUS
 10
12.1225248502
 20
9.1821475101
 40
0.05
100
AcDbArc
 50
56.4426902381
 51
149.0502769211
  0
ARC
  5
280
100
AcDbEntity
  8
0
100
AcDbCircle
 62
7
  6
CONTINUOUS
 10
11.8223582298
 20
9.1821475101
 40
0.05
100
AcDbArc
 50
30.9497230789
 51
90.0
  0
ARC
  5
281
100
AcDbEntity
  8
0
100
AcDbCircle
 62
7
  6
CONTINUOUS
 10
11.97244154
 20
10.1421475101
 40
0.125
100
AcDbArc
 50
30.9497230789
 51
149.0502769211
  0
ARC
  5
282
100
AcDbEntity
  8
0
100
AcDbCircle
 62
7
  6
CONTINUOUS
 10
11.288704707
 20
10.4394022509
 40
0.1064
100
AcDbArc
 50
130.9762844863
 51
236.1516146287
  0
ARC
  5
283
100
AcDbEntity
  8
0
100
AcDbCircle
 62
7
  6
CONTINUOUS
 10
11.1373183383
 20
10.7218318578
 40
0.09
100
AcDbArc
 50
0.0
 51
75.164888418
  0
ARC
  5
284
100
AcDbEntity
  8
0
100
AcDbCircle
 62
7
  6
CONTINUOUS
 10
11.2683183383
 20
10.6258318578
 40
0.06
100
AcDbArc
 50
270.0
 51
360.0
  0
ARC
  5
285
100
AcDbEntity
  8
0
100
AcDbCircle
 62
7
  6
CONTINUOUS
 10
11.2683183383
 20
10.6618318578
 40
0.06
100
AcDbArc
 50
0.0
 51
90.0
  0
ARC
  5
286
100
AcDbEntity
  8
0
100
AcDbCircle
 62
7
  6
CONTINUOUS
 10
12.1225248502
 20
10.2321475101
 40
0.05
100
AcDbArc
 50
210.9497230789
 51
303.5573097619
  0
ARC
  5
287
100
AcDbEntity
  8
0
100
AcDbCircle
 62
7
  6
CONTINUOUS
 10
11.8223582298
 20
10.2321475101
 40
0.05
100
AcDbArc
 50
270.0
 51
329.0502769211
  0
ARC
  5
288
100
AcDbEntity
  8
0
100
AcDbCircle
 62
7
  6
CONTINUOUS
 10
11.2038183383
 20
10.3128318578
 40
0.046
100
AcDbArc
 50
0.0
 51
56.1516146287
  0
ARC
  5
289
100
AcDbEntity
  8
0
100
AcDbCircle
 62
7
  6
CONTINUOUS
 10
11.2058183383
 20
10.5348318578
 40
0.02
100
AcDbArc
 50
310.9762844863
 51
360.0
  0
ARC
  5
28A
100
AcDbEntity
  8
0
100
AcDbCircle
 62
7
  6
CONTINUOUS
 10
12.7080368304
 20
8.7846325356
 40
0.625
100
AcDbArc
 50
95.111013774
 51
133.8868439077
  0
ARC
  5
28B
100
AcDbEntity
  8
0
100
AcDbCircle
 62
7
  6
CONTINUOUS
 10
13.2853582298
 20
9.7071475101
 40
0.48
100
AcDbArc
 50
218.6821874535
 51
141.3178125465
  0
CIRCLE
  5
28C
100
AcDbEntity
  8
0
100
AcDbCircle
 62
7
  6
CONTINUOUS
 10
13.2853582298
 20
9.7071475101
 40
0.305
  0
ARC
  5
28D
100
AcDbEntity
  8
0
100
AcDbCircle
 62
7
  6
CONTINUOUS
 10
12.20544047
 20
9.3071475101
 40
0.1
100
AcDbArc
 50
236.4426902381
 51
313.8868439077
  0
ARC
  5
28E
100
AcDbEntity
  8
0
100
AcDbCircle
 62
7
  6
CONTINUOUS
 10
12.7080368304
 20
10.6296624846
 40
0.625
100
AcDbArc
 50
226.1131560923
 51
264.888986226
  0
ARC
  5
28F
100
AcDbEntity
  8
0
100
AcDbCircle
 62
7
  6
CONTINUOUS
 10
12.20544047
 20
10.1071475101
 40
0.1
100
AcDbArc
 50
46.1131560923
 51
123.5573097619
  0
SPLINE
  5
290
100
AcDbEntity
  8
0
100
AcDbSpline
 62
7
  6
CONTINUOUS
 70
0
 71
3
 72
58
 73
54
 74
0
 42
0.0000001
 43
0.0000001
 44
0.0000000001
 40
0.0
 40
0.0
 40
0.0
 40
0.0
 40
0.0952924063
 40
0.1896426354
 40
0.2821529635
 40
0.3719953031
 40
0.4584265796
 40
0.5407827973
 40
0.6184574919
 40
0.6553595874
 40
0.6908737706
 40
0.7249258631
 40
0.7574391517
 40
0.7883332935
 40
0.8175238204
 40
0.8449215605
 40
0.8704324447
 40
0.8939580813
 40
0.9153962802
 40
0.9253000662
 40
0.934642729
 40
0.9434113115
 40
0.9515929056
 40
0.9591747408
 40
0.9661447836
 40
0.9724911371
 40
0.9782025336
 40
0.9832688779
 40
0.9855570311
 40
0.9876802633
 40
0.9896376404
 40
0.991428259
 40
0.9930512145
 40
0.9945056015
 40
0.9957905621
 40
0.9969055195
 40
0.9978499984
 40
0.99825816
 40
0.9986235236
 40
0.9989460299
 40
0.9992256194
 40
0.9994622326
 40
0.9996558288
 40
0.9997364939
 40
0.9998064037
 40
0.9998655581
 40
0.9999139572
 40
0.9999516009
 40
0.9999784893
 40
0.9999879002
 40
0.9999946223
 40
0.9999986556
 40
1.0
 40
1.0
 40
1.0
 40
1.0
 10
11.810358251
 20
9.7071475101
 30
0.0
 10
11.810358251
 20
9.7237630685
 30
0.0
 10
11.8095564752
 20
9.7568355355
 30
0.0
 10
11.8059910886
 20
9.8059215433
 30
0.0
 10
11.8002041089
 20
9.8538386163
 30
0.0
 10
11.7924158403
 20
9.9000699703
 30
0.0
 10
11.7829109014
 20
9.9441680637
 30
0.0
 10
11.7720238528
 20
9.9857535688
 30
0.0
 10
11.7619432784
 20
10.0185893947
 30
0.0
 10
11.7535102544
 20
10.0433653373
 30
0.0
 10
11.747192282
 20
10.0608226379
 30
0.0
 10
11.7408259885
 20
10.0774451785
 30
0.0
 10
11.7344663114
 20
10.0932046324
 30
0.0
 10
11.7281697122
 20
10.108072784
 30
0.0
 10
11.7219938419
 20
10.1220211073
 30
0.0
 10
11.7159977151
 20
10.1350205145
 30
0.0
 10
11.7102413667
 20
10.1470411233
 30
0.0
 10
11.7047854382
 20
10.1580521245
 30
0.0
 10
11.7004321022
 20
10.1665714737
 30
0.0
 10
11.6971495075
 20
10.1728602647
 30
0.0
 10
11.6948661584
 20
10.1771785884
 30
0.0
 10
11.6927028259
 20
10.1812206183
 30
0.0
 10
11.6906665904
 20
10.1849823813
 30
0.0
 10
11.6887644566
 20
10.1884600908
 30
0.0
 10
11.6870028596
 20
10.1916498925
 30
0.0
 10
11.6853881339
 20
10.1945482097
 30
0.0
 10
11.6839262681
 20
10.1971516931
 30
0.0
 10
11.6828047698
 20
10.1991347579
 30
0.0
 10
11.6819883084
 20
10.2005715576
 30
0.0
 10
11.6814385155
 20
10.201536389
 30
0.0
 10
11.6809306527
 20
10.2024252645
 30
0.0
 10
11.6804651889
 20
10.2032378999
 30
0.0
 10
11.6800425892
 20
10.2039740152
 30
0.0
 10
11.6796633099
 20
10.2046333352
 30
0.0
 10
11.6793277919
 20
10.205215642
 30
0.0
 10
11.679036334
 20
10.2057207234
 30
0.0
 10
11.6788210582
 20
10.2060932554
 30
0.0
 10
11.6786710655
 20
10.2063525566
 30
0.0
 10
11.6785753335
 20
10.2065179585
 30
0.0
 10
11.6784907998
 20
10.2066639392
 30
0.0
 10
11.6784174944
 20
10.2067904803
 30
0.0
 10
11.678355446
 20
10.206897566
 30
0.0
 10
11.6783107879
 20
10.2069746412
 30
0.0
 10
11.6782807015
 20
10.2070265652
 30
0.0
 10
11.6782623689
 20
10.2070582078
 30
0.0
 10
11.6782468525
 20
10.2070849782
 30
0.0
 10
11.6782341691
 20
10.2071068926
 30
0.0
 10
11.6782242738
 20
10.207123908
 30
0.0
 10
11.6782178584
 20
10.2071351101
 30
0.0
 10
11.6782140326
 20
10.2071415382
 30
0.0
 10
11.6782123766
 20
10.2071446832
 30
0.0
 10
11.6782111302
 20
10.2071463276
 30
0.0
 10
11.6782108555
 20
10.2071473265
 30
0.0
 10
11.6782106577
 20
10.2071474523
 30
0.0
  0
SPLINE
  5
291
100
AcDbEntity
  8
0
100
AcDbSpline
 62
7
  6
CONTINUOUS
 70
0
 71
3
 72
58
 73
54
 74
0
 42
0.0000001
 43
0.0000001
 44
0.0000000001
 40
0.0
 40
0.0
 40
0.0
 40
0.0
 40
0.0952924069
 40
0.1896426364
 40
0.2821529644
 40
0.3719953033
 40
0.4584265794
 40
0.5407827967
 40
0.6184574911
 40
0.6553595868
 40
0.6908737707
 40
0.724925864
 40
0.757439153
 40
0.7883332952
 40
0.8175238229
 40
0.8449215625
 40
0.8704324461
 40
0.8939580826
 40
0.9153962805
 40
0.9253000661
 40
0.9346427289
 40
0.9434113117
 40
0.9515929061
 40
0.9591747411
 40
0.9661447835
 40
0.9724911369
 40
0.9782025334
 40
0.9832688779
 40
0.9855570313
 40
0.9876802636
 40
0.9896376406
 40
0.991428259
 40
0.9930512144
 40
0.9945056014
 40
0.9957905621
 40
0.9969055194
 40
0.9978499983
 40
0.9982581598
 40
0.9986235234
 40
0.9989460298
 40
0.9992256193
 40
0.9994622327
 40
0.999655829
 40
0.9997364941
 40
0.9998064038
 40
0.9998655582
 40
0.9999139573
 40
0.999951601
 40
0.9999784893
 40
0.9999879003
 40
0.9999946223
 40
0.9999986556
 40
1.0
 40
1.0
 40
1.0
 40
1.0
 10
10.2842784467
 20
9.7071475101
 30
0.0
 10
10.2842784467
 20
9.6905319516
 30
0.0
 10
10.2850801865
 20
9.6574594835
 30
0.0
 10
10.288645592
 20
9.6083734762
 30
0.0
 10
10.2944325669
 20
9.5604564033
 30
0.0
 10
10.3022208366
 20
9.5142250495
 30
0.0
 10
10.3117257751
 20
9.4701269564
 30
0.0
 10
10.3226128238
 20
9.4285414515
 30
0.0
 10
10.3326933981
 20
9.3957056257
 30
0.0
 10
10.3411264221
 20
9.370929683
 30
0.0
 10
10.3474443946
 20
9.3534723821
 30
0.0
 10
10.3538106883
 20
9.3368498413
 30
0.0
 10
10.3601703655
 20
9.321090387
 30
0.0
 10
10.3664669647
 20
9.3062222353
 30
0.0
 10
10.3726428352
 20
9.2922739118
 30
0.0
 10
10.3786389619
 20
9.2792745047
 30
0.0
 10
10.3843953102
 20
9.2672538961
 30
0.0
 10
10.3898512386
 20
9.2562428952
 30
0.0
 10
10.3942045745
 20
9.2477235462
 30
0.0
 10
10.3974871691
 20
9.2414347555
 30
0.0
 10
10.3997705182
 20
9.2371164318
 30
0.0
 10
10.4019338507
 20
9.2330744017
 30
0.0
 10
10.4039700862
 20
9.2293126387
 30
0.0
 10
10.4058722201
 20
9.2258349293
 30
0.0
 10
10.407633817
 20
9.2226451277
 30
0.0
 10
10.4092485427
 20
9.2197468106
 30
0.0
 10
10.4107104084
 20
9.2171433272
 30
0.0
 10
10.4118319067
 20
9.2151602623
 30
0.0
 10
10.4126483682
 20
9.2137234625
 30
0.0
 10
10.4131981612
 20
9.2127586311
 30
0.0
 10
10.413706024
 20
9.2118697556
 30
0.0
 10
10.4141714877
 20
9.2110571203
 30
0.0
 10
10.4145940874
 20
9.210321005
 30
0.0
 10
10.4149733666
 20
9.209661685
 30
0.0
 10
10.4153088847
 20
9.2090793782
 30
0.0
 10
10.4156003426
 20
9.2085742969
 30
0.0
 10
10.4158156183
 20
9.2082017649
 30
0.0
 10
10.415965611
 20
9.2079424636
 30
0.0
 10
10.416061343
 20
9.2077770617
 30
0.0
 10
10.4161458767
 20
9.207631081
 30
0.0
 10
10.4162191823
 20
9.2075045398
 30
0.0
 10
10.4162812301
 20
9.2073974544
 30
0.0
 10
10.4163258897
 20
9.2073203783
 30
0.0
 10
10.4163559738
 20
9.2072684558
 30
0.0
 10
10.4163743119
 20
9.2072368097
 30
0.0
 10
10.416389812
 20
9.2072100495
 30
0.0
 10
10.4164025404
 20
9.2071881067
 30
0.0
 10
10.4164123204
 20
9.2071711642
 30
0.0
 10
10.4164189748
 20
9.2071598112
 30
0.0
 10
10.4164224794
 20
9.2071535859
 30
0.0
 10
10.4164246632
 20
9.2071501076
 30
0.0
 10
10.4164249776
 20
9.2071490518
 30
0.0
 10
10.4164262174
 20
9.2071474434
 30
0.0
 10
10.4164260188
 20
9.2071475679
 30
0.0
  0
SPLINE
  5
292
100
AcDbEntity
  8
0
100
AcDbSpline
 62
7
  6
CONTINUOUS
 70
0
 71
3
 72
54
 73
50
 74
0
 42
0.0000001
 43
0.0000001
 44
0.0000000001
 40
0.0
 40
0.0
 40
0.0
 40
0.0
 40
0.0000053777
 40
0.0000215107
 40
0.0000483991
 40
0.0000860428
 40
0.0001344418
 40
0.0001935963
 40
0.0003441712
 40
0.0005377674
 40
0.0007743808
 40
0.0010539703
 40
0.0013764767
 40
0.0017418404
 40
0.0021500019
 40
0.0030944808
 40
0.0042094381
 40
0.0054943986
 40
0.0069487854
 40
0.0085717406
 40
0.0103623588
 40
0.0123197358
 40
0.0167311209
 40
0.0217974658
 40
0.0275088625
 40
0.0338552155
 40
0.0408252574
 40
0.0484070924
 40
0.0565886873
 40
0.0653572707
 40
0.0746999338
 40
0.0846037191
 40
0.1060419165
 40
0.1295675536
 40
0.1550784369
 40
0.1824761763
 40
0.2116667055
 40
0.2425608485
 40
0.2750741379
 40
0.3091262327
 40
0.3446404178
 40
0.3815425141
 40
0.4592172087
 40
0.541573426
 40
0.6280047021
 40
0.7178470407
 40
0.8103573673
 40
0.9047075954
 40
1.0
 40
1.0
 40
1.0
 40
1.0
 10
10.4164260189
 20
10.2071474523
 30
0.0
 10
10.416426658
 20
10.2071481384
 30
0.0
 10
10.4164220766
 20
10.2071412468
 30
0.0
 10
10.4164204553
 20
10.2071374677
 30
0.0
 10
10.4164119158
 20
10.2071232891
 30
0.0
 10
10.4164027017
 20
10.2071071394
 30
0.0
 10
10.4163897543
 20
10.2070848897
 30
0.0
 10
10.4163673114
 20
10.2070461104
 30
0.0
 10
10.4163319746
 20
10.2069851538
 30
0.0
 10
10.4162812398
 20
10.2068975788
 30
0.0
 10
10.4162191789
 20
10.2067904759
 30
0.0
 10
10.4161458778
 20
10.2066639407
 30
0.0
 10
10.4160613427
 20
10.206517958
 30
0.0
 10
10.4159656111
 20
10.2063525567
 30
0.0
 10
10.4158156182
 20
10.2060932552
 30
0.0
 10
10.4156003425
 20
10.2057207233
 30
0.0
 10
10.4153088846
 20
10.205215642
 30
0.0
 10
10.4149733667
 20
10.2046333352
 30
0.0
 10
10.4145940875
 20
10.2039740153
 30
0.0
 10
10.414171488
 20
10.2032379
 30
0.0
 10
10.4137060236
 20
10.2024252651
 30
0.0
 10
10.4130002393
 20
10.201189972
 30
0.0
 10
10.4120141607
 20
10.1994570047
 30
0.0
 10
10.4107104057
 20
10.1971516948
 30
0.0
 10
10.4092485436
 20
10.1945482092
 30
0.0
 10
10.4076338168
 20
10.1916498928
 30
0.0
 10
10.4058722203
 20
10.1884600912
 30
0.0
 10
10.4039700864
 20
10.1849823818
 30
0.0
 10
10.4019338508
 20
10.1812206186
 30
0.0
 10
10.3997705181
 20
10.1771785884
 30
0.0
 10
10.3974871691
 20
10.1728602646
 30
0.0
 10
10.3942045745
 20
10.1665714739
 30
0.0
 10
10.3898512386
 20
10.158052125
 30
0.0
 10
10.3843953102
 20
10.1470411241
 30
0.0
 10
10.3786389619
 20
10.1350205155
 30
0.0
 10
10.3726428351
 20
10.1220211082
 30
0.0
 10
10.3664669645
 20
10.1080727844
 30
0.0
 10
10.3601703651
 20
10.0932046322
 30
0.0
 10
10.3538106877
 20
10.0774451776
 30
0.0
 10
10.347444394
 20
10.0608226362
 30
0.0
 10
10.3411264212
 20
10.0433653348
 30
0.0
 10
10.3326933972
 20
10.0185893918
 30
0.0
 10
10.3226128229
 20
9.9857535658
 30
0.0
 10
10.3117257745
 20
9.9441680609
 30
0.0
 10
10.3022208359
 20
9.9000699678
 30
0.0
 10
10.2944325665
 20
9.8538386144
 30
0.0
 10
10.2886455918
 20
9.8059215419
 30
0.0
 10
10.2850801864
 20
9.7568355356
 30
0.0
 10
10.2842784467
 20
9.7237630682
 30
0.0
 10
10.2842784467
 20
9.7071475101
 30
0.0
  0
SPLINE
  5
293
100
AcDbEntity
  8
0
100
AcDbSpline
 62
7
  6
CONTINUOUS
 70
0
 71
3
 72
58
 73
54
 74
0
 42
0.0000001
 43
0.0000001
 44
0.0000000001
 40
0.0
 40
0.0
 40
0.0
 40
0.0
 40
0.0000013444
 40
0.0000053777
 40
0.0000120997
 40
0.0000215107
 40
0.000048399
 40
0.0000860427
 40
0.0001344418
 40
0.0001935962
 40
0.0002635059
 40
0.000344171
 40
0.0005377673
 40
0.0007743807
 40
0.0010539702
 40
0.0013764766
 40
0.0017418402
 40
0.0021500017
 40
0.0030944806
 40
0.0042094379
 40
0.0054943986
 40
0.0069487856
 40
0.008571741
 40
0.0103623594
 40
0.0123197364
 40
0.0144429688
 40
0.0167311221
 40
0.0217974667
 40
0.0275088632
 40
0.0338552166
 40
0.0408252589
 40
0.0484070939
 40
0.0565886884
 40
0.0653572713
 40
0.0746999341
 40
0.0846037197
 40
0.1060419177
 40
0.1295675543
 40
0.155078438
 40
0.1824761777
 40
0.2116667054
 40
0.2425608477
 40
0.2750741367
 40
0.30912623
 40
0.3446404138
 40
0.3815425096
 40
0.4592172038
 40
0.5415734209
 40
0.6280046968
 40
0.7178470354
 40
0.8103573633
 40
0.9047075925
 40
1.0
 40
1.0
 40
1.0
 40
1.0
 10
11.6782106577
 20
9.2071475679
 30
0.0
 10
11.6782104592
 20
9.2071474432
 30
0.0
 10
11.6782116989
 20
9.207149052
 30
0.0
 10
11.6782120135
 20
9.2071501074
 30
0.0
 10
11.6782141971
 20
9.2071535859
 30
0.0
 10
11.6782177018
 20
9.2071598112
 30
0.0
 10
11.6782243561
 20
9.2071711643
 30
0.0
 10
11.6782341362
 20
9.2071881067
 30
0.0
 10
11.6782468645
 20
9.2072100495
 30
0.0
 10
11.6782623647
 20
9.2072368097
 30
0.0
 10
11.6782807028
 20
9.2072684558
 30
0.0
 10
11.6783107869
 20
9.2073203783
 30
0.0
 10
11.6783554465
 20
9.2073974544
 30
0.0
 10
11.6784174943
 20
9.2075045398
 30
0.0
 10
11.6784907999
 20
9.207631081
 30
0.0
 10
11.6785753335
 20
9.2077770617
 30
0.0
 10
11.6786710656
 20
9.2079424636
 30
0.0
 10
11.6788210583
 20
9.2082017649
 30
0.0
 10
11.679036334
 20
9.2085742969
 30
0.0
 10
11.6793277919
 20
9.2090793782
 30
0.0
 10
11.67966331
 20
9.2096616851
 30
0.0
 10
11.6800425892
 20
9.210321005
 30
0.0
 10
11.6804651889
 20
9.2110571203
 30
0.0
 10
11.6809306526
 20
9.2118697557
 30
0.0
 10
11.6814385154
 20
9.2127586311
 30
0.0
 10
11.6819883084
 20
9.2137234625
 30
0.0
 10
11.6828047699
 20
9.2151602623
 30
0.0
 10
11.6839262682
 20
9.2171433272
 30
0.0
 10
11.6853881339
 20
9.2197468106
 30
0.0
 10
11.6870028596
 20
9.2226451277
 30
0.0
 10
11.6887644565
 20
9.2258349293
 30
0.0
 10
11.6906665904
 20
9.2293126388
 30
0.0
 10
11.6927028259
 20
9.2330744018
 30
0.0
 10
11.6948661585
 20
9.2371164319
 30
0.0
 10
11.6971495075
 20
9.2414347556
 30
0.0
 10
11.7004321022
 20
9.2477235464
 30
0.0
 10
11.7047854381
 20
9.2562428954
 30
0.0
 10
11.7102413665
 20
9.2672538963
 30
0.0
 10
11.7159977148
 20
9.279274505
 30
0.0
 10
11.7219938416
 20
9.2922739122
 30
0.0
 10
11.728169712
 20
9.3062222357
 30
0.0
 10
11.7344663112
 20
9.3210903875
 30
0.0
 10
11.7408259885
 20
9.3368498417
 30
0.0
 10
11.7471922821
 20
9.3534723826
 30
0.0
 10
11.7535102546
 20
9.3709296835
 30
0.0
 10
11.7619432786
 20
9.3957056261
 30
0.0
 10
11.7720238529
 20
9.4285414519
 30
0.0
 10
11.7829109015
 20
9.4701269567
 30
0.0
 10
11.7924158403
 20
9.5142250498
 30
0.0
 10
11.8002041088
 20
9.5604564035
 30
0.0
 10
11.8059910886
 20
9.6083734762
 30
0.0
 10
11.809556475
 20
9.6574594843
 30
0.0
 10
11.8103582513
 20
9.6905319514
 30
0.0
 10
11.8103582513
 20
9.7071475101
 30
0.0
  0
SPLINE
  5
294
100
AcDbEntity
  8
0
100
AcDbSpline
 62
9
  6
CONTINUOUS
 70
0
 71
3
 72
37
 73
33
 74
0
 42
0.0000001
 43
0.0000001
 44
0.0000000001
 40
0.0
 40
0.0
 40
0.0
 40
0.0
 40
0.007510696
 40
0.0150554105
 40
0.0226676233
 40
0.0303797975
 40
0.0462177763
 40
0.0628030605
 40
0.0803248897
 40
0.0989356569
 40
0.1187531478
 40
0.1398644411
 40
0.1623301486
 40
0.1861886653
 40
0.2114598228
 40
0.2381477639
 40
0.2662433138
 40
0.2957260808
 40
0.3265660067
 40
0.3587244918
 40
0.3921555411
 40
0.4268066965
 40
0.4626196814
 40
0.49953097
 40
0.5374724669
 40
0.5763719811
 40
0.6161535662
 40
0.6567379845
 40
0.7399808139
 40
0.8254189896
 40
0.9123365261
 40
1.0
 40
1.0
 40
1.0
 40
1.0
 10
11.2973183383
 20
6.203357037
 30
0.0
 10
11.2973183383
 20
6.2040569534
 30
0.0
 10
11.2972678501
 20
6.2054604762
 30
0.0
 10
11.2970409943
 20
6.2075623288
 30
0.0
 10
11.2966630733
 20
6.2096615515
 30
0.0
 10
11.2959521767
 20
6.212479198
 30
0.0
 10
11.2946704114
 20
6.2160051735
 30
0.0
 10
11.2925471808
 20
6.2201586645
 30
0.0
 10
11.2898332195
 20
6.2242646834
 30
0.0
 10
11.2865370972
 20
6.2283142494
 30
0.0
 10
11.282667677
 20
6.2322994573
 30
0.0
 10
11.2782345343
 20
6.2362120781
 30
0.0
 10
11.2732482481
 20
6.2400438444
 30
0.0
 10
11.26772053
 20
6.2437863385
 30
0.0
 10
11.2616643136
 20
6.2474310902
 30
0.0
 10
11.2550938216
 20
6.2509696831
 30
0.0
 10
11.2480245669
 20
6.2543938522
 30
0.0
 10
11.240473289
 20
6.2576954943
 30
0.0
 10
11.2324579252
 20
6.2608667232
 30
0.0
 10
11.2239975889
 20
6.2638999604
 30
0.0
 10
11.2151124981
 20
6.2667879287
 30
0.0
 10
11.2058239108
 20
6.2695236657
 30
0.0
 10
11.1961540838
 20
6.2721005659
 30
0.0
 10
11.1861262234
 20
6.2745124281
 30
0.0
 10
11.1757644038
 20
6.27675343
 30
0.0
 10
11.1650935226
 20
6.2788181326
 30
0.0
 10
11.154139194
 20
6.2807015871
 30
0.0
 10
11.139063593
 20
6.2829842287
 30
0.0
 10
11.1197004037
 20
6.285342545
 30
0.0
 10
11.0959627089
 20
6.2873671541
 30
0.0
 10
11.0717580462
 20
6.2885898579
 30
0.0
 10
11.0554876353
 20
6.2888620728
 30
0.0
 10
11.0473183383
 20
6.2888620728
 30
0.0
  0
SPLINE
  5
295
100
AcDbEntity
  8
0
100
AcDbSpline
 62
9
  6
CONTINUOUS
 70
0
 71
3
 72
37
 73
33
 74
0
 42
0.0000001
 43
0.0000001
 44
0.0000000001
 40
0.0
 40
0.0
 40
0.0
 40
0.0
 40
0.007510696
 40
0.0150554105
 40
0.0226676233
 40
0.0303797975
 40
0.0462177763
 40
0.0628030605
 40
0.0803248897
 40
0.0989356569
 40
0.1187531478
 40
0.1398644411
 40
0.1623301486
 40
0.1861886653
 40
0.2114598228
 40
0.2381477639
 40
0.2662433138
 40
0.2957260808
 40
0.3265660067
 40
0.3587244918
 40
0.3921555411
 40
0.4268066965
 40
0.4626196814
 40
0.49953097
 40
0.5374724669
 40
0.5763719811
 40
0.6161535662
 40
0.6567379845
 40
0.7399808139
 40
0.8254189896
 40
0.9123365261
 40
1.0
 40
1.0
 40
1.0
 40
1.0
 10
11.2973183383
 20
7.7823066787
 30
0.0
 10
11.2973183383
 20
7.7830065951
 30
0.0
 10
11.2972678501
 20
7.7844101179
 30
0.0
 10
11.2970409943
 20
7.7865119705
 30
0.0
 10
11.2966630733
 20
7.7886111932
 30
0.0
 10
11.2959521767
 20
7.7914288397
 30
0.0
 10
11.2946704114
 20
7.7949548152
 30
0.0
 10
11.2925471808
 20
7.7991083062
 30
0.0
 10
11.2898332195
 20
7.8032143251
 30
0.0
 10
11.2865370972
 20
7.8072638911
 30
0.0
 10
11.282667677
 20
7.8112490989
 30
0.0
 10
11.2782345343
 20
7.8151617198
 30
0.0
 10
11.2732482481
 20
7.818993486
 30
0.0
 10
11.26772053
 20
7.8227359802
 30
0.0
 10
11.2616643136
 20
7.8263807318
 30
0.0
 10
11.2550938216
 20
7.8299193247
 30
0.0
 10
11.2480245669
 20
7.8333434939
 30
0.0
 10
11.240473289
 20
7.8366451359
 30
0.0
 10
11.2324579252
 20
7.8398163649
 30
0.0
 10
11.2239975889
 20
7.8428496021
 30
0.0
 10
11.2151124981
 20
7.8457375704
 30
0.0
 10
11.2058239108
 20
7.8484733074
 30
0.0
 10
11.1961540838
 20
7.8510502076
 30
0.0
 10
11.1861262234
 20
7.8534620698
 30
0.0
 10
11.1757644038
 20
7.8557030717
 30
0.0
 10
11.1650935226
 20
7.8577677743
 30
0.0
 10
11.154139194
 20
7.8596512288
 30
0.0
 10
11.139063593
 20
7.8619338704
 30
0.0
 10
11.1197004037
 20
7.8642921867
 30
0.0
 10
11.0959627089
 20
7.8663167957
 30
0.0
 10
11.0717580462
 20
7.8675394996
 30
0.0
 10
11.0554876353
 20
7.8678117145
 30
0.0
 10
11.0473183383
 20
7.8678117145
 30
0.0
  0
SPLINE
  5
296
100
AcDbEntity
  8
0
100
AcDbSpline
 62
9
  6
CONTINUOUS
 70
0
 71
3
 72
37
 73
33
 74
0
 42
0.0000001
 43
0.0000001
 44
0.0000000001
 40
0.0
 40
0.0
 40
0.0
 40
0.0
 40
0.0876634739
 40
0.1745810104
 40
0.2600191861
 40
0.3432620155
 40
0.3838464338
 40
0.4236280189
 40
0.4625275331
 40
0.50046903
 40
0.5373803186
 40
0.5731933035
 40
0.6078444589
 40
0.6412755082
 40
0.6734339933
 40
0.7042739192
 40
0.7337566862
 40
0.7618522361
 40
0.7885401772
 40
0.8138113347
 40
0.8376698514
 40
0.8601355589
 40
0.8812468522
 40
0.9010643431
 40
0.9196751103
 40
0.9371969395
 40
0.9537822237
 40
0.9696202025
 40
0.9773323767
 40
0.9849445895
 40
0.992489304
 40
1.0
 40
1.0
 40
1.0
 40
1.0
 10
11.0473183383
 20
7.8678117145
 30
0.0
 10
11.0391490413
 20
7.8678117145
 30
0.0
 10
11.0228786304
 20
7.8675394996
 30
0.0
 10
10.9986739677
 20
7.8663167957
 30
0.0
 10
10.9749362729
 20
7.8642921867
 30
0.0
 10
10.9555730836
 20
7.8619338704
 30
0.0
 10
10.9404974825
 20
7.8596512288
 30
0.0
 10
10.929543154
 20
7.8577677743
 30
0.0
 10
10.9188722728
 20
7.8557030717
 30
0.0
 10
10.9085104531
 20
7.8534620698
 30
0.0
 10
10.8984825928
 20
7.8510502076
 30
0.0
 10
10.8888127658
 20
7.8484733074
 30
0.0
 10
10.8795241785
 20
7.8457375704
 30
0.0
 10
10.8706390877
 20
7.8428496021
 30
0.0
 10
10.8621787513
 20
7.8398163649
 30
0.0
 10
10.8541633875
 20
7.8366451359
 30
0.0
 10
10.8466121097
 20
7.8333434939
 30
0.0
 10
10.8395428549
 20
7.8299193247
 30
0.0
 10
10.832972363
 20
7.8263807318
 30
0.0
 10
10.8269161466
 20
7.8227359802
 30
0.0
 10
10.8213884285
 20
7.818993486
 30
0.0
 10
10.8164021423
 20
7.8151617198
 30
0.0
 10
10.8119689996
 20
7.8112490989
 30
0.0
 10
10.8080995794
 20
7.8072638911
 30
0.0
 10
10.8048034571
 20
7.8032143251
 30
0.0
 10
10.8020894958
 20
7.7991083062
 30
0.0
 10
10.7999662651
 20
7.7949548152
 30
0.0
 10
10.7986844999
 20
7.7914288397
 30
0.0
 10
10.7979736033
 20
7.7886111932
 30
0.0
 10
10.7975956823
 20
7.7865119705
 30
0.0
 10
10.7973688265
 20
7.7844101179
 30
0.0
 10
10.7973183383
 20
7.7830065951
 30
0.0
 10
10.7973183383
 20
7.7823066787
 30
0.0
  0
SPLINE
  5
297
100
AcDbEntity
  8
0
100
AcDbSpline
 62
9
  6
CONTINUOUS
 70
0
 71
3
 72
37
 73
33
 74
0
 42
0.0000001
 43
0.0000001
 44
0.0000000001
 40
0.0
 40
0.0
 40
0.0
 40
0.0
 40
0.0876634739
 40
0.1745810104
 40
0.2600191861
 40
0.3432620155
 40
0.3838464338
 40
0.4236280189
 40
0.4625275331
 40
0.50046903
 40
0.5373803186
 40
0.5731933035
 40
0.6078444589
 40
0.6412755082
 40
0.6734339933
 40
0.7042739192
 40
0.7337566862
 40
0.7618522361
 40
0.7885401772
 40
0.8138113347
 40
0.8376698514
 40
0.8601355589
 40
0.8812468522
 40
0.9010643431
 40
0.9196751103
 40
0.9371969395
 40
0.9537822237
 40
0.9696202025
 40
0.9773323767
 40
0.9849445895
 40
0.992489304
 40
1.0
 40
1.0
 40
1.0
 40
1.0
 10
11.0473183383
 20
6.2888620728
 30
0.0
 10
11.0391490413
 20
6.2888620728
 30
0.0
 10
11.0228786304
 20
6.2885898579
 30
0.0
 10
10.9986739677
 20
6.2873671541
 30
0.0
 10
10.9749362729
 20
6.285342545
 30
0.0
 10
10.9555730836
 20
6.2829842287
 30
0.0
 10
10.9404974825
 20
6.2807015871
 30
0.0
 10
10.929543154
 20
6.2788181326
 30
0.0
 10
10.9188722728
 20
6.27675343
 30
0.0
 10
10.9085104531
 20
6.2745124281
 30
0.0
 10
10.8984825928
 20
6.2721005659
 30
0.0
 10
10.8888127658
 20
6.2695236657
 30
0.0
 10
10.8795241785
 20
6.2667879287
 30
0.0
 10
10.8706390877
 20
6.2638999604
 30
0.0
 10
10.8621787513
 20
6.2608667232
 30
0.0
 10
10.8541633875
 20
6.2576954943
 30
0.0
 10
10.8466121097
 20
6.2543938522
 30
0.0
 10
10.8395428549
 20
6.2509696831
 30
0.0
 10
10.832972363
 20
6.2474310902
 30
0.0
 10
10.8269161466
 20
6.2437863385
 30
0.0
 10
10.8213884285
 20
6.2400438444
 30
0.0
 10
10.8164021423
 20
6.2362120781
 30
0.0
 10
10.8119689996
 20
6.2322994573
 30
0.0
 10
10.8080995794
 20
6.2283142494
 30
0.0
 10
10.8048034571
 20
6.2242646834
 30
0.0
 10
10.8020894958
 20
6.2201586645
 30
0.0
 10
10.7999662651
 20
6.2160051735
 30
0.0
 10
10.7986844999
 20
6.212479198
 30
0.0
 10
10.7979736033
 20
6.2096615515
 30
0.0
 10
10.7975956823
 20
6.2075623288
 30
0.0
 10
10.7973688265
 20
6.2054604762
 30
0.0
 10
10.7973183383
 20
6.2040569534
 30
0.0
 10
10.7973183383
 20
6.203357037
 30
0.0
  0
ENDSEC
  0
SECTION
  2
OBJECTS
  0
DICTIONARY
  5
C
100
AcDbDictionary
280
0
281
1
  3
ACAD_GROUP
350
D
  3
ACAD_MLINESTYLE
350
17
  3
ACAD_LAYOUT
350
1A
  3
ACAD_PLOTSETTINGS
350
19
  3
ACAD_PLOTSTYLENAME
350
E
  0
DICTIONARY
  5
D
102
{ACAD_REACTORS
330
C
102
}
100
AcDbDictionary
280
0
281
1
  0
ACDBDICTIONARYWDFLT
  5
E
102
{ACAD_REACTORS
330
C
102
}
100
AcDbDictionary
281
1
  3
Normal
350
F
100
AcDbDictionaryWithDefault
340
F
  0
DICTIONARY
  5
17
102
{ACAD_REACTORS
330
C
102
}
100
AcDbDictionary
280
0
281
1
  3
Standard
350
18
  0
DICTIONARY
  5
19
102
{ACAD_REACTORS
330
C
102
}
100
AcDbDictionary
281
1
  0
DICTIONARY
  5
1A
102
{ACAD_REACTORS
330
C
102
}
100
AcDbDictionary
281
1
  3
Model
350
298
  3
Layout1
350
299
  0
ACDBPLACEHOLDER
  5
F
102
{ACAD_REACTORS
330
E
102
}
  0
MLINESTYLE
  5
18
102
{ACAD_REACTORS
330
17
102
}
100
AcDbMlineStyle
  2
STANDARD
 70
0
  3

 62
256
 51
90.0
 52
90.0
 71
2
 49
0.5
 62
256
  6
BYLAYER
 49
-0.5
 62
256
  6
BYLAYER
  0
LAYOUT
  5
298
102
{ACAD_REACTORS
330
1A
102
}
100
AcDbPlotSettings
  1

  2
none_device
  4
ANSI_C_(22.00_x_17.00_Inches)
  6

 40
0.0
 41
0.0
 42
0.0
 43
0.0
 44
558.8
 45
431.8
 46
0.0
 47
0.0
 48
0.0
 49
0.0
140
0.0
141
0.0
142
1.0
143
1.0
 70
1024
 72
0
 73
0
 74
0
  7

 75
0
147
1.0
148
0.0
149
0.0
100
AcDbLayout
  1
Model
 70
0
 71
0
 10
0.0
 20
0.0
 11
22.0
 21
17.0
 12
0.0
 22
0.0
 32
0.0
 14
0.0
 24
0.0
 34
0.0
 15
0.0
 25
0.0
 35
0.0
146
0.0
 13
0.0
 23
0.0
 33
0.0
 16
1.0
 26
0.0
 36
0.0
 17
0.0
 27
1.0
 37
0.0
 76
0
330
205
345
0
346
0
  0
LAYOUT
  5
299
102
{ACAD_REACTORS
330
1A
102
}
100
AcDbPlotSettings
  1

  2
none_device
  4
ANSI_C_(22.00_x_17.00_Inches)
  6

 40
0.0
 41
0.0
 42
0.0
 43
0.0
 44
558.8
 45
431.8
 46
0.0
 47
0.0
 48
0.0
 49
0.0
140
0.0
141
0.0
142
1.0
143
1.0
 70
0
 72
0
 73
0
 74
0
  7

 75
0
147
1.0
148
0.0
149
0.0
100
AcDbLayout
  1
Layout1
 70
0
 71
1
 10
0.0
 20
0.0
 11
22.0
 21
17.0
 12
0.0
 22
0.0
 32
0.0
 14
0.0
 24
0.0
 34
0.0
 15
0.0
 25
0.0
 35
0.0
146
0.0
 13
0.0
 23
0.0
 33
0.0
 16
1.0
 26
0.0
 36
0.0
 17
0.0
 27
1.0
 37
0.0
 76
0
330
206
345
0
346
0
  0
ENDSEC
  0
EOF
