999
DXF file: E:\BT Custom\CADOUTPUT\_TOP.dxf
999
Pro/ENGINEER 2018400 by Parametric Technology Corporation
  0
SECTION
  2
HEADER
  9
$ACADVER
  1
AC1018
  9
$DWGCODEPAGE
  3
ANSI_1252
  9
$EXTMAX
 10
22.0
 20
17.0
 30
0.0
  9
$EXTMIN
 10
0.0
 20
0.0
 30
0.0
  9
$LIMMIN
 10
0.0
 20
0.0
  9
$LIMMAX
 10
22.0
 20
17.0
  9
$VIEWCTR
 10
11.0
 20
8.5
  9
$VIEWSIZE
 40
17.0
  9
$CLAYER
  8
0
  9
$LTSCALE
 40
1.21
  9
$CELTYPE
  6
BYLAYER
  9
$DIMSCALE
 40
1.0
  9
$DIMASZ
 40
0.1
  9
$DIMEXO
 40
0.0625
  9
$DIMDLI
 40
0.836
  9
$DIMEXE
 40
0.125
  9
$DIMCEN
 40
0.198
  9
$DIMLFAC
 40
1.0
  9
$DIMBLK
  1
_FILLED
  9
$DIMALT
 70
1
  9
$DIMALTD
 70
2
  9
$DIMALTTD
 70
2
  9
$DIMALTF
 40
25.4
  9
$DIMTXT
 40
0.08
  9
$DIMTOL
 70
1
  9
$DIMLIM
 70
0
  9
$DIMTFAC
 40
1.0
  9
$DIMTP
 40
0.001
  9
$DIMTM
 40
0.001
  9
$DIMGAP
 40
0.09
  9
$DIMDSEP
 70
46
  9
$AUNITS
 70
0
  9
$PDMODE
 70
3
  9
$PDSIZE
 40
0.06
  9
$HANDSEED
  5
278
  9
$TILEMODE
 70
1
  9
$MEASUREMENT
 70
0
  9
$INSUNITS
 70
1
  0
ENDSEC
  0
SECTION
  2
CLASSES
  0
CLASS
  1
ACDBDICTIONARYWDFLT
  2
AcDbDictionaryWithDefault
  3
AutoCAD 2000
 90
0
 91
1
280
0
281
0
  0
CLASS
  1
ACDBPLACEHOLDER
  2
AcDbPlaceHolder
  3
AutoCAD 2000
 90
0
 91
1
280
0
281
0
  0
CLASS
  1
LAYOUT
  2
AcDbLayout
  3
AutoCAD 2000
 90
0
 91
0
280
0
281
0
  0
ENDSEC
  0
SECTION
  2
TABLES
  0
TABLE
  2
VPORT
  5
8
100
AcDbSymbolTable
 70
2
  0
VPORT
  5
1F4
100
AcDbSymbolTableRecord
100
AcDbViewportTableRecord
  2
*ACTIVE
 70
0
 10
0.0
 20
0.0
 11
1.0
 21
1.0
 12
11.0
 22
8.5
 13
0.0
 23
0.0
 14
1.0
 24
1.0
 15
0.0
 25
0.0
 16
0.0
 26
0.0
 36
1.0
 17
0.0
 27
0.0
 37
0.0
 40
17.0
 41
1.2941176471
 42
50.0
 43
0.0
 44
0.0
 50
0.0
 51
0.0
 71
0
 72
100
 73
1
 74
1
 75
0
 76
0
 77
0
 78
0
  0
ENDTAB
  0
TABLE
  2
LTYPE
  5
5
100
AcDbSymbolTable
 70
6
  0
LTYPE
  5
14
100
AcDbSymbolTableRecord
100
AcDbLinetypeTableRecord
  2
BYBLOCK
 70
0
  3

 72
65
 73
0
 40
0.0
  0
LTYPE
  5
15
100
AcDbSymbolTableRecord
100
AcDbLinetypeTableRecord
  2
BYLAYER
 70
0
  3

 72
65
 73
0
 40
0.0
  0
LTYPE
  5
16
100
AcDbSymbolTableRecord
100
AcDbLinetypeTableRecord
  2
CONTINUOUS
 70
64
  3
Solid line
 72
65
 73
0
 40
0.0
  0
LTYPE
  5
1F5
100
AcDbSymbolTableRecord
100
AcDbLinetypeTableRecord
  2
CENTER
 70
64
  3
____ _ ____ _ ____ _ ____ _ ____ _ ____ _ ____
 72
65
 73
4
 40
0.6
 49
0.375
 74
0
 49
-0.075
 74
0
 49
0.075
 74
0
 49
-0.075
 74
0
  0
LTYPE
  5
1F6
100
AcDbSymbolTableRecord
100
AcDbLinetypeTableRecord
  2
HIDDEN
 70
64
  3
- - - - - - - - - - - - - - - - - - - -
 72
65
 73
2
 40
0.2
 49
0.1
 74
0
 49
-0.1
 74
0
  0
LTYPE
  5
1F7
100
AcDbSymbolTableRecord
100
AcDbLinetypeTableRecord
  2
PHANTOM
 70
64
  3
_____ _ _ _____ _ _ _____ _ _ _____
 72
65
 73
6
 40
0.8
 49
0.45
 74
0
 49
-0.05
 74
0
 49
0.1
 74
0
 49
-0.05
 74
0
 49
0.1
 74
0
 49
-0.05
 74
0
  0
LTYPE
  5
1F8
100
AcDbSymbolTableRecord
100
AcDbLinetypeTableRecord
  2
DOT
 70
64
  3
. . . . . . . . . . . . . . . . . . . .
 72
65
 73
2
 40
0.2
 49
0.1
 74
0
 49
-0.1
 74
0
  0
LTYPE
  5
1F9
100
AcDbSymbolTableRecord
100
AcDbLinetypeTableRecord
  2
DASHED
 70
64
  3
- - - - - - - - - - - - - - - - - - - -
 72
65
 73
2
 40
0.2
 49
0.1
 74
0
 49
-0.1
 74
0
  0
ENDTAB
  0
TABLE
  2
LAYER
  5
2
100
AcDbSymbolTable
 70
36
  0
LAYER
  5
10
100
AcDbSymbolTableRecord
100
AcDbLayerTableRecord
  2
0
 70
0
 62
7
  6
CONTINUOUS
370
-3
390
F
  0
LAYER
  5
1FA
100
AcDbSymbolTableRecord
100
AcDbLayerTableRecord
  2
DEFAULT_1
 70
0
 62
7
  6
CENTER
370
-3
390
F
  0
LAYER
  5
1FB
100
AcDbSymbolTableRecord
100
AcDbLayerTableRecord
  2
DEFAULT_2
 70
0
 62
8
  6
HIDDEN
370
-3
390
F
  0
LAYER
  5
1FC
100
AcDbSymbolTableRecord
100
AcDbLayerTableRecord
  2
DEFAULT_3
 70
0
 62
7
  6
PHANTOM
370
-3
390
F
  0
LAYER
  5
1FD
100
AcDbSymbolTableRecord
100
AcDbLayerTableRecord
  2
ALL_FEATURES
 70
0
 62
7
  6
CONTINUOUS
370
-3
390
F
  0
LAYER
  5
1FE
100
AcDbSymbolTableRecord
100
AcDbLayerTableRecord
  2
AXES_FEATURES
 70
0
 62
7
  6
CONTINUOUS
370
-3
390
F
  0
LAYER
  5
1FF
100
AcDbSymbolTableRecord
100
AcDbLayerTableRecord
  2
DEFAULT_COORDINATE_SYSTEM
 70
0
 62
7
  6
CONTINUOUS
370
-3
390
F
  0
LAYER
  5
200
100
AcDbSymbolTableRecord
100
AcDbLayerTableRecord
  2
DEFAULT_DATUM_AXES
 70
0
 62
7
  6
CONTINUOUS
370
-3
390
F
  0
LAYER
  5
201
100
AcDbSymbolTableRecord
100
AcDbLayerTableRecord
  2
DEFAULT_DATUM_PLANES
 70
0
 62
7
  6
CONTINUOUS
370
-3
390
F
  0
LAYER
  5
202
100
AcDbSymbolTableRecord
100
AcDbLayerTableRecord
  2
DIMENSIONS
 70
0
 62
7
  6
CONTINUOUS
370
-3
390
F
  0
ENDTAB
  0
TABLE
  2
STYLE
  5
3
100
AcDbSymbolTable
 70
1
  0
STYLE
  5
11
100
AcDbSymbolTableRecord
100
AcDbTextStyleTableRecord
  2
STANDARD
 70
0
 40
0.0
 41
0.8
 50
0.0
 71
0
 42
0.2
  3
txt
  4

  0
STYLE
  5
203
100
AcDbSymbolTableRecord
100
AcDbTextStyleTableRecord
  2
TEXTSTYLE_1
 70
0
 40
0.0
 41
0.8
 50
0.0
 71
0
 42
0.2
  3
gdt
  4

  0
ENDTAB
  0
TABLE
  2
VIEW
  5
6
100
AcDbSymbolTable
 70
0
  0
ENDTAB
  0
TABLE
  2
UCS
  5
7
100
AcDbSymbolTable
 70
0
  0
ENDTAB
  0
TABLE
  2
APPID
  5
9
100
AcDbSymbolTable
 70
1
  0
APPID
  5
204
100
AcDbSymbolTableRecord
100
AcDbRegAppTableRecord
  2
ACAD
 70
0
  0
ENDTAB
  0
TABLE
  2
BLOCK_RECORD
  5
1
100
AcDbSymbolTable
 70
0
  0
BLOCK_RECORD
  5
205
100
AcDbSymbolTableRecord
100
AcDbBlockTableRecord
  2
*Model_Space
  0
BLOCK_RECORD
  5
206
100
AcDbSymbolTableRecord
100
AcDbBlockTableRecord
  2
*Paper_Space
  0
BLOCK_RECORD
  5
207
100
AcDbSymbolTableRecord
100
AcDbBlockTableRecord
  2
_FILLED
  0
ENDTAB
  0
TABLE
  2
DIMSTYLE
  5
A
100
AcDbSymbolTable
 70
1
100
AcDbDimStyleTable
 71
0
  0
DIMSTYLE
105
208
100
AcDbSymbolTableRecord
100
AcDbDimStyleTableRecord
  2
STANDARD
 70
0
  3

  4

 40
1.0
 41
0.1
 42
0.0625
 43
0.38
 44
0.125
 45
0.0
 46
0.0
 47
0.001
 48
0.001
140
0.08
141
0.09
142
0.0
143
25.4
144
1.0
145
0.0
146
1.0
147
0.09
 71
1.0
 72
0.0
 73
1
 74
1
 75
0
 76
0
 77
0
 78
4
 79
1
170
1
171
2
172
0
173
0
174
0
175
0
176
0
177
0
178
0
270
2
179
3
271
3
272
3
273
2
274
2
275
0
280
0
281
0
282
0
283
1
284
4
285
0
286
0
287
3
288
0
340
11
278
46
341
207
342
207
343
207
344
207
  0
ENDTAB
  0
ENDSEC
  0
SECTION
  2
BLOCKS
  0
BLOCK
  5
20
100
AcDbEntity
  8
0
100
AcDbBlockBegin
  2
*Model_Space
 70
0
 10
0.0
 20
0.0
 30
0.0
  3
*Model_Space
  1

  0
ENDBLK
  5
21
100
AcDbEntity
  8
0
100
AcDbBlockEnd
  0
BLOCK
  5
1C
100
AcDbEntity
  8
0
100
AcDbBlockBegin
  2
*Paper_Space
 70
0
 10
0.0
 20
0.0
 30
0.0
  3
*Paper_Space
  1

  0
ENDBLK
  5
1D
100
AcDbEntity
  8
0
100
AcDbBlockEnd
  0
BLOCK
  5
209
100
AcDbEntity
  8
0
100
AcDbBlockBegin
  2
_FILLED
 70
64
 10
0.0
 20
0.0
  3
_FILLED
  1

  0
SOLID
  5
20A
100
AcDbEntity
  8
0
  6
BYBLOCK
 62
0
100
AcDbTrace
 10
0.0
 20
0.0
 11
-1.0
 21
0.2
 12
-1.0
 22
-0.2
 13
-1.0
 23
-0.2
  0
ENDBLK
  5
20B
100
AcDbEntity
  8
0
  6
BYBLOCK
 62
0
100
AcDbBlockEnd
  0
ENDSEC
  0
SECTION
  2
ENTITIES
  0
LINE
  5
20C
100
AcDbEntity
  8
0
100
AcDbLine
 62
7
  6
CONTINUOUS
 10
9.9382983925
 20
9.1798057664
 11
9.9382983925
 21
8.9708318578
  0
LINE
  5
20D
100
AcDbEntity
  8
0
100
AcDbLine
 62
7
  6
CONTINUOUS
 10
9.9572983925
 20
10.6258318578
 11
9.9572983925
 21
10.6618318578
  0
LINE
  5
20E
100
AcDbEntity
  8
0
100
AcDbLine
 62
7
  6
CONTINUOUS
 10
9.9882983925
 20
8.8458318578
 11
9.9882983925
 21
4.5258318578
  0
LINE
  5
20F
100
AcDbEntity
  8
0
100
AcDbLine
 62
7
  6
CONTINUOUS
 10
10.0357983925
 20
10.1588318578
 11
10.0357983925
 21
10.3128318578
  0
LINE
  5
210
100
AcDbEntity
  8
0
100
AcDbLine
 62
7
  6
CONTINUOUS
 10
10.0597983925
 20
10.5348318578
 11
10.0597983925
 21
10.5658318578
  0
LINE
  5
211
100
AcDbEntity
  8
0
100
AcDbLine
 62
7
  6
CONTINUOUS
 10
10.4167983925
 20
10.5348318578
 11
10.4167983925
 21
10.5658318578
  0
LINE
  5
212
100
AcDbEntity
  8
0
100
AcDbLine
 62
7
  6
CONTINUOUS
 10
10.4407983925
 20
10.1588318578
 11
10.4407983925
 21
10.3128318578
  0
LINE
  5
213
100
AcDbEntity
  8
0
100
AcDbLine
 62
7
  6
CONTINUOUS
 10
10.4882983925
 20
8.8458318578
 11
10.4882983925
 21
4.5258318578
  0
LINE
  5
214
100
AcDbEntity
  8
0
100
AcDbLine
 62
7
  6
CONTINUOUS
 10
10.5192983925
 20
10.6258318578
 11
10.5192983925
 21
10.6618318578
  0
LINE
  5
215
100
AcDbEntity
  8
0
100
AcDbLine
 62
7
  6
CONTINUOUS
 10
10.5382983925
 20
9.1798057664
 11
10.5382983925
 21
8.9708318578
  0
LINE
  5
216
100
AcDbEntity
  8
0
100
AcDbLine
 62
9
  6
CONTINUOUS
 10
11.0133382841
 20
9.2321475101
 11
11.0133382841
 21
10.1821475101
  0
LINE
  5
217
100
AcDbEntity
  8
0
100
AcDbLine
 62
9
  6
CONTINUOUS
 10
11.0562192298
 20
9.2078617958
 11
11.0562192298
 21
10.2064332244
  0
LINE
  5
218
100
AcDbEntity
  8
0
100
AcDbLine
 62
9
  6
CONTINUOUS
 10
11.2706239587
 20
9.2078617958
 11
11.2706239587
 21
10.2064332244
  0
LINE
  5
219
100
AcDbEntity
  8
0
100
AcDbLine
 62
9
  6
CONTINUOUS
 10
11.3411434444
 20
9.2238141768
 11
11.3411434444
 21
10.1904808434
  0
LINE
  5
21A
100
AcDbEntity
  8
0
100
AcDbLine
 62
9
  6
CONTINUOUS
 10
11.4657441601
 20
9.2350764791
 11
11.4657441601
 21
10.179218541
  0
LINE
  5
21B
100
AcDbEntity
  8
0
100
AcDbLine
 62
7
  6
CONTINUOUS
 10
11.8433382841
 20
9.4071475101
 11
11.8433382841
 21
10.0071475101
  0
LINE
  5
21C
100
AcDbEntity
  8
0
100
AcDbLine
 62
9
  6
CONTINUOUS
 10
10.4882983925
 20
8.2098318578
 11
9.9882983925
 21
8.2098318578
  0
LINE
  5
21D
100
AcDbEntity
  8
0
100
AcDbLine
 62
7
  6
CONTINUOUS
 10
11.8633382841
 20
9.4071475101
 11
11.8633382841
 21
10.0071475101
  0
LINE
  5
21E
100
AcDbEntity
  8
0
100
AcDbLine
 62
7
  6
CONTINUOUS
 10
12.1016384042
 20
9.4071475101
 11
12.1016384042
 21
10.0071475101
  0
LINE
  5
21F
100
AcDbEntity
  8
0
100
AcDbLine
 62
7
  6
CONTINUOUS
 10
10.5382979341
 20
8.8458318578
 11
9.9382983925
 21
8.8458318578
  0
LINE
  5
220
100
AcDbEntity
  8
0
100
AcDbLine
 62
7
  6
CONTINUOUS
 10
10.5382983925
 20
8.9708318578
 11
9.9382983925
 21
8.9708318578
  0
LINE
  5
221
100
AcDbEntity
  8
0
100
AcDbLine
 62
9
  6
CONTINUOUS
 10
9.9382983925
 20
9.1798057664
 11
10.5382983925
 21
9.1798057664
  0
LINE
  5
222
100
AcDbEntity
  8
0
100
AcDbLine
 62
9
  6
CONTINUOUS
 10
9.9504605547
 20
9.2039265363
 11
10.5261362303
 21
9.2039265363
  0
LINE
  5
223
100
AcDbEntity
  8
0
100
AcDbLine
 62
7
  6
CONTINUOUS
 10
11.0133382841
 20
9.2321475101
 11
10.8831528516
 21
9.2321475101
  0
LINE
  5
224
100
AcDbEntity
  8
0
100
AcDbLine
 62
9
  6
CONTINUOUS
 10
9.9497333701
 20
9.3049594597
 11
10.5268634149
 21
9.3049594597
  0
LINE
  5
225
100
AcDbEntity
  8
0
100
AcDbLine
 62
7
  6
CONTINUOUS
 10
12.1016384042
 20
9.4071475101
 11
11.8633382841
 21
9.4071475101
  0
LINE
  5
226
100
AcDbEntity
  8
0
100
AcDbLine
 62
7
  6
CONTINUOUS
 10
11.8633382841
 20
9.5571475101
 11
11.8433382841
 21
9.5571475101
  0
LINE
  5
227
100
AcDbEntity
  8
0
100
AcDbLine
 62
7
  6
CONTINUOUS
 10
11.8633382841
 20
9.8571475101
 11
11.8433382841
 21
9.8571475101
  0
LINE
  5
228
100
AcDbEntity
  8
0
100
AcDbLine
 62
7
  6
CONTINUOUS
 10
12.1016384042
 20
10.0071475101
 11
11.8633382841
 21
10.0071475101
  0
LINE
  5
229
100
AcDbEntity
  8
0
100
AcDbLine
 62
7
  6
CONTINUOUS
 10
10.4407983925
 20
10.1588318578
 11
10.0357983925
 21
10.1588318578
  0
LINE
  5
22A
100
AcDbEntity
  8
0
100
AcDbLine
 62
7
  6
CONTINUOUS
 10
11.0133382841
 20
10.1821475101
 11
10.8831528332
 21
10.1821475101
  0
LINE
  5
22B
100
AcDbEntity
  8
0
100
AcDbLine
 62
9
  6
CONTINUOUS
 10
10.4407983925
 20
10.3128318578
 11
10.0357983925
 21
10.3128318578
  0
LINE
  5
22C
100
AcDbEntity
  8
0
100
AcDbLine
 62
9
  6
CONTINUOUS
 10
10.4204202623
 20
10.3510355198
 11
10.0561765227
 21
10.3510355198
  0
LINE
  5
22D
100
AcDbEntity
  8
0
100
AcDbLine
 62
9
  6
CONTINUOUS
 10
10.4099133243
 20
10.5197322365
 11
10.0666834607
 21
10.5197322365
  0
LINE
  5
22E
100
AcDbEntity
  8
0
100
AcDbLine
 62
9
  6
CONTINUOUS
 10
10.4167983925
 20
10.5348318578
 11
10.0597983925
 21
10.5348318578
  0
LINE
  5
22F
100
AcDbEntity
  8
0
100
AcDbLine
 62
7
  6
CONTINUOUS
 10
10.4592983925
 20
10.5658318578
 11
10.0172983925
 21
10.5658318578
  0
LINE
  5
230
100
AcDbEntity
  8
0
100
AcDbLine
 62
9
  6
CONTINUOUS
 10
10.5192983925
 20
10.6258318578
 11
9.9572983925
 21
10.6258318578
  0
LINE
  5
231
100
AcDbEntity
  8
0
100
AcDbLine
 62
9
  6
CONTINUOUS
 10
10.5192983925
 20
10.6618318578
 11
9.9572983925
 21
10.6618318578
  0
LINE
  5
232
100
AcDbEntity
  8
0
100
AcDbLine
 62
7
  6
CONTINUOUS
 10
10.4592983925
 20
10.7218318578
 11
10.0172983925
 21
10.7218318578
  0
LINE
  5
233
100
AcDbEntity
  8
0
100
AcDbLine
 62
7
  6
CONTINUOUS
 10
10.3513418298
 20
10.8088318578
 11
10.1252549553
 21
10.8088318578
  0
ARC
  5
234
100
AcDbEntity
  8
0
100
AcDbCircle
 62
7
  6
CONTINUOUS
 10
10.2382983925
 20
4.5258318578
 40
0.37
100
AcDbArc
 50
132.5469461816
 51
47.4530538184
  0
ARC
  5
235
100
AcDbEntity
  8
0
100
AcDbCircle
 62
9
  6
CONTINUOUS
 10
10.2382983925
 20
4.5258318578
 40
0.3220833333
100
AcDbArc
 50
140.9574348855
 51
39.0425651145
  0
ARC
  5
236
100
AcDbEntity
  8
0
100
AcDbCircle
 62
7
  6
CONTINUOUS
 10
10.2382983925
 20
4.5258318578
 40
0.3125
100
AcDbArc
 50
143.1758741564
 51
36.8241258436
  0
ARC
  5
237
100
AcDbEntity
  8
0
100
AcDbCircle
 62
7
  6
CONTINUOUS
 10
10.2382983925
 20
4.5258318578
 40
0.2925
100
AcDbArc
 50
148.7507518098
 51
31.2492481902
  0
ARC
  5
238
100
AcDbEntity
  8
0
100
AcDbCircle
 62
7
  6
CONTINUOUS
 10
10.2382983925
 20
4.5258318578
 40
0.285
100
AcDbArc
 50
151.3946055833
 51
28.6053947737
  0
ARC
  5
239
100
AcDbEntity
  8
0
100
AcDbCircle
 62
7
  6
CONTINUOUS
 10
10.2382983925
 20
4.5258318578
 40
0.25
100
AcDbArc
 50
180.0
 51
360.0
  0
ARC
  5
23A
100
AcDbEntity
  8
0
100
AcDbCircle
 62
7
  6
CONTINUOUS
 10
9.9382983925
 20
8.9083318578
 40
0.0625
100
AcDbArc
 50
90.0
 51
270.0
  0
ARC
  5
23B
100
AcDbEntity
  8
0
100
AcDbCircle
 62
7
  6
CONTINUOUS
 10
9.9132983925
 20
9.2541781403
 40
0.0625
100
AcDbArc
 50
306.4837370614
 51
54.3410215756
  0
ARC
  5
23C
100
AcDbEntity
  8
0
100
AcDbCircle
 62
7
  6
CONTINUOUS
 10
9.9682983925
 20
9.1798057664
 40
0.03
100
AcDbArc
 50
126.4837370614
 51
180.0
  0
ARC
  5
23D
100
AcDbEntity
  8
0
100
AcDbCircle
 62
7
  6
CONTINUOUS
 10
10.5382983925
 20
8.9083318578
 40
0.0625
100
AcDbArc
 50
270.0
 51
90.0
  0
ARC
  5
23E
100
AcDbEntity
  8
0
100
AcDbCircle
 62
7
  6
CONTINUOUS
 10
10.5082983925
 20
9.1798057664
 40
0.03
100
AcDbArc
 50
0.0
 51
53.5162629386
  0
ARC
  5
23F
100
AcDbEntity
  8
0
100
AcDbCircle
 62
7
  6
CONTINUOUS
 10
10.2382983925
 20
9.7071475101
 40
1.1
100
AcDbArc
 50
30.5073542616
 51
82.7588758822
  0
ARC
  5
240
100
AcDbEntity
  8
0
100
AcDbCircle
 62
7
  6
CONTINUOUS
 10
10.2382983925
 20
9.7071475101
 40
1.1
100
AcDbArc
 50
97.2411241178
 51
256.8554609955
  0
ARC
  5
241
100
AcDbEntity
  8
0
100
AcDbCircle
 62
7
  6
CONTINUOUS
 10
10.2382983925
 20
9.7071475101
 40
1.1
100
AcDbArc
 50
283.1445390045
 51
329.4926457384
  0
ARC
  5
242
100
AcDbEntity
  8
0
100
AcDbCircle
 62
7
  6
CONTINUOUS
 10
10.2382983925
 20
9.7071475101
 40
0.9500926608
100
AcDbArc
 50
31.1977110739
 51
72.8632764064
  0
ARC
  5
243
100
AcDbEntity
  8
0
100
AcDbCircle
 62
7
  6
CONTINUOUS
 10
10.2382983925
 20
9.7071475101
 40
0.9500926608
100
AcDbArc
 50
285.2600953082
 51
328.8022889261
  0
ARC
  5
244
100
AcDbEntity
  8
0
100
AcDbCircle
 62
7
  6
CONTINUOUS
 10
10.2382983925
 20
9.7071475101
 40
0.9500926608
100
AcDbArc
 50
107.1367235936
 51
254.7399046918
  0
ARC
  5
245
100
AcDbEntity
  8
0
100
AcDbCircle
 62
7
  6
CONTINUOUS
 10
10.2382983925
 20
9.7071475101
 40
0.81
100
AcDbArc
 50
293.6412144363
 51
324.072762791
  0
ARC
  5
246
100
AcDbEntity
  8
0
100
AcDbCircle
 62
7
  6
CONTINUOUS
 10
10.2382983925
 20
9.7071475101
 40
0.81
100
AcDbArc
 50
101.0461053241
 51
246.3587855637
  0
ARC
  5
247
100
AcDbEntity
  8
0
100
AcDbCircle
 62
7
  6
CONTINUOUS
 10
10.2382983925
 20
9.7071475101
 40
0.81
100
AcDbArc
 50
35.927237209
 51
78.9538946759
  0
ARC
  5
248
100
AcDbEntity
  8
0
100
AcDbCircle
 62
7
  6
CONTINUOUS
 10
10.2382983925
 20
9.7071475101
 40
0.805
100
AcDbArc
 50
321.705036742
 51
323.8059743853
  0
ARC
  5
249
100
AcDbEntity
  8
0
100
AcDbCircle
 62
7
  6
CONTINUOUS
 10
10.2382983925
 20
9.7071475101
 40
0.805
100
AcDbArc
 50
36.1940256147
 51
38.2949632721
  0
ARC
  5
24A
100
AcDbEntity
  8
0
100
AcDbCircle
 62
7
  6
CONTINUOUS
 10
10.2382983925
 20
9.7071475101
 40
0.805
100
AcDbArc
 50
38.3978237067
 51
79.0917041292
  0
ARC
  5
24B
100
AcDbEntity
  8
0
100
AcDbCircle
 62
7
  6
CONTINUOUS
 10
10.2382983925
 20
9.7071475101
 40
0.805
100
AcDbArc
 50
293.2961251585
 51
321.6021762933
  0
ARC
  5
24C
100
AcDbEntity
  8
0
100
AcDbCircle
 62
7
  6
CONTINUOUS
 10
10.2382983925
 20
9.7071475101
 40
0.805
100
AcDbArc
 50
100.9082958708
 51
246.7038748415
  0
ARC
  5
24D
100
AcDbEntity
  8
0
100
AcDbCircle
 62
7
  6
CONTINUOUS
 10
10.2382983925
 20
9.7071475101
 40
0.7
100
AcDbArc
 50
102.0831873188
 51
244.6038381199
  0
ARC
  5
24E
100
AcDbEntity
  8
0
100
AcDbCircle
 62
7
  6
CONTINUOUS
 10
10.2382983925
 20
9.7071475101
 40
0.7
100
AcDbArc
 50
295.3961618801
 51
77.9168126812
  0
ARC
  5
24F
100
AcDbEntity
  8
0
100
AcDbCircle
 62
7
  6
CONTINUOUS
 10
10.2382983925
 20
9.7071475101
 40
0.5255
100
AcDbArc
 50
112.6867984022
 51
239.9869542012
  0
ARC
  5
250
100
AcDbEntity
  8
0
100
AcDbCircle
 62
7
  6
CONTINUOUS
 10
10.2382983925
 20
9.7071475101
 40
0.5255
100
AcDbArc
 50
300.0130457988
 51
67.3132015978
  0
ARC
  5
251
100
AcDbEntity
  8
0
100
AcDbCircle
 62
7
  6
CONTINUOUS
 10
10.2382983925
 20
9.7071475101
 40
0.495
100
AcDbArc
 50
114.147739917
 51
234.3410215756
  0
ARC
  5
252
100
AcDbEntity
  8
0
100
AcDbCircle
 62
7
  6
CONTINUOUS
 10
10.2382983925
 20
9.7071475101
 40
0.495
100
AcDbArc
 50
305.6589784244
 51
65.852260083
  0
CIRCLE
  5
253
100
AcDbEntity
  8
0
100
AcDbCircle
 62
7
  6
CONTINUOUS
 10
10.2382983925
 20
9.7071475101
 40
0.281
  0
CIRCLE
  5
254
100
AcDbEntity
  8
0
100
AcDbCircle
 62
9
  6
CONTINUOUS
 10
10.2382983925
 20
9.7071475101
 40
0.221
  0
CIRCLE
  5
255
100
AcDbEntity
  8
0
100
AcDbCircle
 62
7
  6
CONTINUOUS
 10
10.2382983925
 20
9.7071475101
 40
0.18
  0
CIRCLE
  5
256
100
AcDbEntity
  8
0
100
AcDbCircle
 62
7
  6
CONTINUOUS
 10
10.2382983925
 20
9.7071475101
 40
0.1130434372
  0
ARC
  5
257
100
AcDbEntity
  8
0
100
AcDbCircle
 62
7
  6
CONTINUOUS
 10
10.4796847612
 20
10.4394022509
 40
0.1064
100
AcDbArc
 50
130.9762844863
 51
236.1516146287
  0
ARC
  5
258
100
AcDbEntity
  8
0
100
AcDbCircle
 62
7
  6
CONTINUOUS
 10
9.9969120238
 20
10.4394022509
 40
0.1064
100
AcDbArc
 50
303.8483853713
 51
49.0237155137
  0
ARC
  5
259
100
AcDbEntity
  8
0
100
AcDbCircle
 62
7
  6
CONTINUOUS
 10
10.3282983925
 20
10.7218318578
 40
0.09
100
AcDbArc
 50
0.0
 51
75.164888418
  0
ARC
  5
25A
100
AcDbEntity
  8
0
100
AcDbCircle
 62
7
  6
CONTINUOUS
 10
10.1482983925
 20
10.7218318578
 40
0.09
100
AcDbArc
 50
104.835111582
 51
180.0
  0
ARC
  5
25B
100
AcDbEntity
  8
0
100
AcDbCircle
 62
7
  6
CONTINUOUS
 10
10.4592983925
 20
10.6258318578
 40
0.06
100
AcDbArc
 50
270.0
 51
360.0
  0
ARC
  5
25C
100
AcDbEntity
  8
0
100
AcDbCircle
 62
7
  6
CONTINUOUS
 10
10.0172983925
 20
10.6258318578
 40
0.06
100
AcDbArc
 50
180.0
 51
270.0
  0
ARC
  5
25D
100
AcDbEntity
  8
0
100
AcDbCircle
 62
7
  6
CONTINUOUS
 10
10.4592983925
 20
10.6618318578
 40
0.06
100
AcDbArc
 50
0.0
 51
90.0
  0
ARC
  5
25E
100
AcDbEntity
  8
0
100
AcDbCircle
 62
7
  6
CONTINUOUS
 10
10.0172983925
 20
10.6618318578
 40
0.06
100
AcDbArc
 50
90.0
 51
180.0
  0
ARC
  5
25F
100
AcDbEntity
  8
0
100
AcDbCircle
 62
7
  6
CONTINUOUS
 10
10.3947983925
 20
10.3128318578
 40
0.046
100
AcDbArc
 50
0.0
 51
56.1516146287
  0
ARC
  5
260
100
AcDbEntity
  8
0
100
AcDbCircle
 62
7
  6
CONTINUOUS
 10
10.0817983925
 20
10.3128318578
 40
0.046
100
AcDbArc
 50
123.8483853713
 51
180.0
  0
ARC
  5
261
100
AcDbEntity
  8
0
100
AcDbCircle
 62
7
  6
CONTINUOUS
 10
10.3967983925
 20
10.5348318578
 40
0.02
100
AcDbArc
 50
310.9762844863
 51
360.0
  0
ARC
  5
262
100
AcDbEntity
  8
0
100
AcDbCircle
 62
7
  6
CONTINUOUS
 10
10.0797983925
 20
10.5348318578
 40
0.02
100
AcDbArc
 50
180.0
 51
229.0237155137
  0
ARC
  5
263
100
AcDbEntity
  8
0
100
AcDbCircle
 62
7
  6
CONTINUOUS
 10
11.1634215943
 20
9.2721475101
 40
0.125
100
AcDbArc
 50
210.9497230789
 51
329.0502769211
  0
ARC
  5
264
100
AcDbEntity
  8
0
100
AcDbCircle
 62
7
  6
CONTINUOUS
 10
10.5632983925
 20
9.2541781403
 40
0.0625
100
AcDbArc
 50
125.6589784244
 51
233.5162629386
  0
ARC
  5
265
100
AcDbEntity
  8
0
100
AcDbCircle
 62
7
  6
CONTINUOUS
 10
11.0133382841
 20
9.1821475101
 40
0.05
100
AcDbArc
 50
30.9497230789
 51
90.0
  0
ARC
  5
266
100
AcDbEntity
  8
0
100
AcDbCircle
 62
7
  6
CONTINUOUS
 10
11.1634215943
 20
10.1421475101
 40
0.125
100
AcDbArc
 50
30.9497230789
 51
149.0502769211
  0
ARC
  5
267
100
AcDbEntity
  8
0
100
AcDbCircle
 62
7
  6
CONTINUOUS
 10
11.0133382841
 20
10.2321475101
 40
0.05
100
AcDbArc
 50
270.0
 51
329.0502769211
  0
ARC
  5
268
100
AcDbEntity
  8
0
100
AcDbCircle
 62
7
  6
CONTINUOUS
 10
11.8990168846
 20
8.7846325356
 40
0.625
100
AcDbArc
 50
95.111013774
 51
133.8868439077
  0
ARC
  5
269
100
AcDbEntity
  8
0
100
AcDbCircle
 62
7
  6
CONTINUOUS
 10
11.8990168846
 20
10.6296624846
 40
0.625
100
AcDbArc
 50
226.1131560923
 51
264.888986226
  0
ARC
  5
26A
100
AcDbEntity
  8
0
100
AcDbCircle
 62
7
  6
CONTINUOUS
 10
12.4763382841
 20
9.7071475101
 40
0.48
100
AcDbArc
 50
218.6821874535
 51
141.3178125465
  0
CIRCLE
  5
26B
100
AcDbEntity
  8
0
100
AcDbCircle
 62
7
  6
CONTINUOUS
 10
12.4763382841
 20
9.7071475101
 40
0.305
  0
ARC
  5
26C
100
AcDbEntity
  8
0
100
AcDbCircle
 62
7
  6
CONTINUOUS
 10
11.3964205242
 20
9.3071475101
 40
0.1
100
AcDbArc
 50
236.4426902381
 51
313.8868439077
  0
ARC
  5
26D
100
AcDbEntity
  8
0
100
AcDbCircle
 62
7
  6
CONTINUOUS
 10
11.3964205242
 20
10.1071475101
 40
0.1
100
AcDbArc
 50
46.1131560923
 51
123.5573097619
  0
ARC
  5
26E
100
AcDbEntity
  8
0
100
AcDbCircle
 62
7
  6
CONTINUOUS
 10
11.3135049045
 20
9.1821475101
 40
0.05
100
AcDbArc
 50
56.4426902381
 51
149.0502769211
  0
ARC
  5
26F
100
AcDbEntity
  8
0
100
AcDbCircle
 62
7
  6
CONTINUOUS
 10
11.3135049045
 20
10.2321475101
 40
0.05
100
AcDbArc
 50
210.9497230789
 51
303.5573097619
  0
SPLINE
  5
270
100
AcDbEntity
  8
0
100
AcDbSpline
 62
7
  6
CONTINUOUS
 70
0
 71
3
 72
56
 73
52
 74
0
 42
0.0000001
 43
0.0000001
 44
0.0000000001
 40
0.0
 40
0.0
 40
0.0
 40
0.0
 40
0.0952933801
 40
0.1896433441
 40
0.2821545086
 40
0.3719967478
 40
0.4584280014
 40
0.5407839658
 40
0.6184582306
 40
0.6553601883
 40
0.6908740732
 40
0.7249259916
 40
0.7574390215
 40
0.7883330249
 40
0.8175233815
 40
0.8449209846
 40
0.8704318072
 40
0.8939573923
 40
0.9153956691
 40
0.925299413
 40
0.9346421178
 40
0.9434108274
 40
0.9515925037
 40
0.9591743054
 40
0.9661443584
 40
0.9724909734
 40
0.978202472
 40
0.9832685409
 40
0.987680214
 40
0.9896378611
 40
0.9914285566
 40
0.9930513071
 40
0.9945054531
 40
0.9957903892
 40
0.9969055097
 40
0.9978502082
 40
0.9982584597
 40
0.9986238781
 40
0.9989463876
 40
0.9992259173
 40
0.9994624427
 40
0.9996559634
 40
0.999736597
 40
0.9998064795
 40
0.9998656108
 40
0.9999139909
 40
0.9999516199
 40
0.9999784978
 40
0.999987905
 40
0.9999946245
 40
1.0
 40
1.0
 40
1.0
 40
1.0
 10
11.0013382841
 20
9.7071475101
 30
0.0
 10
11.0013382841
 20
9.7237632323
 30
0.0
 10
11.0005366274
 20
9.7568358173
 30
0.0
 10
10.9969709115
 20
9.8059220531
 30
0.0
 10
10.9911840573
 20
9.8538392037
 30
0.0
 10
10.9833956402
 20
9.9000706443
 30
0.0
 10
10.9738907283
 20
9.9441686561
 30
0.0
 10
10.9630037591
 20
9.9857540415
 30
0.0
 10
10.9529231341
 20
10.0185896868
 30
0.0
 10
10.9444902714
 20
10.043365515
 30
0.0
 10
10.9381722652
 20
10.0608226833
 30
0.0
 10
10.9318060547
 20
10.0774451117
 30
0.0
 10
10.9254464157
 20
10.0932044672
 30
0.0
 10
10.9191498693
 20
10.1080725274
 30
0.0
 10
10.9129740192
 20
10.1220207682
 30
0.0
 10
10.9069779724
 20
10.1350201361
 30
0.0
 10
10.9012215937
 20
10.1470406762
 30
0.0
 10
10.895765773
 20
10.1580517194
 30
0.0
 10
10.891412338
 20
10.166571011
 30
0.0
 10
10.888129815
 20
10.1728598515
 30
0.0
 10
10.885846478
 20
10.1771782048
 30
0.0
 10
10.8836830895
 20
10.1812202527
 30
0.0
 10
10.8816468216
 20
10.1849820311
 30
0.0
 10
10.8797447266
 20
10.1884597717
 30
0.0
 10
10.8779831627
 20
10.1916496378
 30
0.0
 10
10.8763683321
 20
10.19454797
 30
0.0
 10
10.8749064074
 20
10.1971514364
 30
0.0
 10
10.8736028244
 20
10.1994568653
 30
0.0
 10
10.8726166686
 20
10.2011898447
 30
0.0
 10
10.8719107225
 20
10.2024251724
 30
0.0
 10
10.8714452217
 20
10.2032378147
 30
0.0
 10
10.8710227233
 20
10.2039739136
 30
0.0
 10
10.8706435691
 20
10.2046332105
 30
0.0
 10
10.8703080743
 20
10.2052155099
 30
0.0
 10
10.8700165475
 20
10.2057206234
 30
0.0
 10
10.869801183
 20
10.206093199
 30
0.0
 10
10.8696511283
 20
10.2063525377
 30
0.0
 10
10.8695553703
 20
10.2065179543
 30
0.0
 10
10.8694708351
 20
10.2066639339
 30
0.0
 10
10.8693975591
 20
10.2067904622
 30
0.0
 10
10.8693355538
 20
10.2068975296
 30
0.0
 10
10.8692909321
 20
10.2069745822
 30
0.0
 10
10.869260865
 20
10.2070264975
 30
0.0
 10
10.8692425558
 20
10.2070581204
 30
0.0
 10
10.8692270247
 20
10.2070849173
 30
0.0
 10
10.8692144251
 20
10.2071067331
 30
0.0
 10
10.8692043476
 20
10.2071239821
 30
0.0
 10
10.8691983307
 20
10.2071346878
 30
0.0
 10
10.869193979
 20
10.2071417774
 30
0.0
 10
10.8691931411
 20
10.2071439687
 30
0.0
 10
10.8691900722
 20
10.2071478291
 30
0.0
 10
10.8691908778
 20
10.20714735
 30
0.0
  0
SPLINE
  5
271
100
AcDbEntity
  8
0
100
AcDbSpline
 62
7
  6
CONTINUOUS
 70
0
 71
3
 72
54
 73
50
 74
0
 42
0.0000001
 43
0.0000001
 44
0.0000000001
 40
0.0
 40
0.0
 40
0.0
 40
0.0
 40
0.0000053756
 40
0.0000120951
 40
0.0000215024
 40
0.0000483804
 40
0.0000860096
 40
0.0001343899
 40
0.0001935214
 40
0.0002634041
 40
0.000344038
 40
0.0005375594
 40
0.0007740854
 40
0.001053616
 40
0.0013761265
 40
0.0017415461
 40
0.002149799
 40
0.003094501
 40
0.0042096255
 40
0.0054945663
 40
0.0069487173
 40
0.0085714731
 40
0.0103621743
 40
0.0123198279
 40
0.016731516
 40
0.0217976023
 40
0.0275091203
 40
0.0338557573
 40
0.0408258346
 40
0.0484076622
 40
0.056589366
 40
0.0653581053
 40
0.0846045511
 40
0.1060429016
 40
0.1295685679
 40
0.1550794779
 40
0.1824771735
 40
0.2116676274
 40
0.2425617344
 40
0.2750748742
 40
0.3091269069
 40
0.3815396638
 40
0.4592141933
 40
0.5415704378
 40
0.6280019854
 40
0.7178445309
 40
0.8103560105
 40
0.9047062957
 40
1.0
 40
1.0
 40
1.0
 40
1.0
 10
10.8691908779
 20
9.2071476701
 30
0.0
 10
10.8691916883
 20
9.2071481411
 30
0.0
 10
10.8691922077
 20
9.2071505027
 30
0.0
 10
10.8691943647
 20
9.2071534695
 30
0.0
 10
10.8691979639
 20
9.2071601168
 30
0.0
 10
10.8692045408
 20
9.2071711517
 30
0.0
 10
10.8692143481
 20
9.2071882418
 30
0.0
 10
10.8692270531
 20
9.2072101195
 30
0.0
 10
10.8692425461
 20
9.2072368941
 30
0.0
 10
10.8692608683
 20
9.2072685246
 30
0.0
 10
10.8692909299
 20
9.2073204367
 30
0.0
 10
10.869335555
 20
9.2073974912
 30
0.0
 10
10.8693975588
 20
9.2075045578
 30
0.0
 10
10.8694708353
 20
9.2076310864
 30
0.0
 10
10.8695553702
 20
9.2077770659
 30
0.0
 10
10.8696511282
 20
9.2079424825
 30
0.0
 10
10.8698011829
 20
9.2082018212
 30
0.0
 10
10.8700165475
 20
9.2085743969
 30
0.0
 10
10.8703080744
 20
9.2090795105
 30
0.0
 10
10.8706435694
 20
9.2096618099
 30
0.0
 10
10.8710227236
 20
9.2103211069
 30
0.0
 10
10.8714452219
 20
9.2110572057
 30
0.0
 10
10.8719107224
 20
9.211869848
 30
0.0
 10
10.8726166685
 20
9.2131051756
 30
0.0
 10
10.8736028244
 20
9.214838155
 30
0.0
 10
10.8749064075
 20
9.2171435839
 30
0.0
 10
10.8763683322
 20
9.2197470505
 30
0.0
 10
10.8779831629
 20
9.2226453827
 30
0.0
 10
10.879744727
 20
9.2258352489
 30
0.0
 10
10.8816468217
 20
9.2293129897
 30
0.0
 10
10.8836830908
 20
9.2330747682
 30
0.0
 10
10.8866613436
 20
9.2386393113
 30
0.0
 10
10.8906710517
 20
9.2462734022
 30
0.0
 10
10.8957657739
 20
9.2562432945
 30
0.0
 10
10.9012215942
 20
9.2672543475
 30
0.0
 10
10.9069779731
 20
9.2792748852
 30
0.0
 10
10.9129740197
 20
9.292274253
 30
0.0
 10
10.9191498702
 20
9.3062224956
 30
0.0
 10
10.9254464137
 20
9.321090545
 30
0.0
 10
10.9318060631
 20
9.336849941
 30
0.0
 10
10.9404734209
 20
9.3594806856
 30
0.0
 10
10.9511057477
 20
9.3897853163
 30
0.0
 10
10.9630036587
 20
9.4285407223
 30
0.0
 10
10.9738907568
 20
9.4701264359
 30
0.0
 10
10.9833956317
 20
9.5142243534
 30
0.0
 10
10.9911840595
 20
9.5604558213
 30
0.0
 10
10.9969709108
 20
9.6083729648
 30
0.0
 10
11.0005366276
 20
9.6574592031
 30
0.0
 10
11.0013382841
 20
9.6905317878
 30
0.0
 10
11.0013382841
 20
9.7071475101
 30
0.0
  0
SPLINE
  5
272
100
AcDbEntity
  8
0
100
AcDbSpline
 62
9
  6
CONTINUOUS
 70
0
 71
3
 72
33
 73
29
 74
0
 42
0.0000001
 43
0.0000001
 44
0.0000000001
 40
0.0
 40
0.0
 40
0.0
 40
0.0
 40
0.0876660013
 40
0.1745855371
 40
0.2600263735
 40
0.3432713549
 40
0.4236355537
 40
0.5004740792
 40
0.5373863598
 40
0.5732003468
 40
0.6078523973
 40
0.6412844545
 40
0.6734437259
 40
0.7042845425
 40
0.7337680967
 40
0.7618644287
 40
0.7885530954
 40
0.8138249017
 40
0.837684167
 40
0.8601503931
 40
0.8812623235
 40
0.9010803141
 40
0.9196916302
 40
0.9372139115
 40
0.9537996375
 40
0.9696380843
 40
0.9849537656
 40
1.0
 40
1.0
 40
1.0
 40
1.0
 10
10.2382983925
 20
7.8678117145
 30
0.0
 10
10.2301290837
 20
7.8678117145
 30
0.0
 10
10.2138586864
 20
7.8675395127
 30
0.0
 10
10.1896540619
 20
7.8663167711
 30
0.0
 10
10.1659162302
 20
7.8642922095
 30
0.0
 10
10.1428729784
 20
7.861485512
 30
0.0
 10
10.1207455449
 20
7.8579240667
 30
0.0
 10
10.1030148385
 20
7.854309593
 30
0.0
 10
10.0894626718
 20
7.8510502264
 30
0.0
 10
10.0797928233
 20
7.8484733083
 30
0.0
 10
10.0705042459
 20
7.8457375471
 30
0.0
 10
10.0616191424
 20
7.842849627
 30
0.0
 10
10.0531588201
 20
7.83981634
 30
0.0
 10
10.0451434499
 20
7.8366451451
 30
0.0
 10
10.0375921756
 20
7.833343485
 30
0.0
 10
10.0305229184
 20
7.8299193249
 30
0.0
 10
10.0239524266
 20
7.8263807364
 30
0.0
 10
10.0178962247
 20
7.8227359552
 30
0.0
 10
10.0123684721
 20
7.8189935166
 30
0.0
 10
10.007382227
 20
7.81516169
 30
0.0
 10
10.0029490498
 20
7.8112491168
 30
0.0
 10
9.9990796627
 20
7.8072638786
 30
0.0
 10
9.9957835043
 20
7.8032143165
 30
0.0
 10
9.9930695754
 20
7.7991083752
 30
0.0
 10
9.9909463274
 20
7.7949545511
 30
0.0
 10
9.9894218129
 20
7.7907617963
 30
0.0
 10
9.9885035823
 20
7.7865421745
 30
0.0
 10
9.9882983925
 20
7.7837087882
 30
0.0
 10
9.9882983925
 20
7.7823066787
 30
0.0
  0
SPLINE
  5
273
100
AcDbEntity
  8
0
100
AcDbSpline
 62
9
  6
CONTINUOUS
 70
0
 71
3
 72
33
 73
29
 74
0
 42
0.0000001
 43
0.0000001
 44
0.0000000001
 40
0.0
 40
0.0
 40
0.0
 40
0.0
 40
0.0876660013
 40
0.1745855371
 40
0.2600263735
 40
0.3432713549
 40
0.4236355537
 40
0.5004740792
 40
0.5373863598
 40
0.5732003468
 40
0.6078523973
 40
0.6412844545
 40
0.6734437259
 40
0.7042845425
 40
0.7337680967
 40
0.7618644287
 40
0.7885530954
 40
0.8138249017
 40
0.837684167
 40
0.8601503931
 40
0.8812623235
 40
0.9010803141
 40
0.9196916302
 40
0.9372139115
 40
0.9537996375
 40
0.9696380843
 40
0.9849537656
 40
1.0
 40
1.0
 40
1.0
 40
1.0
 10
10.2382983925
 20
6.2888620728
 30
0.0
 10
10.2301290837
 20
6.2888620728
 30
0.0
 10
10.2138586864
 20
6.288589871
 30
0.0
 10
10.1896540619
 20
6.2873671295
 30
0.0
 10
10.1659162302
 20
6.2853425678
 30
0.0
 10
10.1428729784
 20
6.2825358703
 30
0.0
 10
10.1207455449
 20
6.278974425
 30
0.0
 10
10.1030148385
 20
6.2753599513
 30
0.0
 10
10.0894626718
 20
6.2721005847
 30
0.0
 10
10.0797928233
 20
6.2695236666
 30
0.0
 10
10.0705042459
 20
6.2667879055
 30
0.0
 10
10.0616191424
 20
6.2638999854
 30
0.0
 10
10.0531588201
 20
6.2608666983
 30
0.0
 10
10.0451434499
 20
6.2576955034
 30
0.0
 10
10.0375921756
 20
6.2543938433
 30
0.0
 10
10.0305229184
 20
6.2509696832
 30
0.0
 10
10.0239524266
 20
6.2474310947
 30
0.0
 10
10.0178962247
 20
6.2437863136
 30
0.0
 10
10.0123684721
 20
6.240043875
 30
0.0
 10
10.007382227
 20
6.2362120484
 30
0.0
 10
10.0029490498
 20
6.2322994751
 30
0.0
 10
9.9990796627
 20
6.2283142369
 30
0.0
 10
9.9957835043
 20
6.2242646748
 30
0.0
 10
9.9930695754
 20
6.2201587336
 30
0.0
 10
9.9909463274
 20
6.2160049094
 30
0.0
 10
9.9894218129
 20
6.2118121547
 30
0.0
 10
9.9885035823
 20
6.2075925328
 30
0.0
 10
9.9882983925
 20
6.2047591465
 30
0.0
 10
9.9882983925
 20
6.203357037
 30
0.0
  0
SPLINE
  5
274
100
AcDbEntity
  8
0
100
AcDbSpline
 62
9
  6
CONTINUOUS
 70
0
 71
3
 72
33
 73
29
 74
0
 42
0.0000001
 43
0.0000001
 44
0.0000000001
 40
0.0
 40
0.0
 40
0.0
 40
0.0
 40
0.0150462344
 40
0.0303619157
 40
0.0462003625
 40
0.0627860885
 40
0.0803083698
 40
0.0989196859
 40
0.1187376765
 40
0.1398496069
 40
0.162315833
 40
0.1861750983
 40
0.2114469046
 40
0.2381355713
 40
0.2662319033
 40
0.2957154575
 40
0.3265562741
 40
0.3587155455
 40
0.3921476027
 40
0.4267996532
 40
0.4626136402
 40
0.4995259208
 40
0.5763644463
 40
0.6567286451
 40
0.7399736265
 40
0.8254144629
 40
0.9123339987
 40
1.0
 40
1.0
 40
1.0
 40
1.0
 10
10.4882983925
 20
6.203357037
 30
0.0
 10
10.4882983925
 20
6.2047591465
 30
0.0
 10
10.4880932027
 20
6.2075925328
 30
0.0
 10
10.4871749721
 20
6.2118121547
 30
0.0
 10
10.4856504576
 20
6.2160049094
 30
0.0
 10
10.4835272096
 20
6.2201587336
 30
0.0
 10
10.4808132807
 20
6.2242646748
 30
0.0
 10
10.4775171223
 20
6.2283142369
 30
0.0
 10
10.4736477352
 20
6.2322994751
 30
0.0
 10
10.469214558
 20
6.2362120484
 30
0.0
 10
10.4642283129
 20
6.240043875
 30
0.0
 10
10.4587005603
 20
6.2437863136
 30
0.0
 10
10.4526443584
 20
6.2474310947
 30
0.0
 10
10.4460738666
 20
6.2509696832
 30
0.0
 10
10.4390046095
 20
6.2543938433
 30
0.0
 10
10.4314533351
 20
6.2576955034
 30
0.0
 10
10.4234379649
 20
6.2608666983
 30
0.0
 10
10.4149776426
 20
6.2638999854
 30
0.0
 10
10.4060925391
 20
6.2667879055
 30
0.0
 10
10.3968039617
 20
6.2695236666
 30
0.0
 10
10.3871341132
 20
6.2721005847
 30
0.0
 10
10.3735819465
 20
6.2753599513
 30
0.0
 10
10.3558512401
 20
6.278974425
 30
0.0
 10
10.3337238066
 20
6.2825358703
 30
0.0
 10
10.3106805549
 20
6.2853425678
 30
0.0
 10
10.2869427231
 20
6.2873671295
 30
0.0
 10
10.2627380986
 20
6.288589871
 30
0.0
 10
10.2464677013
 20
6.2888620728
 30
0.0
 10
10.2382983925
 20
6.2888620728
 30
0.0
  0
SPLINE
  5
275
100
AcDbEntity
  8
0
100
AcDbSpline
 62
9
  6
CONTINUOUS
 70
0
 71
3
 72
33
 73
29
 74
0
 42
0.0000001
 43
0.0000001
 44
0.0000000001
 40
0.0
 40
0.0
 40
0.0
 40
0.0
 40
0.0150462344
 40
0.0303619157
 40
0.0462003625
 40
0.0627860885
 40
0.0803083698
 40
0.0989196859
 40
0.1187376765
 40
0.1398496069
 40
0.162315833
 40
0.1861750983
 40
0.2114469046
 40
0.2381355713
 40
0.2662319033
 40
0.2957154575
 40
0.3265562741
 40
0.3587155455
 40
0.3921476027
 40
0.4267996532
 40
0.4626136402
 40
0.4995259208
 40
0.5763644463
 40
0.6567286451
 40
0.7399736265
 40
0.8254144629
 40
0.9123339987
 40
1.0
 40
1.0
 40
1.0
 40
1.0
 10
10.4882983925
 20
7.7823066787
 30
0.0
 10
10.4882983925
 20
7.7837087882
 30
0.0
 10
10.4880932027
 20
7.7865421745
 30
0.0
 10
10.4871749721
 20
7.7907617963
 30
0.0
 10
10.4856504576
 20
7.7949545511
 30
0.0
 10
10.4835272096
 20
7.7991083752
 30
0.0
 10
10.4808132807
 20
7.8032143165
 30
0.0
 10
10.4775171223
 20
7.8072638786
 30
0.0
 10
10.4736477352
 20
7.8112491168
 30
0.0
 10
10.469214558
 20
7.81516169
 30
0.0
 10
10.4642283129
 20
7.8189935166
 30
0.0
 10
10.4587005603
 20
7.8227359552
 30
0.0
 10
10.4526443584
 20
7.8263807364
 30
0.0
 10
10.4460738666
 20
7.8299193249
 30
0.0
 10
10.4390046095
 20
7.833343485
 30
0.0
 10
10.4314533351
 20
7.8366451451
 30
0.0
 10
10.4234379649
 20
7.83981634
 30
0.0
 10
10.4149776426
 20
7.842849627
 30
0.0
 10
10.4060925391
 20
7.8457375471
 30
0.0
 10
10.3968039617
 20
7.8484733083
 30
0.0
 10
10.3871341132
 20
7.8510502264
 30
0.0
 10
10.3735819465
 20
7.854309593
 30
0.0
 10
10.3558512401
 20
7.8579240667
 30
0.0
 10
10.3337238066
 20
7.861485512
 30
0.0
 10
10.3106805549
 20
7.8642922095
 30
0.0
 10
10.2869427231
 20
7.8663167711
 30
0.0
 10
10.2627380986
 20
7.8675395127
 30
0.0
 10
10.2464677013
 20
7.8678117145
 30
0.0
 10
10.2382983925
 20
7.8678117145
 30
0.0
  0
ENDSEC
  0
SECTION
  2
OBJECTS
  0
DICTIONARY
  5
C
100
AcDbDictionary
280
0
281
1
  3
ACAD_GROUP
350
D
  3
ACAD_MLINESTYLE
350
17
  3
ACAD_LAYOUT
350
1A
  3
ACAD_PLOTSETTINGS
350
19
  3
ACAD_PLOTSTYLENAME
350
E
  0
DICTIONARY
  5
D
102
{ACAD_REACTORS
330
C
102
}
100
AcDbDictionary
280
0
281
1
  0
ACDBDICTIONARYWDFLT
  5
E
102
{ACAD_REACTORS
330
C
102
}
100
AcDbDictionary
281
1
  3
Normal
350
F
100
AcDbDictionaryWithDefault
340
F
  0
DICTIONARY
  5
17
102
{ACAD_REACTORS
330
C
102
}
100
AcDbDictionary
280
0
281
1
  3
Standard
350
18
  0
DICTIONARY
  5
19
102
{ACAD_REACTORS
330
C
102
}
100
AcDbDictionary
281
1
  0
DICTIONARY
  5
1A
102
{ACAD_REACTORS
330
C
102
}
100
AcDbDictionary
281
1
  3
Model
350
276
  3
Layout1
350
277
  0
ACDBPLACEHOLDER
  5
F
102
{ACAD_REACTORS
330
E
102
}
  0
MLINESTYLE
  5
18
102
{ACAD_REACTORS
330
17
102
}
100
AcDbMlineStyle
  2
STANDARD
 70
0
  3

 62
256
 51
90.0
 52
90.0
 71
2
 49
0.5
 62
256
  6
BYLAYER
 49
-0.5
 62
256
  6
BYLAYER
  0
LAYOUT
  5
276
102
{ACAD_REACTORS
330
1A
102
}
100
AcDbPlotSettings
  1

  2
none_device
  4
ANSI_C_(22.00_x_17.00_Inches)
  6

 40
0.0
 41
0.0
 42
0.0
 43
0.0
 44
558.8
 45
431.8
 46
0.0
 47
0.0
 48
0.0
 49
0.0
140
0.0
141
0.0
142
1.0
143
1.0
 70
1024
 72
0
 73
0
 74
0
  7

 75
0
147
1.0
148
0.0
149
0.0
100
AcDbLayout
  1
Model
 70
0
 71
0
 10
0.0
 20
0.0
 11
22.0
 21
17.0
 12
0.0
 22
0.0
 32
0.0
 14
0.0
 24
0.0
 34
0.0
 15
0.0
 25
0.0
 35
0.0
146
0.0
 13
0.0
 23
0.0
 33
0.0
 16
1.0
 26
0.0
 36
0.0
 17
0.0
 27
1.0
 37
0.0
 76
0
330
205
345
0
346
0
  0
LAYOUT
  5
277
102
{ACAD_REACTORS
330
1A
102
}
100
AcDbPlotSettings
  1

  2
none_device
  4
ANSI_C_(22.00_x_17.00_Inches)
  6

 40
0.0
 41
0.0
 42
0.0
 43
0.0
 44
558.8
 45
431.8
 46
0.0
 47
0.0
 48
0.0
 49
0.0
140
0.0
141
0.0
142
1.0
143
1.0
 70
0
 72
0
 73
0
 74
0
  7

 75
0
147
1.0
148
0.0
149
0.0
100
AcDbLayout
  1
Layout1
 70
0
 71
1
 10
0.0
 20
0.0
 11
22.0
 21
17.0
 12
0.0
 22
0.0
 32
0.0
 14
0.0
 24
0.0
 34
0.0
 15
0.0
 25
0.0
 35
0.0
146
0.0
 13
0.0
 23
0.0
 33
0.0
 16
1.0
 26
0.0
 36
0.0
 17
0.0
 27
1.0
 37
0.0
 76
0
330
206
345
0
346
0
  0
ENDSEC
  0
EOF
