999
DXF file: 111-2961_front.dxf
999
Pro/ENGINEER 2018400 by Parametric Technology Corporation
  0
SECTION
  2
HEADER
  9
$ACADVER
  1
AC1027
  9
$DWGCODEPAGE
  3
ANSI_1252
  9
$EXTMAX
 10
11.0
 20
8.5
 30
0.0
  9
$EXTMIN
 10
0.0
 20
0.0
 30
0.0
  9
$LIMMIN
 10
0.0
 20
0.0
  9
$LIMMAX
 10
11.0
 20
8.5
  9
$VIEWCTR
 10
5.5
 20
4.25
  9
$VIEWSIZE
 40
8.5
  9
$CLAYER
  8
0
  9
$LTSCALE
 40
0.605
  9
$CELTYPE
  6
BYLAYER
  9
$DIMSCALE
 40
1.0
  9
$DIMASZ
 40
0.1
  9
$DIMEXO
 40
0.0625
  9
$DIMDLI
 40
0.418
  9
$DIMEXE
 40
0.125
  9
$DIMCEN
 40
0.099
  9
$DIMLFAC
 40
1.0
  9
$DIMBLK
  1
_FILLED
  9
$DIMALT
 70
1
  9
$DIMALTD
 70
1
  9
$DIMALTTD
 70
2
  9
$DIMALTF
 40
25.4
  9
$DIMTXT
 40
0.08
  9
$DIMTOL
 70
1
  9
$DIMLIM
 70
0
  9
$DIMTFAC
 40
1.0
  9
$DIMTP
 40
0.01
  9
$DIMTM
 40
0.01
  9
$DIMGAP
 40
0.09
  9
$DIMDSEP
 70
46
  9
$AUNITS
 70
0
  9
$PDMODE
 70
3
  9
$PDSIZE
 40
0.3125
  9
$HANDSEED
  5
506
  9
$TILEMODE
 70
1
  9
$MEASUREMENT
 70
0
  9
$INSUNITS
 70
1
  0
ENDSEC
  0
SECTION
  2
CLASSES
  0
CLASS
  1
ACDBDICTIONARYWDFLT
  2
AcDbDictionaryWithDefault
  3
AutoCAD 2000
 90
0
 91
1
280
0
281
0
  0
CLASS
  1
ACDBPLACEHOLDER
  2
AcDbPlaceHolder
  3
AutoCAD 2000
 90
0
 91
1
280
0
281
0
  0
CLASS
  1
LAYOUT
  2
AcDbLayout
  3
AutoCAD 2000
 90
0
 91
0
280
0
281
0
  0
ENDSEC
  0
SECTION
  2
TABLES
  0
TABLE
  2
VPORT
  5
8
100
AcDbSymbolTable
 70
2
  0
VPORT
  5
1F4
100
AcDbSymbolTableRecord
100
AcDbViewportTableRecord
  2
*ACTIVE
 70
0
 10
0.0
 20
0.0
 11
1.0
 21
1.0
 12
5.5
 22
4.25
 13
0.0
 23
0.0
 14
1.0
 24
1.0
 15
0.0
 25
0.0
 16
0.0
 26
0.0
 36
1.0
 17
0.0
 27
0.0
 37
0.0
 40
8.5
 41
1.2941176471
 42
50.0
 43
0.0
 44
0.0
 50
0.0
 51
0.0
 71
0
 72
100
 73
1
 74
1
 75
0
 76
0
 77
0
 78
0
  0
ENDTAB
  0
TABLE
  2
LTYPE
  5
5
100
AcDbSymbolTable
 70
6
  0
LTYPE
  5
14
100
AcDbSymbolTableRecord
100
AcDbLinetypeTableRecord
  2
BYBLOCK
 70
0
  3

 72
65
 73
0
 40
0.0
  0
LTYPE
  5
15
100
AcDbSymbolTableRecord
100
AcDbLinetypeTableRecord
  2
BYLAYER
 70
0
  3

 72
65
 73
0
 40
0.0
  0
LTYPE
  5
16
100
AcDbSymbolTableRecord
100
AcDbLinetypeTableRecord
  2
CONTINUOUS
 70
64
  3
Solid line
 72
65
 73
0
 40
0.0
  0
LTYPE
  5
1F5
100
AcDbSymbolTableRecord
100
AcDbLinetypeTableRecord
  2
CENTER
 70
64
  3
____ _ ____ _ ____ _ ____ _ ____ _ ____ _ ____
 72
65
 73
4
 40
0.6
 49
0.375
 74
0
 49
-0.075
 74
0
 49
0.075
 74
0
 49
-0.075
 74
0
  0
LTYPE
  5
1F6
100
AcDbSymbolTableRecord
100
AcDbLinetypeTableRecord
  2
HIDDEN
 70
64
  3
- - - - - - - - - - - - - - - - - - - -
 72
65
 73
2
 40
0.2
 49
0.1
 74
0
 49
-0.1
 74
0
  0
LTYPE
  5
1F7
100
AcDbSymbolTableRecord
100
AcDbLinetypeTableRecord
  2
PHANTOM
 70
64
  3
_____ _ _ _____ _ _ _____ _ _ _____
 72
65
 73
6
 40
0.8
 49
0.45
 74
0
 49
-0.05
 74
0
 49
0.1
 74
0
 49
-0.05
 74
0
 49
0.1
 74
0
 49
-0.05
 74
0
  0
LTYPE
  5
1F8
100
AcDbSymbolTableRecord
100
AcDbLinetypeTableRecord
  2
DOT
 70
64
  3
. . . . . . . . . . . . . . . . . . . .
 72
65
 73
2
 40
0.2
 49
0.1
 74
0
 49
-0.1
 74
0
  0
LTYPE
  5
1F9
100
AcDbSymbolTableRecord
100
AcDbLinetypeTableRecord
  2
DASHED
 70
64
  3
- - - - - - - - - - - - - - - - - - - -
 72
65
 73
2
 40
0.2
 49
0.1
 74
0
 49
-0.1
 74
0
  0
ENDTAB
  0
TABLE
  2
LAYER
  5
2
100
AcDbSymbolTable
 70
36
  0
LAYER
  5
10
100
AcDbSymbolTableRecord
100
AcDbLayerTableRecord
  2
0
 70
0
 62
7
  6
CONTINUOUS
370
-3
390
F
  0
LAYER
  5
1FA
100
AcDbSymbolTableRecord
100
AcDbLayerTableRecord
  2
DEFAULT_1
 70
0
 62
7
  6
CENTER
370
-3
390
F
  0
LAYER
  5
1FB
100
AcDbSymbolTableRecord
100
AcDbLayerTableRecord
  2
DEFAULT_2
 70
0
 62
8
  6
HIDDEN
370
-3
390
F
  0
LAYER
  5
1FC
100
AcDbSymbolTableRecord
100
AcDbLayerTableRecord
  2
DEFAULT_3
 70
0
 62
7
  6
PHANTOM
370
-3
390
F
  0
LAYER
  5
1FD
100
AcDbSymbolTableRecord
100
AcDbLayerTableRecord
  2
ALL_ASSEMBLY_MEMBERS
 70
0
 62
7
  6
CONTINUOUS
370
-3
390
F
  0
LAYER
  5
1FE
100
AcDbSymbolTableRecord
100
AcDbLayerTableRecord
  2
ALL_FEATURES
 70
0
 62
7
  6
CONTINUOUS
370
-3
390
F
  0
LAYER
  5
1FF
100
AcDbSymbolTableRecord
100
AcDbLayerTableRecord
  2
AXES_FEATURES
 70
0
 62
7
  6
CONTINUOUS
370
-3
390
F
  0
LAYER
  5
200
100
AcDbSymbolTableRecord
100
AcDbLayerTableRecord
  2
CHAMFER_FEATURES
 70
0
 62
7
  6
CONTINUOUS
370
-3
390
F
  0
LAYER
  5
201
100
AcDbSymbolTableRecord
100
AcDbLayerTableRecord
  2
CUT_FEATURES
 70
0
 62
7
  6
CONTINUOUS
370
-3
390
F
  0
LAYER
  5
202
100
AcDbSymbolTableRecord
100
AcDbLayerTableRecord
  2
DATUM_CURVES
 70
0
 62
7
  6
CONTINUOUS
370
-3
390
F
  0
LAYER
  5
203
100
AcDbSymbolTableRecord
100
AcDbLayerTableRecord
  2
DATUM_PLANES
 70
0
 62
7
  6
CONTINUOUS
370
-3
390
F
  0
LAYER
  5
204
100
AcDbSymbolTableRecord
100
AcDbLayerTableRecord
  2
DATUM_POINTS
 70
0
 62
7
  6
CONTINUOUS
370
-3
390
F
  0
LAYER
  5
205
100
AcDbSymbolTableRecord
100
AcDbLayerTableRecord
  2
DEFAULT_COORDINATE_SYSTEM
 70
0
 62
7
  6
CONTINUOUS
370
-3
390
F
  0
LAYER
  5
206
100
AcDbSymbolTableRecord
100
AcDbLayerTableRecord
  2
DEFAULT_DATUM_AXES
 70
0
 62
7
  6
CONTINUOUS
370
-3
390
F
  0
LAYER
  5
207
100
AcDbSymbolTableRecord
100
AcDbLayerTableRecord
  2
DEFAULT_DATUM_CURVES
 70
0
 62
7
  6
CONTINUOUS
370
-3
390
F
  0
LAYER
  5
208
100
AcDbSymbolTableRecord
100
AcDbLayerTableRecord
  2
DEFAULT_DATUM_PLANES
 70
0
 62
7
  6
CONTINUOUS
370
-3
390
F
  0
LAYER
  5
209
100
AcDbSymbolTableRecord
100
AcDbLayerTableRecord
  2
DEFAULT_SURFACES
 70
0
 62
7
  6
CONTINUOUS
370
-3
390
F
  0
LAYER
  5
20A
100
AcDbSymbolTableRecord
100
AcDbLayerTableRecord
  2
DIMENSIONS
 70
0
 62
7
  6
CONTINUOUS
370
-3
390
F
  0
LAYER
  5
20B
100
AcDbSymbolTableRecord
100
AcDbLayerTableRecord
  2
HOLE_FEATURES
 70
0
 62
7
  6
CONTINUOUS
370
-3
390
F
  0
LAYER
  5
20C
100
AcDbSymbolTableRecord
100
AcDbLayerTableRecord
  2
NOTES
 70
0
 62
7
  6
CONTINUOUS
370
-3
390
F
  0
LAYER
  5
20D
100
AcDbSymbolTableRecord
100
AcDbLayerTableRecord
  2
PART_REFERENCE_DIMENSIONS
 70
0
 62
7
  6
CONTINUOUS
370
-3
390
F
  0
LAYER
  5
20E
100
AcDbSymbolTableRecord
100
AcDbLayerTableRecord
  2
PLATED_SURFACE_AREA
 70
0
 62
7
  6
CONTINUOUS
370
-3
390
F
  0
LAYER
  5
20F
100
AcDbSymbolTableRecord
100
AcDbLayerTableRecord
  2
PLATING_AREA
 70
0
 62
7
  6
CONTINUOUS
370
-3
390
F
  0
LAYER
  5
210
100
AcDbSymbolTableRecord
100
AcDbLayerTableRecord
  2
POINTS
 70
0
 62
7
  6
CONTINUOUS
370
-3
390
F
  0
LAYER
  5
211
100
AcDbSymbolTableRecord
100
AcDbLayerTableRecord
  2
PROTRUSION_FEATURES
 70
0
 62
7
  6
CONTINUOUS
370
-3
390
F
  0
LAYER
  5
212
100
AcDbSymbolTableRecord
100
AcDbLayerTableRecord
  2
QUILT
 70
0
 62
7
  6
CONTINUOUS
370
-3
390
F
  0
LAYER
  5
213
100
AcDbSymbolTableRecord
100
AcDbLayerTableRecord
  2
QUILT1
 70
0
 62
7
  6
CONTINUOUS
370
-3
390
F
  0
LAYER
  5
214
100
AcDbSymbolTableRecord
100
AcDbLayerTableRecord
  2
QUILTS
 70
0
 62
7
  6
CONTINUOUS
370
-3
390
F
  0
LAYER
  5
215
100
AcDbSymbolTableRecord
100
AcDbLayerTableRecord
  2
REFERENCE_DIMENSIONS
 70
0
 62
7
  6
CONTINUOUS
370
-3
390
F
  0
LAYER
  5
216
100
AcDbSymbolTableRecord
100
AcDbLayerTableRecord
  2
ROUND_FEATURES
 70
0
 62
7
  6
CONTINUOUS
370
-3
390
F
  0
LAYER
  5
217
100
AcDbSymbolTableRecord
100
AcDbLayerTableRecord
  2
SHELL_FEATURES
 70
0
 62
7
  6
CONTINUOUS
370
-3
390
F
  0
LAYER
  5
218
100
AcDbSymbolTableRecord
100
AcDbLayerTableRecord
  2
SIZE_REF
 70
0
 62
7
  6
CONTINUOUS
370
-3
390
F
  0
LAYER
  5
219
100
AcDbSymbolTableRecord
100
AcDbLayerTableRecord
  2
THREADS
 70
0
 62
7
  6
CONTINUOUS
370
-3
390
F
  0
ENDTAB
  0
TABLE
  2
STYLE
  5
3
100
AcDbSymbolTable
 70
1
  0
STYLE
  5
11
100
AcDbSymbolTableRecord
100
AcDbTextStyleTableRecord
  2
STANDARD
 70
0
 40
0.0
 41
0.8
 50
0.0
 71
0
 42
0.2
  3
txt
  4

  0
STYLE
  5
21A
100
AcDbSymbolTableRecord
100
AcDbTextStyleTableRecord
  2
TEXTSTYLE_1
 70
0
 40
0.0
 41
0.8
 50
0.0
 71
0
 42
0.2
  3
gdt
  4

  0
ENDTAB
  0
TABLE
  2
VIEW
  5
6
100
AcDbSymbolTable
 70
0
  0
ENDTAB
  0
TABLE
  2
UCS
  5
7
100
AcDbSymbolTable
 70
0
  0
ENDTAB
  0
TABLE
  2
APPID
  5
9
100
AcDbSymbolTable
 70
1
  0
APPID
  5
21B
100
AcDbSymbolTableRecord
100
AcDbRegAppTableRecord
  2
ACAD
 70
0
  0
ENDTAB
  0
TABLE
  2
BLOCK_RECORD
  5
1
100
AcDbSymbolTable
 70
0
  0
BLOCK_RECORD
  5
21C
100
AcDbSymbolTableRecord
100
AcDbBlockTableRecord
  2
*Model_Space
  0
BLOCK_RECORD
  5
21D
100
AcDbSymbolTableRecord
100
AcDbBlockTableRecord
  2
*Paper_Space
  0
BLOCK_RECORD
  5
21E
100
AcDbSymbolTableRecord
100
AcDbBlockTableRecord
  2
_FILLED
  0
ENDTAB
  0
TABLE
  2
DIMSTYLE
  5
A
100
AcDbSymbolTable
 70
1
100
AcDbDimStyleTable
 71
0
  0
DIMSTYLE
105
21F
100
AcDbSymbolTableRecord
100
AcDbDimStyleTableRecord
  2
STANDARD
 70
0
  3

  4

 40
1.0
 41
0.1
 42
0.0625
 43
0.38
 44
0.125
 45
0.0
 46
0.0
 47
0.01
 48
0.01
140
0.08
141
0.09
142
0.0
143
25.4
144
1.0
145
0.0
146
1.0
147
0.09
 71
1.0
 72
0.0
 73
1
 74
1
 75
0
 76
0
 77
0
 78
4
 79
1
170
1
171
1
172
0
173
0
174
0
175
0
176
0
177
0
178
0
270
2
179
2
271
2
272
2
273
2
274
2
275
0
280
0
281
0
282
0
283
1
284
4
285
0
286
0
287
3
288
0
340
11
278
46
341
21E
342
21E
343
21E
344
21E
  0
ENDTAB
  0
ENDSEC
  0
SECTION
  2
BLOCKS
  0
BLOCK
  5
20
100
AcDbEntity
  8
0
100
AcDbBlockBegin
  2
*Model_Space
 70
0
 10
0.0
 20
0.0
 30
0.0
  3
*Model_Space
  1

  0
ENDBLK
  5
21
100
AcDbEntity
  8
0
100
AcDbBlockEnd
  0
BLOCK
  5
1C
100
AcDbEntity
  8
0
100
AcDbBlockBegin
  2
*Paper_Space
 70
0
 10
0.0
 20
0.0
 30
0.0
  3
*Paper_Space
  1

  0
ENDBLK
  5
1D
100
AcDbEntity
  8
0
100
AcDbBlockEnd
  0
BLOCK
  5
220
100
AcDbEntity
  8
0
100
AcDbBlockBegin
  2
_FILLED
 70
64
 10
0.0
 20
0.0
  3
_FILLED
  1

  0
SOLID
  5
221
100
AcDbEntity
  8
0
  6
BYBLOCK
 62
0
100
AcDbTrace
 10
0.0
 20
0.0
 11
-1.0
 21
0.2
 12
-1.0
 22
-0.2
 13
-1.0
 23
-0.2
  0
ENDBLK
  5
222
100
AcDbEntity
  8
0
  6
BYBLOCK
 62
0
100
AcDbBlockEnd
  0
ENDSEC
  0
SECTION
  2
ENTITIES
  0
MTEXT
  5
223
100
AcDbEntity
  8
0
100
AcDbMText
 62
2
  6
CONTINUOUS
  7
STANDARD
 71
3
 72
1
 10
5.1987359551
 20
0.3825786282
 30
0.0
 11
1.0
 21
0.0
 31
0.0
 73
2
 44
0.9
  1
SCALE  .250
 40
0.08
 41
0.704
  0
LINE
  5
224
100
AcDbEntity
  8
0
100
AcDbLine
 62
7
  6
CONTINUOUS
 10
0.0
 20
0.0
 11
0.0
 21
8.5
  0
LINE
  5
225
100
AcDbEntity
  8
0
100
AcDbLine
 62
7
  6
CONTINUOUS
 10
0.0
 20
0.0
 11
11.0
 21
0.0
  0
LINE
  5
226
100
AcDbEntity
  8
0
100
AcDbLine
 62
7
  6
CONTINUOUS
 10
0.0
 20
8.5
 11
11.0
 21
8.5
  0
LINE
  5
227
100
AcDbEntity
  8
0
100
AcDbLine
 62
7
  6
CONTINUOUS
 10
11.0
 20
0.0
 11
11.0
 21
8.5
  0
LINE
  5
228
100
AcDbEntity
  8
ALL_FEATURES
100
AcDbLine
 62
7
  6
CONTINUOUS
 10
4.4529496378
 20
0.7890393024
 11
5.2029492386
 21
0.7890393024
  0
LINE
  5
229
100
AcDbEntity
  8
ALL_FEATURES
100
AcDbLine
 62
7
  6
CONTINUOUS
 10
4.4529494382
 20
1.1015393024
 11
5.2029494382
 21
1.1015393024
  0
LINE
  5
22A
100
AcDbEntity
  8
ALL_FEATURES
100
AcDbLine
 62
7
  6
CONTINUOUS
 10
4.5779514237
 20
1.2265393024
 11
5.0779474527
 21
1.2265393024
  0
LINE
  5
22B
100
AcDbEntity
  8
ALL_FEATURES
100
AcDbLine
 62
7
  6
CONTINUOUS
 10
4.627868985
 20
1.3579394473
 11
5.0280298914
 21
1.3579394473
  0
LINE
  5
22C
100
AcDbEntity
  8
ALL_FEATURES
100
AcDbLine
 62
7
  6
CONTINUOUS
 10
5.069414291
 20
1.3686943702
 11
4.5864845854
 21
1.3686943702
  0
LINE
  5
22D
100
AcDbEntity
  8
ALL_FEATURES
100
AcDbLine
 62
7
  6
CONTINUOUS
 10
5.0854494382
 20
1.3959903544
 11
5.0788485562
 21
1.3959903544
  0
LINE
  5
22E
100
AcDbEntity
  8
ALL_FEATURES
100
AcDbLine
 62
7
  6
CONTINUOUS
 10
5.0035678316
 20
1.3959903544
 11
4.9032301628
 21
1.3959903544
  0
LINE
  5
22F
100
AcDbEntity
  8
ALL_FEATURES
100
AcDbLine
 62
7
  6
CONTINUOUS
 10
4.7526687136
 20
1.3959903544
 11
4.6523310448
 21
1.3959903544
  0
LINE
  5
230
100
AcDbEntity
  8
ALL_FEATURES
100
AcDbLine
 62
7
  6
CONTINUOUS
 10
4.5770503202
 20
1.3959903544
 11
4.5704494382
 21
1.3959903544
  0
LINE
  5
231
100
AcDbEntity
  8
ALL_FEATURES
100
AcDbLine
 62
7
  6
CONTINUOUS
 10
5.0854494382
 20
1.4343466067
 11
5.0788485562
 21
1.4343466067
  0
LINE
  5
232
100
AcDbEntity
  8
ALL_FEATURES
100
AcDbLine
 62
7
  6
CONTINUOUS
 10
5.0035678316
 20
1.4343466067
 11
4.9032301628
 21
1.4343466067
  0
LINE
  5
233
100
AcDbEntity
  8
ALL_FEATURES
100
AcDbLine
 62
7
  6
CONTINUOUS
 10
4.7526687136
 20
1.4343466067
 11
4.6523310448
 21
1.4343466067
  0
LINE
  5
234
100
AcDbEntity
  8
ALL_FEATURES
100
AcDbLine
 62
7
  6
CONTINUOUS
 10
4.5770503202
 20
1.4343466067
 11
4.5704494382
 21
1.4343466067
  0
LINE
  5
235
100
AcDbEntity
  8
ALL_FEATURES
100
AcDbLine
 62
7
  6
CONTINUOUS
 10
5.0704494382
 20
1.4610393024
 11
4.5854494382
 21
1.4610393024
  0
LINE
  5
236
100
AcDbEntity
  8
ALL_FEATURES
100
AcDbLine
 62
7
  6
CONTINUOUS
 10
5.0704494382
 20
1.4910393024
 11
4.5854494382
 21
1.4910393024
  0
LINE
  5
237
100
AcDbEntity
  8
0
100
AcDbLine
 62
7
  6
CONTINUOUS
 10
5.0915871006
 20
1.6140257354
 11
4.8303371006
 21
1.5679603117
  0
LINE
  5
238
100
AcDbEntity
  8
0
100
AcDbLine
 62
7
  6
CONTINUOUS
 10
4.8617914819
 20
1.5871705328
 11
4.8751389097
 21
1.5894059532
  0
LINE
  5
239
100
AcDbEntity
  8
0
100
AcDbLine
 62
7
  6
CONTINUOUS
 10
4.8279478082
 20
1.5815011105
 11
5.1029494382
 21
1.627566842
  0
LWPOLYLINE
  5
23A
100
AcDbEntity
  8
0
100
AcDbPolyline
 62
7
  6
CONTINUOUS
 90
3
 70
0
 10
5.0296383663
 20
1.6152862718
 10
5.0518436421
 20
1.6190062745
 10
5.0594800103
 20
1.620285249
  0
LINE
  5
23B
100
AcDbEntity
  8
0
100
AcDbLine
 62
7
  6
CONTINUOUS
 10
4.8550693718
 20
1.5860440638
 11
4.8617914819
 21
1.5871705328
  0
LINE
  5
23C
100
AcDbEntity
  8
0
100
AcDbLine
 62
7
  6
CONTINUOUS
 10
5.0840076174
 20
1.6243942748
 11
5.0864408352
 21
1.624801475
  0
LINE
  5
23D
100
AcDbEntity
  8
0
100
AcDbLine
 62
7
  6
CONTINUOUS
 10
4.9852376657
 20
1.6078488656
 11
4.9972161788
 21
1.6098554166
  0
LINE
  5
23E
100
AcDbEntity
  8
0
100
AcDbLine
 62
7
  6
CONTINUOUS
 10
4.894905984
 20
1.5927172035
 11
4.9600695366
 21
1.6036331979
  0
LINE
  5
23F
100
AcDbEntity
  8
0
100
AcDbLine
 62
7
  6
CONTINUOUS
 10
5.0030070519
 20
1.6108254267
 11
5.0141530785
 21
1.6126924035
  0
LINE
  5
240
100
AcDbEntity
  8
0
100
AcDbLine
 62
7
  6
CONTINUOUS
 10
4.8751389097
 20
1.5894059532
 11
4.8883491768
 21
1.5916190158
  0
LINE
  5
241
100
AcDbEntity
  8
0
100
AcDbLine
 62
7
  6
CONTINUOUS
 10
4.9600695366
 20
1.6036331979
 11
4.9790794033
 21
1.6068174309
  0
LINE
  5
242
100
AcDbEntity
  8
0
100
AcDbLine
 62
7
  6
CONTINUOUS
 10
5.0194849893
 20
1.6135856566
 11
5.0246465974
 21
1.6144500726
  0
LINE
  5
243
100
AcDbEntity
  8
0
100
AcDbLine
 62
7
  6
CONTINUOUS
 10
5.0594800103
 20
1.620285249
 11
5.0814335431
 21
1.6239625735
  0
LINE
  5
244
100
AcDbEntity
  8
0
100
AcDbLine
 62
7
  6
CONTINUOUS
 10
5.0908497089
 20
1.6255413124
 11
5.0928482319
 21
1.625874781
  0
LINE
  5
245
100
AcDbEntity
  8
0
100
AcDbLine
 62
7
  6
CONTINUOUS
 10
5.0964008799
 20
1.6264721213
 11
5.0993436474
 21
1.6269626478
  0
LWPOLYLINE
  5
246
100
AcDbEntity
  8
0
100
AcDbPolyline
 62
7
  6
CONTINUOUS
 90
5
 70
0
 10
5.1005417541
 20
1.6271666038
 10
5.1015367398
 20
1.6273301975
 10
5.1022963824
 20
1.6274494414
 10
5.1027797785
 20
1.6275283229
 10
5.1029494382
 20
1.627566842
  0
LINE
  5
247
100
AcDbEntity
  8
ALL_FEATURES
100
AcDbLine
 62
7
  6
CONTINUOUS
 10
4.7526687136
 20
1.5337893024
 11
4.9032301628
 21
1.5337893024
  0
LINE
  5
248
100
AcDbEntity
  8
0
100
AcDbLine
 62
7
  6
CONTINUOUS
 10
4.7249921649
 20
1.5440393024
 11
4.6204494382
 21
1.5440393024
  0
LINE
  5
249
100
AcDbEntity
  8
0
100
AcDbLine
 62
7
  6
CONTINUOUS
 10
4.9309067115
 20
1.5440393024
 11
5.0354494382
 21
1.5440393024
  0
LINE
  5
24A
100
AcDbEntity
  8
0
100
AcDbLine
 62
7
  6
CONTINUOUS
 10
4.6596560972
 20
1.5851755091
 11
4.6441994382
 21
1.5851755091
  0
LINE
  5
24B
100
AcDbEntity
  8
0
100
AcDbLine
 62
7
  6
CONTINUOUS
 10
4.9962427792
 20
1.5851755091
 11
5.0116994382
 21
1.5851755091
  0
LINE
  5
24C
100
AcDbEntity
  8
0
100
AcDbLine
 62
7
  6
CONTINUOUS
 10
4.5530631798
 20
1.6275437643
 11
4.5546479568
 21
1.6272839381
  0
LINE
  5
24D
100
AcDbEntity
  8
0
100
AcDbLine
 62
7
  6
CONTINUOUS
 10
4.8051792915
 20
1.5853156594
 11
4.8125918241
 21
1.5840748148
  0
LINE
  5
24E
100
AcDbEntity
  8
0
100
AcDbLine
 62
7
  6
CONTINUOUS
 10
4.6138773668
 20
1.6173604418
 11
4.6186826831
 21
1.6165558236
  0
LINE
  5
24F
100
AcDbEntity
  8
0
100
AcDbLine
 62
7
  6
CONTINUOUS
 10
4.5855751526
 20
1.6221015866
 11
4.5890225099
 21
1.6215243598
  0
LINE
  5
250
100
AcDbEntity
  8
0
100
AcDbLine
 62
7
  6
CONTINUOUS
 10
4.5529494382
 20
1.627566842
 11
4.8279478082
 21
1.5815011105
  0
LINE
  5
251
100
AcDbEntity
  8
0
100
AcDbLine
 62
7
  6
CONTINUOUS
 10
4.8255617758
 20
1.5679603117
 11
4.5643117758
 21
1.6140257354
  0
LINE
  5
252
100
AcDbEntity
  8
0
100
AcDbLine
 62
7
  6
CONTINUOUS
 10
4.5529494382
 20
1.627566842
 11
4.5530631798
 21
1.6275437643
  0
LINE
  5
253
100
AcDbEntity
  8
ALL_ASSEMBLY_MEMBERS
100
AcDbLine
 62
7
  6
CONTINUOUS
 10
4.5967733916
 20
2.1460239021
 11
4.735441403
 21
2.163050193
  0
LINE
  5
254
100
AcDbEntity
  8
ALL_ASSEMBLY_MEMBERS
100
AcDbLine
 62
7
  6
CONTINUOUS
 10
5.080168362
 20
2.1228829225
 11
5.1649930839
 21
2.1247827177
  0
LINE
  5
255
100
AcDbEntity
  8
0
100
AcDbLine
 62
7
  6
CONTINUOUS
 10
4.5529494382
 20
2.0475311371
 11
5.1029494382
 21
2.0475311371
  0
LINE
  5
256
100
AcDbEntity
  8
0
100
AcDbLine
 62
7
  6
CONTINUOUS
 10
4.4841994382
 20
2.0725393024
 11
5.1716994382
 21
2.0725393024
  0
LINE
  5
257
100
AcDbEntity
  8
0
100
AcDbLine
 62
7
  6
CONTINUOUS
 10
4.4841994382
 20
2.0925393024
 11
5.1716994382
 21
2.0925393024
  0
LINE
  5
258
100
AcDbEntity
  8
ALL_FEATURES
100
AcDbLine
 62
7
  6
CONTINUOUS
 10
4.4891994382
 20
2.1225393024
 11
5.1666994382
 21
2.1225393024
  0
LINE
  5
259
100
AcDbEntity
  8
ALL_ASSEMBLY_MEMBERS
100
AcDbLine
 62
7
  6
CONTINUOUS
 10
5.080168362
 20
2.1228829225
 11
4.5757305144
 21
2.1228829225
  0
LINE
  5
25A
100
AcDbEntity
  8
ALL_ASSEMBLY_MEMBERS
100
AcDbLine
 62
7
  6
CONTINUOUS
 10
4.4909057925
 20
2.1247827177
 11
5.1649930839
 21
2.1247827177
  0
LINE
  5
25B
100
AcDbEntity
  8
ALL_ASSEMBLY_MEMBERS
100
AcDbLine
 62
7
  6
CONTINUOUS
 10
5.176398009
 20
2.1354018409
 11
4.4795008674
 21
2.1354018409
  0
LINE
  5
25C
100
AcDbEntity
  8
ALL_ASSEMBLY_MEMBERS
100
AcDbLine
 62
7
  6
CONTINUOUS
 10
5.1647306882
 20
2.1460239021
 11
4.4911681882
 21
2.1460239021
  0
LINE
  5
25D
100
AcDbEntity
  8
ALL_ASSEMBLY_MEMBERS
100
AcDbLine
 62
7
  6
CONTINUOUS
 10
4.9204574734
 20
2.163050193
 11
4.735441403
 21
2.163050193
  0
LINE
  5
25E
100
AcDbEntity
  8
ALL_ASSEMBLY_MEMBERS
100
AcDbLine
 62
7
  6
CONTINUOUS
 10
4.9261994382
 20
2.1634561253
 11
4.7296994382
 21
2.1634561253
  0
LINE
  5
25F
100
AcDbEntity
  8
ALL_ASSEMBLY_MEMBERS
100
AcDbLine
 62
7
  6
CONTINUOUS
 10
4.9261994382
 20
2.1672061253
 11
4.7296994382
 21
2.1672061253
  0
LINE
  5
260
100
AcDbEntity
  8
ALL_ASSEMBLY_MEMBERS
100
AcDbLine
 62
7
  6
CONTINUOUS
 10
4.5757305144
 20
2.1228829225
 11
4.4909057925
 21
2.1247827177
  0
LINE
  5
261
100
AcDbEntity
  8
ALL_ASSEMBLY_MEMBERS
100
AcDbLine
 62
7
  6
CONTINUOUS
 10
5.0591254848
 20
2.1460239021
 11
4.9204574734
 21
2.163050193
  0
LINE
  5
262
100
AcDbEntity
  8
ALL_FEATURES
100
AcDbLine
 62
7
  6
CONTINUOUS
 10
4.4889149497
 20
7.7192529517
 11
4.4741476623
 21
7.6931194656
  0
LINE
  5
263
100
AcDbEntity
  8
ALL_ASSEMBLY_MEMBERS
100
AcDbLine
 62
7
  6
CONTINUOUS
 10
4.9329592808
 20
2.2392370198
 11
4.9329017159
 21
2.2392227723
  0
LINE
  5
264
100
AcDbEntity
  8
ALL_ASSEMBLY_MEMBERS
100
AcDbLine
 62
7
  6
CONTINUOUS
 10
4.9305470327
 20
2.239702041
 11
4.9289902609
 21
2.239702041
  0
LINE
  5
265
100
AcDbEntity
  8
ALL_ASSEMBLY_MEMBERS
100
AcDbLine
 62
7
  6
CONTINUOUS
 10
4.9328456358
 20
2.239702041
 11
4.9316434266
 21
2.239702041
  0
LINE
  5
266
100
AcDbEntity
  8
ALL_ASSEMBLY_MEMBERS
100
AcDbLine
 62
7
  6
CONTINUOUS
 10
4.934497519
 20
2.239702041
 11
4.9336572844
 21
2.239702041
  0
LINE
  5
267
100
AcDbEntity
  8
ALL_ASSEMBLY_MEMBERS
100
AcDbLine
 62
7
  6
CONTINUOUS
 10
4.9354924978
 20
2.239702041
 11
4.9350194181
 21
2.239702041
  0
LINE
  5
268
100
AcDbEntity
  8
ALL_ASSEMBLY_MEMBERS
100
AcDbLine
 62
7
  6
CONTINUOUS
 10
4.9358244379
 20
2.239702041
 11
4.9357214299
 21
2.239702041
  0
LINE
  5
269
100
AcDbEntity
  8
ALL_ASSEMBLY_MEMBERS
100
AcDbLine
 62
7
  6
CONTINUOUS
 10
4.9199320082
 20
2.239702041
 11
4.9173775718
 21
2.239702041
  0
LINE
  5
26A
100
AcDbEntity
  8
ALL_ASSEMBLY_MEMBERS
100
AcDbLine
 62
7
  6
CONTINUOUS
 10
4.9240702532
 20
2.239702041
 11
4.9218352771
 21
2.239702041
  0
LINE
  5
26B
100
AcDbEntity
  8
ALL_ASSEMBLY_MEMBERS
100
AcDbLine
 62
7
  6
CONTINUOUS
 10
4.9276158813
 20
2.239702041
 11
4.925714145
 21
2.239702041
  0
LINE
  5
26C
100
AcDbEntity
  8
ALL_ASSEMBLY_MEMBERS
100
AcDbLine
 62
7
  6
CONTINUOUS
 10
4.909983219
 20
2.239702041
 11
4.9068389812
 21
2.239702041
  0
LINE
  5
26D
100
AcDbEntity
  8
ALL_ASSEMBLY_MEMBERS
100
AcDbLine
 62
7
  6
CONTINUOUS
 10
4.9152266602
 20
2.239702041
 11
4.9123685123
 21
2.239702041
  0
LINE
  5
26E
100
AcDbEntity
  8
ALL_ASSEMBLY_MEMBERS
100
AcDbLine
 62
7
  6
CONTINUOUS
 10
4.9042340123
 20
2.239702041
 11
4.9008230697
 21
2.239702041
  0
LINE
  5
26F
100
AcDbEntity
  8
ALL_ASSEMBLY_MEMBERS
100
AcDbLine
 62
7
  6
CONTINUOUS
 10
4.891362985
 20
2.239702041
 11
4.8874832365
 21
2.239702041
  0
LINE
  5
270
100
AcDbEntity
  8
ALL_ASSEMBLY_MEMBERS
100
AcDbLine
 62
7
  6
CONTINUOUS
 10
4.8980144858
 20
2.239702041
 11
4.8943578681
 21
2.239702041
  0
LINE
  5
271
100
AcDbEntity
  8
ALL_ASSEMBLY_MEMBERS
100
AcDbLine
 62
7
  6
CONTINUOUS
 10
4.8843205186
 20
2.239702041
 11
4.8802415592
 21
2.239702041
  0
LINE
  5
272
100
AcDbEntity
  8
ALL_ASSEMBLY_MEMBERS
100
AcDbLine
 62
7
  6
CONTINUOUS
 10
4.8692385083
 20
2.239702041
 11
4.8648376447
 21
2.239702041
  0
LINE
  5
273
100
AcDbEntity
  8
ALL_ASSEMBLY_MEMBERS
100
AcDbLine
 62
7
  6
CONTINUOUS
 10
4.8769305057
 20
2.239702041
 11
4.8726774836
 21
2.239702041
  0
LINE
  5
274
100
AcDbEntity
  8
ALL_ASSEMBLY_MEMBERS
100
AcDbLine
 62
7
  6
CONTINUOUS
 10
4.86129195
 20
2.239702041
 11
4.8567703777
 21
2.239702041
  0
LINE
  5
275
100
AcDbEntity
  8
ALL_ASSEMBLY_MEMBERS
100
AcDbLine
 62
7
  6
CONTINUOUS
 10
4.844832391
 20
2.239702041
 11
4.8401536047
 21
2.239702041
  0
LINE
  5
276
100
AcDbEntity
  8
ALL_ASSEMBLY_MEMBERS
100
AcDbLine
 62
7
  6
CONTINUOUS
 10
4.8531398241
 20
2.239702041
 11
4.8485254201
 21
2.239702041
  0
LINE
  5
277
100
AcDbEntity
  8
ALL_ASSEMBLY_MEMBERS
100
AcDbLine
 62
7
  6
CONTINUOUS
 10
4.836420869
 20
2.239702041
 11
4.8317065466
 21
2.239702041
  0
LINE
  5
278
100
AcDbEntity
  8
ALL_ASSEMBLY_MEMBERS
100
AcDbLine
 62
7
  6
CONTINUOUS
 10
4.8279571177
 20
2.239702041
 11
4.8232363246
 21
2.239702041
  0
LINE
  5
279
100
AcDbEntity
  8
ALL_ASSEMBLY_MEMBERS
100
AcDbLine
 62
7
  6
CONTINUOUS
 10
4.8194933191
 20
2.239702041
 11
4.8147951605
 21
2.239702041
  0
LINE
  5
27A
100
AcDbEntity
  8
ALL_ASSEMBLY_MEMBERS
100
AcDbLine
 62
7
  6
CONTINUOUS
 10
4.802773987
 20
2.239702041
 11
4.7982076765
 21
2.239702041
  0
LINE
  5
27B
100
AcDbEntity
  8
ALL_ASSEMBLY_MEMBERS
100
AcDbLine
 62
7
  6
CONTINUOUS
 10
4.8110816553
 20
2.239702041
 11
4.806435097
 21
2.239702041
  0
LINE
  5
27C
100
AcDbEntity
  8
ALL_ASSEMBLY_MEMBERS
100
AcDbLine
 62
7
  6
CONTINUOUS
 10
4.7946215337
 20
2.239702041
 11
4.7901636239
 21
2.239702041
  0
LINE
  5
27D
100
AcDbEntity
  8
ALL_ASSEMBLY_MEMBERS
100
AcDbLine
 62
7
  6
CONTINUOUS
 10
4.7789820557
 20
2.239702041
 11
4.7748225629
 21
2.239702041
  0
LINE
  5
27E
100
AcDbEntity
  8
ALL_ASSEMBLY_MEMBERS
100
AcDbLine
 62
7
  6
CONTINUOUS
 10
4.786674558
 20
2.239702041
 11
4.7823525333
 21
2.239702041
  0
LINE
  5
27F
100
AcDbEntity
  8
ALL_ASSEMBLY_MEMBERS
100
AcDbLine
 62
7
  6
CONTINUOUS
 10
4.7715914535
 20
2.239702041
 11
4.7676201373
 21
2.239702041
  0
LINE
  5
280
100
AcDbEntity
  8
ALL_ASSEMBLY_MEMBERS
100
AcDbLine
 62
7
  6
CONTINUOUS
 10
4.7578960697
 20
2.239702041
 11
4.7543732489
 21
2.239702041
  0
LINE
  5
281
100
AcDbEntity
  8
ALL_ASSEMBLY_MEMBERS
100
AcDbLine
 62
7
  6
CONTINUOUS
 10
4.7645483171
 20
2.239702041
 11
4.7607896619
 21
2.239702041
  0
LINE
  5
282
100
AcDbEntity
  8
ALL_ASSEMBLY_MEMBERS
100
AcDbLine
 62
7
  6
CONTINUOUS
 10
4.7459256323
 20
2.239702041
 11
4.7429380504
 21
2.239702041
  0
LINE
  5
283
100
AcDbEntity
  8
ALL_ASSEMBLY_MEMBERS
100
AcDbLine
 62
7
  6
CONTINUOUS
 10
4.7516757246
 20
2.239702041
 11
4.7484104575
 21
2.239702041
  0
LINE
  5
284
100
AcDbEntity
  8
ALL_ASSEMBLY_MEMBERS
100
AcDbLine
 62
7
  6
CONTINUOUS
 10
4.7359748932
 20
2.239702041
 11
4.7335961144
 21
2.239702041
  0
LINE
  5
285
100
AcDbEntity
  8
ALL_ASSEMBLY_MEMBERS
100
AcDbLine
 62
7
  6
CONTINUOUS
 10
4.7406812441
 20
2.239702041
 11
4.7379897668
 21
2.239702041
  0
LINE
  5
286
100
AcDbEntity
  8
ALL_ASSEMBLY_MEMBERS
100
AcDbLine
 62
7
  6
CONTINUOUS
 10
4.7204075836
 20
2.239702041
 11
4.720139885
 21
2.239702041
  0
LINE
  5
287
100
AcDbEntity
  8
ALL_ASSEMBLY_MEMBERS
100
AcDbLine
 62
7
  6
CONTINUOUS
 10
4.7214037601
 20
2.239702041
 11
4.7207670052
 21
2.239702041
  0
LINE
  5
288
100
AcDbEntity
  8
ALL_ASSEMBLY_MEMBERS
100
AcDbLine
 62
7
  6
CONTINUOUS
 10
4.7230568261
 20
2.239702041
 11
4.7220549407
 21
2.239702041
  0
LINE
  5
289
100
AcDbEntity
  8
ALL_ASSEMBLY_MEMBERS
100
AcDbLine
 62
7
  6
CONTINUOUS
 10
4.7253565899
 20
2.239702041
 11
4.7239957511
 21
2.239702041
  0
LINE
  5
28A
100
AcDbEntity
  8
ALL_ASSEMBLY_MEMBERS
100
AcDbLine
 62
7
  6
CONTINUOUS
 10
4.7282888727
 20
2.239702041
 11
4.7265774704
 21
2.239702041
  0
LINE
  5
28B
100
AcDbEntity
  8
ALL_ASSEMBLY_MEMBERS
100
AcDbLine
 62
7
  6
CONTINUOUS
 10
4.7318355961
 20
2.239702041
 11
4.7297841817
 21
2.239702041
  0
LINE
  5
28C
100
AcDbEntity
  8
ALL_ASSEMBLY_MEMBERS
100
AcDbLine
 62
7
  6
CONTINUOUS
 10
4.9354924978
 20
2.282202041
 11
4.9350194181
 21
2.282202041
  0
LINE
  5
28D
100
AcDbEntity
  8
ALL_ASSEMBLY_MEMBERS
100
AcDbLine
 62
7
  6
CONTINUOUS
 10
4.9305470327
 20
2.282202041
 11
4.9289902609
 21
2.282202041
  0
LINE
  5
28E
100
AcDbEntity
  8
ALL_ASSEMBLY_MEMBERS
100
AcDbLine
 62
7
  6
CONTINUOUS
 10
4.934497519
 20
2.282202041
 11
4.9336572844
 21
2.282202041
  0
LINE
  5
28F
100
AcDbEntity
  8
ALL_ASSEMBLY_MEMBERS
100
AcDbLine
 62
7
  6
CONTINUOUS
 10
4.9358244379
 20
2.282202041
 11
4.9357214299
 21
2.282202041
  0
LINE
  5
290
100
AcDbEntity
  8
ALL_ASSEMBLY_MEMBERS
100
AcDbLine
 62
7
  6
CONTINUOUS
 10
4.9328456358
 20
2.282202041
 11
4.9316434266
 21
2.282202041
  0
LINE
  5
291
100
AcDbEntity
  8
ALL_ASSEMBLY_MEMBERS
100
AcDbLine
 62
7
  6
CONTINUOUS
 10
4.9276158813
 20
2.282202041
 11
4.925714145
 21
2.282202041
  0
LINE
  5
292
100
AcDbEntity
  8
ALL_ASSEMBLY_MEMBERS
100
AcDbLine
 62
7
  6
CONTINUOUS
 10
4.9240702532
 20
2.282202041
 11
4.9218352771
 21
2.282202041
  0
LINE
  5
293
100
AcDbEntity
  8
ALL_ASSEMBLY_MEMBERS
100
AcDbLine
 62
7
  6
CONTINUOUS
 10
4.9199320082
 20
2.282202041
 11
4.9173775718
 21
2.282202041
  0
LINE
  5
294
100
AcDbEntity
  8
ALL_ASSEMBLY_MEMBERS
100
AcDbLine
 62
7
  6
CONTINUOUS
 10
4.9152266602
 20
2.282202041
 11
4.9123685123
 21
2.282202041
  0
LINE
  5
295
100
AcDbEntity
  8
ALL_ASSEMBLY_MEMBERS
100
AcDbLine
 62
7
  6
CONTINUOUS
 10
4.909983219
 20
2.282202041
 11
4.9068389812
 21
2.282202041
  0
LINE
  5
296
100
AcDbEntity
  8
ALL_ASSEMBLY_MEMBERS
100
AcDbLine
 62
7
  6
CONTINUOUS
 10
4.9042340123
 20
2.282202041
 11
4.9008230697
 21
2.282202041
  0
LINE
  5
297
100
AcDbEntity
  8
ALL_ASSEMBLY_MEMBERS
100
AcDbLine
 62
7
  6
CONTINUOUS
 10
4.891362985
 20
2.282202041
 11
4.8874832365
 21
2.282202041
  0
LINE
  5
298
100
AcDbEntity
  8
ALL_ASSEMBLY_MEMBERS
100
AcDbLine
 62
7
  6
CONTINUOUS
 10
4.8980144858
 20
2.282202041
 11
4.8943578681
 21
2.282202041
  0
LINE
  5
299
100
AcDbEntity
  8
ALL_ASSEMBLY_MEMBERS
100
AcDbLine
 62
7
  6
CONTINUOUS
 10
4.8843205186
 20
2.282202041
 11
4.8802415592
 21
2.282202041
  0
LINE
  5
29A
100
AcDbEntity
  8
ALL_ASSEMBLY_MEMBERS
100
AcDbLine
 62
7
  6
CONTINUOUS
 10
4.8769305057
 20
2.282202041
 11
4.8726774836
 21
2.282202041
  0
LINE
  5
29B
100
AcDbEntity
  8
ALL_ASSEMBLY_MEMBERS
100
AcDbLine
 62
7
  6
CONTINUOUS
 10
4.8692385083
 20
2.282202041
 11
4.8648376447
 21
2.282202041
  0
LINE
  5
29C
100
AcDbEntity
  8
ALL_ASSEMBLY_MEMBERS
100
AcDbLine
 62
7
  6
CONTINUOUS
 10
4.86129195
 20
2.282202041
 11
4.8567703777
 21
2.282202041
  0
LINE
  5
29D
100
AcDbEntity
  8
ALL_ASSEMBLY_MEMBERS
100
AcDbLine
 62
7
  6
CONTINUOUS
 10
4.8531398241
 20
2.282202041
 11
4.8485254201
 21
2.282202041
  0
LINE
  5
29E
100
AcDbEntity
  8
ALL_ASSEMBLY_MEMBERS
100
AcDbLine
 62
7
  6
CONTINUOUS
 10
4.844832391
 20
2.282202041
 11
4.8401536047
 21
2.282202041
  0
LINE
  5
29F
100
AcDbEntity
  8
ALL_ASSEMBLY_MEMBERS
100
AcDbLine
 62
7
  6
CONTINUOUS
 10
4.836420869
 20
2.282202041
 11
4.8317065466
 21
2.282202041
  0
LINE
  5
2A0
100
AcDbEntity
  8
ALL_ASSEMBLY_MEMBERS
100
AcDbLine
 62
7
  6
CONTINUOUS
 10
4.8279571177
 20
2.282202041
 11
4.8232363246
 21
2.282202041
  0
LINE
  5
2A1
100
AcDbEntity
  8
ALL_ASSEMBLY_MEMBERS
100
AcDbLine
 62
7
  6
CONTINUOUS
 10
4.8194933191
 20
2.282202041
 11
4.8147951605
 21
2.282202041
  0
LINE
  5
2A2
100
AcDbEntity
  8
ALL_ASSEMBLY_MEMBERS
100
AcDbLine
 62
7
  6
CONTINUOUS
 10
4.8110816553
 20
2.282202041
 11
4.806435097
 21
2.282202041
  0
LINE
  5
2A3
100
AcDbEntity
  8
ALL_ASSEMBLY_MEMBERS
100
AcDbLine
 62
7
  6
CONTINUOUS
 10
4.802773987
 20
2.282202041
 11
4.7982076765
 21
2.282202041
  0
LINE
  5
2A4
100
AcDbEntity
  8
ALL_ASSEMBLY_MEMBERS
100
AcDbLine
 62
7
  6
CONTINUOUS
 10
4.7946215337
 20
2.282202041
 11
4.7901636239
 21
2.282202041
  0
LINE
  5
2A5
100
AcDbEntity
  8
ALL_ASSEMBLY_MEMBERS
100
AcDbLine
 62
7
  6
CONTINUOUS
 10
4.786674558
 20
2.282202041
 11
4.7823525333
 21
2.282202041
  0
LINE
  5
2A6
100
AcDbEntity
  8
ALL_ASSEMBLY_MEMBERS
100
AcDbLine
 62
7
  6
CONTINUOUS
 10
4.7789820557
 20
2.282202041
 11
4.7748225629
 21
2.282202041
  0
LINE
  5
2A7
100
AcDbEntity
  8
ALL_ASSEMBLY_MEMBERS
100
AcDbLine
 62
7
  6
CONTINUOUS
 10
4.7715914535
 20
2.282202041
 11
4.7676201373
 21
2.282202041
  0
LINE
  5
2A8
100
AcDbEntity
  8
ALL_ASSEMBLY_MEMBERS
100
AcDbLine
 62
7
  6
CONTINUOUS
 10
4.7645483171
 20
2.282202041
 11
4.7607896619
 21
2.282202041
  0
LINE
  5
2A9
100
AcDbEntity
  8
ALL_ASSEMBLY_MEMBERS
100
AcDbLine
 62
7
  6
CONTINUOUS
 10
4.7578960697
 20
2.282202041
 11
4.7543732489
 21
2.282202041
  0
LINE
  5
2AA
100
AcDbEntity
  8
ALL_ASSEMBLY_MEMBERS
100
AcDbLine
 62
7
  6
CONTINUOUS
 10
4.7516757246
 20
2.282202041
 11
4.7484104575
 21
2.282202041
  0
LINE
  5
2AB
100
AcDbEntity
  8
ALL_ASSEMBLY_MEMBERS
100
AcDbLine
 62
7
  6
CONTINUOUS
 10
4.7459256323
 20
2.282202041
 11
4.7429380504
 21
2.282202041
  0
LINE
  5
2AC
100
AcDbEntity
  8
ALL_ASSEMBLY_MEMBERS
100
AcDbLine
 62
7
  6
CONTINUOUS
 10
4.7406812441
 20
2.282202041
 11
4.7379897668
 21
2.282202041
  0
LINE
  5
2AD
100
AcDbEntity
  8
ALL_ASSEMBLY_MEMBERS
100
AcDbLine
 62
7
  6
CONTINUOUS
 10
4.7359748932
 20
2.282202041
 11
4.7335961144
 21
2.282202041
  0
LINE
  5
2AE
100
AcDbEntity
  8
ALL_ASSEMBLY_MEMBERS
100
AcDbLine
 62
7
  6
CONTINUOUS
 10
4.7318355961
 20
2.282202041
 11
4.7297841817
 21
2.282202041
  0
LINE
  5
2AF
100
AcDbEntity
  8
ALL_ASSEMBLY_MEMBERS
100
AcDbLine
 62
7
  6
CONTINUOUS
 10
4.7282888727
 20
2.282202041
 11
4.7265774704
 21
2.282202041
  0
LINE
  5
2B0
100
AcDbEntity
  8
ALL_ASSEMBLY_MEMBERS
100
AcDbLine
 62
7
  6
CONTINUOUS
 10
4.7253565899
 20
2.282202041
 11
4.7239957511
 21
2.282202041
  0
LINE
  5
2B1
100
AcDbEntity
  8
ALL_ASSEMBLY_MEMBERS
100
AcDbLine
 62
7
  6
CONTINUOUS
 10
4.7230568261
 20
2.282202041
 11
4.7220549407
 21
2.282202041
  0
LINE
  5
2B2
100
AcDbEntity
  8
ALL_ASSEMBLY_MEMBERS
100
AcDbLine
 62
7
  6
CONTINUOUS
 10
4.7214037601
 20
2.282202041
 11
4.7207670052
 21
2.282202041
  0
LINE
  5
2B3
100
AcDbEntity
  8
ALL_ASSEMBLY_MEMBERS
100
AcDbLine
 62
7
  6
CONTINUOUS
 10
4.7204075836
 20
2.282202041
 11
4.720139885
 21
2.282202041
  0
LINE
  5
2B4
100
AcDbEntity
  8
ALL_ASSEMBLY_MEMBERS
100
AcDbLine
 62
7
  6
CONTINUOUS
 10
4.7201366227
 20
2.2396878904
 11
4.7200744385
 21
2.239702041
  0
LINE
  5
2B5
100
AcDbEntity
  8
ALL_ASSEMBLY_MEMBERS
100
AcDbLine
 62
7
  6
CONTINUOUS
 10
4.7219248044
 20
2.2392388054
 11
4.7219818762
 21
2.2392227723
  0
LINE
  5
2B6
100
AcDbEntity
  8
0
100
AcDbLine
 62
7
  6
CONTINUOUS
 10
4.6760112477
 20
6.8440134406
 11
4.6759901785
 21
6.843986831
  0
LINE
  5
2B7
100
AcDbEntity
  8
0
100
AcDbLine
 62
7
  6
CONTINUOUS
 10
4.6204494382
 20
2.6882893024
 11
5.0354494382
 21
2.6882893024
  0
LINE
  5
2B8
100
AcDbEntity
  8
ALL_FEATURES
100
AcDbLine
 62
7
  6
CONTINUOUS
 10
5.0704494382
 20
2.6910393024
 11
4.5854494382
 21
2.6910393024
  0
LINE
  5
2B9
100
AcDbEntity
  8
ALL_ASSEMBLY_MEMBERS
100
AcDbLine
 62
7
  6
CONTINUOUS
 10
4.9329017159
 20
2.2831697666
 11
4.9332169449
 21
2.2830281279
  0
LINE
  5
2BA
100
AcDbEntity
  8
ALL_ASSEMBLY_MEMBERS
100
AcDbLine
 62
7
  6
CONTINUOUS
 10
4.9346674368
 20
2.2823655317
 11
4.9350194181
 21
2.282202041
  0
LINE
  5
2BB
100
AcDbEntity
  8
ALL_ASSEMBLY_MEMBERS
100
AcDbLine
 62
7
  6
CONTINUOUS
 10
4.9337354611
 20
2.2831697666
 11
4.9340673655
 21
2.2830106852
  0
LINE
  5
2BC
100
AcDbEntity
  8
ALL_ASSEMBLY_MEMBERS
100
AcDbLine
 62
7
  6
CONTINUOUS
 10
4.9355375966
 20
2.2822930941
 11
4.9357214299
 21
2.282202041
  0
LINE
  5
2BD
100
AcDbEntity
  8
ALL_ASSEMBLY_MEMBERS
100
AcDbLine
 62
7
  6
CONTINUOUS
 10
4.9340260018
 20
2.2830123926
 11
4.9337354611
 21
2.2831697666
  0
LINE
  5
2BE
100
AcDbEntity
  8
ALL_ASSEMBLY_MEMBERS
100
AcDbLine
 62
7
  6
CONTINUOUS
 10
4.9331657853
 20
2.2830122775
 11
4.9329017159
 21
2.2831697666
  0
LINE
  5
2BF
100
AcDbEntity
  8
ALL_FEATURES
100
AcDbLine
 62
7
  6
CONTINUOUS
 10
5.0704494382
 20
2.7210393024
 11
4.5854494382
 21
2.7210393024
  0
LINE
  5
2C0
100
AcDbEntity
  8
ALL_FEATURES
100
AcDbLine
 62
7
  6
CONTINUOUS
 10
5.0854494382
 20
2.747731998
 11
5.0788485562
 21
2.747731998
  0
LINE
  5
2C1
100
AcDbEntity
  8
ALL_FEATURES
100
AcDbLine
 62
7
  6
CONTINUOUS
 10
5.0035678316
 20
2.747731998
 11
4.9032301628
 21
2.747731998
  0
LINE
  5
2C2
100
AcDbEntity
  8
ALL_FEATURES
100
AcDbLine
 62
7
  6
CONTINUOUS
 10
4.7526687136
 20
2.747731998
 11
4.6523310448
 21
2.747731998
  0
LINE
  5
2C3
100
AcDbEntity
  8
ALL_FEATURES
100
AcDbLine
 62
7
  6
CONTINUOUS
 10
4.5770503202
 20
2.747731998
 11
4.5704494382
 21
2.747731998
  0
LINE
  5
2C4
100
AcDbEntity
  8
ALL_FEATURES
100
AcDbLine
 62
7
  6
CONTINUOUS
 10
5.0854494382
 20
2.7860882503
 11
5.0788485562
 21
2.7860882503
  0
LINE
  5
2C5
100
AcDbEntity
  8
ALL_FEATURES
100
AcDbLine
 62
7
  6
CONTINUOUS
 10
5.0035678316
 20
2.7860882503
 11
4.9032301628
 21
2.7860882503
  0
LINE
  5
2C6
100
AcDbEntity
  8
ALL_FEATURES
100
AcDbLine
 62
7
  6
CONTINUOUS
 10
4.7526687136
 20
2.7860882503
 11
4.6523310448
 21
2.7860882503
  0
LINE
  5
2C7
100
AcDbEntity
  8
ALL_FEATURES
100
AcDbLine
 62
7
  6
CONTINUOUS
 10
4.5770503202
 20
2.7860882503
 11
4.5704494382
 21
2.7860882503
  0
LINE
  5
2C8
100
AcDbEntity
  8
ALL_FEATURES
100
AcDbLine
 62
7
  6
CONTINUOUS
 10
5.069414291
 20
2.8133842346
 11
4.5864845854
 21
2.8133842346
  0
LINE
  5
2C9
100
AcDbEntity
  8
ALL_FEATURES
100
AcDbLine
 62
7
  6
CONTINUOUS
 10
5.0280298914
 20
2.8241391575
 11
4.627868985
 21
2.8241391575
  0
LINE
  5
2CA
100
AcDbEntity
  8
ALL_FEATURES
100
AcDbLine
 62
7
  6
CONTINUOUS
 10
4.6479689075
 20
1.5992747259
 11
4.6523310448
 21
1.5917192824
  0
LINE
  5
2CB
100
AcDbEntity
  8
0
100
AcDbLine
 62
7
  6
CONTINUOUS
 10
5.0116994382
 20
1.5851755091
 11
5.0354494382
 21
1.5440393024
  0
LWPOLYLINE
  5
2CC
100
AcDbEntity
  8
DEFAULT_SURFACES
100
AcDbPolyline
 62
7
  6
CONTINUOUS
 90
14
 70
0
 10
5.1228422298
 20
7.1974561835
 10
5.1288211168
 20
7.2109963659
 10
5.1348344479
 20
7.2248198894
 10
5.140847695
 20
7.2389520447
 10
5.1468513046
 20
7.2534825731
 10
5.1528399609
 20
7.2685260477
 10
5.1587625935
 20
7.2840980786
 10
5.1645342575
 20
7.3001253681
 10
5.1701197706
 20
7.3166695182
 10
5.1754679484
 20
7.3337587945
 10
5.1804775814
 20
7.3512495912
 10
5.1851012913
 20
7.3691495785
 10
5.189295436
 20
7.3874781853
 10
5.1923685641
 20
7.4029772884
  0
LINE
  5
2CD
100
AcDbEntity
  8
0
100
AcDbLine
 62
7
  6
CONTINUOUS
 10
4.8303371006
 20
1.5679603117
 11
4.8279494382
 21
1.5815014183
  0
LINE
  5
2CE
100
AcDbEntity
  8
ALL_FEATURES
100
AcDbLine
 62
7
  6
CONTINUOUS
 10
4.4529494382
 20
0.7890393024
 11
4.4529494382
 21
1.1015393024
  0
LINE
  5
2CF
100
AcDbEntity
  8
0
100
AcDbLine
 62
7
  6
CONTINUOUS
 10
4.4841994382
 20
2.0725393024
 11
4.4841994382
 21
2.0925393024
  0
LINE
  5
2D0
100
AcDbEntity
  8
ALL_FEATURES
100
AcDbLine
 62
7
  6
CONTINUOUS
 10
4.4891994382
 20
2.0925393024
 11
4.4891994382
 21
2.1225393024
  0
LINE
  5
2D1
100
AcDbEntity
  8
0
100
AcDbLine
 62
7
  6
CONTINUOUS
 10
4.5529494382
 20
1.627566842
 11
4.5529494382
 21
2.0475311371
  0
LINE
  5
2D2
100
AcDbEntity
  8
ALL_FEATURES
100
AcDbLine
 62
7
  6
CONTINUOUS
 10
4.5704494382
 20
2.7860882503
 11
4.5704494382
 21
2.747731998
  0
LINE
  5
2D3
100
AcDbEntity
  8
ALL_FEATURES
100
AcDbLine
 62
7
  6
CONTINUOUS
 10
4.5704494382
 20
1.3959903544
 11
4.5704494382
 21
1.4343466067
  0
LINE
  5
2D4
100
AcDbEntity
  8
ALL_FEATURES
100
AcDbLine
 62
7
  6
CONTINUOUS
 10
4.5766994382
 20
7.5243752924
 11
4.5766994382
 21
7.6351097066
  0
LINE
  5
2D5
100
AcDbEntity
  8
ALL_FEATURES
100
AcDbLine
 62
7
  6
CONTINUOUS
 10
4.5770503202
 20
2.7860882503
 11
4.5770503202
 21
2.747731998
  0
LINE
  5
2D6
100
AcDbEntity
  8
ALL_FEATURES
100
AcDbLine
 62
7
  6
CONTINUOUS
 10
4.5770503202
 20
1.3959903544
 11
4.5770503202
 21
1.4343466067
  0
LINE
  5
2D7
100
AcDbEntity
  8
ALL_FEATURES
100
AcDbLine
 62
7
  6
CONTINUOUS
 10
4.5854494382
 20
1.4910393024
 11
4.5854494382
 21
1.4610393024
  0
LINE
  5
2D8
100
AcDbEntity
  8
ALL_FEATURES
100
AcDbLine
 62
7
  6
CONTINUOUS
 10
4.5854494382
 20
2.6910393024
 11
4.5854494382
 21
2.7210393024
  0
LINE
  5
2D9
100
AcDbEntity
  8
0
100
AcDbLine
 62
7
  6
CONTINUOUS
 10
4.5929494382
 20
6.3437893024
 11
4.5929494382
 21
6.7762893024
  0
LINE
  5
2DA
100
AcDbEntity
  8
ALL_FEATURES
100
AcDbLine
 62
7
  6
CONTINUOUS
 10
4.5941994382
 20
7.5243752924
 11
4.5941994382
 21
7.6351097066
  0
LINE
  5
2DB
100
AcDbEntity
  8
0
100
AcDbLine
 62
7
  6
CONTINUOUS
 10
4.6204494382
 20
2.6882893024
 11
4.6204494382
 21
2.1489309551
  0
LINE
  5
2DC
100
AcDbEntity
  8
0
100
AcDbLine
 62
7
  6
CONTINUOUS
 10
4.6204494382
 20
1.5440393024
 11
4.6204494382
 21
1.4910393024
  0
LINE
  5
2DD
100
AcDbEntity
  8
DEFAULT_SURFACES
100
AcDbLine
 62
7
  6
CONTINUOUS
 10
5.0500770108
 20
6.9926662002
 11
5.0507727463
 21
6.9961726792
  0
LINE
  5
2DE
100
AcDbEntity
  8
0
100
AcDbLine
 62
7
  6
CONTINUOUS
 10
5.0507727463
 20
6.9961726792
 11
5.0506688529
 21
6.9956561253
  0
LWPOLYLINE
  5
2DF
100
AcDbEntity
  8
DEFAULT_SURFACES
100
AcDbPolyline
 62
7
  6
CONTINUOUS
 90
14
 70
0
 10
5.0506688529
 20
6.9956561253
 10
5.0515651047
 20
7.0000368987
 10
5.054791486
 20
7.0145982459
 10
5.0586259731
 20
7.0300372039
 10
5.0631330613
 20
7.0463304021
 10
5.0682470053
 20
7.0630515461
 10
5.0737825086
 20
7.0795912893
 10
5.0797332441
 20
7.0960326146
 10
5.0859960137
 20
7.1122303651
 10
5.0922742755
 20
7.127641828
 10
5.0984970027
 20
7.142339561
 10
5.1047147012
 20
7.1566387219
 10
5.1108602263
 20
7.170541394
 10
5.1228422298
 20
7.1974561835
  0
LINE
  5
2E0
100
AcDbEntity
  8
0
100
AcDbLine
 62
7
  6
CONTINUOUS
 10
4.6154494431
 20
6.9007447953
 11
4.6154494383
 21
6.9007469473
  0
LINE
  5
2E1
100
AcDbEntity
  8
0
100
AcDbLine
 62
7
  6
CONTINUOUS
 10
4.6404494382
 20
1.2265393024
 11
4.6404494382
 21
1.3579394473
  0
LINE
  5
2E2
100
AcDbEntity
  8
0
100
AcDbLine
 62
7
  6
CONTINUOUS
 10
4.6404494382
 20
2.8241391575
 11
4.6404494382
 21
6.3362893024
  0
LINE
  5
2E3
100
AcDbEntity
  8
0
100
AcDbLine
 62
7
  6
CONTINUOUS
 10
4.6404494382
 20
6.8678577056
 11
4.6404494382
 21
6.9136677208
  0
LINE
  5
2E4
100
AcDbEntity
  8
0
100
AcDbLine
 62
7
  6
CONTINUOUS
 10
4.6441994382
 20
1.5999393851
 11
4.6441994382
 21
1.5851755091
  0
LINE
  5
2E5
100
AcDbEntity
  8
ALL_FEATURES
100
AcDbLine
 62
7
  6
CONTINUOUS
 10
4.6523310448
 20
2.7860882503
 11
4.6523310448
 21
2.747731998
  0
LINE
  5
2E6
100
AcDbEntity
  8
ALL_FEATURES
100
AcDbLine
 62
7
  6
CONTINUOUS
 10
4.6523310448
 20
1.3959903544
 11
4.6523310448
 21
1.4343466067
  0
LINE
  5
2E7
100
AcDbEntity
  8
0
100
AcDbLine
 62
7
  6
CONTINUOUS
 10
4.6716994382
 20
6.8383533961
 11
4.6716994382
 21
6.8467146216
  0
LINE
  5
2E8
100
AcDbEntity
  8
ALL_ASSEMBLY_MEMBERS
100
AcDbLine
 62
7
  6
CONTINUOUS
 10
4.7200744385
 20
2.282202041
 11
4.7200744385
 21
2.239702041
  0
LINE
  5
2E9
100
AcDbEntity
  8
ALL_ASSEMBLY_MEMBERS
100
AcDbLine
 62
7
  6
CONTINUOUS
 10
4.720139885
 20
2.282202041
 11
4.720139885
 21
2.239702041
  0
LINE
  5
2EA
100
AcDbEntity
  8
ALL_ASSEMBLY_MEMBERS
100
AcDbLine
 62
7
  6
CONTINUOUS
 10
4.7204075836
 20
2.282202041
 11
4.7204075836
 21
2.239702041
  0
LINE
  5
2EB
100
AcDbEntity
  8
ALL_ASSEMBLY_MEMBERS
100
AcDbLine
 62
7
  6
CONTINUOUS
 10
4.7207670052
 20
2.282202041
 11
4.7207670052
 21
2.239702041
  0
LINE
  5
2EC
100
AcDbEntity
  8
ALL_ASSEMBLY_MEMBERS
100
AcDbLine
 62
7
  6
CONTINUOUS
 10
4.7214037601
 20
2.282202041
 11
4.7214037601
 21
2.239702041
  0
LINE
  5
2ED
100
AcDbEntity
  8
ALL_ASSEMBLY_MEMBERS
100
AcDbLine
 62
7
  6
CONTINUOUS
 10
4.7220549407
 20
2.282202041
 11
4.7220549407
 21
2.239702041
  0
LINE
  5
2EE
100
AcDbEntity
  8
ALL_ASSEMBLY_MEMBERS
100
AcDbLine
 62
7
  6
CONTINUOUS
 10
4.7230568261
 20
2.282202041
 11
4.7230568261
 21
2.239702041
  0
LINE
  5
2EF
100
AcDbEntity
  8
ALL_ASSEMBLY_MEMBERS
100
AcDbLine
 62
7
  6
CONTINUOUS
 10
4.7239957511
 20
2.282202041
 11
4.7239957511
 21
2.239702041
  0
LINE
  5
2F0
100
AcDbEntity
  8
ALL_ASSEMBLY_MEMBERS
100
AcDbLine
 62
7
  6
CONTINUOUS
 10
4.7253565899
 20
2.282202041
 11
4.7253565899
 21
2.239702041
  0
LINE
  5
2F1
100
AcDbEntity
  8
ALL_ASSEMBLY_MEMBERS
100
AcDbLine
 62
7
  6
CONTINUOUS
 10
4.7265774704
 20
2.282202041
 11
4.7265774704
 21
2.239702041
  0
LINE
  5
2F2
100
AcDbEntity
  8
ALL_ASSEMBLY_MEMBERS
100
AcDbLine
 62
7
  6
CONTINUOUS
 10
4.7282888727
 20
2.282202041
 11
4.7282888727
 21
2.239702041
  0
LINE
  5
2F3
100
AcDbEntity
  8
ALL_ASSEMBLY_MEMBERS
100
AcDbLine
 62
7
  6
CONTINUOUS
 10
4.7296994382
 20
2.1634561253
 11
4.7296994382
 21
2.1672061253
  0
LINE
  5
2F4
100
AcDbEntity
  8
ALL_ASSEMBLY_MEMBERS
100
AcDbLine
 62
7
  6
CONTINUOUS
 10
4.7297841817
 20
2.282202041
 11
4.7297841817
 21
2.239702041
  0
LINE
  5
2F5
100
AcDbEntity
  8
ALL_ASSEMBLY_MEMBERS
100
AcDbLine
 62
7
  6
CONTINUOUS
 10
4.7318355961
 20
2.282202041
 11
4.7318355961
 21
2.239702041
  0
LINE
  5
2F6
100
AcDbEntity
  8
ALL_ASSEMBLY_MEMBERS
100
AcDbLine
 62
7
  6
CONTINUOUS
 10
4.7335961144
 20
2.282202041
 11
4.7335961144
 21
2.239702041
  0
LINE
  5
2F7
100
AcDbEntity
  8
ALL_ASSEMBLY_MEMBERS
100
AcDbLine
 62
7
  6
CONTINUOUS
 10
4.7359748932
 20
2.282202041
 11
4.7359748932
 21
2.239702041
  0
LINE
  5
2F8
100
AcDbEntity
  8
ALL_ASSEMBLY_MEMBERS
100
AcDbLine
 62
7
  6
CONTINUOUS
 10
4.7379897668
 20
2.282202041
 11
4.7379897668
 21
2.239702041
  0
LINE
  5
2F9
100
AcDbEntity
  8
ALL_ASSEMBLY_MEMBERS
100
AcDbLine
 62
7
  6
CONTINUOUS
 10
4.7406812441
 20
2.282202041
 11
4.7406812441
 21
2.239702041
  0
LINE
  5
2FA
100
AcDbEntity
  8
ALL_ASSEMBLY_MEMBERS
100
AcDbLine
 62
7
  6
CONTINUOUS
 10
4.7429380504
 20
2.282202041
 11
4.7429380504
 21
2.239702041
  0
LINE
  5
2FB
100
AcDbEntity
  8
ALL_ASSEMBLY_MEMBERS
100
AcDbLine
 62
7
  6
CONTINUOUS
 10
4.7459256323
 20
2.282202041
 11
4.7459256323
 21
2.239702041
  0
LINE
  5
2FC
100
AcDbEntity
  8
ALL_ASSEMBLY_MEMBERS
100
AcDbLine
 62
7
  6
CONTINUOUS
 10
4.7484104575
 20
2.282202041
 11
4.7484104575
 21
2.239702041
  0
LINE
  5
2FD
100
AcDbEntity
  8
ALL_ASSEMBLY_MEMBERS
100
AcDbLine
 62
7
  6
CONTINUOUS
 10
4.7489494382
 20
2.163050193
 11
4.7489494382
 21
2.1634561253
  0
LINE
  5
2FE
100
AcDbEntity
  8
ALL_ASSEMBLY_MEMBERS
100
AcDbLine
 62
7
  6
CONTINUOUS
 10
4.7516757246
 20
2.282202041
 11
4.7516757246
 21
2.239702041
  0
LINE
  5
2FF
100
AcDbEntity
  8
ALL_FEATURES
100
AcDbLine
 62
7
  6
CONTINUOUS
 10
4.7526687136
 20
2.7860882503
 11
4.7526687136
 21
2.747731998
  0
LINE
  5
300
100
AcDbEntity
  8
ALL_FEATURES
100
AcDbLine
 62
7
  6
CONTINUOUS
 10
4.7526687136
 20
1.3959903544
 11
4.7526687136
 21
1.4343466067
  0
LINE
  5
301
100
AcDbEntity
  8
ALL_ASSEMBLY_MEMBERS
100
AcDbLine
 62
7
  6
CONTINUOUS
 10
4.7543269712
 20
2.2831697666
 11
4.7543269712
 21
2.2392227723
  0
LINE
  5
302
100
AcDbEntity
  8
ALL_ASSEMBLY_MEMBERS
100
AcDbLine
 62
7
  6
CONTINUOUS
 10
4.7543732489
 20
2.282202041
 11
4.7543732489
 21
2.239702041
  0
LINE
  5
303
100
AcDbEntity
  8
ALL_ASSEMBLY_MEMBERS
100
AcDbLine
 62
7
  6
CONTINUOUS
 10
4.7578960697
 20
2.282202041
 11
4.7578960697
 21
2.239702041
  0
LINE
  5
304
100
AcDbEntity
  8
ALL_ASSEMBLY_MEMBERS
100
AcDbLine
 62
7
  6
CONTINUOUS
 10
4.7605355125
 20
2.2831697666
 11
4.7605355125
 21
2.2392227723
  0
LINE
  5
305
100
AcDbEntity
  8
ALL_ASSEMBLY_MEMBERS
100
AcDbLine
 62
7
  6
CONTINUOUS
 10
4.7607896619
 20
2.282202041
 11
4.7607896619
 21
2.239702041
  0
LINE
  5
306
100
AcDbEntity
  8
ALL_ASSEMBLY_MEMBERS
100
AcDbLine
 62
7
  6
CONTINUOUS
 10
4.7645483171
 20
2.282202041
 11
4.7645483171
 21
2.239702041
  0
LINE
  5
307
100
AcDbEntity
  8
ALL_ASSEMBLY_MEMBERS
100
AcDbLine
 62
7
  6
CONTINUOUS
 10
4.767159683
 20
2.2831697666
 11
4.767159683
 21
2.2392227723
  0
LINE
  5
308
100
AcDbEntity
  8
ALL_ASSEMBLY_MEMBERS
100
AcDbLine
 62
7
  6
CONTINUOUS
 10
4.7676201373
 20
2.282202041
 11
4.7676201373
 21
2.239702041
  0
LINE
  5
309
100
AcDbEntity
  8
ALL_ASSEMBLY_MEMBERS
100
AcDbLine
 62
7
  6
CONTINUOUS
 10
4.7715914535
 20
2.282202041
 11
4.7715914535
 21
2.239702041
  0
LINE
  5
30A
100
AcDbEntity
  8
ALL_ASSEMBLY_MEMBERS
100
AcDbLine
 62
7
  6
CONTINUOUS
 10
4.7741586426
 20
2.2831697666
 11
4.7741586426
 21
2.2392227723
  0
LINE
  5
30B
100
AcDbEntity
  8
ALL_ASSEMBLY_MEMBERS
100
AcDbLine
 62
7
  6
CONTINUOUS
 10
4.7748225629
 20
2.282202041
 11
4.7748225629
 21
2.239702041
  0
LINE
  5
30C
100
AcDbEntity
  8
ALL_ASSEMBLY_MEMBERS
100
AcDbLine
 62
7
  6
CONTINUOUS
 10
4.7789820557
 20
2.282202041
 11
4.7789820557
 21
2.239702041
  0
LINE
  5
30D
100
AcDbEntity
  8
ALL_ASSEMBLY_MEMBERS
100
AcDbLine
 62
7
  6
CONTINUOUS
 10
4.7814892404
 20
2.2831697666
 11
4.7814892404
 21
2.2392227723
  0
LINE
  5
30E
100
AcDbEntity
  8
ALL_ASSEMBLY_MEMBERS
100
AcDbLine
 62
7
  6
CONTINUOUS
 10
4.7823525333
 20
2.282202041
 11
4.7823525333
 21
2.239702041
  0
LINE
  5
30F
100
AcDbEntity
  8
ALL_ASSEMBLY_MEMBERS
100
AcDbLine
 62
7
  6
CONTINUOUS
 10
4.786674558
 20
2.282202041
 11
4.786674558
 21
2.239702041
  0
LINE
  5
310
100
AcDbEntity
  8
ALL_ASSEMBLY_MEMBERS
100
AcDbLine
 62
7
  6
CONTINUOUS
 10
4.7891062807
 20
2.2831697666
 11
4.7891062807
 21
2.2392227723
  0
LINE
  5
311
100
AcDbEntity
  8
ALL_ASSEMBLY_MEMBERS
100
AcDbLine
 62
7
  6
CONTINUOUS
 10
4.7901636239
 20
2.282202041
 11
4.7901636239
 21
2.239702041
  0
LINE
  5
312
100
AcDbEntity
  8
ALL_ASSEMBLY_MEMBERS
100
AcDbLine
 62
7
  6
CONTINUOUS
 10
4.7946215337
 20
2.282202041
 11
4.7946215337
 21
2.239702041
  0
LINE
  5
313
100
AcDbEntity
  8
ALL_ASSEMBLY_MEMBERS
100
AcDbLine
 62
7
  6
CONTINUOUS
 10
4.796962802
 20
2.2831697666
 11
4.796962802
 21
2.2392227723
  0
LINE
  5
314
100
AcDbEntity
  8
ALL_ASSEMBLY_MEMBERS
100
AcDbLine
 62
7
  6
CONTINUOUS
 10
4.7982076765
 20
2.282202041
 11
4.7982076765
 21
2.239702041
  0
LINE
  5
315
100
AcDbEntity
  8
ALL_ASSEMBLY_MEMBERS
100
AcDbLine
 62
7
  6
CONTINUOUS
 10
4.802773987
 20
2.282202041
 11
4.802773987
 21
2.239702041
  0
LINE
  5
316
100
AcDbEntity
  8
ALL_ASSEMBLY_MEMBERS
100
AcDbLine
 62
7
  6
CONTINUOUS
 10
4.8050103663
 20
2.2831697666
 11
4.8050103663
 21
2.2392227723
  0
LINE
  5
317
100
AcDbEntity
  8
ALL_ASSEMBLY_MEMBERS
100
AcDbLine
 62
7
  6
CONTINUOUS
 10
4.806435097
 20
2.282202041
 11
4.806435097
 21
2.239702041
  0
LINE
  5
318
100
AcDbEntity
  8
ALL_ASSEMBLY_MEMBERS
100
AcDbLine
 62
7
  6
CONTINUOUS
 10
4.8110816553
 20
2.282202041
 11
4.8110816553
 21
2.239702041
  0
LINE
  5
319
100
AcDbEntity
  8
ALL_ASSEMBLY_MEMBERS
100
AcDbLine
 62
7
  6
CONTINUOUS
 10
4.8131993575
 20
2.2831697666
 11
4.8131993575
 21
2.2392227723
  0
LINE
  5
31A
100
AcDbEntity
  8
ALL_ASSEMBLY_MEMBERS
100
AcDbLine
 62
7
  6
CONTINUOUS
 10
4.8147951605
 20
2.282202041
 11
4.8147951605
 21
2.239702041
  0
LINE
  5
31B
100
AcDbEntity
  8
0
100
AcDbLine
 62
7
  6
CONTINUOUS
 10
4.8154494382
 20
7.1749780967
 11
4.8154494382
 21
7.1965156312
  0
LINE
  5
31C
100
AcDbEntity
  8
ALL_ASSEMBLY_MEMBERS
100
AcDbLine
 62
7
  6
CONTINUOUS
 10
4.8194933191
 20
2.282202041
 11
4.8194933191
 21
2.239702041
  0
LINE
  5
31D
100
AcDbEntity
  8
ALL_ASSEMBLY_MEMBERS
100
AcDbLine
 62
7
  6
CONTINUOUS
 10
4.8214792879
 20
2.2831697666
 11
4.8214792879
 21
2.2392227723
  0
LINE
  5
31E
100
AcDbEntity
  8
ALL_ASSEMBLY_MEMBERS
100
AcDbLine
 62
7
  6
CONTINUOUS
 10
4.8232363246
 20
2.282202041
 11
4.8232363246
 21
2.239702041
  0
LINE
  5
31F
100
AcDbEntity
  8
ALL_ASSEMBLY_MEMBERS
100
AcDbLine
 62
7
  6
CONTINUOUS
 10
4.8279571177
 20
2.282202041
 11
4.8279571177
 21
2.239702041
  0
LINE
  5
320
100
AcDbEntity
  8
ALL_ASSEMBLY_MEMBERS
100
AcDbLine
 62
7
  6
CONTINUOUS
 10
4.8297991089
 20
2.2831697666
 11
4.8297991089
 21
2.2392227723
  0
LINE
  5
321
100
AcDbEntity
  8
ALL_ASSEMBLY_MEMBERS
100
AcDbLine
 62
7
  6
CONTINUOUS
 10
4.8317065466
 20
2.282202041
 11
4.8317065466
 21
2.239702041
  0
LINE
  5
322
100
AcDbEntity
  8
ALL_ASSEMBLY_MEMBERS
100
AcDbLine
 62
7
  6
CONTINUOUS
 10
4.836420869
 20
2.282202041
 11
4.836420869
 21
2.239702041
  0
LINE
  5
323
100
AcDbEntity
  8
ALL_ASSEMBLY_MEMBERS
100
AcDbLine
 62
7
  6
CONTINUOUS
 10
4.8381075261
 20
2.2831697666
 11
4.8381075261
 21
2.2392227723
  0
LINE
  5
324
100
AcDbEntity
  8
ALL_ASSEMBLY_MEMBERS
100
AcDbLine
 62
7
  6
CONTINUOUS
 10
4.8401536047
 20
2.282202041
 11
4.8401536047
 21
2.239702041
  0
LINE
  5
325
100
AcDbEntity
  8
0
100
AcDbLine
 62
7
  6
CONTINUOUS
 10
4.8404494382
 20
7.1965156312
 11
4.8404494382
 21
7.1749780967
  0
LINE
  5
326
100
AcDbEntity
  8
ALL_ASSEMBLY_MEMBERS
100
AcDbLine
 62
7
  6
CONTINUOUS
 10
4.844832391
 20
2.282202041
 11
4.844832391
 21
2.239702041
  0
LINE
  5
327
100
AcDbEntity
  8
ALL_ASSEMBLY_MEMBERS
100
AcDbLine
 62
7
  6
CONTINUOUS
 10
4.8463533152
 20
2.2831697666
 11
4.8463533152
 21
2.2392227723
  0
LINE
  5
328
100
AcDbEntity
  8
ALL_ASSEMBLY_MEMBERS
100
AcDbLine
 62
7
  6
CONTINUOUS
 10
4.8485254201
 20
2.282202041
 11
4.8485254201
 21
2.239702041
  0
LINE
  5
329
100
AcDbEntity
  8
ALL_ASSEMBLY_MEMBERS
100
AcDbLine
 62
7
  6
CONTINUOUS
 10
4.8531398241
 20
2.282202041
 11
4.8531398241
 21
2.239702041
  0
LINE
  5
32A
100
AcDbEntity
  8
ALL_ASSEMBLY_MEMBERS
100
AcDbLine
 62
7
  6
CONTINUOUS
 10
4.8544856384
 20
2.2831697666
 11
4.8544856384
 21
2.2392227723
  0
LINE
  5
32B
100
AcDbEntity
  8
ALL_ASSEMBLY_MEMBERS
100
AcDbLine
 62
7
  6
CONTINUOUS
 10
4.8567703777
 20
2.282202041
 11
4.8567703777
 21
2.239702041
  0
LINE
  5
32C
100
AcDbEntity
  8
ALL_ASSEMBLY_MEMBERS
100
AcDbLine
 62
7
  6
CONTINUOUS
 10
4.86129195
 20
2.282202041
 11
4.86129195
 21
2.239702041
  0
LINE
  5
32D
100
AcDbEntity
  8
ALL_ASSEMBLY_MEMBERS
100
AcDbLine
 62
7
  6
CONTINUOUS
 10
4.8624543571
 20
2.2831697666
 11
4.8624543571
 21
2.2392227723
  0
LINE
  5
32E
100
AcDbEntity
  8
ALL_ASSEMBLY_MEMBERS
100
AcDbLine
 62
7
  6
CONTINUOUS
 10
4.8648376447
 20
2.282202041
 11
4.8648376447
 21
2.239702041
  0
LINE
  5
32F
100
AcDbEntity
  8
ALL_ASSEMBLY_MEMBERS
100
AcDbLine
 62
7
  6
CONTINUOUS
 10
4.8692385083
 20
2.282202041
 11
4.8692385083
 21
2.239702041
  0
LINE
  5
330
100
AcDbEntity
  8
ALL_ASSEMBLY_MEMBERS
100
AcDbLine
 62
7
  6
CONTINUOUS
 10
4.8702103414
 20
2.2831697666
 11
4.8702103414
 21
2.2392227723
  0
LINE
  5
331
100
AcDbEntity
  8
ALL_ASSEMBLY_MEMBERS
100
AcDbLine
 62
7
  6
CONTINUOUS
 10
4.8726774836
 20
2.282202041
 11
4.8726774836
 21
2.239702041
  0
LINE
  5
332
100
AcDbEntity
  8
ALL_ASSEMBLY_MEMBERS
100
AcDbLine
 62
7
  6
CONTINUOUS
 10
4.8769305057
 20
2.282202041
 11
4.8769305057
 21
2.239702041
  0
LINE
  5
333
100
AcDbEntity
  8
ALL_ASSEMBLY_MEMBERS
100
AcDbLine
 62
7
  6
CONTINUOUS
 10
4.8777057733
 20
2.2831697666
 11
4.8777057733
 21
2.2392227723
  0
LINE
  5
334
100
AcDbEntity
  8
ALL_ASSEMBLY_MEMBERS
100
AcDbLine
 62
7
  6
CONTINUOUS
 10
4.8802415592
 20
2.282202041
 11
4.8802415592
 21
2.239702041
  0
LINE
  5
335
100
AcDbEntity
  8
ALL_ASSEMBLY_MEMBERS
100
AcDbLine
 62
7
  6
CONTINUOUS
 10
4.8843205186
 20
2.282202041
 11
4.8843205186
 21
2.239702041
  0
LINE
  5
336
100
AcDbEntity
  8
ALL_ASSEMBLY_MEMBERS
100
AcDbLine
 62
7
  6
CONTINUOUS
 10
4.8848944408
 20
2.2831697666
 11
4.8848944408
 21
2.2392227723
  0
LINE
  5
337
100
AcDbEntity
  8
ALL_ASSEMBLY_MEMBERS
100
AcDbLine
 62
7
  6
CONTINUOUS
 10
4.8874832365
 20
2.282202041
 11
4.8874832365
 21
2.239702041
  0
LINE
  5
338
100
AcDbEntity
  8
ALL_ASSEMBLY_MEMBERS
100
AcDbLine
 62
7
  6
CONTINUOUS
 10
4.891362985
 20
2.282202041
 11
4.891362985
 21
2.239702041
  0
LINE
  5
339
100
AcDbEntity
  8
ALL_ASSEMBLY_MEMBERS
100
AcDbLine
 62
7
  6
CONTINUOUS
 10
4.8917320234
 20
2.2831697666
 11
4.8917320234
 21
2.2392227723
  0
LINE
  5
33A
100
AcDbEntity
  8
ALL_ASSEMBLY_MEMBERS
100
AcDbLine
 62
7
  6
CONTINUOUS
 10
4.8943578681
 20
2.282202041
 11
4.8943578681
 21
2.239702041
  0
LINE
  5
33B
100
AcDbEntity
  8
ALL_ASSEMBLY_MEMBERS
100
AcDbLine
 62
7
  6
CONTINUOUS
 10
4.8980144858
 20
2.282202041
 11
4.8980144858
 21
2.239702041
  0
LINE
  5
33C
100
AcDbEntity
  8
ALL_ASSEMBLY_MEMBERS
100
AcDbLine
 62
7
  6
CONTINUOUS
 10
4.8981763652
 20
2.2831697666
 11
4.8981763652
 21
2.2392227723
  0
LINE
  5
33D
100
AcDbEntity
  8
ALL_ASSEMBLY_MEMBERS
100
AcDbLine
 62
7
  6
CONTINUOUS
 10
4.9008230697
 20
2.282202041
 11
4.9008230697
 21
2.239702041
  0
LINE
  5
33E
100
AcDbEntity
  8
ALL_FEATURES
100
AcDbLine
 62
7
  6
CONTINUOUS
 10
4.9032301628
 20
2.7860882503
 11
4.9032301628
 21
2.747731998
  0
LINE
  5
33F
100
AcDbEntity
  8
ALL_FEATURES
100
AcDbLine
 62
7
  6
CONTINUOUS
 10
4.9032301628
 20
1.3959903544
 11
4.9032301628
 21
1.4343466067
  0
LINE
  5
340
100
AcDbEntity
  8
ALL_ASSEMBLY_MEMBERS
100
AcDbLine
 62
7
  6
CONTINUOUS
 10
4.9042340123
 20
2.282202041
 11
4.9042340123
 21
2.239702041
  0
LINE
  5
341
100
AcDbEntity
  8
ALL_ASSEMBLY_MEMBERS
100
AcDbLine
 62
7
  6
CONTINUOUS
 10
4.9068389812
 20
2.282202041
 11
4.9068389812
 21
2.239702041
  0
LINE
  5
342
100
AcDbEntity
  8
ALL_ASSEMBLY_MEMBERS
100
AcDbLine
 62
7
  6
CONTINUOUS
 10
4.9069494382
 20
2.163050193
 11
4.9069494382
 21
2.1634561253
  0
LINE
  5
343
100
AcDbEntity
  8
ALL_ASSEMBLY_MEMBERS
100
AcDbLine
 62
7
  6
CONTINUOUS
 10
4.909983219
 20
2.282202041
 11
4.909983219
 21
2.239702041
  0
LINE
  5
344
100
AcDbEntity
  8
ALL_ASSEMBLY_MEMBERS
100
AcDbLine
 62
7
  6
CONTINUOUS
 10
4.9123685123
 20
2.282202041
 11
4.9123685123
 21
2.239702041
  0
LINE
  5
345
100
AcDbEntity
  8
ALL_ASSEMBLY_MEMBERS
100
AcDbLine
 62
7
  6
CONTINUOUS
 10
4.9152266602
 20
2.282202041
 11
4.9152266602
 21
2.239702041
  0
LINE
  5
346
100
AcDbEntity
  8
ALL_ASSEMBLY_MEMBERS
100
AcDbLine
 62
7
  6
CONTINUOUS
 10
4.9173775718
 20
2.282202041
 11
4.9173775718
 21
2.239702041
  0
LINE
  5
347
100
AcDbEntity
  8
ALL_ASSEMBLY_MEMBERS
100
AcDbLine
 62
7
  6
CONTINUOUS
 10
4.9199320082
 20
2.282202041
 11
4.9199320082
 21
2.239702041
  0
LINE
  5
348
100
AcDbEntity
  8
ALL_ASSEMBLY_MEMBERS
100
AcDbLine
 62
7
  6
CONTINUOUS
 10
4.9218352771
 20
2.282202041
 11
4.9218352771
 21
2.239702041
  0
LINE
  5
349
100
AcDbEntity
  8
ALL_ASSEMBLY_MEMBERS
100
AcDbLine
 62
7
  6
CONTINUOUS
 10
4.9240702532
 20
2.282202041
 11
4.9240702532
 21
2.239702041
  0
LINE
  5
34A
100
AcDbEntity
  8
ALL_ASSEMBLY_MEMBERS
100
AcDbLine
 62
7
  6
CONTINUOUS
 10
4.925714145
 20
2.282202041
 11
4.925714145
 21
2.239702041
  0
LINE
  5
34B
100
AcDbEntity
  8
ALL_ASSEMBLY_MEMBERS
100
AcDbLine
 62
7
  6
CONTINUOUS
 10
4.9261994382
 20
2.1634561253
 11
4.9261994382
 21
2.1672061253
  0
LINE
  5
34C
100
AcDbEntity
  8
ALL_ASSEMBLY_MEMBERS
100
AcDbLine
 62
7
  6
CONTINUOUS
 10
4.9276158813
 20
2.282202041
 11
4.9276158813
 21
2.239702041
  0
LINE
  5
34D
100
AcDbEntity
  8
ALL_ASSEMBLY_MEMBERS
100
AcDbLine
 62
7
  6
CONTINUOUS
 10
4.9289902609
 20
2.282202041
 11
4.9289902609
 21
2.239702041
  0
LINE
  5
34E
100
AcDbEntity
  8
ALL_ASSEMBLY_MEMBERS
100
AcDbLine
 62
7
  6
CONTINUOUS
 10
4.9305470327
 20
2.282202041
 11
4.9305470327
 21
2.239702041
  0
LINE
  5
34F
100
AcDbEntity
  8
ALL_ASSEMBLY_MEMBERS
100
AcDbLine
 62
7
  6
CONTINUOUS
 10
4.9316434266
 20
2.282202041
 11
4.9316434266
 21
2.239702041
  0
LINE
  5
350
100
AcDbEntity
  8
ALL_ASSEMBLY_MEMBERS
100
AcDbLine
 62
7
  6
CONTINUOUS
 10
4.9328456358
 20
2.282202041
 11
4.9328456358
 21
2.239702041
  0
LINE
  5
351
100
AcDbEntity
  8
ALL_ASSEMBLY_MEMBERS
100
AcDbLine
 62
7
  6
CONTINUOUS
 10
4.9336572844
 20
2.282202041
 11
4.9336572844
 21
2.239702041
  0
LINE
  5
352
100
AcDbEntity
  8
ALL_ASSEMBLY_MEMBERS
100
AcDbLine
 62
7
  6
CONTINUOUS
 10
4.934497519
 20
2.282202041
 11
4.934497519
 21
2.239702041
  0
LINE
  5
353
100
AcDbEntity
  8
ALL_ASSEMBLY_MEMBERS
100
AcDbLine
 62
7
  6
CONTINUOUS
 10
4.9350194181
 20
2.282202041
 11
4.9350194181
 21
2.239702041
  0
LINE
  5
354
100
AcDbEntity
  8
ALL_ASSEMBLY_MEMBERS
100
AcDbLine
 62
7
  6
CONTINUOUS
 10
4.9354924978
 20
2.282202041
 11
4.9354924978
 21
2.239702041
  0
LINE
  5
355
100
AcDbEntity
  8
ALL_ASSEMBLY_MEMBERS
100
AcDbLine
 62
7
  6
CONTINUOUS
 10
4.9357214299
 20
2.282202041
 11
4.9357214299
 21
2.239702041
  0
LINE
  5
356
100
AcDbEntity
  8
ALL_ASSEMBLY_MEMBERS
100
AcDbLine
 62
7
  6
CONTINUOUS
 10
4.9358244379
 20
2.282202041
 11
4.9358244379
 21
2.239702041
  0
LINE
  5
357
100
AcDbEntity
  8
0
100
AcDbLine
 62
7
  6
CONTINUOUS
 10
4.9841994382
 20
6.8383515932
 11
4.9841994382
 21
6.8467146216
  0
LINE
  5
358
100
AcDbEntity
  8
ALL_FEATURES
100
AcDbLine
 62
7
  6
CONTINUOUS
 10
5.0035678316
 20
2.7860882503
 11
5.0035678316
 21
2.747731998
  0
LINE
  5
359
100
AcDbEntity
  8
ALL_FEATURES
100
AcDbLine
 62
7
  6
CONTINUOUS
 10
5.0035678316
 20
1.3959903544
 11
5.0035678316
 21
1.4343466067
  0
LINE
  5
35A
100
AcDbEntity
  8
0
100
AcDbLine
 62
7
  6
CONTINUOUS
 10
5.0116994382
 20
1.5999393851
 11
5.0116994382
 21
1.5851755091
  0
LINE
  5
35B
100
AcDbEntity
  8
0
100
AcDbLine
 62
7
  6
CONTINUOUS
 10
5.0154494382
 20
1.2265393024
 11
5.0154494382
 21
1.3579394473
  0
LINE
  5
35C
100
AcDbEntity
  8
0
100
AcDbLine
 62
7
  6
CONTINUOUS
 10
5.0154494382
 20
2.8241391575
 11
5.0154494382
 21
6.3362893024
  0
LINE
  5
35D
100
AcDbEntity
  8
0
100
AcDbLine
 62
7
  6
CONTINUOUS
 10
5.0154494382
 20
6.8678577056
 11
5.0154494382
 21
6.9136677208
  0
LINE
  5
35E
100
AcDbEntity
  8
0
100
AcDbLine
 62
7
  6
CONTINUOUS
 10
5.0354494382
 20
2.6882893024
 11
5.0354494382
 21
2.1489309551
  0
LINE
  5
35F
100
AcDbEntity
  8
0
100
AcDbLine
 62
7
  6
CONTINUOUS
 10
5.0354494382
 20
1.5440393024
 11
5.0354494382
 21
1.4910393024
  0
LINE
  5
360
100
AcDbEntity
  8
ALL_FEATURES
100
AcDbLine
 62
7
  6
CONTINUOUS
 10
5.0616994382
 20
7.5243752924
 11
5.0616994382
 21
7.6351097066
  0
LINE
  5
361
100
AcDbEntity
  8
0
100
AcDbLine
 62
7
  6
CONTINUOUS
 10
5.0629494382
 20
6.3437893024
 11
5.0629494382
 21
6.7762893024
  0
LINE
  5
362
100
AcDbEntity
  8
ALL_FEATURES
100
AcDbLine
 62
7
  6
CONTINUOUS
 10
5.0704494382
 20
1.4910393024
 11
5.0704494382
 21
1.4610393024
  0
LINE
  5
363
100
AcDbEntity
  8
ALL_FEATURES
100
AcDbLine
 62
7
  6
CONTINUOUS
 10
5.0704494382
 20
2.6910393024
 11
5.0704494382
 21
2.7210393024
  0
LINE
  5
364
100
AcDbEntity
  8
ALL_FEATURES
100
AcDbLine
 62
7
  6
CONTINUOUS
 10
5.0788485562
 20
2.7860882503
 11
5.0788485562
 21
2.747731998
  0
LINE
  5
365
100
AcDbEntity
  8
ALL_FEATURES
100
AcDbLine
 62
7
  6
CONTINUOUS
 10
5.0788485562
 20
1.3959903544
 11
5.0788485562
 21
1.4343466067
  0
LINE
  5
366
100
AcDbEntity
  8
ALL_FEATURES
100
AcDbLine
 62
7
  6
CONTINUOUS
 10
5.0791994382
 20
7.5243752924
 11
5.0791994382
 21
7.6351097066
  0
LINE
  5
367
100
AcDbEntity
  8
ALL_FEATURES
100
AcDbLine
 62
7
  6
CONTINUOUS
 10
5.0854494382
 20
2.7860882503
 11
5.0854494382
 21
2.747731998
  0
LINE
  5
368
100
AcDbEntity
  8
ALL_FEATURES
100
AcDbLine
 62
7
  6
CONTINUOUS
 10
5.0854494382
 20
1.3959903544
 11
5.0854494382
 21
1.4343466067
  0
LINE
  5
369
100
AcDbEntity
  8
0
100
AcDbLine
 62
7
  6
CONTINUOUS
 10
5.0404494381
 20
6.9007469473
 11
5.0404494333
 21
6.900744794
  0
LWPOLYLINE
  5
36A
100
AcDbEntity
  8
DEFAULT_SURFACES
100
AcDbPolyline
 62
7
  6
CONTINUOUS
 90
9
 70
0
 10
5.0404494381
 20
6.900744794
 10
5.0405732296
 20
6.910309656
 10
5.0410047452
 20
6.9212988529
 10
5.0417478982
 20
6.9326177058
 10
5.0427948416
 20
6.944150371
 10
5.0441422228
 20
6.9558850199
 10
5.0458043508
 20
6.9679147474
 10
5.0477875549
 20
6.9802196324
 10
5.0500770108
 20
6.9926662002
  0
LWPOLYLINE
  5
36B
100
AcDbEntity
  8
DEFAULT_SURFACES
100
AcDbPolyline
 62
7
  6
CONTINUOUS
 90
15
 70
0
 10
4.4635307864
 20
7.4029772884
 10
4.4666124642
 20
7.3874359733
 10
4.4708243225
 20
7.3690399684
 10
4.4754669671
 20
7.3510821661
 10
4.4804952561
 20
7.3335444966
 10
4.4858614234
 20
7.31641692
 10
4.4914630688
 20
7.2998436712
 10
4.4972472615
 20
7.2837988283
 10
4.5031793631
 20
7.2682171109
 10
4.5091771096
 20
7.2531637446
 10
4.51518971
 20
7.2386221909
 10
4.5212116744
 20
7.224478146
 10
4.5272360857
 20
7.2106356217
 10
4.5332300425
 20
7.1970655506
 10
4.5452496611
 20
7.1700664111
  0
LINE
  5
36C
100
AcDbEntity
  8
0
100
AcDbLine
 62
7
  6
CONTINUOUS
 10
4.6056367677
 20
6.9936119864
 11
4.6056808038
 21
6.9933691896
  0
LINE
  5
36D
100
AcDbEntity
  8
0
100
AcDbLine
 62
7
  6
CONTINUOUS
 10
5.1029494382
 20
1.627566842
 11
5.1029494382
 21
2.0475311371
  0
LINE
  5
36E
100
AcDbEntity
  8
ALL_FEATURES
100
AcDbLine
 62
7
  6
CONTINUOUS
 10
5.1666994382
 20
2.0925393024
 11
5.1666994382
 21
2.1225393024
  0
LINE
  5
36F
100
AcDbEntity
  8
0
100
AcDbLine
 62
7
  6
CONTINUOUS
 10
5.1716994382
 20
2.0725393024
 11
5.1716994382
 21
2.0925393024
  0
LINE
  5
370
100
AcDbEntity
  8
ALL_FEATURES
100
AcDbLine
 62
7
  6
CONTINUOUS
 10
5.2029494382
 20
0.7890393024
 11
5.2029494382
 21
1.1015393024
  0
LINE
  5
371
100
AcDbEntity
  8
0
100
AcDbLine
 62
7
  6
CONTINUOUS
 10
4.8279494382
 20
1.5815014183
 11
4.8255617758
 21
1.5679603117
  0
LINE
  5
372
100
AcDbEntity
  8
DEFAULT_SURFACES
100
AcDbLine
 62
7
  6
CONTINUOUS
 10
4.6045344863
 20
6.999070332
 11
4.6052306881
 21
6.9956528136
  0
LINE
  5
373
100
AcDbEntity
  8
0
100
AcDbLine
 62
7
  6
CONTINUOUS
 10
4.6051282613
 20
6.9961621053
 11
4.6052306881
 21
6.9956528136
  0
LWPOLYLINE
  5
374
100
AcDbEntity
  8
DEFAULT_SURFACES
100
AcDbPolyline
 62
7
  6
CONTINUOUS
 90
10
 70
0
 10
4.6051282613
 20
6.9961621053
 10
4.6059442077
 20
6.9920377715
 10
4.6082053448
 20
6.979673215
 10
4.6101636825
 20
6.967451316
 10
4.6118048579
 20
6.9555028919
 10
4.6131351172
 20
6.94384745
 10
4.6141684878
 20
6.9323936233
 10
4.6149017853
 20
6.9211528897
 10
4.6153274512
 20
6.9102387807
 10
4.6154494383
 20
6.9007447953
  0
LINE
  5
375
100
AcDbEntity
  8
0
100
AcDbLine
 62
7
  6
CONTINUOUS
 10
4.6056367677
 20
6.9936119864
 11
4.6056844822
 21
6.9933698482
  0
LWPOLYLINE
  5
376
100
AcDbEntity
  8
DEFAULT_SURFACES
100
AcDbPolyline
 62
7
  6
CONTINUOUS
 90
12
 70
0
 10
4.5452496611
 20
7.1700664111
 10
4.5514186144
 20
7.1561046943
 10
4.5576618297
 20
7.1417344752
 10
4.5639049948
 20
7.1269675973
 10
4.5701950139
 20
7.111495183
 10
4.5764629492
 20
7.0952381815
 10
4.5824122868
 20
7.0787408048
 10
4.5879380617
 20
7.0621563946
 10
4.593034565
 20
7.045404561
 10
4.5975205348
 20
7.0290894473
 10
4.6013324024
 20
7.0136355426
 10
4.6045344863
 20
6.999070332
  0
LINE
  5
377
100
AcDbEntity
  8
0
100
AcDbLine
 62
7
  6
CONTINUOUS
 10
4.6441994382
 20
1.5851755091
 11
4.6204494382
 21
1.5440393024
  0
LINE
  5
378
100
AcDbEntity
  8
ALL_FEATURES
100
AcDbLine
 62
7
  6
CONTINUOUS
 10
5.0035678316
 20
1.5917192824
 11
5.0079299689
 21
1.5992747259
  0
LINE
  5
379
100
AcDbEntity
  8
0
100
AcDbLine
 62
7
  6
CONTINUOUS
 10
4.9799086979
 20
6.843986831
 11
4.9798877644
 21
6.8440132694
  0
LINE
  5
37A
100
AcDbEntity
  8
ALL_ASSEMBLY_MEMBERS
100
AcDbLine
 62
7
  6
CONTINUOUS
 10
4.7224536623
 20
2.2831697666
 11
4.7221745419
 21
2.2830122488
  0
LINE
  5
37B
100
AcDbEntity
  8
ALL_ASSEMBLY_MEMBERS
100
AcDbLine
 62
7
  6
CONTINUOUS
 10
4.7204493934
 20
2.2823673163
 11
4.720139885
 21
2.282202041
  0
LINE
  5
37C
100
AcDbEntity
  8
ALL_ASSEMBLY_MEMBERS
100
AcDbLine
 62
7
  6
CONTINUOUS
 10
4.7204493983
 20
2.2823672973
 11
4.720139885
 21
2.282202041
  0
LINE
  5
37D
100
AcDbEntity
  8
ALL_ASSEMBLY_MEMBERS
100
AcDbLine
 62
7
  6
CONTINUOUS
 10
4.7216773924
 20
2.2830124477
 11
4.7212906403
 21
2.282810989
  0
LINE
  5
37E
100
AcDbEntity
  8
ALL_ASSEMBLY_MEMBERS
100
AcDbLine
 62
7
  6
CONTINUOUS
 10
4.7219818762
 20
2.2831697666
 11
4.7216773971
 21
2.2830124288
  0
LINE
  5
37F
100
AcDbEntity
  8
ALL_ASSEMBLY_MEMBERS
100
AcDbLine
 62
7
  6
CONTINUOUS
 10
4.7200744385
 20
2.282202041
 11
4.7207088526
 21
2.282528143
  0
LINE
  5
380
100
AcDbEntity
  8
ALL_ASSEMBLY_MEMBERS
100
AcDbLine
 62
7
  6
CONTINUOUS
 10
4.7213446655
 20
2.2828507168
 11
4.7219818762
 21
2.2831697666
  0
LINE
  5
381
100
AcDbEntity
  8
ALL_ASSEMBLY_MEMBERS
100
AcDbLine
 62
7
  6
CONTINUOUS
 10
4.7221117122
 20
2.2830106835
 11
4.7224536623
 21
2.2831697666
  0
LINE
  5
382
100
AcDbEntity
  8
0
100
AcDbLine
 62
7
  6
CONTINUOUS
 10
4.6004511456
 20
6.3362893024
 11
5.0554477308
 21
6.3362893024
  0
LINE
  5
383
100
AcDbEntity
  8
0
100
AcDbLine
 62
7
  6
CONTINUOUS
 10
4.5929494382
 20
6.3437893024
 11
5.0629494382
 21
6.3437893024
  0
LINE
  5
384
100
AcDbEntity
  8
ALL_FEATURES
100
AcDbLine
 62
7
  6
CONTINUOUS
 10
5.1669839267
 20
7.7192529517
 11
5.1817512141
 21
7.6931194656
  0
LINE
  5
385
100
AcDbEntity
  8
0
100
AcDbLine
 62
7
  6
CONTINUOUS
 10
4.5929530574
 20
6.6712893024
 11
5.062947345
 21
6.6712893024
  0
LINE
  5
386
100
AcDbEntity
  8
0
100
AcDbLine
 62
7
  6
CONTINUOUS
 10
4.5929494382
 20
6.7762893024
 11
5.0629494382
 21
6.7762893024
  0
LINE
  5
387
100
AcDbEntity
  8
0
100
AcDbLine
 62
7
  6
CONTINUOUS
 10
4.6004494382
 20
6.7837893024
 11
5.0554494382
 21
6.7837893024
  0
LINE
  5
388
100
AcDbEntity
  8
0
100
AcDbLine
 62
7
  6
CONTINUOUS
 10
4.4578490603
 20
7.4029772885
 11
4.4580426321
 21
7.402990993
  0
LINE
  5
389
100
AcDbEntity
  8
0
100
AcDbLine
 62
7
  6
CONTINUOUS
 10
4.4709377533
 20
7.402990993
 11
4.4707407319
 21
7.4029772885
  0
LINE
  5
38A
100
AcDbEntity
  8
0
100
AcDbLine
 62
7
  6
CONTINUOUS
 10
5.1980455009
 20
7.4029772884
 11
5.1851537799
 21
7.4029772884
  0
LINE
  5
38B
100
AcDbEntity
  8
0
100
AcDbLine
 62
7
  6
CONTINUOUS
 10
4.4707450965
 20
7.4029772884
 11
4.4578533755
 21
7.4029772884
  0
LINE
  5
38C
100
AcDbEntity
  8
0
100
AcDbLine
 62
7
  6
CONTINUOUS
 10
5.1978562443
 20
7.402990993
 11
5.1849611231
 21
7.402990993
  0
LINE
  5
38D
100
AcDbEntity
  8
0
100
AcDbLine
 62
7
  6
CONTINUOUS
 10
4.4709377533
 20
7.402990993
 11
4.4580426321
 21
7.402990993
  0
LINE
  5
38E
100
AcDbEntity
  8
0
100
AcDbLine
 62
7
  6
CONTINUOUS
 10
5.1851581445
 20
7.4029772885
 11
5.1849611231
 21
7.402990993
  0
LINE
  5
38F
100
AcDbEntity
  8
0
100
AcDbLine
 62
7
  6
CONTINUOUS
 10
5.1978562443
 20
7.402990993
 11
5.1980498161
 21
7.4029772885
  0
ARC
  5
390
100
AcDbEntity
  8
ALL_FEATURES
100
AcDbCircle
 62
7
  6
CONTINUOUS
 10
4.5779494382
 20
1.1015393024
 40
0.125
100
AcDbArc
 50
90.0
 51
180.0
  0
ARC
  5
391
100
AcDbEntity
  8
ALL_FEATURES
100
AcDbCircle
 62
7
  6
CONTINUOUS
 10
4.627868985
 20
1.4429394473
 40
0.085
100
AcDbArc
 50
240.8645905689
 51
270.0
  0
ARC
  5
392
100
AcDbEntity
  8
ALL_FEATURES
100
AcDbCircle
 62
7
  6
CONTINUOUS
 10
4.6016994382
 20
1.4343466067
 40
0.03125
100
AcDbArc
 50
121.3322514976
 51
180.0
  0
ARC
  5
393
100
AcDbEntity
  8
ALL_FEATURES
100
AcDbCircle
 62
7
  6
CONTINUOUS
 10
4.6016994382
 20
1.3959903544
 40
0.03125
100
AcDbArc
 50
180.0
 51
240.8645905689
  0
ARC
  5
394
100
AcDbEntity
  8
0
100
AcDbCircle
 62
7
  6
CONTINUOUS
 10
4.5666994382
 20
1.627566842
 40
0.01375
100
AcDbArc
 50
180.0
 51
260.0
  0
ARC
  5
395
100
AcDbEntity
  8
ALL_FEATURES
100
AcDbCircle
 62
7
  6
CONTINUOUS
 10
4.627868985
 20
2.7391391575
 40
0.085
100
AcDbArc
 50
90.0
 51
119.1354094311
  0
ARC
  5
396
100
AcDbEntity
  8
ALL_FEATURES
100
AcDbCircle
 62
7
  6
CONTINUOUS
 10
4.6016994382
 20
2.747731998
 40
0.03125
100
AcDbArc
 50
180.0
 51
238.6677485024
  0
ARC
  5
397
100
AcDbEntity
  8
ALL_FEATURES
100
AcDbCircle
 62
7
  6
CONTINUOUS
 10
4.6016994382
 20
2.7860882503
 40
0.03125
100
AcDbArc
 50
119.1354094311
 51
180.0
  0
ARC
  5
398
100
AcDbEntity
  8
0
100
AcDbCircle
 62
7
  6
CONTINUOUS
 10
4.5279494395
 20
2.0475393024
 40
0.025
100
AcDbArc
 50
359.9812865106
 51
90.0
  0
ARC
  5
399
100
AcDbEntity
  8
ALL_ASSEMBLY_MEMBERS
100
AcDbCircle
 62
7
  6
CONTINUOUS
 10
4.5752931882
 20
2.1033565693
 40
0.01953125
100
AcDbArc
 50
79.5629134434
 51
88.7169772457
  0
ARC
  5
39A
100
AcDbEntity
  8
ALL_ASSEMBLY_MEMBERS
100
AcDbCircle
 62
7
  6
CONTINUOUS
 10
4.4911681882
 20
2.1343051521
 40
0.01171875
100
AcDbArc
 50
90.0
 51
174.6301678744
  0
ARC
  5
39B
100
AcDbEntity
  8
ALL_ASSEMBLY_MEMBERS
100
AcDbCircle
 62
7
  6
CONTINUOUS
 10
4.4911681882
 20
2.1364985296
 40
0.01171875
100
AcDbArc
 50
185.3698321256
 51
268.7169772457
  0
ARC
  5
39C
100
AcDbEntity
  8
0
100
AcDbCircle
 62
7
  6
CONTINUOUS
 10
4.6104494382
 20
2.6882893024
 40
0.01
100
AcDbArc
 50
0.0
 51
15.9812934849
  0
ARC
  5
39D
100
AcDbEntity
  8
ALL_FEATURES
100
AcDbCircle
 62
7
  6
CONTINUOUS
 10
4.8279494382
 20
1.7800393024
 40
0.2575
100
AcDbArc
 50
286.9988391103
 51
313.0011608897
  0
ARC
  5
39E
100
AcDbEntity
  8
ALL_FEATURES
100
AcDbCircle
 62
7
  6
CONTINUOUS
 10
4.8279494382
 20
1.7800393024
 40
0.2575
100
AcDbArc
 50
226.9988391103
 51
253.0011608897
  0
ARC
  5
39F
100
AcDbEntity
  8
ALL_FEATURES
100
AcDbCircle
 62
7
  6
CONTINUOUS
 10
4.8279494382
 20
1.7800393024
 40
0.2414648528
100
AcDbArc
 50
230.0854651137
 51
309.9145348863
  0
ARC
  5
3A0
100
AcDbEntity
  8
0
100
AcDbCircle
 62
7
  6
CONTINUOUS
 10
4.8279494382
 20
1.5815014183
 40
0.01375
100
AcDbArc
 50
260.0
 51
280.0
  0
ARC
  5
3A1
100
AcDbEntity
  8
ALL_ASSEMBLY_MEMBERS
100
AcDbCircle
 62
7
  6
CONTINUOUS
 10
4.7388193805
 20
2.1610097767
 40
0.0797355507
100
AcDbArc
 50
78.7851970141
 51
80.721279776
  0
ARC
  5
3A2
100
AcDbEntity
  8
ALL_ASSEMBLY_MEMBERS
100
AcDbCircle
 62
7
  6
CONTINUOUS
 10
4.7277050917
 20
2.1612462429
 40
0.0795220815
100
AcDbArc
 50
78.6853401184
 51
79.0113797704
  0
ARC
  5
3A3
100
AcDbEntity
  8
ALL_ASSEMBLY_MEMBERS
100
AcDbCircle
 62
7
  6
CONTINUOUS
 10
4.7330897728
 20
2.1612698431
 40
0.0794755872
100
AcDbArc
 50
78.7664305985
 51
80.7056242799
  0
ARC
  5
3A4
100
AcDbEntity
  8
ALL_ASSEMBLY_MEMBERS
100
AcDbCircle
 62
7
  6
CONTINUOUS
 10
4.727982728
 20
2.1627049229
 40
0.0780372252
100
AcDbArc
 50
79.0073423558
 51
80.6349675399
  0
ARC
  5
3A5
100
AcDbEntity
  8
ALL_ASSEMBLY_MEMBERS
100
AcDbCircle
 62
7
  6
CONTINUOUS
 10
4.7232138145
 20
2.1635923038
 40
0.0771724459
100
AcDbArc
 50
78.5271502645
 51
79.1848921198
  0
ARC
  5
3A6
100
AcDbEntity
  8
ALL_ASSEMBLY_MEMBERS
100
AcDbCircle
 62
7
  6
CONTINUOUS
 10
4.723485365
 20
2.165028349
 40
0.0757109542
100
AcDbArc
 50
79.1828240251
 51
80.5048979735
  0
ARC
  5
3A7
100
AcDbEntity
  8
ALL_ASSEMBLY_MEMBERS
100
AcDbCircle
 62
7
  6
CONTINUOUS
 10
4.6614949334
 20
2.2566419465
 40
0.1025317587
100
AcDbArc
 50
14.4354745847
 51
14.9945898533
  0
ARC
  5
3A8
100
AcDbEntity
  8
ALL_ASSEMBLY_MEMBERS
100
AcDbCircle
 62
7
  6
CONTINUOUS
 10
4.7193127632
 20
2.166546722
 40
0.0742197433
100
AcDbArc
 50
78.2938525296
 51
78.9642858755
  0
ARC
  5
3A9
100
AcDbEntity
  8
ALL_ASSEMBLY_MEMBERS
100
AcDbCircle
 62
7
  6
CONTINUOUS
 10
4.7404823087
 20
2.22898141
 40
0.072805691
100
AcDbArc
 50
46.9699137026
 51
48.0979262455
  0
ARC
  5
3AA
100
AcDbEntity
  8
ALL_ASSEMBLY_MEMBERS
100
AcDbCircle
 62
7
  6
CONTINUOUS
 10
4.7195846275
 20
2.1679549664
 40
0.0727854996
100
AcDbArc
 50
78.962136581
 51
80.3100743144
  0
ARC
  5
3AB
100
AcDbEntity
  8
ALL_ASSEMBLY_MEMBERS
100
AcDbCircle
 62
7
  6
CONTINUOUS
 10
4.7161217988
 20
2.170512642
 40
0.0702512796
100
AcDbArc
 50
77.9765242848
 51
79.008864427
  0
ARC
  5
3AC
100
AcDbEntity
  8
ALL_ASSEMBLY_MEMBERS
100
AcDbCircle
 62
7
  6
CONTINUOUS
 10
4.7045178854
 20
2.2527707154
 40
0.0696282782
100
AcDbArc
 50
25.0046703264
 51
25.886548951
  0
ARC
  5
3AD
100
AcDbEntity
  8
ALL_ASSEMBLY_MEMBERS
100
AcDbCircle
 62
7
  6
CONTINUOUS
 10
4.7163878477
 20
2.1718822283
 40
0.0688560919
100
AcDbArc
 50
79.0089038023
 51
80.0470684334
  0
ARC
  5
3AE
100
AcDbEntity
  8
ALL_ASSEMBLY_MEMBERS
100
AcDbCircle
 62
7
  6
CONTINUOUS
 10
4.7326902881
 20
2.2387680508
 40
0.0659761328
100
AcDbArc
 50
41.172543921
 51
42.2987704053
  0
ARC
  5
3AF
100
AcDbEntity
  8
ALL_ASSEMBLY_MEMBERS
100
AcDbCircle
 62
7
  6
CONTINUOUS
 10
4.7135655258
 20
2.1749342546
 40
0.0658325584
100
AcDbArc
 50
77.5663353802
 51
78.6398271564
  0
ARC
  5
3B0
100
AcDbEntity
  8
ALL_ASSEMBLY_MEMBERS
100
AcDbCircle
 62
7
  6
CONTINUOUS
 10
4.7138323702
 20
2.176261844
 40
0.0644784168
100
AcDbArc
 50
78.6399278904
 51
79.7042123802
  0
ARC
  5
3B1
100
AcDbEntity
  8
ALL_ASSEMBLY_MEMBERS
100
AcDbCircle
 62
7
  6
CONTINUOUS
 10
4.7221302739
 20
2.2467634436
 40
0.0635009567
100
AcDbArc
 50
33.9231027701
 51
34.9820153552
  0
ARC
  5
3B2
100
AcDbEntity
  8
ALL_ASSEMBLY_MEMBERS
100
AcDbCircle
 62
7
  6
CONTINUOUS
 10
4.7117202958
 20
2.179996614
 40
0.0607723359
100
AcDbArc
 50
77.0479216429
 51
78.5226043778
  0
ARC
  5
3B3
100
AcDbEntity
  8
ALL_ASSEMBLY_MEMBERS
100
AcDbCircle
 62
7
  6
CONTINUOUS
 10
4.7120131256
 20
2.1814153256
 40
0.0593237264
100
AcDbArc
 50
78.5271215462
 51
79.2712339062
  0
ARC
  5
3B4
100
AcDbEntity
  8
ALL_ASSEMBLY_MEMBERS
100
AcDbCircle
 62
7
  6
CONTINUOUS
 10
4.7106065325
 20
2.185616284
 40
0.0551530523
100
AcDbArc
 50
76.3994364985
 51
78.3301207608
  0
ARC
  5
3B5
100
AcDbEntity
  8
ALL_ASSEMBLY_MEMBERS
100
AcDbCircle
 62
7
  6
CONTINUOUS
 10
4.7109021016
 20
2.1870052473
 40
0.0537330149
100
AcDbArc
 50
78.3391954992
 51
78.7294868713
  0
ARC
  5
3B6
100
AcDbEntity
  8
ALL_ASSEMBLY_MEMBERS
100
AcDbCircle
 62
7
  6
CONTINUOUS
 10
4.7100571416
 20
2.1909493439
 40
0.0498397193
100
AcDbArc
 50
75.5977609025
 51
76.411692549
  0
ARC
  5
3B7
100
AcDbEntity
  8
ALL_ASSEMBLY_MEMBERS
100
AcDbCircle
 62
7
  6
CONTINUOUS
 10
4.7102726371
 20
2.1918413075
 40
0.0489220933
100
AcDbArc
 50
76.4115781038
 51
77.6389100819
  0
ARC
  5
3B8
100
AcDbEntity
  8
ALL_ASSEMBLY_MEMBERS
100
AcDbCircle
 62
7
  6
CONTINUOUS
 10
4.7104647507
 20
2.1927042622
 40
0.0480380176
100
AcDbArc
 50
77.6423993932
 51
78.0546616087
  0
ARC
  5
3B9
100
AcDbEntity
  8
ALL_ASSEMBLY_MEMBERS
100
AcDbCircle
 62
7
  6
CONTINUOUS
 10
4.7102463958
 20
2.196617124
 40
0.0441923383
100
AcDbArc
 50
74.6000880137
 51
74.887648644
  0
ARC
  5
3BA
100
AcDbEntity
  8
ALL_ASSEMBLY_MEMBERS
100
AcDbCircle
 62
7
  6
CONTINUOUS
 10
4.7103357499
 20
2.1969479984
 40
0.043849611
100
AcDbArc
 50
74.8876496393
 51
75.1763811788
  0
ARC
  5
3BB
100
AcDbEntity
  8
ALL_ASSEMBLY_MEMBERS
100
AcDbCircle
 62
7
  6
CONTINUOUS
 10
4.7104754201
 20
2.197478144
 40
0.0433013759
100
AcDbArc
 50
75.1755699801
 51
76.6214049955
  0
ARC
  5
3BC
100
AcDbEntity
  8
ALL_ASSEMBLY_MEMBERS
100
AcDbCircle
 62
7
  6
CONTINUOUS
 10
4.7109313772
 20
2.1993884699
 40
0.0413373903
100
AcDbArc
 50
76.6235725681
 51
77.1331740628
  0
ARC
  5
3BD
100
AcDbEntity
  8
ALL_ASSEMBLY_MEMBERS
100
AcDbCircle
 62
7
  6
CONTINUOUS
 10
4.7106830042
 20
2.1996142758
 40
0.0411885587
100
AcDbArc
 50
74.1609689922
 51
74.9712072226
  0
ARC
  5
3BE
100
AcDbEntity
  8
ALL_ASSEMBLY_MEMBERS
100
AcDbCircle
 62
7
  6
CONTINUOUS
 10
4.7108245461
 20
2.2001392122
 40
0.040644875
100
AcDbArc
 50
74.9720279194
 51
75.4204788116
  0
ARC
  5
3BF
100
AcDbEntity
  8
ALL_ASSEMBLY_MEMBERS
100
AcDbCircle
 62
7
  6
CONTINUOUS
 10
4.7110315408
 20
2.2009468891
 40
0.0398111007
100
AcDbArc
 50
75.4161872942
 51
76.7742109831
  0
ARC
  5
3C0
100
AcDbEntity
  8
ALL_ASSEMBLY_MEMBERS
100
AcDbCircle
 62
7
  6
CONTINUOUS
 10
4.711442998
 20
2.2016691836
 40
0.039
100
AcDbArc
 50
297.9119320453
 51
74.3237686442
  0
ARC
  5
3C1
100
AcDbEntity
  8
ALL_ASSEMBLY_MEMBERS
100
AcDbCircle
 62
7
  6
CONTINUOUS
 10
4.711442998
 20
2.2016691836
 40
0.039
100
AcDbArc
 50
77.1203622731
 51
77.2134851788
  0
ARC
  5
3C2
100
AcDbEntity
  8
ALL_ASSEMBLY_MEMBERS
100
AcDbCircle
 62
7
  6
CONTINUOUS
 10
4.711905626
 20
2.2053610919
 40
0.0354665261
100
AcDbArc
 50
72.6979989959
 51
73.1773860584
  0
ARC
  5
3C3
100
AcDbEntity
  8
ALL_ASSEMBLY_MEMBERS
100
AcDbCircle
 62
7
  6
CONTINUOUS
 10
4.712001166
 20
2.2056766862
 40
0.0351367873
100
AcDbArc
 50
73.1775742791
 51
73.5399620615
  0
ARC
  5
3C4
100
AcDbEntity
  8
ALL_ASSEMBLY_MEMBERS
100
AcDbCircle
 62
7
  6
CONTINUOUS
 10
4.7122853153
 20
2.206661581
 40
0.0341117437
100
AcDbArc
 50
73.5289395141
 51
75.6026978996
  0
ARC
  5
3C5
100
AcDbEntity
  8
ALL_ASSEMBLY_MEMBERS
100
AcDbCircle
 62
7
  6
CONTINUOUS
 10
4.7142075371
 20
2.2121459752
 40
0.0286516755
100
AcDbArc
 50
70.9148408513
 51
74.1041313856
  0
ARC
  5
3C6
100
AcDbEntity
  8
ALL_ASSEMBLY_MEMBERS
100
AcDbCircle
 62
7
  6
CONTINUOUS
 10
4.716869869
 20
2.2175629554
 40
0.023257629
100
AcDbArc
 50
68.6382885019
 51
72.158250051
  0
ARC
  5
3C7
100
AcDbEntity
  8
ALL_ASSEMBLY_MEMBERS
100
AcDbCircle
 62
7
  6
CONTINUOUS
 10
4.7201761095
 20
2.22252706
 40
0.0183291406
100
AcDbArc
 50
65.6277357955
 51
69.5588563108
  0
ARC
  5
3C8
100
AcDbEntity
  8
ALL_ASSEMBLY_MEMBERS
100
AcDbCircle
 62
7
  6
CONTINUOUS
 10
4.7240827466
 20
2.2269160564
 40
0.013999563
100
AcDbArc
 50
61.5314112922
 51
65.9672926556
  0
ARC
  5
3C9
100
AcDbEntity
  8
ALL_ASSEMBLY_MEMBERS
100
AcDbCircle
 62
7
  6
CONTINUOUS
 10
4.8279494382
 20
2.0737061253
 40
0.23475
100
AcDbArc
 50
117.3425910465
 51
117.356874793
  0
ARC
  5
3CA
100
AcDbEntity
  8
ALL_ASSEMBLY_MEMBERS
100
AcDbCircle
 62
7
  6
CONTINUOUS
 10
4.8279494382
 20
2.0737061253
 40
0.23475
100
AcDbArc
 50
62.6409709163
 51
116.8348269515
  0
ARC
  5
3CB
100
AcDbEntity
  8
ALL_ASSEMBLY_MEMBERS
100
AcDbCircle
 62
7
  6
CONTINUOUS
 10
4.8234085907
 20
2.0743913324
 40
0.2217857061
100
AcDbArc
 50
109.7201267511
 51
110.4481484177
  0
ARC
  5
3CC
100
AcDbEntity
  8
ALL_ASSEMBLY_MEMBERS
100
AcDbCircle
 62
7
  6
CONTINUOUS
 10
4.8233401113
 20
2.0743913324
 40
0.2217857061
100
AcDbArc
 50
69.5518515823
 51
70.2798732489
  0
ARC
  5
3CD
100
AcDbEntity
  8
ALL_ASSEMBLY_MEMBERS
100
AcDbCircle
 62
7
  6
CONTINUOUS
 10
4.8176956636
 20
2.0772760331
 40
0.2189198245
100
AcDbArc
 50
109.8645832727
 51
110.5970104561
  0
ARC
  5
3CE
100
AcDbEntity
  8
ALL_ASSEMBLY_MEMBERS
100
AcDbCircle
 62
7
  6
CONTINUOUS
 10
4.8173434486
 20
2.0772760331
 40
0.2189198245
100
AcDbArc
 50
69.4029895439
 51
70.1354167273
  0
ARC
  5
3CF
100
AcDbEntity
  8
ALL_ASSEMBLY_MEMBERS
100
AcDbCircle
 62
7
  6
CONTINUOUS
 10
4.8112981525
 20
2.0823432659
 40
0.2138871128
100
AcDbArc
 50
69.1334240871
 51
69.8737807422
  0
ARC
  5
3D0
100
AcDbEntity
  8
ALL_ASSEMBLY_MEMBERS
100
AcDbCircle
 62
7
  6
CONTINUOUS
 10
4.8121599772
 20
2.0823432659
 40
0.2138871128
100
AcDbArc
 50
110.1262192578
 51
110.8665759129
  0
ARC
  5
3D1
100
AcDbEntity
  8
ALL_ASSEMBLY_MEMBERS
100
AcDbCircle
 62
7
  6
CONTINUOUS
 10
4.8052365077
 20
2.0894682611
 40
0.2068140897
100
AcDbArc
 50
68.7358030349
 51
69.4877413333
  0
ARC
  5
3D2
100
AcDbEntity
  8
ALL_ASSEMBLY_MEMBERS
100
AcDbCircle
 62
7
  6
CONTINUOUS
 10
4.8068406476
 20
2.0894682611
 40
0.2068140897
100
AcDbArc
 50
110.5122586667
 51
111.2641969651
  0
ARC
  5
3D3
100
AcDbEntity
  8
ALL_ASSEMBLY_MEMBERS
100
AcDbCircle
 62
7
  6
CONTINUOUS
 10
4.7991882321
 20
2.0984755815
 40
0.197878958
100
AcDbArc
 50
68.1989486945
 51
68.9663037352
  0
ARC
  5
3D4
100
AcDbEntity
  8
ALL_ASSEMBLY_MEMBERS
100
AcDbCircle
 62
7
  6
CONTINUOUS
 10
4.8017781242
 20
2.0984755815
 40
0.197878958
100
AcDbArc
 50
111.0336962648
 51
111.8010513055
  0
ARC
  5
3D5
100
AcDbEntity
  8
ALL_ASSEMBLY_MEMBERS
100
AcDbCircle
 62
7
  6
CONTINUOUS
 10
4.7970704873
 20
2.1090070775
 40
0.1874550038
100
AcDbArc
 50
112.147121951
 51
112.4927129623
  0
ARC
  5
3D6
100
AcDbEntity
  8
ALL_ASSEMBLY_MEMBERS
100
AcDbCircle
 62
7
  6
CONTINUOUS
 10
4.7931972339
 20
2.1091866352
 40
0.1872609919
100
AcDbArc
 50
67.5070434205
 51
68.294079446
  0
ARC
  5
3D7
100
AcDbEntity
  8
ALL_ASSEMBLY_MEMBERS
100
AcDbCircle
 62
7
  6
CONTINUOUS
 10
4.7969703684
 20
2.1092532397
 40
0.1871892603
100
AcDbArc
 50
111.7058867007
 51
112.1471426883
  0
ARC
  5
3D8
100
AcDbEntity
  8
ALL_ASSEMBLY_MEMBERS
100
AcDbCircle
 62
7
  6
CONTINUOUS
 10
4.7926858172
 20
2.1209956305
 40
0.1756009772
100
AcDbArc
 50
113.0787396752
 51
113.3606967476
  0
ARC
  5
3D9
100
AcDbEntity
  8
ALL_ASSEMBLY_MEMBERS
100
AcDbCircle
 62
7
  6
CONTINUOUS
 10
4.7872570489
 20
2.121266356
 40
0.1753065817
100
AcDbArc
 50
66.6389220066
 51
67.4498754352
  0
ARC
  5
3DA
100
AcDbEntity
  8
ALL_ASSEMBLY_MEMBERS
100
AcDbCircle
 62
7
  6
CONTINUOUS
 10
4.7925455303
 20
2.1213255035
 40
0.1752425131
100
AcDbArc
 50
112.5501051672
 51
113.0788212509
  0
ARC
  5
3DB
100
AcDbEntity
  8
ALL_ASSEMBLY_MEMBERS
100
AcDbCircle
 62
7
  6
CONTINUOUS
 10
4.7886915606
 20
2.1340961011
 40
0.1626745756
100
AcDbArc
 50
114.1541732494
 51
114.4333475781
  0
ARC
  5
3DC
100
AcDbEntity
  8
ALL_ASSEMBLY_MEMBERS
100
AcDbCircle
 62
7
  6
CONTINUOUS
 10
4.7813958257
 20
2.1344481104
 40
0.1622886517
100
AcDbArc
 50
65.5660997297
 51
66.4056306764
  0
ARC
  5
3DD
100
AcDbEntity
  8
ALL_ASSEMBLY_MEMBERS
100
AcDbCircle
 62
7
  6
CONTINUOUS
 10
4.7885231585
 20
2.1344719194
 40
0.162262752
100
AcDbArc
 50
113.5944350295
 51
114.1542170957
  0
ARC
  5
3DE
100
AcDbEntity
  8
ALL_ASSEMBLY_MEMBERS
100
AcDbCircle
 62
7
  6
CONTINUOUS
 10
4.7851463364
 20
2.1479744831
 40
0.1490239693
100
AcDbArc
 50
115.4581570293
 51
115.7482908759
  0
ARC
  5
3DF
100
AcDbEntity
  8
ALL_ASSEMBLY_MEMBERS
100
AcDbCircle
 62
7
  6
CONTINUOUS
 10
4.7849404975
 20
2.1484073061
 40
0.1485446934
100
AcDbArc
 50
115.0217433698
 51
115.4582333891
  0
ARC
  5
3E0
100
AcDbEntity
  8
ALL_ASSEMBLY_MEMBERS
100
AcDbCircle
 62
7
  6
CONTINUOUS
 10
4.7756213668
 20
2.1484073198
 40
0.1485443946
100
AcDbArc
 50
64.2509292191
 51
65.1239604944
  0
ARC
  5
3E1
100
AcDbEntity
  8
ALL_ASSEMBLY_MEMBERS
100
AcDbCircle
 62
7
  6
CONTINUOUS
 10
4.7821551658
 20
2.1621988073
 40
0.1351103261
100
AcDbArc
 50
116.7488380232
 51
117.0511803061
  0
ARC
  5
3E2
100
AcDbEntity
  8
ALL_ASSEMBLY_MEMBERS
100
AcDbCircle
 62
7
  6
CONTINUOUS
 10
4.7699296625
 20
2.1628002622
 40
0.1344364839
100
AcDbArc
 50
62.6435589134
 51
63.5551428403
  0
ARC
  5
3E3
100
AcDbEntity
  8
ALL_ASSEMBLY_MEMBERS
100
AcDbCircle
 62
7
  6
CONTINUOUS
 10
4.7450929555
 20
2.161684714
 40
0.0790608819
100
AcDbArc
 50
78.7362974541
 51
80.6804849746
  0
ARC
  5
3E4
100
AcDbEntity
  8
ALL_ASSEMBLY_MEMBERS
100
AcDbCircle
 62
7
  6
CONTINUOUS
 10
4.7518717441
 20
2.1632780364
 40
0.0774682127
100
AcDbArc
 50
78.6182746413
 51
80.5820054934
  0
ARC
  5
3E5
100
AcDbEntity
  8
ALL_ASSEMBLY_MEMBERS
100
AcDbCircle
 62
7
  6
CONTINUOUS
 10
4.7807905737
 20
2.1689970272
 40
0.1284285034
100
AcDbArc
 50
117.5997669439
 51
118.0240790201
  0
ARC
  5
3E6
100
AcDbEntity
  8
ALL_ASSEMBLY_MEMBERS
100
AcDbCircle
 62
7
  6
CONTINUOUS
 10
4.7642991402
 20
2.1772725357
 40
0.1203486302
100
AcDbArc
 50
60.6777913118
 51
61.6327789053
  0
ARC
  5
3E7
100
AcDbEntity
  8
ALL_ASSEMBLY_MEMBERS
100
AcDbCircle
 62
7
  6
CONTINUOUS
 10
4.7785244711
 20
2.1834903857
 40
0.1143674593
100
AcDbArc
 50
119.518822655
 51
120.3324545449
  0
ARC
  5
3E8
100
AcDbEntity
  8
ALL_ASSEMBLY_MEMBERS
100
AcDbCircle
 62
7
  6
CONTINUOUS
 10
4.7586808449
 20
2.1914677855
 40
0.1066842142
100
AcDbArc
 50
58.2654111785
 51
59.2677389
  0
ARC
  5
3E9
100
AcDbEntity
  8
ALL_ASSEMBLY_MEMBERS
100
AcDbCircle
 62
7
  6
CONTINUOUS
 10
4.8090775594
 20
2.2562188748
 40
0.1041972987
100
AcDbArc
 50
14.4399432038
 51
14.9901212342
  0
ARC
  5
3EA
100
AcDbEntity
  8
ALL_ASSEMBLY_MEMBERS
100
AcDbCircle
 62
7
  6
CONTINUOUS
 10
4.7769559657
 20
2.1975959802
 40
0.1008578607
100
AcDbArc
 50
121.9555161282
 51
122.9796117462
  0
ARC
  5
3EB
100
AcDbEntity
  8
ALL_ASSEMBLY_MEMBERS
100
AcDbCircle
 62
7
  6
CONTINUOUS
 10
4.7529806007
 20
2.2050364757
 40
0.0938717617
100
AcDbArc
 50
55.2886965144
 51
56.3399440271
  0
ARC
  5
3EC
100
AcDbEntity
  8
ALL_ASSEMBLY_MEMBERS
100
AcDbCircle
 62
7
  6
CONTINUOUS
 10
4.7763751764
 20
2.2107777342
 40
0.0885722068
100
AcDbArc
 50
125.1823711696
 51
126.2546725526
  0
ARC
  5
3ED
100
AcDbEntity
  8
ALL_ASSEMBLY_MEMBERS
100
AcDbCircle
 62
7
  6
CONTINUOUS
 10
4.747024136
 20
2.2176445012
 40
0.0823858651
100
AcDbArc
 50
51.5913532156
 51
52.6879451258
  0
ARC
  5
3EE
100
AcDbEntity
  8
ALL_ASSEMBLY_MEMBERS
100
AcDbCircle
 62
7
  6
CONTINUOUS
 10
4.8163474274
 20
2.254761886
 40
0.0783702669
100
AcDbArc
 50
158.7472429022
 51
159.5044418107
  0
ARC
  5
3EF
100
AcDbEntity
  8
ALL_ASSEMBLY_MEMBERS
100
AcDbCircle
 62
7
  6
CONTINUOUS
 10
4.7769669738
 20
2.2228574547
 40
0.0778516665
100
AcDbArc
 50
129.2214301611
 51
130.3345949439
  0
ARC
  5
3F0
100
AcDbEntity
  8
ALL_ASSEMBLY_MEMBERS
100
AcDbCircle
 62
7
  6
CONTINUOUS
 10
4.7591137689
 20
2.1657505124
 40
0.074996808
100
AcDbArc
 50
78.4275515452
 51
80.422809401
  0
ARC
  5
3F1
100
AcDbEntity
  8
ALL_ASSEMBLY_MEMBERS
100
AcDbCircle
 62
7
  6
CONTINUOUS
 10
4.7667303964
 20
2.1688127721
 40
0.0719401947
100
AcDbArc
 50
78.1614652301
 51
80.194540585
  0
ARC
  5
3F2
100
AcDbEntity
  8
ALL_ASSEMBLY_MEMBERS
100
AcDbCircle
 62
7
  6
CONTINUOUS
 10
4.7792105713
 20
2.2335376988
 40
0.0693627147
100
AcDbArc
 50
134.3122081132
 51
135.4451105852
  0
ARC
  5
3F3
100
AcDbEntity
  8
ALL_ASSEMBLY_MEMBERS
100
AcDbCircle
 62
7
  6
CONTINUOUS
 10
4.7747612432
 20
2.1728473445
 40
0.0679078605
100
AcDbArc
 50
77.804814372
 51
79.8961128981
  0
ARC
  5
3F4
100
AcDbEntity
  8
ALL_ASSEMBLY_MEMBERS
100
AcDbCircle
 62
7
  6
CONTINUOUS
 10
4.7939152423
 20
2.2496887606
 40
0.0646898154
100
AcDbArc
 50
148.8311268119
 51
149.8276521894
  0
ARC
  5
3F5
100
AcDbEntity
  8
ALL_ASSEMBLY_MEMBERS
100
AcDbCircle
 62
7
  6
CONTINUOUS
 10
4.7840764322
 20
2.2425554836
 40
0.0641880986
100
AcDbArc
 50
140.7475436281
 51
141.8543891917
  0
ARC
  5
3F6
100
AcDbEntity
  8
ALL_ASSEMBLY_MEMBERS
100
AcDbCircle
 62
7
  6
CONTINUOUS
 10
4.7831124724
 20
2.1775210199
 40
0.0632371558
100
AcDbArc
 50
77.3484019674
 51
79.513817296
  0
ARC
  5
3F7
100
AcDbEntity
  8
ALL_ASSEMBLY_MEMBERS
100
AcDbCircle
 62
7
  6
CONTINUOUS
 10
4.7917316829
 20
2.1827187167
 40
0.0580433608
100
AcDbArc
 50
76.7752275318
 51
79.0330735153
  0
ARC
  5
3F8
100
AcDbEntity
  8
ALL_ASSEMBLY_MEMBERS
100
AcDbCircle
 62
7
  6
CONTINUOUS
 10
4.8005644809
 20
2.1883124505
 40
0.0524547517
100
AcDbArc
 50
76.0619927029
 51
78.433804521
  0
ARC
  5
3F9
100
AcDbEntity
  8
ALL_ASSEMBLY_MEMBERS
100
AcDbCircle
 62
7
  6
CONTINUOUS
 10
4.8095546726
 20
2.194164485
 40
0.0466095023
100
AcDbArc
 50
75.1765841061
 51
77.6881652721
  0
ARC
  5
3FA
100
AcDbEntity
  8
ALL_ASSEMBLY_MEMBERS
100
AcDbCircle
 62
7
  6
CONTINUOUS
 10
4.8186443803
 20
2.2001307236
 40
0.0406523829
100
AcDbArc
 50
74.0741568655
 51
76.7569568012
  0
ARC
  5
3FB
100
AcDbEntity
  8
ALL_ASSEMBLY_MEMBERS
100
AcDbCircle
 62
7
  6
CONTINUOUS
 10
4.8277740122
 20
2.2060642579
 40
0.0347313776
100
AcDbArc
 50
72.6908856105
 51
75.5837944977
  0
ARC
  5
3FC
100
AcDbEntity
  8
ALL_ASSEMBLY_MEMBERS
100
AcDbCircle
 62
7
  6
CONTINUOUS
 10
4.822957562
 20
2.2096276227
 40
0.0311624042
100
AcDbArc
 50
105.1846751802
 51
108.2485817631
  0
ARC
  5
3FD
100
AcDbEntity
  8
ALL_ASSEMBLY_MEMBERS
100
AcDbCircle
 62
7
  6
CONTINUOUS
 10
4.813883208
 20
2.2152036124
 40
0.025605612
100
AcDbArc
 50
106.9105321625
 51
110.274574308
  0
ARC
  5
3FE
100
AcDbEntity
  8
ALL_ASSEMBLY_MEMBERS
100
AcDbCircle
 62
7
  6
CONTINUOUS
 10
4.7789762219
 20
2.2370845354
 40
0.0247418192
100
AcDbArc
 50
173.9271565225
 51
175.0422009484
  0
ARC
  5
3FF
100
AcDbEntity
  8
ALL_ASSEMBLY_MEMBERS
100
AcDbCircle
 62
7
  6
CONTINUOUS
 10
4.8049299879
 20
2.2203848214
 40
0.0204534702
100
AcDbArc
 50
109.1876822104
 51
112.9250923502
  0
ARC
  5
400
100
AcDbEntity
  8
ALL_ASSEMBLY_MEMBERS
100
AcDbCircle
 62
7
  6
CONTINUOUS
 10
4.7961706253
 20
2.2250436712
 40
0.0158414606
100
AcDbArc
 50
112.2838234111
 51
116.4835102399
  0
ARC
  5
401
100
AcDbEntity
  8
0
100
AcDbCircle
 62
7
  6
CONTINUOUS
 10
3.9871098988
 20
6.8715995814
 40
0.6304462821
100
AcDbArc
 50
11.1590609324
 51
11.3481700629
  0
ARC
  5
402
100
AcDbEntity
  8
0
100
AcDbCircle
 62
7
  6
CONTINUOUS
 10
4.0152424957
 20
6.8770793458
 40
0.6017850284
100
AcDbArc
 50
9.6313307103
 51
11.1420793205
  0
ARC
  5
403
100
AcDbEntity
  8
0
100
AcDbCircle
 62
7
  6
CONTINUOUS
 10
4.054398393
 20
6.8838890596
 40
0.56204175
100
AcDbArc
 50
8.9626516085
 51
9.6147509939
  0
ARC
  5
404
100
AcDbEntity
  8
0
100
AcDbCircle
 62
7
  6
CONTINUOUS
 10
4.0774011103
 20
6.8875255841
 40
0.5387533572
100
AcDbArc
 50
7.9900434226
 51
8.9617459768
  0
ARC
  5
405
100
AcDbEntity
  8
0
100
AcDbCircle
 62
7
  6
CONTINUOUS
 10
4.105337165
 20
6.8914763583
 40
0.5105393383
100
AcDbArc
 50
6.784806606
 51
7.9867573314
  0
ARC
  5
406
100
AcDbEntity
  8
0
100
AcDbCircle
 62
7
  6
CONTINUOUS
 10
4.1323808619
 20
6.8947477923
 40
0.4832985456
100
AcDbArc
 50
5.6382754815
 51
6.7784565527
  0
ARC
  5
407
100
AcDbEntity
  8
0
100
AcDbCircle
 62
7
  6
CONTINUOUS
 10
4.1537149507
 20
6.8969006994
 40
0.4618561554
100
AcDbArc
 50
4.7057202401
 51
5.6325111628
  0
ARC
  5
408
100
AcDbEntity
  8
0
100
AcDbCircle
 62
7
  6
CONTINUOUS
 10
4.176778779
 20
6.8987929832
 40
0.4387148315
100
AcDbArc
 50
2.883681426
 51
4.7065306399
  0
ARC
  5
409
100
AcDbEntity
  8
0
100
AcDbCircle
 62
7
  6
CONTINUOUS
 10
4.8279000865
 20
7.6062436192
 40
0.437595947
100
AcDbArc
 50
262.7763671203
 51
267.0591766774
  0
ARC
  5
40A
100
AcDbEntity
  8
ALL_FEATURES
100
AcDbCircle
 62
7
  6
CONTINUOUS
 10
4.8279493947
 20
7.6243550567
 40
0.4280219914
100
AcDbArc
 50
268.3264841647
 51
271.6735158353
  0
ARC
  5
40B
100
AcDbEntity
  8
0
100
AcDbCircle
 62
7
  6
CONTINUOUS
 10
4.1975456736
 20
6.8999491273
 40
0.417916084
100
AcDbArc
 50
2.3645950522
 51
2.8686102921
  0
ARC
  5
40C
100
AcDbEntity
  8
0
100
AcDbCircle
 62
7
  6
CONTINUOUS
 10
4.8279494382
 20
7.5889151151
 40
0.4130835236
100
AcDbArc
 50
268.2719558803
 51
271.7280444027
  0
ARC
  5
40D
100
AcDbEntity
  8
0
100
AcDbCircle
 62
7
  6
CONTINUOUS
 10
4.2142376819
 20
6.9005915458
 40
0.4012117864
100
AcDbArc
 50
0.0221923903
 51
2.3712800749
  0
ARC
  5
40E
100
AcDbEntity
  8
0
100
AcDbCircle
 62
7
  6
CONTINUOUS
 10
4.8279494382
 20
7.5866783245
 40
0.3983850202
100
AcDbArc
 50
268.2015410164
 51
271.7984589836
  0
ARC
  5
40F
100
AcDbEntity
  8
ALL_FEATURES
100
AcDbCircle
 62
7
  6
CONTINUOUS
 10
4.7776267611
 20
7.5560895907
 40
0.3316272847
100
AcDbArc
 50
150.52735297
 51
155.7018361642
  0
ARC
  5
410
100
AcDbEntity
  8
0
100
AcDbCircle
 62
7
  6
CONTINUOUS
 10
4.8279494382
 20
6.7237893024
 40
0.19375
100
AcDbArc
 50
141.6565239724
 51
161.9594304885
  0
ARC
  5
411
100
AcDbEntity
  8
0
100
AcDbCircle
 62
7
  6
CONTINUOUS
 10
4.8279494382
 20
6.7237893024
 40
0.19375
100
AcDbArc
 50
18.0414070772
 51
38.3434760276
  0
ARC
  5
412
100
AcDbEntity
  8
0
100
AcDbCircle
 62
7
  6
CONTINUOUS
 10
4.6985375024
 20
6.9571266151
 40
0.1076064837
100
AcDbArc
 50
236.9413278301
 51
237.3462076769
  0
ARC
  5
413
100
AcDbEntity
  8
ALL_FEATURES
100
AcDbCircle
 62
7
  6
CONTINUOUS
 10
4.5854482354
 20
7.587489343
 40
0.062205414
100
AcDbArc
 50
261.9149060945
 51
270.0011078434
  0
ARC
  5
414
100
AcDbEntity
  8
ALL_FEATURES
100
AcDbCircle
 62
7
  6
CONTINUOUS
 10
4.585450641
 20
7.5654071936
 40
0.062205414
100
AcDbArc
 50
81.9149060945
 51
90.0011078434
  0
ARC
  5
415
100
AcDbEntity
  8
ALL_FEATURES
100
AcDbCircle
 62
7
  6
CONTINUOUS
 10
4.5854435089
 20
7.5654740816
 40
0.0621385262
100
AcDbArc
 50
89.9945327939
 51
98.0894532682
  0
ARC
  5
416
100
AcDbEntity
  8
ALL_FEATURES
100
AcDbCircle
 62
7
  6
CONTINUOUS
 10
4.5854553675
 20
7.587422455
 40
0.0621385262
100
AcDbArc
 50
269.9945327938
 51
278.0894532683
  0
ARC
  5
417
100
AcDbEntity
  8
0
100
AcDbCircle
 62
7
  6
CONTINUOUS
 10
4.6843923357
 20
6.8902653561
 40
0.0512150117
100
AcDbArc
 50
133.7408105153
 51
137.5860319063
  0
ARC
  5
418
100
AcDbEntity
  8
ALL_FEATURES
100
AcDbCircle
 62
7
  6
CONTINUOUS
 10
4.5748104973
 20
7.5813128282
 40
0.0493608545
100
AcDbArc
 50
180.0002763316
 51
183.6390064638
  0
ARC
  5
419
100
AcDbEntity
  8
ALL_FEATURES
100
AcDbCircle
 62
7
  6
CONTINUOUS
 10
4.5960883791
 20
7.5813128282
 40
0.0493608545
100
AcDbArc
 50
356.3609935362
 51
359.9997236684
  0
ARC
  5
41A
100
AcDbEntity
  8
0
100
AcDbCircle
 62
7
  6
CONTINUOUS
 10
4.698550124
 20
6.8298953685
 40
0.0275938264
100
AcDbArc
 50
147.981876804
 51
149.4061536375
  0
ARC
  5
41B
100
AcDbEntity
  8
0
100
AcDbCircle
 62
7
  6
CONTINUOUS
 10
4.6646957506
 20
6.9042545948
 40
0.0269185563
100
AcDbArc
 50
157.9247834782
 51
158.9105045233
  0
ARC
  5
41C
100
AcDbEntity
  8
0
100
AcDbCircle
 62
7
  6
CONTINUOUS
 10
4.662510159
 20
6.913661929
 40
0.0220607215
100
AcDbArc
 50
173.5305737794
 51
179.9849576326
  0
ARC
  5
41D
100
AcDbEntity
  8
0
100
AcDbCircle
 62
7
  6
CONTINUOUS
 10
4.6004494382
 20
6.7762893024
 40
0.0075
100
AcDbArc
 50
90.0
 51
180.0
  0
ARC
  5
41E
100
AcDbEntity
  8
0
100
AcDbCircle
 62
7
  6
CONTINUOUS
 10
4.6004494382
 20
6.3437893024
 40
0.0075
100
AcDbArc
 50
180.0
 51
270.0
  0
ARC
  5
41F
100
AcDbEntity
  8
ALL_ASSEMBLY_MEMBERS
100
AcDbCircle
 62
7
  6
CONTINUOUS
 10
4.8292608512
 20
2.0737601935
 40
0.2224128046
100
AcDbArc
 50
109.6889399472
 51
110.4160079575
  0
ARC
  5
420
100
AcDbEntity
  8
ALL_ASSEMBLY_MEMBERS
100
AcDbCircle
 62
7
  6
CONTINUOUS
 10
4.8292538546
 20
2.0737601935
 40
0.2224128046
100
AcDbArc
 50
69.5839920425
 51
70.3110600528
  0
ARC
  5
421
100
AcDbEntity
  8
ALL_ASSEMBLY_MEMBERS
100
AcDbCircle
 62
7
  6
CONTINUOUS
 10
4.8352157904
 20
2.0753981568
 40
0.2207853839
100
AcDbArc
 50
109.7701861402
 51
110.4997366766
  0
ARC
  5
422
100
AcDbEntity
  8
ALL_ASSEMBLY_MEMBERS
100
AcDbCircle
 62
7
  6
CONTINUOUS
 10
4.8350487916
 20
2.0753981568
 40
0.2207853839
100
AcDbArc
 50
69.5002633234
 51
70.2298138597
  0
ARC
  5
423
100
AcDbEntity
  8
ALL_ASSEMBLY_MEMBERS
100
AcDbCircle
 62
7
  6
CONTINUOUS
 10
4.8412381928
 20
2.0792648909
 40
0.2169442876
100
AcDbArc
 50
109.9660505723
 51
110.7015605775
  0
ARC
  5
424
100
AcDbEntity
  8
ALL_ASSEMBLY_MEMBERS
100
AcDbCircle
 62
7
  6
CONTINUOUS
 10
4.8406876962
 20
2.0792648909
 40
0.2169442876
100
AcDbArc
 50
69.2984394225
 51
70.0339494277
  0
ARC
  5
425
100
AcDbEntity
  8
ALL_ASSEMBLY_MEMBERS
100
AcDbCircle
 62
7
  6
CONTINUOUS
 10
4.8461321273
 20
2.0852651858
 40
0.2109859991
100
AcDbArc
 50
68.9730822519
 51
69.7181257808
  0
ARC
  5
426
100
AcDbEntity
  8
ALL_ASSEMBLY_MEMBERS
100
AcDbCircle
 62
7
  6
CONTINUOUS
 10
4.8472946034
 20
2.0852651858
 40
0.2109859991
100
AcDbArc
 50
110.2818742192
 51
111.0269177481
  0
ARC
  5
427
100
AcDbEntity
  8
ALL_ASSEMBLY_MEMBERS
100
AcDbCircle
 62
7
  6
CONTINUOUS
 10
4.8533537972
 20
2.0932512973
 40
0.2030604331
100
AcDbArc
 50
110.7264863094
 51
111.4847902418
  0
ARC
  5
428
100
AcDbEntity
  8
ALL_ASSEMBLY_MEMBERS
100
AcDbCircle
 62
7
  6
CONTINUOUS
 10
4.8513424035
 20
2.0932512973
 40
0.2030604331
100
AcDbArc
 50
68.5152097582
 51
69.2735136906
  0
ARC
  5
429
100
AcDbEntity
  8
ALL_ASSEMBLY_MEMBERS
100
AcDbCircle
 62
7
  6
CONTINUOUS
 10
4.8594000864
 20
2.1029947872
 40
0.193401764
100
AcDbArc
 50
111.3128393356
 51
112.0881994443
  0
ARC
  5
42A
100
AcDbEntity
  8
ALL_ASSEMBLY_MEMBERS
100
AcDbCircle
 62
7
  6
CONTINUOUS
 10
4.8562917506
 20
2.1030626789
 40
0.1933286954
100
AcDbArc
 50
67.9116540298
 51
68.6873071903
  0
ARC
  5
42B
100
AcDbEntity
  8
ALL_ASSEMBLY_MEMBERS
100
AcDbCircle
 62
7
  6
CONTINUOUS
 10
4.8608159873
 20
2.1141636718
 40
0.182355202
100
AcDbArc
 50
67.1447892171
 51
67.4100463028
  0
ARC
  5
42C
100
AcDbEntity
  8
ALL_ASSEMBLY_MEMBERS
100
AcDbCircle
 62
7
  6
CONTINUOUS
 10
4.8653895031
 20
2.114305478
 40
0.1822014308
100
AcDbArc
 50
112.0586338579
 51
112.8552979242
  0
ARC
  5
42D
100
AcDbEntity
  8
ALL_ASSEMBLY_MEMBERS
100
AcDbCircle
 62
7
  6
CONTINUOUS
 10
4.8609331213
 20
2.1144458048
 40
0.1820497198
100
AcDbArc
 50
67.4099740874
 51
67.9415998654
  0
ARC
  5
42E
100
AcDbEntity
  8
ALL_ASSEMBLY_MEMBERS
100
AcDbCircle
 62
7
  6
CONTINUOUS
 10
4.8650345989
 20
2.1266882915
 40
0.1699811732
100
AcDbArc
 50
66.1898381689
 51
66.4405336405
  0
ARC
  5
42F
100
AcDbEntity
  8
ALL_ASSEMBLY_MEMBERS
100
AcDbCircle
 62
7
  6
CONTINUOUS
 10
4.871310592
 20
2.1268843452
 40
0.1697670547
100
AcDbArc
 50
112.9878840656
 51
113.8102949315
  0
ARC
  5
430
100
AcDbEntity
  8
ALL_ASSEMBLY_MEMBERS
100
AcDbCircle
 62
7
  6
CONTINUOUS
 10
4.8652141572
 20
2.127101592
 40
0.1695305535
100
AcDbArc
 50
66.4403291449
 51
67.0125254789
  0
ARC
  5
431
100
AcDbEntity
  8
ALL_ASSEMBLY_MEMBERS
100
AcDbCircle
 62
7
  6
CONTINUOUS
 10
4.8771509443
 20
2.1404216555
 40
0.1564187606
100
AcDbArc
 50
114.1325243699
 51
114.9853961139
  0
ARC
  5
432
100
AcDbEntity
  8
ALL_ASSEMBLY_MEMBERS
100
AcDbCircle
 62
7
  6
CONTINUOUS
 10
4.8690133296
 20
2.1405607879
 40
0.1562659501
100
AcDbArc
 50
65.1563588859
 51
65.7410546733
  0
ARC
  5
433
100
AcDbEntity
  8
ALL_ASSEMBLY_MEMBERS
100
AcDbCircle
 62
7
  6
CONTINUOUS
 10
4.8829079358
 20
2.1545840754
 40
0.1425052938
100
AcDbArc
 50
115.5349900073
 51
116.4232314211
  0
ARC
  5
434
100
AcDbEntity
  8
ALL_ASSEMBLY_MEMBERS
100
AcDbCircle
 62
7
  6
CONTINUOUS
 10
4.8723659339
 20
2.1547061656
 40
0.142369647
100
AcDbArc
 50
63.6587801026
 51
64.3171756245
  0
ARC
  5
435
100
AcDbEntity
  8
ALL_ASSEMBLY_MEMBERS
100
AcDbCircle
 62
7
  6
CONTINUOUS
 10
4.8885931729
 20
2.1690228791
 40
0.128398808
100
AcDbArc
 50
117.2518065761
 51
118.1803056228
  0
ARC
  5
436
100
AcDbEntity
  8
ALL_ASSEMBLY_MEMBERS
100
AcDbCircle
 62
7
  6
CONTINUOUS
 10
4.8762335539
 20
2.1766931204
 40
0.1210113828
100
AcDbArc
 50
60.6793139823
 51
61.0916657077
  0
ARC
  5
437
100
AcDbEntity
  8
ALL_ASSEMBLY_MEMBERS
100
AcDbCircle
 62
7
  6
CONTINUOUS
 10
4.8765945964
 20
2.1773463461
 40
0.1202650213
100
AcDbArc
 50
61.0917985466
 51
61.4751183943
  0
ARC
  5
438
100
AcDbEntity
  8
ALL_ASSEMBLY_MEMBERS
100
AcDbCircle
 62
7
  6
CONTINUOUS
 10
4.894239861
 20
2.1833825349
 40
0.1144916181
100
AcDbArc
 50
119.3586333765
 51
120.3317726618
  0
ARC
  5
439
100
AcDbEntity
  8
ALL_ASSEMBLY_MEMBERS
100
AcDbCircle
 62
7
  6
CONTINUOUS
 10
4.8781490656
 20
2.1910830884
 40
0.1071345497
100
AcDbArc
 50
58.2671291068
 51
59.1008069927
  0
ARC
  5
43A
100
AcDbEntity
  8
ALL_ASSEMBLY_MEMBERS
100
AcDbCircle
 62
7
  6
CONTINUOUS
 10
4.8791848377
 20
2.2047327485
 40
0.094238912
100
AcDbArc
 50
55.2907443768
 51
56.3378961647
  0
ARC
  5
43B
100
AcDbEntity
  8
ALL_ASSEMBLY_MEMBERS
100
AcDbCircle
 62
7
  6
CONTINUOUS
 10
4.879104718
 20
2.2173116161
 40
0.0828074815
100
AcDbArc
 50
51.5941449626
 51
52.6851533788
  0
ARC
  5
43C
100
AcDbEntity
  8
ALL_ASSEMBLY_MEMBERS
100
AcDbCircle
 62
7
  6
CONTINUOUS
 10
4.8776058999
 20
2.2286223071
 40
0.0732924698
100
AcDbArc
 50
46.9736597231
 51
48.094180225
  0
ARC
  5
43D
100
AcDbEntity
  8
ALL_ASSEMBLY_MEMBERS
100
AcDbCircle
 62
7
  6
CONTINUOUS
 10
4.8925780295
 20
2.1674824283
 40
0.0732656875
100
AcDbArc
 50
99.6936373151
 51
101.7119042064
  0
ARC
  5
43E
100
AcDbEntity
  8
ALL_ASSEMBLY_MEMBERS
100
AcDbCircle
 62
7
  6
CONTINUOUS
 10
4.8512540643
 20
2.2523565964
 40
0.0705920929
100
AcDbArc
 50
25.0106907177
 51
25.8805285597
  0
ARC
  5
43F
100
AcDbEntity
  8
ALL_ASSEMBLY_MEMBERS
100
AcDbCircle
 62
7
  6
CONTINUOUS
 10
4.8846607945
 20
2.1714255737
 40
0.0693200962
100
AcDbArc
 50
99.9546836276
 51
102.0321075723
  0
ARC
  5
440
100
AcDbEntity
  8
ALL_ASSEMBLY_MEMBERS
100
AcDbCircle
 62
7
  6
CONTINUOUS
 10
4.8739800933
 20
2.2383863148
 40
0.0665495453
100
AcDbArc
 50
41.1773960417
 51
42.2939182846
  0
ARC
  5
441
100
AcDbEntity
  8
ALL_ASSEMBLY_MEMBERS
100
AcDbCircle
 62
7
  6
CONTINUOUS
 10
4.8764453028
 20
2.1758145701
 40
0.0649334018
100
AcDbArc
 50
100.2976880193
 51
102.4428727948
  0
ARC
  5
442
100
AcDbEntity
  8
ALL_ASSEMBLY_MEMBERS
100
AcDbCircle
 62
7
  6
CONTINUOUS
 10
4.8666563507
 20
2.2463632162
 40
0.0642083877
100
AcDbArc
 50
33.9289363424
 51
34.9761817829
  0
ARC
  5
443
100
AcDbEntity
  8
ALL_ASSEMBLY_MEMBERS
100
AcDbCircle
 62
7
  6
CONTINUOUS
 10
4.8679380678
 20
2.1807786747
 40
0.0599723303
100
AcDbArc
 50
100.731921969
 51
102.9623423096
  0
ARC
  5
444
100
AcDbEntity
  8
ALL_ASSEMBLY_MEMBERS
100
AcDbCircle
 62
7
  6
CONTINUOUS
 10
4.8591925242
 20
2.1861956549
 40
0.0545593298
100
AcDbArc
 50
101.2747422495
 51
103.6108186298
  0
ARC
  5
445
100
AcDbEntity
  8
ALL_ASSEMBLY_MEMBERS
100
AcDbCircle
 62
7
  6
CONTINUOUS
 10
4.8502639482
 20
2.1919321265
 40
0.0488281043
100
AcDbArc
 50
101.9501115955
 51
104.4161936955
  0
ARC
  5
446
100
AcDbEntity
  8
ALL_ASSEMBLY_MEMBERS
100
AcDbCircle
 62
7
  6
CONTINUOUS
 10
4.8412092848
 20
2.1978468388
 40
0.0429203913
100
AcDbArc
 50
102.7914990186
 51
105.4171751299
  0
ARC
  5
447
100
AcDbEntity
  8
ALL_ASSEMBLY_MEMBERS
100
AcDbCircle
 62
7
  6
CONTINUOUS
 10
4.8320870731
 20
2.2037941517
 40
0.0369825941
100
AcDbArc
 50
103.8465278876
 51
106.6683771628
  0
ARC
  5
448
100
AcDbEntity
  8
ALL_ASSEMBLY_MEMBERS
100
AcDbCircle
 62
7
  6
CONTINUOUS
 10
4.836881947
 20
2.2118189843
 40
0.0289943858
100
AcDbArc
 50
70.9336941608
 51
74.0852780761
  0
ARC
  5
449
100
AcDbEntity
  8
ALL_ASSEMBLY_MEMBERS
100
AcDbCircle
 62
7
  6
CONTINUOUS
 10
4.8459036335
 20
2.2172532026
 40
0.0235862842
100
AcDbArc
 50
68.6628199172
 51
72.1337186357
  0
ARC
  5
44A
100
AcDbEntity
  8
ALL_ASSEMBLY_MEMBERS
100
AcDbCircle
 62
7
  6
CONTINUOUS
 10
4.854769389
 20
2.2222331042
 40
0.0186469181
100
AcDbArc
 50
65.6612453458
 51
69.5253467606
  0
ARC
  5
44B
100
AcDbEntity
  8
ALL_ASSEMBLY_MEMBERS
100
AcDbCircle
 62
7
  6
CONTINUOUS
 10
4.863398994
 20
2.2266360674
 40
0.0143115196
100
AcDbArc
 50
61.5797804289
 51
65.9189235188
  0
ARC
  5
44C
100
AcDbEntity
  8
ALL_ASSEMBLY_MEMBERS
100
AcDbCircle
 62
7
  6
CONTINUOUS
 10
4.9254061769
 20
2.160465086
 40
0.0803028321
100
AcDbArc
 50
100.9350781852
 51
101.2578582462
  0
ARC
  5
44D
100
AcDbEntity
  8
ALL_ASSEMBLY_MEMBERS
100
AcDbCircle
 62
7
  6
CONTINUOUS
 10
4.9196953252
 20
2.1610097767
 40
0.0797355507
100
AcDbArc
 50
99.278720224
 51
101.2148029859
  0
ARC
  5
44E
100
AcDbEntity
  8
ALL_ASSEMBLY_MEMBERS
100
AcDbCircle
 62
7
  6
CONTINUOUS
 10
4.9136589293
 20
2.1612698431
 40
0.0794755872
100
AcDbArc
 50
99.2943757201
 51
101.2335694015
  0
ARC
  5
44F
100
AcDbEntity
  8
ALL_ASSEMBLY_MEMBERS
100
AcDbCircle
 62
7
  6
CONTINUOUS
 10
4.9251285612
 20
2.1619310566
 40
0.0788108169
100
AcDbArc
 50
99.3176218334
 51
100.9390874184
  0
ARC
  5
450
100
AcDbEntity
  8
ALL_ASSEMBLY_MEMBERS
100
AcDbCircle
 62
7
  6
CONTINUOUS
 10
4.9302783981
 20
2.1621231208
 40
0.0786446715
100
AcDbArc
 50
100.9804657521
 51
101.3758436483
  0
ARC
  5
451
100
AcDbEntity
  8
ALL_ASSEMBLY_MEMBERS
100
AcDbCircle
 62
7
  6
CONTINUOUS
 10
4.9070996838
 20
2.1624585097
 40
0.0782874
100
AcDbArc
 50
99.3669537334
 51
101.3205593487
  0
ARC
  5
452
100
AcDbEntity
  8
ALL_ASSEMBLY_MEMBERS
100
AcDbCircle
 62
7
  6
CONTINUOUS
 10
4.9300020009
 20
2.163573491
 40
0.0771682081
100
AcDbArc
 50
99.4156972326
 51
100.9841197502
  0
ARC
  5
453
100
AcDbEntity
  8
ALL_ASSEMBLY_MEMBERS
100
AcDbCircle
 62
7
  6
CONTINUOUS
 10
4.9000581629
 20
2.1645465086
 40
0.076200281
100
AcDbArc
 50
99.4986677191
 51
101.4783851841
  0
ARC
  5
454
100
AcDbEntity
  8
ALL_ASSEMBLY_MEMBERS
100
AcDbCircle
 62
7
  6
CONTINUOUS
 10
4.9345141262
 20
2.1647295707
 40
0.0760373511
100
AcDbArc
 50
101.0063006048
 51
101.5666216583
  0
ARC
  5
455
100
AcDbEntity
  8
ALL_ASSEMBLY_MEMBERS
100
AcDbCircle
 62
7
  6
CONTINUOUS
 10
4.8981580119
 20
2.257649942
 40
0.151746946
100
AcDbArc
 50
170.3183569191
 51
170.6888229466
  0
ARC
  5
456
100
AcDbEntity
  8
ALL_ASSEMBLY_MEMBERS
100
AcDbCircle
 62
7
  6
CONTINUOUS
 10
4.8999157214
 20
2.1973094603
 40
0.1011974483
100
AcDbArc
 50
121.957234449
 51
122.9778934254
  0
ARC
  5
457
100
AcDbEntity
  8
ALL_ASSEMBLY_MEMBERS
100
AcDbCircle
 62
7
  6
CONTINUOUS
 10
4.9057471957
 20
2.2104607296
 40
0.08896264
100
AcDbArc
 50
125.1847242597
 51
126.2523194625
  0
ARC
  5
458
100
AcDbEntity
  8
ALL_ASSEMBLY_MEMBERS
100
AcDbCircle
 62
7
  6
CONTINUOUS
 10
4.9658703784
 20
2.2543431617
 40
0.0795453885
100
AcDbArc
 50
158.7528360199
 51
159.498848693
  0
ARC
  5
459
100
AcDbEntity
  8
ALL_ASSEMBLY_MEMBERS
100
AcDbCircle
 62
7
  6
CONTINUOUS
 10
4.9119686225
 20
2.2225125146
 40
0.0783004769
100
AcDbArc
 50
129.2246205351
 51
130.3314045699
  0
ARC
  5
45A
100
AcDbEntity
  8
ALL_ASSEMBLY_MEMBERS
100
AcDbCircle
 62
7
  6
CONTINUOUS
 10
4.9342405104
 20
2.1661551777
 40
0.0745857286
100
AcDbArc
 50
99.5740296649
 51
101.0090581123
  0
ARC
  5
45B
100
AcDbEntity
  8
ALL_ASSEMBLY_MEMBERS
100
AcDbCircle
 62
7
  6
CONTINUOUS
 10
4.9381086331
 20
2.1681154018
 40
0.0726520337
100
AcDbArc
 50
101.1584385586
 51
101.8359498703
  0
ARC
  5
45C
100
AcDbEntity
  8
ALL_ASSEMBLY_MEMBERS
100
AcDbCircle
 62
7
  6
CONTINUOUS
 10
4.937836548
 20
2.1695088854
 40
0.0712322381
100
AcDbArc
 50
99.7983670024
 51
101.1606337999
  0
ARC
  5
45D
100
AcDbEntity
  8
ALL_ASSEMBLY_MEMBERS
100
AcDbCircle
 62
7
  6
CONTINUOUS
 10
4.9190329754
 20
2.233168059
 40
0.0698843355
100
AcDbArc
 50
134.3164362752
 51
135.4408824232
  0
ARC
  5
45E
100
AcDbEntity
  8
ALL_ASSEMBLY_MEMBERS
100
AcDbCircle
 62
7
  6
CONTINUOUS
 10
4.9410468668
 20
2.1721687743
 40
0.0686013871
100
AcDbArc
 50
101.4956509091
 51
102.1924416174
  0
ARC
  5
45F
100
AcDbEntity
  8
ALL_ASSEMBLY_MEMBERS
100
AcDbCircle
 62
7
  6
CONTINUOUS
 10
4.9407740105
 20
2.1735241185
 40
0.0672188529
100
AcDbArc
 50
100.0963631402
 51
101.4979766643
  0
ARC
  5
460
100
AcDbEntity
  8
ALL_ASSEMBLY_MEMBERS
100
AcDbCircle
 62
7
  6
CONTINUOUS
 10
4.9409322471
 20
2.2492817694
 40
0.0654876484
100
AcDbArc
 50
148.8371972728
 51
149.8215817285
  0
ARC
  5
461
100
AcDbEntity
  8
ALL_ASSEMBLY_MEMBERS
100
AcDbCircle
 62
7
  6
CONTINUOUS
 10
4.9278982577
 20
2.2421649887
 40
0.0648126323
100
AcDbArc
 50
140.7528765664
 51
141.8490562534
  0
ARC
  5
462
100
AcDbEntity
  8
ALL_ASSEMBLY_MEMBERS
100
AcDbCircle
 62
7
  6
CONTINUOUS
 10
4.9432481794
 20
2.1770851052
 40
0.063683445
100
AcDbArc
 50
101.5665823084
 51
102.6497025671
  0
ARC
  5
463
100
AcDbEntity
  8
ALL_ASSEMBLY_MEMBERS
100
AcDbCircle
 62
7
  6
CONTINUOUS
 10
4.9429805851
 20
2.1783923214
 40
0.0623491209
100
AcDbArc
 50
100.4765738411
 51
101.5665320316
  0
ARC
  5
464
100
AcDbEntity
  8
ALL_ASSEMBLY_MEMBERS
100
AcDbCircle
 62
7
  6
CONTINUOUS
 10
4.9447960439
 20
2.1822990047
 40
0.0584740084
100
AcDbArc
 50
102.0935474295
 51
103.2226943948
  0
ARC
  5
465
100
AcDbEntity
  8
ALL_ASSEMBLY_MEMBERS
100
AcDbCircle
 62
7
  6
CONTINUOUS
 10
4.9445264944
 20
2.1835567422
 40
0.0571877112
100
AcDbArc
 50
100.956401738
 51
102.0934866448
  0
ARC
  5
466
100
AcDbEntity
  8
ALL_ASSEMBLY_MEMBERS
100
AcDbCircle
 62
7
  6
CONTINUOUS
 10
4.9455474908
 20
2.188277288
 40
0.0524914974
100
AcDbArc
 50
102.3519632435
 51
103.875578519
  0
ARC
  5
467
100
AcDbEntity
  8
ALL_ASSEMBLY_MEMBERS
100
AcDbCircle
 62
7
  6
CONTINUOUS
 10
4.9453200683
 20
2.1893119968
 40
0.0514320907
100
AcDbArc
 50
101.5531409952
 51
102.3510531783
  0
ARC
  5
468
100
AcDbEntity
  8
ALL_ASSEMBLY_MEMBERS
100
AcDbCircle
 62
7
  6
CONTINUOUS
 10
4.9458613366
 20
2.1933877174
 40
0.047411909
100
AcDbArc
 50
104.4012335802
 51
104.8183804465
  0
ARC
  5
469
100
AcDbEntity
  8
ALL_ASSEMBLY_MEMBERS
100
AcDbCircle
 62
7
  6
CONTINUOUS
 10
4.9457597102
 20
2.1937834802
 40
0.0470033063
100
AcDbArc
 50
103.9827632505
 51
104.401230351
  0
ARC
  5
46A
100
AcDbEntity
  8
ALL_ASSEMBLY_MEMBERS
100
AcDbCircle
 62
7
  6
CONTINUOUS
 10
4.9455473415
 20
2.1946486514
 40
0.046112457
100
AcDbArc
 50
102.7206590593
 51
103.9864602449
  0
ARC
  5
46B
100
AcDbEntity
  8
ALL_ASSEMBLY_MEMBERS
100
AcDbCircle
 62
7
  6
CONTINUOUS
 10
4.9453988829
 20
2.195302549
 40
0.0454419188
100
AcDbArc
 50
102.2960557165
 51
102.7196153872
  0
ARC
  5
46C
100
AcDbEntity
  8
ALL_ASSEMBLY_MEMBERS
100
AcDbCircle
 62
7
  6
CONTINUOUS
 10
4.9444558784
 20
2.2016691836
 40
0.039
100
AcDbArc
 50
104.6747988276
 51
242.0880679547
  0
ARC
  5
46D
100
AcDbEntity
  8
ALL_ASSEMBLY_MEMBERS
100
AcDbCircle
 62
7
  6
CONTINUOUS
 10
4.9445692677
 20
2.2029955431
 40
0.0378124781
100
AcDbArc
 50
105.2572678829
 51
106.6493725476
  0
ARC
  5
46E
100
AcDbEntity
  8
ALL_ASSEMBLY_MEMBERS
100
AcDbCircle
 62
7
  6
CONTINUOUS
 10
4.9442762133
 20
2.2040612837
 40
0.0367071824
100
AcDbArc
 50
103.844725803
 51
105.2537215376
  0
ARC
  5
46F
100
AcDbEntity
  8
ALL_ASSEMBLY_MEMBERS
100
AcDbCircle
 62
7
  6
CONTINUOUS
 10
4.9429808332
 20
2.2086094109
 40
0.0322299007
100
AcDbArc
 50
107.7219781008
 51
108.2235689867
  0
ARC
  5
470
100
AcDbEntity
  8
ALL_ASSEMBLY_MEMBERS
100
AcDbCircle
 62
7
  6
CONTINUOUS
 10
4.9427019905
 20
2.2094916625
 40
0.0313046374
100
AcDbArc
 50
105.1938062924
 51
107.7273697415
  0
ARC
  5
471
100
AcDbEntity
  8
ALL_ASSEMBLY_MEMBERS
100
AcDbCircle
 62
7
  6
CONTINUOUS
 10
4.940400471
 20
2.2148863516
 40
0.0259402
100
AcDbArc
 50
106.9322337192
 51
110.2528727513
  0
ARC
  5
472
100
AcDbEntity
  8
ALL_ASSEMBLY_MEMBERS
100
AcDbCircle
 62
7
  6
CONTINUOUS
 10
4.9373851398
 20
2.2200840485
 40
0.0207755948
100
AcDbArc
 50
109.2166664321
 51
112.8961081284
  0
ARC
  5
473
100
AcDbEntity
  8
ALL_ASSEMBLY_MEMBERS
100
AcDbCircle
 62
7
  6
CONTINUOUS
 10
4.933752496
 20
2.2247577238
 40
0.0161552053
100
AcDbArc
 50
112.3246214866
 51
116.4427121644
  0
ARC
  5
474
100
AcDbEntity
  8
ALL_FEATURES
100
AcDbCircle
 62
7
  6
CONTINUOUS
 10
5.0779494382
 20
1.1015393024
 40
0.125
100
AcDbArc
 50
0.0
 51
90.0
  0
ARC
  5
475
100
AcDbEntity
  8
ALL_FEATURES
100
AcDbCircle
 62
7
  6
CONTINUOUS
 10
5.0280298914
 20
1.4429394473
 40
0.085
100
AcDbArc
 50
270.0
 51
299.1354094311
  0
ARC
  5
476
100
AcDbEntity
  8
ALL_FEATURES
100
AcDbCircle
 62
7
  6
CONTINUOUS
 10
5.0541994382
 20
1.4343466067
 40
0.03125
100
AcDbArc
 50
0.0
 51
58.6677485024
  0
ARC
  5
477
100
AcDbEntity
  8
ALL_FEATURES
100
AcDbCircle
 62
7
  6
CONTINUOUS
 10
5.0541994382
 20
1.3959903544
 40
0.03125
100
AcDbArc
 50
299.1354094311
 51
360.0
  0
ARC
  5
478
100
AcDbEntity
  8
0
100
AcDbCircle
 62
7
  6
CONTINUOUS
 10
5.0891994382
 20
1.627566842
 40
0.01375
100
AcDbArc
 50
280.0
 51
360.0
  0
ARC
  5
479
100
AcDbEntity
  8
ALL_ASSEMBLY_MEMBERS
100
AcDbCircle
 62
7
  6
CONTINUOUS
 10
5.050305126
 20
2.2572245392
 40
0.1543253534
100
AcDbArc
 50
170.32145173
 51
170.6857281357
  0
ARC
  5
47A
100
AcDbEntity
  8
ALL_FEATURES
100
AcDbCircle
 62
7
  6
CONTINUOUS
 10
5.0280298914
 20
2.7391391575
 40
0.085
100
AcDbArc
 50
60.8645905689
 51
90.0
  0
ARC
  5
47B
100
AcDbEntity
  8
ALL_FEATURES
100
AcDbCircle
 62
7
  6
CONTINUOUS
 10
5.0541994382
 20
2.747731998
 40
0.03125
100
AcDbArc
 50
301.3322514976
 51
360.0
  0
ARC
  5
47C
100
AcDbEntity
  8
ALL_FEATURES
100
AcDbCircle
 62
7
  6
CONTINUOUS
 10
5.0541994382
 20
2.7860882503
 40
0.03125
100
AcDbArc
 50
0.0
 51
60.8645905689
  0
ARC
  5
47D
100
AcDbEntity
  8
0
100
AcDbCircle
 62
7
  6
CONTINUOUS
 10
5.1279494369
 20
2.0475393024
 40
0.025
100
AcDbArc
 50
90.0
 51
180.0187134894
  0
ARC
  5
47E
100
AcDbEntity
  8
ALL_ASSEMBLY_MEMBERS
100
AcDbCircle
 62
7
  6
CONTINUOUS
 10
5.0806056882
 20
2.1033565693
 40
0.01953125
100
AcDbArc
 50
91.2830227543
 51
100.4370865566
  0
ARC
  5
47F
100
AcDbEntity
  8
ALL_ASSEMBLY_MEMBERS
100
AcDbCircle
 62
7
  6
CONTINUOUS
 10
5.1647306882
 20
2.1343051521
 40
0.01171875
100
AcDbArc
 50
5.3698321256
 51
90.0
  0
ARC
  5
480
100
AcDbEntity
  8
ALL_ASSEMBLY_MEMBERS
100
AcDbCircle
 62
7
  6
CONTINUOUS
 10
5.1647306882
 20
2.1364985296
 40
0.01171875
100
AcDbArc
 50
271.2830227543
 51
354.6301678744
  0
ARC
  5
481
100
AcDbEntity
  8
0
100
AcDbCircle
 62
7
  6
CONTINUOUS
 10
5.0454494382
 20
2.6882893024
 40
0.01
100
AcDbArc
 50
164.0187065151
 51
180.0
  0
ARC
  5
482
100
AcDbEntity
  8
0
100
AcDbCircle
 62
7
  6
CONTINUOUS
 10
5.6687951605
 20
6.8715983547
 40
0.6304525854
100
AcDbArc
 50
168.6515242347
 51
168.8409384371
  0
ARC
  5
483
100
AcDbEntity
  8
0
100
AcDbCircle
 62
7
  6
CONTINUOUS
 10
5.641452417
 20
6.8769317697
 40
0.6025946015
100
AcDbArc
 50
168.8353139412
 51
170.3476226481
  0
ARC
  5
484
100
AcDbEntity
  8
0
100
AcDbCircle
 62
7
  6
CONTINUOUS
 10
5.6020554999
 20
6.883797911
 40
0.5626041973
100
AcDbArc
 50
170.3642487048
 51
171.0235961561
  0
ARC
  5
485
100
AcDbEntity
  8
0
100
AcDbCircle
 62
7
  6
CONTINUOUS
 10
5.5788616824
 20
6.887470878
 40
0.5391213573
100
AcDbArc
 50
171.0245638241
 51
171.9978051761
  0
ARC
  5
486
100
AcDbEntity
  8
0
100
AcDbCircle
 62
7
  6
CONTINUOUS
 10
5.55031211
 20
6.8915117476
 40
0.5102872467
100
AcDbArc
 50
172.0008488
 51
173.2575587983
  0
ARC
  5
487
100
AcDbEntity
  8
0
100
AcDbCircle
 62
7
  6
CONTINUOUS
 10
5.5231179121
 20
6.8947896322
 40
0.4828962846
100
AcDbArc
 50
173.2649675758
 51
174.345443238
  0
ARC
  5
488
100
AcDbEntity
  8
0
100
AcDbCircle
 62
7
  6
CONTINUOUS
 10
5.5024437304
 20
6.8968770591
 40
0.4621170294
100
AcDbArc
 50
174.3504314123
 51
175.285486051
  0
ARC
  5
489
100
AcDbEntity
  8
0
100
AcDbCircle
 62
7
  6
CONTINUOUS
 10
5.4792635947
 20
6.8987831095
 40
0.4388586613
100
AcDbArc
 50
175.2847554134
 51
177.1078228889
  0
ARC
  5
48A
100
AcDbEntity
  8
0
100
AcDbCircle
 62
7
  6
CONTINUOUS
 10
4.8279987899
 20
7.6062436192
 40
0.437595947
100
AcDbArc
 50
272.9408233226
 51
277.2236328797
  0
ARC
  5
48B
100
AcDbEntity
  8
0
100
AcDbCircle
 62
7
  6
CONTINUOUS
 10
5.4589889443
 20
6.8999202461
 40
0.4185524747
100
AcDbArc
 50
177.1232502357
 51
177.6427432588
  0
ARC
  5
48C
100
AcDbEntity
  8
0
100
AcDbCircle
 62
7
  6
CONTINUOUS
 10
5.4416007203
 20
6.9005926296
 40
0.4011513118
100
AcDbArc
 50
177.6365490618
 51
179.977959054
  0
ARC
  5
48D
100
AcDbEntity
  8
ALL_FEATURES
100
AcDbCircle
 62
7
  6
CONTINUOUS
 10
4.8794393682
 20
7.5566867834
 40
0.3303174176
100
AcDbArc
 50
24.2882868085
 51
29.4820783864
  0
ARC
  5
48E
100
AcDbEntity
  8
0
100
AcDbCircle
 62
7
  6
CONTINUOUS
 10
4.8825309674
 20
6.6702089006
 40
0.2977304961
100
AcDbArc
 50
72.8984500235
 51
73.3360925799
  0
ARC
  5
48F
100
AcDbEntity
  8
0
100
AcDbCircle
 62
7
  6
CONTINUOUS
 10
4.9573612574
 20
6.9571267952
 40
0.1076066983
100
AcDbArc
 50
302.6537257698
 51
303.0586673501
  0
ARC
  5
490
100
AcDbEntity
  8
ALL_FEATURES
100
AcDbCircle
 62
7
  6
CONTINUOUS
 10
5.0704482354
 20
7.587489343
 40
0.062205414
100
AcDbArc
 50
261.9149060945
 51
270.0011078434
  0
ARC
  5
491
100
AcDbEntity
  8
ALL_FEATURES
100
AcDbCircle
 62
7
  6
CONTINUOUS
 10
5.070450641
 20
7.5654071936
 40
0.062205414
100
AcDbArc
 50
81.9149060945
 51
90.0011078434
  0
ARC
  5
492
100
AcDbEntity
  8
ALL_FEATURES
100
AcDbCircle
 62
7
  6
CONTINUOUS
 10
5.0704435089
 20
7.5654740816
 40
0.0621385262
100
AcDbArc
 50
89.9945327939
 51
98.0894532682
  0
ARC
  5
493
100
AcDbEntity
  8
ALL_FEATURES
100
AcDbCircle
 62
7
  6
CONTINUOUS
 10
5.0704553675
 20
7.587422455
 40
0.0621385262
100
AcDbArc
 50
269.9945327938
 51
278.0894532682
  0
ARC
  5
494
100
AcDbEntity
  8
0
100
AcDbCircle
 62
7
  6
CONTINUOUS
 10
4.9705167729
 20
6.8892969254
 40
0.0525990209
100
AcDbArc
 50
42.5176260974
 51
46.2096056938
  0
ARC
  5
495
100
AcDbEntity
  8
ALL_FEATURES
100
AcDbCircle
 62
7
  6
CONTINUOUS
 10
5.0598104973
 20
7.5813128282
 40
0.0493608545
100
AcDbArc
 50
180.0002763316
 51
183.6390064638
  0
ARC
  5
496
100
AcDbEntity
  8
ALL_FEATURES
100
AcDbCircle
 62
7
  6
CONTINUOUS
 10
5.0810883791
 20
7.5813128282
 40
0.0493608545
100
AcDbArc
 50
356.3609935362
 51
359.9997236684
  0
ARC
  5
497
100
AcDbEntity
  8
0
100
AcDbCircle
 62
7
  6
CONTINUOUS
 10
4.9575004839
 20
6.8299876445
 40
0.0274162527
100
AcDbArc
 50
30.5892334977
 51
32.0227359091
  0
ARC
  5
498
100
AcDbEntity
  8
0
100
AcDbCircle
 62
7
  6
CONTINUOUS
 10
4.9912031053
 20
6.9042545867
 40
0.0269185783
100
AcDbArc
 50
21.0894975422
 51
22.0753059455
  0
ARC
  5
499
100
AcDbEntity
  8
0
100
AcDbCircle
 62
7
  6
CONTINUOUS
 10
4.9934640407
 20
6.9136661959
 40
0.0219853976
100
AcDbArc
 50
0.0039739492
 51
6.480494479
  0
ARC
  5
49A
100
AcDbEntity
  8
0
100
AcDbCircle
 62
7
  6
CONTINUOUS
 10
5.0554494382
 20
6.7762893024
 40
0.0075
100
AcDbArc
 50
0.0
 51
90.0
  0
ARC
  5
49B
100
AcDbEntity
  8
0
100
AcDbCircle
 62
7
  6
CONTINUOUS
 10
5.0554494382
 20
6.3437893024
 40
0.0075
100
AcDbArc
 50
270.0
 51
360.0
  0
SPLINE
  5
49C
100
AcDbEntity
  8
ALL_FEATURES
100
AcDbSpline
 62
7
  6
CONTINUOUS
 70
0
 71
3
 72
20
 73
16
 74
0
 42
0.0000001
 43
0.0000001
 44
0.0000000001
 40
0.0
 40
0.0
 40
0.0
 40
0.0
 40
0.1309822196
 40
0.2607037716
 40
0.3886207188
 40
0.4518601057
 40
0.5145515148
 40
0.5766960906
 40
0.6383136975
 40
0.6994389454
 40
0.7601245951
 40
0.8204378396
 40
0.8804596103
 40
0.9402808533
 40
1.0
 40
1.0
 40
1.0
 40
1.0
 10
5.0616994382
 20
7.5243752924
 30
0.0
 10
5.0581916227
 20
7.5248439301
 30
0.0
 10
5.0512713048
 20
7.5263436087
 30
0.0
 10
5.0414686816
 20
7.5302296483
 30
0.0
 10
5.034017613
 20
7.5347529542
 30
0.0
 10
5.0286626017
 20
7.5390501004
 30
0.0
 10
5.0249899878
 20
7.5425722441
 30
0.0
 10
5.0216772908
 20
7.5463767095
 30
0.0
 10
5.0187506585
 20
7.5504338217
 30
0.0
 10
5.0162330247
 20
7.5547111705
 30
0.0
 10
5.0141454886
 20
7.5591754003
 30
0.0
 10
5.012503473
 20
7.5637905015
 30
0.0
 10
5.0113218605
 20
7.568520524
 30
0.0
 10
5.0106081908
 20
7.5733267596
 30
0.0
 10
5.0104496428
 20
7.5765588695
 30
0.0
 10
5.0104496428
 20
7.5781724088
 30
0.0
  0
SPLINE
  5
49D
100
AcDbEntity
  8
ALL_FEATURES
100
AcDbSpline
 62
7
  6
CONTINUOUS
 70
0
 71
3
 72
20
 73
16
 74
0
 42
0.0000001
 43
0.0000001
 44
0.0000000001
 40
0.0
 40
0.0
 40
0.0
 40
0.0
 40
0.1309822196
 40
0.2607037716
 40
0.3886207188
 40
0.4518601057
 40
0.5145515148
 40
0.5766960906
 40
0.6383136975
 40
0.6994389454
 40
0.7601245951
 40
0.8204378396
 40
0.8804596103
 40
0.9402808533
 40
1.0
 40
1.0
 40
1.0
 40
1.0
 10
5.0791994382
 20
7.5243752924
 30
0.0
 10
5.0827072537
 20
7.5248439301
 30
0.0
 10
5.0896275716
 20
7.5263436087
 30
0.0
 10
5.0994301948
 20
7.5302296483
 30
0.0
 10
5.1068812634
 20
7.5347529542
 30
0.0
 10
5.1122362747
 20
7.5390501004
 30
0.0
 10
5.1159088886
 20
7.5425722441
 30
0.0
 10
5.1192215857
 20
7.5463767095
 30
0.0
 10
5.1221482179
 20
7.5504338217
 30
0.0
 10
5.1246658517
 20
7.5547111705
 30
0.0
 10
5.1267533878
 20
7.5591754003
 30
0.0
 10
5.1283954034
 20
7.5637905015
 30
0.0
 10
5.1295770159
 20
7.568520524
 30
0.0
 10
5.1302906856
 20
7.5733267596
 30
0.0
 10
5.1304492336
 20
7.5765588695
 30
0.0
 10
5.1304492336
 20
7.5781724088
 30
0.0
  0
SPLINE
  5
49E
100
AcDbEntity
  8
ALL_FEATURES
100
AcDbSpline
 62
7
  6
CONTINUOUS
 70
0
 71
3
 72
20
 73
16
 74
0
 42
0.0000001
 43
0.0000001
 44
0.0000000001
 40
0.0
 40
0.0
 40
0.0
 40
0.0
 40
0.0597191467
 40
0.1195403897
 40
0.1795621604
 40
0.2398754049
 40
0.3005610546
 40
0.3616863025
 40
0.4233039094
 40
0.4854484852
 40
0.5481398943
 40
0.6113792812
 40
0.7392962284
 40
0.8690177804
 40
1.0
 40
1.0
 40
1.0
 40
1.0
 10
5.0104496428
 20
7.5813125902
 30
0.0
 10
5.0104496428
 20
7.5829261295
 30
0.0
 10
5.0106081908
 20
7.5861582394
 30
0.0
 10
5.0113218605
 20
7.590964475
 30
0.0
 10
5.012503473
 20
7.5956944975
 30
0.0
 10
5.0141454886
 20
7.6003095987
 30
0.0
 10
5.0162330247
 20
7.6047738285
 30
0.0
 10
5.0187506585
 20
7.6090511773
 30
0.0
 10
5.0216772908
 20
7.6131082895
 30
0.0
 10
5.0249899878
 20
7.6169127549
 30
0.0
 10
5.0286626017
 20
7.6204348986
 30
0.0
 10
5.034017613
 20
7.6247320448
 30
0.0
 10
5.0414686816
 20
7.6292553507
 30
0.0
 10
5.0512713048
 20
7.6331413903
 30
0.0
 10
5.0581916227
 20
7.6346410689
 30
0.0
 10
5.0616994382
 20
7.6351097066
 30
0.0
  0
SPLINE
  5
49F
100
AcDbEntity
  8
ALL_FEATURES
100
AcDbSpline
 62
7
  6
CONTINUOUS
 70
0
 71
3
 72
20
 73
16
 74
0
 42
0.0000001
 43
0.0000001
 44
0.0000000001
 40
0.0
 40
0.0
 40
0.0
 40
0.0
 40
0.0597191467
 40
0.1195403897
 40
0.1795621604
 40
0.2398754049
 40
0.3005610546
 40
0.3616863025
 40
0.4233039094
 40
0.4854484852
 40
0.5481398943
 40
0.6113792812
 40
0.7392962284
 40
0.8690177804
 40
1.0
 40
1.0
 40
1.0
 40
1.0
 10
5.1304492336
 20
7.5813125902
 30
0.0
 10
5.1304492336
 20
7.5829261295
 30
0.0
 10
5.1302906856
 20
7.5861582394
 30
0.0
 10
5.1295770159
 20
7.590964475
 30
0.0
 10
5.1283954034
 20
7.5956944975
 30
0.0
 10
5.1267533878
 20
7.6003095987
 30
0.0
 10
5.1246658517
 20
7.6047738285
 30
0.0
 10
5.1221482179
 20
7.6090511773
 30
0.0
 10
5.1192215857
 20
7.6131082895
 30
0.0
 10
5.1159088886
 20
7.6169127549
 30
0.0
 10
5.1122362747
 20
7.6204348986
 30
0.0
 10
5.1068812634
 20
7.6247320448
 30
0.0
 10
5.0994301948
 20
7.6292553507
 30
0.0
 10
5.0896275716
 20
7.6331413903
 30
0.0
 10
5.0827072537
 20
7.6346410689
 30
0.0
 10
5.0791994382
 20
7.6351097066
 30
0.0
  0
SPLINE
  5
4A0
100
AcDbEntity
  8
ALL_FEATURES
100
AcDbSpline
 62
7
  6
CONTINUOUS
 70
0
 71
3
 72
20
 73
16
 74
0
 42
0.0000001
 43
0.0000001
 44
0.0000000001
 40
0.0
 40
0.0
 40
0.0
 40
0.0
 40
0.1307571229
 40
0.26033771
 40
0.3882161908
 40
0.4514763195
 40
0.5142137583
 40
0.5764255136
 40
0.6381234869
 40
0.6993349642
 40
0.7601004181
 40
0.8204767757
 40
0.8805312007
 40
0.9403436854
 40
1.0
 40
1.0
 40
1.0
 40
1.0
 10
5.0616994382
 20
7.5275154737
 30
0.0
 10
5.0583327971
 20
7.5279652508
 30
0.0
 10
5.0516870834
 20
7.5293830217
 30
0.0
 10
5.0422390048
 20
7.5330196262
 30
0.0
 10
5.0350091581
 20
7.5372412883
 30
0.0
 10
5.0297669914
 20
7.541253064
 30
0.0
 10
5.0261443335
 20
7.5445451874
 30
0.0
 10
5.0228440913
 20
7.5481051117
 30
0.0
 10
5.0198914047
 20
7.5519084255
 30
0.0
 10
5.0173063767
 20
7.5559261447
 30
0.0
 10
5.0151098025
 20
7.5601302149
 30
0.0
 10
5.0133162322
 20
7.5644889739
 30
0.0
 10
5.0119402275
 20
7.5689713683
 30
0.0
 10
5.0109912089
 20
7.573543685
 30
0.0
 10
5.0106475392
 20
7.5766333876
 30
0.0
 10
5.0105491666
 20
7.5781798971
 30
0.0
  0
SPLINE
  5
4A1
100
AcDbEntity
  8
ALL_FEATURES
100
AcDbSpline
 62
7
  6
CONTINUOUS
 70
0
 71
3
 72
20
 73
16
 74
0
 42
0.0000001
 43
0.0000001
 44
0.0000000001
 40
0.0
 40
0.0
 40
0.0
 40
0.0
 40
0.1307571229
 40
0.26033771
 40
0.3882161908
 40
0.4514763195
 40
0.5142137583
 40
0.5764255136
 40
0.6381234869
 40
0.6993349642
 40
0.7601004181
 40
0.8204767757
 40
0.8805312007
 40
0.9403436854
 40
1.0
 40
1.0
 40
1.0
 40
1.0
 10
5.0791994382
 20
7.5275154737
 30
0.0
 10
5.0825660793
 20
7.5279652508
 30
0.0
 10
5.089211793
 20
7.5293830217
 30
0.0
 10
5.0986598716
 20
7.5330196262
 30
0.0
 10
5.1058897183
 20
7.5372412883
 30
0.0
 10
5.111131885
 20
7.541253064
 30
0.0
 10
5.1147545429
 20
7.5445451874
 30
0.0
 10
5.1180547851
 20
7.5481051117
 30
0.0
 10
5.1210074717
 20
7.5519084255
 30
0.0
 10
5.1235924997
 20
7.5559261447
 30
0.0
 10
5.1257890739
 20
7.5601302149
 30
0.0
 10
5.1275826442
 20
7.5644889739
 30
0.0
 10
5.1289586489
 20
7.5689713683
 30
0.0
 10
5.1299076675
 20
7.573543685
 30
0.0
 10
5.1302513372
 20
7.5766333876
 30
0.0
 10
5.1303497098
 20
7.5781798971
 30
0.0
  0
SPLINE
  5
4A2
100
AcDbEntity
  8
ALL_FEATURES
100
AcDbSpline
 62
7
  6
CONTINUOUS
 70
0
 71
3
 72
20
 73
16
 74
0
 42
0.0000001
 43
0.0000001
 44
0.0000000001
 40
0.0
 40
0.0
 40
0.0
 40
0.0
 40
0.1309822196
 40
0.2607037716
 40
0.3886207188
 40
0.4518601057
 40
0.5145515148
 40
0.5766960906
 40
0.6383136975
 40
0.6994389454
 40
0.7601245951
 40
0.8204378396
 40
0.8804596103
 40
0.9402808533
 40
1.0
 40
1.0
 40
1.0
 40
1.0
 10
4.5766994382
 20
7.5243752924
 30
0.0
 10
4.5731916227
 20
7.5248439301
 30
0.0
 10
4.5662713048
 20
7.5263436087
 30
0.0
 10
4.5564686816
 20
7.5302296483
 30
0.0
 10
4.549017613
 20
7.5347529542
 30
0.0
 10
4.5436626017
 20
7.5390501004
 30
0.0
 10
4.5399899878
 20
7.5425722441
 30
0.0
 10
4.5366772908
 20
7.5463767095
 30
0.0
 10
4.5337506585
 20
7.5504338217
 30
0.0
 10
4.5312330247
 20
7.5547111705
 30
0.0
 10
4.5291454886
 20
7.5591754003
 30
0.0
 10
4.527503473
 20
7.5637905015
 30
0.0
 10
4.5263218605
 20
7.568520524
 30
0.0
 10
4.5256081908
 20
7.5733267596
 30
0.0
 10
4.5254496428
 20
7.5765588695
 30
0.0
 10
4.5254496428
 20
7.5781724088
 30
0.0
  0
SPLINE
  5
4A3
100
AcDbEntity
  8
ALL_FEATURES
100
AcDbSpline
 62
7
  6
CONTINUOUS
 70
0
 71
3
 72
20
 73
16
 74
0
 42
0.0000001
 43
0.0000001
 44
0.0000000001
 40
0.0
 40
0.0
 40
0.0
 40
0.0
 40
0.1309822196
 40
0.2607037716
 40
0.3886207188
 40
0.4518601057
 40
0.5145515148
 40
0.5766960906
 40
0.6383136975
 40
0.6994389454
 40
0.7601245951
 40
0.8204378396
 40
0.8804596103
 40
0.9402808533
 40
1.0
 40
1.0
 40
1.0
 40
1.0
 10
4.5941994382
 20
7.5243752924
 30
0.0
 10
4.5977072537
 20
7.5248439301
 30
0.0
 10
4.6046275716
 20
7.5263436087
 30
0.0
 10
4.6144301948
 20
7.5302296483
 30
0.0
 10
4.6218812634
 20
7.5347529542
 30
0.0
 10
4.6272362747
 20
7.5390501004
 30
0.0
 10
4.6309088886
 20
7.5425722441
 30
0.0
 10
4.6342215857
 20
7.5463767095
 30
0.0
 10
4.6371482179
 20
7.5504338217
 30
0.0
 10
4.6396658517
 20
7.5547111705
 30
0.0
 10
4.6417533878
 20
7.5591754003
 30
0.0
 10
4.6433954034
 20
7.5637905015
 30
0.0
 10
4.6445770159
 20
7.568520524
 30
0.0
 10
4.6452906856
 20
7.5733267596
 30
0.0
 10
4.6454492336
 20
7.5765588695
 30
0.0
 10
4.6454492336
 20
7.5781724088
 30
0.0
  0
SPLINE
  5
4A4
100
AcDbEntity
  8
ALL_FEATURES
100
AcDbSpline
 62
7
  6
CONTINUOUS
 70
0
 71
3
 72
20
 73
16
 74
0
 42
0.0000001
 43
0.0000001
 44
0.0000000001
 40
0.0
 40
0.0
 40
0.0
 40
0.0
 40
0.0597191467
 40
0.1195403897
 40
0.1795621604
 40
0.2398754049
 40
0.3005610546
 40
0.3616863025
 40
0.4233039094
 40
0.4854484852
 40
0.5481398943
 40
0.6113792812
 40
0.7392962284
 40
0.8690177804
 40
1.0
 40
1.0
 40
1.0
 40
1.0
 10
4.5254496428
 20
7.5813125902
 30
0.0
 10
4.5254496428
 20
7.5829261295
 30
0.0
 10
4.5256081908
 20
7.5861582394
 30
0.0
 10
4.5263218605
 20
7.590964475
 30
0.0
 10
4.527503473
 20
7.5956944975
 30
0.0
 10
4.5291454886
 20
7.6003095987
 30
0.0
 10
4.5312330247
 20
7.6047738285
 30
0.0
 10
4.5337506585
 20
7.6090511773
 30
0.0
 10
4.5366772908
 20
7.6131082895
 30
0.0
 10
4.5399899878
 20
7.6169127549
 30
0.0
 10
4.5436626017
 20
7.6204348986
 30
0.0
 10
4.549017613
 20
7.6247320448
 30
0.0
 10
4.5564686816
 20
7.6292553507
 30
0.0
 10
4.5662713048
 20
7.6331413903
 30
0.0
 10
4.5731916227
 20
7.6346410689
 30
0.0
 10
4.5766994382
 20
7.6351097066
 30
0.0
  0
SPLINE
  5
4A5
100
AcDbEntity
  8
ALL_FEATURES
100
AcDbSpline
 62
7
  6
CONTINUOUS
 70
0
 71
3
 72
20
 73
16
 74
0
 42
0.0000001
 43
0.0000001
 44
0.0000000001
 40
0.0
 40
0.0
 40
0.0
 40
0.0
 40
0.0597191467
 40
0.1195403897
 40
0.1795621604
 40
0.2398754049
 40
0.3005610546
 40
0.3616863025
 40
0.4233039094
 40
0.4854484852
 40
0.5481398943
 40
0.6113792812
 40
0.7392962284
 40
0.8690177804
 40
1.0
 40
1.0
 40
1.0
 40
1.0
 10
4.6454492336
 20
7.5813125902
 30
0.0
 10
4.6454492336
 20
7.5829261295
 30
0.0
 10
4.6452906856
 20
7.5861582394
 30
0.0
 10
4.6445770159
 20
7.590964475
 30
0.0
 10
4.6433954034
 20
7.5956944975
 30
0.0
 10
4.6417533878
 20
7.6003095987
 30
0.0
 10
4.6396658517
 20
7.6047738285
 30
0.0
 10
4.6371482179
 20
7.6090511773
 30
0.0
 10
4.6342215857
 20
7.6131082895
 30
0.0
 10
4.6309088886
 20
7.6169127549
 30
0.0
 10
4.6272362747
 20
7.6204348986
 30
0.0
 10
4.6218812634
 20
7.6247320448
 30
0.0
 10
4.6144301948
 20
7.6292553507
 30
0.0
 10
4.6046275716
 20
7.6331413903
 30
0.0
 10
4.5977072537
 20
7.6346410689
 30
0.0
 10
4.5941994382
 20
7.6351097066
 30
0.0
  0
SPLINE
  5
4A6
100
AcDbEntity
  8
ALL_FEATURES
100
AcDbSpline
 62
7
  6
CONTINUOUS
 70
0
 71
3
 72
20
 73
16
 74
0
 42
0.0000001
 43
0.0000001
 44
0.0000000001
 40
0.0
 40
0.0
 40
0.0
 40
0.0
 40
0.1307571229
 40
0.26033771
 40
0.3882161908
 40
0.4514763195
 40
0.5142137583
 40
0.5764255136
 40
0.6381234869
 40
0.6993349642
 40
0.7601004181
 40
0.8204767757
 40
0.8805312007
 40
0.9403436854
 40
1.0
 40
1.0
 40
1.0
 40
1.0
 10
4.5766994382
 20
7.5275154737
 30
0.0
 10
4.5733327971
 20
7.5279652508
 30
0.0
 10
4.5666870834
 20
7.5293830217
 30
0.0
 10
4.5572390048
 20
7.5330196262
 30
0.0
 10
4.5500091581
 20
7.5372412883
 30
0.0
 10
4.5447669914
 20
7.541253064
 30
0.0
 10
4.5411443335
 20
7.5445451874
 30
0.0
 10
4.5378440913
 20
7.5481051117
 30
0.0
 10
4.5348914047
 20
7.5519084255
 30
0.0
 10
4.5323063767
 20
7.5559261447
 30
0.0
 10
4.5301098025
 20
7.5601302149
 30
0.0
 10
4.5283162322
 20
7.5644889739
 30
0.0
 10
4.5269402275
 20
7.5689713683
 30
0.0
 10
4.5259912089
 20
7.573543685
 30
0.0
 10
4.5256475392
 20
7.5766333876
 30
0.0
 10
4.5255491666
 20
7.5781798971
 30
0.0
  0
SPLINE
  5
4A7
100
AcDbEntity
  8
ALL_FEATURES
100
AcDbSpline
 62
7
  6
CONTINUOUS
 70
0
 71
3
 72
20
 73
16
 74
0
 42
0.0000001
 43
0.0000001
 44
0.0000000001
 40
0.0
 40
0.0
 40
0.0
 40
0.0
 40
0.1307571229
 40
0.26033771
 40
0.3882161908
 40
0.4514763195
 40
0.5142137583
 40
0.5764255136
 40
0.6381234869
 40
0.6993349642
 40
0.7601004181
 40
0.8204767757
 40
0.8805312007
 40
0.9403436854
 40
1.0
 40
1.0
 40
1.0
 40
1.0
 10
4.5941994382
 20
7.5275154737
 30
0.0
 10
4.5975660793
 20
7.5279652508
 30
0.0
 10
4.604211793
 20
7.5293830217
 30
0.0
 10
4.6136598716
 20
7.5330196262
 30
0.0
 10
4.6208897183
 20
7.5372412883
 30
0.0
 10
4.626131885
 20
7.541253064
 30
0.0
 10
4.6297545429
 20
7.5445451874
 30
0.0
 10
4.6330547851
 20
7.5481051117
 30
0.0
 10
4.6360074717
 20
7.5519084255
 30
0.0
 10
4.6385924997
 20
7.5559261447
 30
0.0
 10
4.6407890739
 20
7.5601302149
 30
0.0
 10
4.6425826442
 20
7.5644889739
 30
0.0
 10
4.6439586489
 20
7.5689713683
 30
0.0
 10
4.6449076675
 20
7.573543685
 30
0.0
 10
4.6452513372
 20
7.5766333876
 30
0.0
 10
4.6453497098
 20
7.5781798971
 30
0.0
  0
SPLINE
  5
4A8
100
AcDbEntity
  8
ALL_FEATURES
100
AcDbSpline
 62
7
  6
CONTINUOUS
 70
0
 71
3
 72
47
 73
43
 74
0
 42
0.0000001
 43
0.0000001
 44
0.0000000001
 40
0.0
 40
0.0
 40
0.0
 40
0.0
 40
0.015636038
 40
0.0234762549
 40
0.0313090995
 40
0.0391469884
 40
0.0469740765
 40
0.0626109349
 40
0.0782412482
 40
0.0938710981
 40
0.1094963244
 40
0.125121656
 40
0.1563605446
 40
0.1876004486
 40
0.218840831
 40
0.2500812885
 40
0.2813218338
 40
0.3125625771
 40
0.3438031414
 40
0.3750436331
 40
0.4375213952
 40
0.499999553
 40
0.5624777701
 40
0.6249556923
 40
0.6561963682
 40
0.6874369965
 40
0.7186779056
 40
0.7499185956
 40
0.7811591504
 40
0.8123996347
 40
0.843639621
 40
0.8748785654
 40
0.8905039093
 40
0.9061291481
 40
0.9217589892
 40
0.9373892437
 40
0.953026055
 40
0.9608530643
 40
0.968690851
 40
0.9765236449
 40
0.9843639057
 40
1.0
 40
1.0
 40
1.0
 40
1.0
 10
4.7526687136
 20
1.4343466067
 30
0.0
 10
4.7526687136
 20
1.4352203852
 30
0.0
 10
4.7528653934
 20
1.4365399052
 30
0.0
 10
4.7534550407
 20
1.4381899238
 30
0.0
 10
4.7540434258
 20
1.4393681788
 30
0.0
 10
4.7547493139
 20
1.4404776857
 30
0.0
 10
4.7558171988
 20
1.4418655723
 30
0.0
 10
4.7573496103
 20
1.4434334209
 30
0.0
 10
4.7593903464
 20
1.4450843125
 30
0.0
 10
4.7615729219
 20
1.4465392073
 30
0.0
 10
4.7638537319
 20
1.4478318231
 30
0.0
 10
4.7669913397
 20
1.4493684585
 30
0.0
 10
4.7710481604
 20
1.4509946767
 30
0.0
 10
4.7760410572
 20
1.4525861337
 30
0.0
 10
4.7811148483
 20
1.453893799
 30
0.0
 10
4.7862417794
 20
1.454970625
 30
0.0
 10
4.7914049746
 20
1.4558551635
 30
0.0
 10
4.7965932849
 20
1.4565759259
 30
0.0
 10
4.8017991482
 20
1.4571550153
 30
0.0
 10
4.8087564108
 20
1.4577600762
 30
0.0
 10
4.8174746142
 20
1.4582356794
 30
0.0
 10
4.8279493661
 20
1.4584197609
 30
0.0
 10
4.8384241291
 20
1.4582356951
 30
0.0
 10
4.8471423498
 20
1.4577600358
 30
0.0
 10
4.8540996451
 20
1.4571550795
 30
0.0
 10
4.8593055216
 20
1.456575897
 30
0.0
 10
4.8644938597
 20
1.4558551894
 30
0.0
 10
4.8696570775
 20
1.4549706422
 30
0.0
 10
4.8747840238
 20
1.4538937963
 30
0.0
 10
4.8798578309
 20
1.4525861305
 30
0.0
 10
4.88485074
 20
1.4509946682
 30
0.0
 10
4.8889075698
 20
1.4493684489
 30
0.0
 10
4.8920451772
 20
1.4478318029
 30
0.0
 10
4.8943259898
 20
1.4465391899
 30
0.0
 10
4.8965085586
 20
1.4450842902
 30
0.0
 10
4.8985492871
 20
1.4434333992
 30
0.0
 10
4.9000816848
 20
1.4418655524
 30
0.0
 10
4.901149568
 20
1.4404776807
 30
0.0
 10
4.901855452
 20
1.4393681865
 30
0.0
 10
4.9024438344
 20
1.4381899365
 30
0.0
 10
4.9030334709
 20
1.4365399116
 30
0.0
 10
4.9032301628
 20
1.4352203883
 30
0.0
 10
4.9032301628
 20
1.4343466067
 30
0.0
  0
SPLINE
  5
4A9
100
AcDbEntity
  8
ALL_FEATURES
100
AcDbSpline
 62
7
  6
CONTINUOUS
 70
0
 71
3
 72
42
 73
38
 74
0
 42
0.0000001
 43
0.0000001
 44
0.0000000001
 40
0.0
 40
0.0
 40
0.0
 40
0.0
 40
0.0132094635
 40
0.026270904
 40
0.0389662124
 40
0.0511978635
 40
0.0741950556
 40
0.0953370609
 40
0.1149428706
 40
0.1333212546
 40
0.150729441
 40
0.1673682588
 40
0.1989071477
 40
0.2288224945
 40
0.2576457293
 40
0.285717562
 40
0.3404151409
 40
0.3940384313
 40
0.4471336222
 40
0.5000109793
 40
0.552888386
 40
0.6059837118
 40
0.6596071862
 40
0.7143049449
 40
0.742376878
 40
0.7712001936
 40
0.8011156064
 40
0.8326545502
 40
0.8666789781
 40
0.8850573768
 40
0.9046631484
 40
0.9258051172
 40
0.9488020528
 40
0.961033638
 40
0.9737290198
 40
0.9867905213
 40
1.0
 40
1.0
 40
1.0
 40
1.0
 10
4.5770503202
 20
1.4343466067
 30
0.0
 10
4.5770503202
 20
1.4347829176
 30
0.0
 10
4.5770826439
 20
1.4356509334
 30
0.0
 10
4.5772194933
 20
1.43693165
 30
0.0
 10
4.5774388376
 20
1.4381681699
 30
0.0
 10
4.5778206937
 20
1.4397053305
 30
0.0
 10
4.5784359998
 20
1.441467898
 30
0.0
 10
4.5793538368
 20
1.4433671196
 30
0.0
 10
4.5803767173
 20
1.4450342453
 30
0.0
 10
4.5814721958
 20
1.4465023876
 30
0.0
 10
4.5826165518
 20
1.4478042732
 30
0.0
 10
4.5841629459
 20
1.4493235472
 30
0.0
 10
4.5861746529
 20
1.450948997
 30
0.0
 10
4.588689688
 20
1.4525597412
 30
0.0
 10
4.5912398129
 20
1.4538784419
 30
0.0
 10
4.5946397188
 20
1.4553097244
 30
0.0
 10
4.598958123
 20
1.4566344453
 30
0.0
 10
4.6041970726
 20
1.4576612475
 30
0.0
 10
4.6094426916
 20
1.4582351955
 30
0.0
 10
4.6146906508
 20
1.4584198796
 30
0.0
 10
4.6199386145
 20
1.4582351982
 30
0.0
 10
4.6251842459
 20
1.4576612492
 30
0.0
 10
4.6304232097
 20
1.4566344304
 30
0.0
 10
4.6347416364
 20
1.4553097558
 30
0.0
 10
4.6381415563
 20
1.4538784239
 30
0.0
 10
4.6406916535
 20
1.4525598002
 30
0.0
 10
4.6432068386
 20
1.4509487433
 30
0.0
 10
4.6456658205
 20
1.4489626756
 30
0.0
 10
4.6475809178
 20
1.4469427046
 30
0.0
 10
4.6490045867
 20
1.4450342412
 30
0.0
 10
4.6500275587
 20
1.4433670963
 30
0.0
 10
4.6509453583
 20
1.4414678887
 30
0.0
 10
4.6515606742
 20
1.4397053331
 30
0.0
 10
4.6519425266
 20
1.4381681805
 30
0.0
 10
4.6521618675
 20
1.4369316576
 30
0.0
 10
4.6522987196
 20
1.4356509364
 30
0.0
 10
4.6523310448
 20
1.4347829181
 30
0.0
 10
4.6523310448
 20
1.4343466067
 30
0.0
  0
SPLINE
  5
4AA
100
AcDbEntity
  8
ALL_FEATURES
100
AcDbSpline
 62
7
  6
CONTINUOUS
 70
0
 71
3
 72
41
 73
37
 74
0
 42
0.0000001
 43
0.0000001
 44
0.0000000001
 40
0.0
 40
0.0
 40
0.0
 40
0.0
 40
0.0132097336
 40
0.0262712867
 40
0.0389666112
 40
0.0511985947
 40
0.0741963811
 40
0.0953389349
 40
0.1149451951
 40
0.1333240058
 40
0.1673491551
 40
0.198888745
 40
0.2288047616
 40
0.257628647
 40
0.2857011141
 40
0.3403999645
 40
0.3940245166
 40
0.4471209729
 40
0.4999995879
 40
0.5528782521
 40
0.6059748486
 40
0.6595996285
 40
0.7142987218
 40
0.7423713269
 40
0.7711953234
 40
0.8011114302
 40
0.8326510928
 40
0.8666762977
 40
0.8850551275
 40
0.9046613383
 40
0.9258038449
 40
0.948801299
 40
0.9610331965
 40
0.9737286149
 40
0.9867902467
 40
1.0
 40
1.0
 40
1.0
 40
1.0
 10
5.0035678316
 20
1.4343466067
 30
0.0
 10
5.0035678316
 20
1.4347829166
 30
0.0
 10
5.0036001507
 20
1.4356509255
 30
0.0
 10
5.0037369914
 20
1.4369316274
 30
0.0
 10
5.0039563465
 20
1.4381681322
 30
0.0
 10
5.0043381992
 20
1.4397052877
 30
0.0
 10
5.0049534968
 20
1.4414678699
 30
0.0
 10
5.0058713143
 20
1.4433670874
 30
0.0
 10
5.0068942876
 20
1.4450342368
 30
0.0
 10
5.0083179555
 20
1.4469427009
 30
0.0
 10
5.0102330498
 20
1.4489626693
 30
0.0
 10
5.0126920251
 20
1.4509487353
 30
0.0
 10
5.015207202
 20
1.452559791
 30
0.0
 10
5.0177572897
 20
1.4538784162
 30
0.0
 10
5.0211572116
 20
1.4553097138
 30
0.0
 10
5.0254756057
 20
1.4566344468
 30
0.0
 10
5.030714564
 20
1.4576612476
 30
0.0
 10
5.0359601881
 20
1.4582351955
 30
0.0
 10
5.0412081538
 20
1.4584198793
 30
0.0
 10
5.046456124
 20
1.4582351982
 30
0.0
 10
5.0517017627
 20
1.4576612477
 30
0.0
 10
5.0569407358
 20
1.4566344301
 30
0.0
 10
5.0612591674
 20
1.4553097456
 30
0.0
 10
5.0646590926
 20
1.4538784125
 30
0.0
 10
5.0672091925
 20
1.4525597878
 30
0.0
 10
5.0697243769
 20
1.4509487262
 30
0.0
 10
5.0721833567
 20
1.4489626545
 30
0.0
 10
5.074098453
 20
1.4469426809
 30
0.0
 10
5.0755221162
 20
1.4450342122
 30
0.0
 10
5.0765450848
 20
1.4433670629
 30
0.0
 10
5.0774628908
 20
1.4414678559
 30
0.0
 10
5.0780781912
 20
1.4397052912
 30
0.0
 10
5.0784600405
 20
1.4381681457
 30
0.0
 10
5.0786793909
 20
1.4369316372
 30
0.0
 10
5.0788162351
 20
1.4356509294
 30
0.0
 10
5.0788485562
 20
1.4347829173
 30
0.0
 10
5.0788485562
 20
1.4343466067
 30
0.0
  0
SPLINE
  5
4AB
100
AcDbEntity
  8
ALL_FEATURES
100
AcDbSpline
 62
7
  6
CONTINUOUS
 70
0
 71
3
 72
43
 73
39
 74
0
 42
0.0000001
 43
0.0000001
 44
0.0000000001
 40
0.0
 40
0.0
 40
0.0
 40
0.0
 40
0.0156225905
 40
0.0312465605
 40
0.0468708469
 40
0.0624949368
 40
0.0781198588
 40
0.0937457584
 40
0.1093722505
 40
0.1249988189
 40
0.1562446895
 40
0.1874931187
 40
0.2187429828
 40
0.2499935817
 40
0.2812446128
 40
0.3124958914
 40
0.3437473116
 40
0.3749988404
 40
0.4374988493
 40
0.4999994241
 40
0.5625000563
 40
0.6250001847
 40
0.6562518481
 40
0.6875033877
 40
0.7187547615
 40
0.7500058861
 40
0.7812565692
 40
0.8125064884
 40
0.8437549372
 40
0.875000815
 40
0.8906273812
 40
0.9062538683
 40
0.9218797631
 40
0.9375046828
 40
0.9531287923
 40
0.9687531351
 40
0.9843772591
 40
1.0
 40
1.0
 40
1.0
 40
1.0
 10
4.9032301628
 20
1.3959903544
 30
0.0
 10
4.9032301628
 20
1.3951174027
 30
0.0
 10
4.9029721775
 20
1.3933626021
 30
0.0
 10
4.9019171459
 20
1.3909403035
 30
0.0
 10
4.9003930959
 20
1.3887929473
 30
0.0
 10
4.8985592454
 20
1.3869121116
 30
0.0
 10
4.8965195278
 20
1.385261593
 30
0.0
 10
4.8943388188
 20
1.3838053528
 30
0.0
 10
4.8920583942
 20
1.3825125686
 30
0.0
 10
4.888921356
 20
1.3809743104
 30
0.0
 10
4.8848642405
 20
1.379347191
 30
0.0
 10
4.8798707645
 20
1.3777544838
 30
0.0
 10
4.8747960341
 20
1.3764459247
 30
0.0
 10
4.8696679888
 20
1.3753684071
 30
0.0
 10
4.864503566
 20
1.3744833883
 30
0.0
 10
4.8593139885
 20
1.3737620852
 30
0.0
 10
4.8541067958
 20
1.3731826191
 30
0.0
 10
4.8471476836
 20
1.3725772976
 30
0.0
 10
4.8384271305
 20
1.3721014078
 30
0.0
 10
4.827949532
 20
1.371917257
 30
0.0
 10
4.8174719238
 20
1.3721013563
 30
0.0
 10
4.8087513581
 20
1.3725773199
 30
0.0
 10
4.8017922204
 20
1.373182585
 30
0.0
 10
4.7965850084
 20
1.3737620577
 30
0.0
 10
4.7913954147
 20
1.3744833694
 30
0.0
 10
4.7862309767
 20
1.3753683892
 30
0.0
 10
4.7811029177
 20
1.3764459045
 30
0.0
 10
4.7760281779
 20
1.3777544632
 30
0.0
 10
4.7710346973
 20
1.3793471707
 30
0.0
 10
4.7669775778
 20
1.3809742837
 30
0.0
 10
4.7638405383
 20
1.3825125391
 30
0.0
 10
4.7615601126
 20
1.3838053201
 30
0.0
 10
4.7593794015
 20
1.3852615557
 30
0.0
 10
4.7573396787
 20
1.3869120692
 30
0.0
 10
4.7555058202
 20
1.3887929025
 30
0.0
 10
4.7539817529
 20
1.3909402624
 30
0.0
 10
4.7529267071
 20
1.393362577
 30
0.0
 10
4.7526687136
 20
1.3951173943
 30
0.0
 10
4.7526687136
 20
1.3959903544
 30
0.0
  0
SPLINE
  5
4AC
100
AcDbEntity
  8
ALL_FEATURES
100
AcDbSpline
 62
7
  6
CONTINUOUS
 70
0
 71
3
 72
34
 73
30
 74
0
 42
0.0000001
 43
0.0000001
 44
0.0000000001
 40
0.0
 40
0.0
 40
0.0
 40
0.0
 40
0.0262372762
 40
0.0511198333
 40
0.0740891632
 40
0.0952267317
 40
0.133180107
 40
0.1672211711
 40
0.1987773839
 40
0.2287089289
 40
0.2855892649
 40
0.3403147315
 40
0.3939651943
 40
0.4470872525
 40
0.4999913964
 40
0.5528955823
 40
0.6060177616
 40
0.6596683816
 40
0.7143939967
 40
0.7712744154
 40
0.8012059614
 40
0.8327621492
 40
0.8668031773
 40
0.9047564843
 40
0.9258940392
 40
0.9488634081
 40
0.9737461891
 40
0.9867886744
 40
1.0
 40
1.0
 40
1.0
 40
1.0
 10
5.0788485562
 20
1.3959903544
 30
0.0
 10
5.0788485562
 20
1.3951239351
 30
0.0
 10
5.0787279656
 20
1.3934333169
 30
0.0
 10
5.0782183173
 20
1.3910334036
 30
0.0
 10
5.0774654757
 20
1.388877152
 30
0.0
 10
5.0762867705
 20
1.3864321252
 30
0.0
 10
5.0745505569
 20
1.3838711483
 30
0.0
 10
5.0721903795
 20
1.3813810313
 30
0.0
 10
5.0697311003
 20
1.3793929941
 30
0.0
 10
5.0664350961
 20
1.3772806219
 30
0.0
 10
5.062173599
 20
1.3753078654
 30
0.0
 10
5.0569455889
 20
1.3737037684
 30
0.0
 10
5.0517045118
 20
1.3726760897
 30
0.0
 10
5.0464576666
 20
1.3721019162
 30
0.0
 10
5.041208238
 20
1.3719171291
 30
0.0
 10
5.0359588011
 20
1.3721018738
 30
0.0
 10
5.0307119526
 20
1.3726761063
 30
0.0
 10
5.0254708513
 20
1.3737037308
 30
0.0
 10
5.0202428338
 20
1.3753078534
 30
0.0
 10
5.0159813255
 20
1.3772806004
 30
0.0
 10
5.0126853187
 20
1.3793929737
 30
0.0
 10
5.0102260375
 20
1.3813810015
 30
0.0
 10
5.0078658557
 20
1.3838711223
 30
0.0
 10
5.0061296558
 20
1.3864320592
 30
0.0
 10
5.0049509038
 20
1.3888771569
 30
0.0
 10
5.004198202
 20
1.3910331475
 30
0.0
 10
5.0037788
 20
1.3930065798
 30
0.0
 10
5.0035996215
 20
1.3946867937
 30
0.0
 10
5.0035678316
 20
1.395554084
 30
0.0
 10
5.0035678316
 20
1.3959903544
 30
0.0
  0
SPLINE
  5
4AD
100
AcDbEntity
  8
ALL_FEATURES
100
AcDbSpline
 62
7
  6
CONTINUOUS
 70
0
 71
3
 72
33
 73
29
 74
0
 42
0.0000001
 43
0.0000001
 44
0.0000000001
 40
0.0
 40
0.0
 40
0.0
 40
0.0
 40
0.0262375714
 40
0.0511204392
 40
0.0740901217
 40
0.0952280267
 40
0.1331820457
 40
0.1672236904
 40
0.1987804259
 40
0.2287124529
 40
0.2855937178
 40
0.3403200898
 40
0.3939714561
 40
0.4470944218
 40
0.4999994677
 40
0.5529045532
 40
0.606027643
 40
0.659679199
 40
0.7144057712
 40
0.7712871628
 40
0.8012192056
 40
0.8327759216
 40
0.8668175276
 40
0.904771478
 40
0.9259093715
 40
0.9488790937
 40
0.973762182
 40
1.0
 40
1.0
 40
1.0
 40
1.0
 10
4.6523310448
 20
1.3959903544
 30
0.0
 10
4.6523310448
 20
1.3951239394
 30
0.0
 10
4.6522104563
 20
1.3934333287
 30
0.0
 10
4.6517008112
 20
1.3910334231
 30
0.0
 10
4.6509479741
 20
1.3888771743
 30
0.0
 10
4.6497692717
 20
1.3864321464
 30
0.0
 10
4.6480330613
 20
1.3838711652
 30
0.0
 10
4.6456728823
 20
1.3813810472
 30
0.0
 10
4.6432136063
 20
1.3793930044
 30
0.0
 10
4.6399176007
 20
1.3772806339
 30
0.0
 10
4.6356561067
 20
1.3753078701
 30
0.0
 10
4.6304280933
 20
1.3737037785
 30
0.0
 10
4.625187016
 20
1.3726760858
 30
0.0
 10
4.6199401657
 20
1.3721019236
 30
0.0
 10
4.6146907338
 20
1.3719171245
 30
0.0
 10
4.6094412925
 20
1.3721018718
 30
0.0
 10
4.60419444
 20
1.3726761088
 30
0.0
 10
4.5989533323
 20
1.3737037307
 30
0.0
 10
4.5937253101
 20
1.3753078584
 30
0.0
 10
4.5894637997
 20
1.3772806103
 30
0.0
 10
4.5861677906
 20
1.3793929834
 30
0.0
 10
4.5837085109
 20
1.3813810192
 30
0.0
 10
4.5813483325
 20
1.3838711321
 30
0.0
 10
4.5796121179
 20
1.3864321054
 30
0.0
 10
4.5784334105
 20
1.3888771295
 30
0.0
 10
4.5776805643
 20
1.3910333838
 30
0.0
 10
4.5771709126
 20
1.3934333052
 30
0.0
 10
4.5770503202
 20
1.3951239313
 30
0.0
 10
4.5770503202
 20
1.3959903544
 30
0.0
  0
SPLINE
  5
4AE
100
AcDbEntity
  8
ALL_FEATURES
100
AcDbSpline
 62
7
  6
CONTINUOUS
 70
0
 71
3
 72
47
 73
43
 74
0
 42
0.0000001
 43
0.0000001
 44
0.0000000001
 40
0.0
 40
0.0
 40
0.0
 40
0.0
 40
0.015636038
 40
0.0234762549
 40
0.0313090995
 40
0.0391469884
 40
0.0469740765
 40
0.0626109349
 40
0.0782412482
 40
0.0938710981
 40
0.1094963244
 40
0.125121656
 40
0.1563605446
 40
0.1876004486
 40
0.218840831
 40
0.2500812885
 40
0.2813218338
 40
0.3125625771
 40
0.3438031414
 40
0.3750436331
 40
0.4375213952
 40
0.499999553
 40
0.5624777701
 40
0.6249556923
 40
0.6561963682
 40
0.6874369965
 40
0.7186779056
 40
0.7499185956
 40
0.7811591504
 40
0.8123996347
 40
0.843639621
 40
0.8748785654
 40
0.8905039093
 40
0.9061291481
 40
0.9217589892
 40
0.9373892437
 40
0.953026055
 40
0.9608530643
 40
0.968690851
 40
0.9765236449
 40
0.9843639057
 40
1.0
 40
1.0
 40
1.0
 40
1.0
 10
4.9032301628
 20
2.747731998
 30
0.0
 10
4.9032301628
 20
2.7468582196
 30
0.0
 10
4.9030334831
 20
2.7455386996
 30
0.0
 10
4.9024438357
 20
2.7438886809
 30
0.0
 10
4.9018554506
 20
2.742710426
 30
0.0
 10
4.9011495625
 20
2.7416009191
 30
0.0
 10
4.9000816776
 20
2.7402130324
 30
0.0
 10
4.8985492661
 20
2.7386451838
 30
0.0
 10
4.89650853
 20
2.7369942923
 30
0.0
 10
4.8943259545
 20
2.7355393974
 30
0.0
 10
4.8920451445
 20
2.7342467817
 30
0.0
 10
4.8889075368
 20
2.7327101463
 30
0.0
 10
4.884850716
 20
2.7310839281
 30
0.0
 10
4.8798578192
 20
2.729492471
 30
0.0
 10
4.8747840281
 20
2.7281848058
 30
0.0
 10
4.869657097
 20
2.7271079797
 30
0.0
 10
4.8644939018
 20
2.7262234412
 30
0.0
 10
4.8593055915
 20
2.7255026789
 30
0.0
 10
4.8540997282
 20
2.7249235895
 30
0.0
 10
4.8471424656
 20
2.7243185286
 30
0.0
 10
4.8384242622
 20
2.7238429254
 30
0.0
 10
4.8279495103
 20
2.7236588439
 30
0.0
 10
4.8174747473
 20
2.7238429097
 30
0.0
 10
4.8087565266
 20
2.724318569
 30
0.0
 10
4.8017992313
 20
2.7249235253
 30
0.0
 10
4.7965933548
 20
2.7255027078
 30
0.0
 10
4.7914050167
 20
2.7262234153
 30
0.0
 10
4.7862417989
 20
2.7271079626
 30
0.0
 10
4.7811148526
 20
2.7281848084
 30
0.0
 10
4.7760410455
 20
2.7294924742
 30
0.0
 10
4.7710481364
 20
2.7310839366
 30
0.0
 10
4.7669913067
 20
2.7327101559
 30
0.0
 10
4.7638536992
 20
2.7342468019
 30
0.0
 10
4.7615728866
 20
2.7355394148
 30
0.0
 10
4.7593903178
 20
2.7369943145
 30
0.0
 10
4.7573495893
 20
2.7386452055
 30
0.0
 10
4.7558171916
 20
2.7402130523
 30
0.0
 10
4.7547493084
 20
2.741600924
 30
0.0
 10
4.7540434244
 20
2.7427104183
 30
0.0
 10
4.7534550421
 20
2.7438886682
 30
0.0
 10
4.7528654055
 20
2.7455386932
 30
0.0
 10
4.7526687136
 20
2.7468582164
 30
0.0
 10
4.7526687136
 20
2.747731998
 30
0.0
  0
SPLINE
  5
4AF
100
AcDbEntity
  8
ALL_FEATURES
100
AcDbSpline
 62
7
  6
CONTINUOUS
 70
0
 71
3
 72
42
 73
38
 74
0
 42
0.0000001
 43
0.0000001
 44
0.0000000001
 40
0.0
 40
0.0
 40
0.0
 40
0.0
 40
0.0132094635
 40
0.026270904
 40
0.0389662124
 40
0.0511978635
 40
0.0741950556
 40
0.0953370609
 40
0.1149428706
 40
0.1333212546
 40
0.150729441
 40
0.1673682588
 40
0.1989071477
 40
0.2288224945
 40
0.2576457293
 40
0.285717562
 40
0.3404151409
 40
0.3940384313
 40
0.4471336222
 40
0.5000109793
 40
0.552888386
 40
0.6059837118
 40
0.6596071862
 40
0.7143049449
 40
0.742376878
 40
0.7712001936
 40
0.8011156064
 40
0.8326545502
 40
0.8666789781
 40
0.8850573768
 40
0.9046631484
 40
0.9258051172
 40
0.9488020528
 40
0.961033638
 40
0.9737290198
 40
0.9867905213
 40
1.0
 40
1.0
 40
1.0
 40
1.0
 10
5.0788485562
 20
2.747731998
 30
0.0
 10
5.0788485562
 20
2.7472956872
 30
0.0
 10
5.0788162325
 20
2.7464276713
 30
0.0
 10
5.0786793831
 20
2.7451469547
 30
0.0
 10
5.0784600388
 20
2.7439104348
 30
0.0
 10
5.0780781827
 20
2.7423732743
 30
0.0
 10
5.0774628766
 20
2.7406107068
 30
0.0
 10
5.0765450396
 20
2.7387114852
 30
0.0
 10
5.0755221591
 20
2.7370443595
 30
0.0
 10
5.0744266806
 20
2.7355762172
 30
0.0
 10
5.0732823246
 20
2.7342743316
 30
0.0
 10
5.0717359305
 20
2.7327550575
 30
0.0
 10
5.0697242235
 20
2.7311296078
 30
0.0
 10
5.0672091884
 20
2.7295188636
 30
0.0
 10
5.0646590635
 20
2.7282001629
 30
0.0
 10
5.0612591576
 20
2.7267688804
 30
0.0
 10
5.0569407534
 20
2.7254441594
 30
0.0
 10
5.0517018038
 20
2.7244173572
 30
0.0
 10
5.0464561848
 20
2.7238434093
 30
0.0
 10
5.0412082256
 20
2.7236587251
 30
0.0
 10
5.0359602619
 20
2.7238434066
 30
0.0
 10
5.0307146305
 20
2.7244173555
 30
0.0
 10
5.0254756667
 20
2.7254441743
 30
0.0
 10
5.02115724
 20
2.7267688489
 30
0.0
 10
5.0177573201
 20
2.7282001809
 30
0.0
 10
5.0152072229
 20
2.7295188046
 30
0.0
 10
5.0126920378
 20
2.7311298614
 30
0.0
 10
5.0102330559
 20
2.7331159291
 30
0.0
 10
5.0083179586
 20
2.7351359001
 30
0.0
 10
5.0068942897
 20
2.7370443635
 30
0.0
 10
5.0058713177
 20
2.7387115085
 30
0.0
 10
5.0049535181
 20
2.740610716
 30
0.0
 10
5.0043382022
 20
2.7423732716
 30
0.0
 10
5.0039563498
 20
2.7439104243
 30
0.0
 10
5.0037370089
 20
2.7451469471
 30
0.0
 10
5.0036001568
 20
2.7464276683
 30
0.0
 10
5.0035678316
 20
2.7472956867
 30
0.0
 10
5.0035678316
 20
2.747731998
 30
0.0
  0
SPLINE
  5
4B0
100
AcDbEntity
  8
ALL_FEATURES
100
AcDbSpline
 62
7
  6
CONTINUOUS
 70
0
 71
3
 72
41
 73
37
 74
0
 42
0.0000001
 43
0.0000001
 44
0.0000000001
 40
0.0
 40
0.0
 40
0.0
 40
0.0
 40
0.0132097336
 40
0.0262712867
 40
0.0389666112
 40
0.0511985947
 40
0.0741963811
 40
0.0953389349
 40
0.1149451951
 40
0.1333240058
 40
0.1673491551
 40
0.198888745
 40
0.2288047616
 40
0.257628647
 40
0.2857011141
 40
0.3403999645
 40
0.3940245166
 40
0.4471209729
 40
0.4999995879
 40
0.5528782521
 40
0.6059748486
 40
0.6595996285
 40
0.7142987218
 40
0.7423713269
 40
0.7711953234
 40
0.8011114302
 40
0.8326510928
 40
0.8666762977
 40
0.8850551275
 40
0.9046613383
 40
0.9258038449
 40
0.948801299
 40
0.9610331965
 40
0.9737286149
 40
0.9867902467
 40
1.0
 40
1.0
 40
1.0
 40
1.0
 10
4.6523310448
 20
2.747731998
 30
0.0
 10
4.6523310448
 20
2.7472956881
 30
0.0
 10
4.6522987257
 20
2.7464276793
 30
0.0
 10
4.652161885
 20
2.7451469774
 30
0.0
 10
4.6519425299
 20
2.7439104725
 30
0.0
 10
4.6515606772
 20
2.742373317
 30
0.0
 10
4.6509453796
 20
2.7406107348
 30
0.0
 10
4.6500275621
 20
2.7387115173
 30
0.0
 10
4.6490045888
 20
2.7370443679
 30
0.0
 10
4.6475809209
 20
2.7351359038
 30
0.0
 10
4.6456658267
 20
2.7331159354
 30
0.0
 10
4.6432068513
 20
2.7311298695
 30
0.0
 10
4.6406916744
 20
2.7295188137
 30
0.0
 10
4.6381415867
 20
2.7282001885
 30
0.0
 10
4.6347416648
 20
2.7267688909
 30
0.0
 10
4.6304232707
 20
2.725444158
 30
0.0
 10
4.6251843124
 20
2.7244173571
 30
0.0
 10
4.6199386883
 20
2.7238434093
 30
0.0
 10
4.6146907226
 20
2.7236587255
 30
0.0
 10
4.6094427524
 20
2.7238434066
 30
0.0
 10
4.6041971137
 20
2.724417357
 30
0.0
 10
4.5989581406
 20
2.7254441746
 30
0.0
 10
4.594639709
 20
2.7267688591
 30
0.0
 10
4.5912397838
 20
2.7282001923
 30
0.0
 10
4.5886896839
 20
2.729518817
 30
0.0
 10
4.5861744995
 20
2.7311298785
 30
0.0
 10
4.5837155197
 20
2.7331159503
 30
0.0
 10
4.5818004234
 20
2.7351359239
 30
0.0
 10
4.5803767602
 20
2.7370443926
 30
0.0
 10
4.5793537916
 20
2.7387115419
 30
0.0
 10
4.5784359856
 20
2.7406107488
 30
0.0
 10
4.5778206852
 20
2.7423733135
 30
0.0
 10
4.5774388359
 20
2.7439104591
 30
0.0
 10
4.5772194855
 20
2.7451469676
 30
0.0
 10
4.5770826413
 20
2.7464276754
 30
0.0
 10
4.5770503202
 20
2.7472956875
 30
0.0
 10
4.5770503202
 20
2.747731998
 30
0.0
  0
SPLINE
  5
4B1
100
AcDbEntity
  8
ALL_FEATURES
100
AcDbSpline
 62
7
  6
CONTINUOUS
 70
0
 71
3
 72
43
 73
39
 74
0
 42
0.0000001
 43
0.0000001
 44
0.0000000001
 40
0.0
 40
0.0
 40
0.0
 40
0.0
 40
0.0156225905
 40
0.0312465605
 40
0.0468708469
 40
0.0624949368
 40
0.0781198588
 40
0.0937457584
 40
0.1093722505
 40
0.1249988189
 40
0.1562446895
 40
0.1874931187
 40
0.2187429828
 40
0.2499935817
 40
0.2812446128
 40
0.3124958914
 40
0.3437473116
 40
0.3749988404
 40
0.4374988493
 40
0.4999994241
 40
0.5625000563
 40
0.6250001847
 40
0.6562518481
 40
0.6875033877
 40
0.7187547615
 40
0.7500058861
 40
0.7812565692
 40
0.8125064884
 40
0.8437549372
 40
0.875000815
 40
0.8906273812
 40
0.9062538683
 40
0.9218797631
 40
0.9375046828
 40
0.9531287923
 40
0.9687531351
 40
0.9843772591
 40
1.0
 40
1.0
 40
1.0
 40
1.0
 10
4.7526687136
 20
2.7860882503
 30
0.0
 10
4.7526687136
 20
2.7869612021
 30
0.0
 10
4.7529266989
 20
2.7887160026
 30
0.0
 10
4.7539817305
 20
2.7911383013
 30
0.0
 10
4.7555057805
 20
2.7932856574
 30
0.0
 10
4.757339631
 20
2.7951664932
 30
0.0
 10
4.7593793486
 20
2.7968170118
 30
0.0
 10
4.7615600576
 20
2.798273252
 30
0.0
 10
4.7638404822
 20
2.7995660362
 30
0.0
 10
4.7669775204
 20
2.8011042943
 30
0.0
 10
4.7710346359
 20
2.8027314138
 30
0.0
 10
4.7760281119
 20
2.804324121
 30
0.0
 10
4.7811028424
 20
2.80563268
 30
0.0
 10
4.7862308876
 20
2.8067101976
 30
0.0
 10
4.7913953104
 20
2.8075952164
 30
0.0
 10
4.7965848879
 20
2.8083165195
 30
0.0
 10
4.8017920806
 20
2.8088959856
 30
0.0
 10
4.8087511928
 20
2.8095013072
 30
0.0
 10
4.8174717459
 20
2.8099771969
 30
0.0
 10
4.8279493444
 20
2.8101613477
 30
0.0
 10
4.8384269526
 20
2.8099772484
 30
0.0
 10
4.8471475183
 20
2.8095012848
 30
0.0
 10
4.8541066561
 20
2.8088960197
 30
0.0
 10
4.8593138681
 20
2.8083165471
 30
0.0
 10
4.8645034617
 20
2.8075952354
 30
0.0
 10
4.8696678997
 20
2.8067102155
 30
0.0
 10
4.8747959587
 20
2.8056327003
 30
0.0
 10
4.8798706985
 20
2.8043241416
 30
0.0
 10
4.8848641791
 20
2.8027314341
 30
0.0
 10
4.8889212986
 20
2.8011043211
 30
0.0
 10
4.8920583382
 20
2.7995660656
 30
0.0
 10
4.8943387638
 20
2.7982732847
 30
0.0
 10
4.8965194749
 20
2.7968170491
 30
0.0
 10
4.8985591977
 20
2.7951665356
 30
0.0
 10
4.9003930562
 20
2.7932857022
 30
0.0
 10
4.9019171235
 20
2.7911383424
 30
0.0
 10
4.9029721693
 20
2.7887160277
 30
0.0
 10
4.9032301628
 20
2.7869612105
 30
0.0
 10
4.9032301628
 20
2.7860882503
 30
0.0
  0
SPLINE
  5
4B2
100
AcDbEntity
  8
ALL_FEATURES
100
AcDbSpline
 62
7
  6
CONTINUOUS
 70
0
 71
3
 72
34
 73
30
 74
0
 42
0.0000001
 43
0.0000001
 44
0.0000000001
 40
0.0
 40
0.0
 40
0.0
 40
0.0
 40
0.0262372762
 40
0.0511198333
 40
0.0740891632
 40
0.0952267317
 40
0.133180107
 40
0.1672211711
 40
0.1987773839
 40
0.2287089289
 40
0.2855892649
 40
0.3403147315
 40
0.3939651943
 40
0.4470872525
 40
0.4999913964
 40
0.5528955823
 40
0.6060177616
 40
0.6596683816
 40
0.7143939967
 40
0.7712744154
 40
0.8012059614
 40
0.8327621492
 40
0.8668031773
 40
0.9047564843
 40
0.9258940392
 40
0.9488634081
 40
0.9737461891
 40
0.9867886744
 40
1.0
 40
1.0
 40
1.0
 40
1.0
 10
4.5770503202
 20
2.7860882503
 30
0.0
 10
4.5770503202
 20
2.7869546697
 30
0.0
 10
4.5771709108
 20
2.7886452879
 30
0.0
 10
4.5776805591
 20
2.7910452012
 30
0.0
 10
4.5784334007
 20
2.7932014528
 30
0.0
 10
4.5796121059
 20
2.7956464795
 30
0.0
 10
4.5813483195
 20
2.7982074565
 30
0.0
 10
4.5837084969
 20
2.8006975734
 30
0.0
 10
4.5861677761
 20
2.8026856106
 30
0.0
 10
4.5894637803
 20
2.8047979829
 30
0.0
 10
4.5937252774
 20
2.8067707393
 30
0.0
 10
4.5989532875
 20
2.8083748364
 30
0.0
 10
4.6041943646
 20
2.8094025151
 30
0.0
 10
4.6094412099
 20
2.8099766885
 30
0.0
 10
4.6146906384
 20
2.8101614757
 30
0.0
 10
4.6199400753
 20
2.809976731
 30
0.0
 10
4.6251869238
 20
2.8094024984
 30
0.0
 10
4.6304280251
 20
2.8083748739
 30
0.0
 10
4.6356560426
 20
2.8067707513
 30
0.0
 10
4.6399175509
 20
2.8047980044
 30
0.0
 10
4.6432135577
 20
2.802685631
 30
0.0
 10
4.6456728389
 20
2.8006976032
 30
0.0
 10
4.6480330207
 20
2.7982074825
 30
0.0
 10
4.6497692206
 20
2.7956465456
 30
0.0
 10
4.6509479726
 20
2.7932014478
 30
0.0
 10
4.6517006744
 20
2.7910454573
 30
0.0
 10
4.6521200764
 20
2.789072025
 30
0.0
 10
4.6522992549
 20
2.7873918111
 30
0.0
 10
4.6523310448
 20
2.7865245208
 30
0.0
 10
4.6523310448
 20
2.7860882503
 30
0.0
  0
SPLINE
  5
4B3
100
AcDbEntity
  8
ALL_FEATURES
100
AcDbSpline
 62
7
  6
CONTINUOUS
 70
0
 71
3
 72
33
 73
29
 74
0
 42
0.0000001
 43
0.0000001
 44
0.0000000001
 40
0.0
 40
0.0
 40
0.0
 40
0.0
 40
0.0262375714
 40
0.0511204392
 40
0.0740901217
 40
0.0952280267
 40
0.1331820457
 40
0.1672236904
 40
0.1987804259
 40
0.2287124529
 40
0.2855937178
 40
0.3403200898
 40
0.3939714561
 40
0.4470944218
 40
0.4999994677
 40
0.5529045532
 40
0.606027643
 40
0.659679199
 40
0.7144057712
 40
0.7712871628
 40
0.8012192056
 40
0.8327759216
 40
0.8668175276
 40
0.904771478
 40
0.9259093715
 40
0.9488790937
 40
0.973762182
 40
1.0
 40
1.0
 40
1.0
 40
1.0
 10
5.0035678316
 20
2.7860882503
 30
0.0
 10
5.0035678316
 20
2.7869546653
 30
0.0
 10
5.0036884201
 20
2.7886452761
 30
0.0
 10
5.0041980652
 20
2.7910451816
 30
0.0
 10
5.0049509023
 20
2.7932014304
 30
0.0
 10
5.0061296047
 20
2.7956464584
 30
0.0
 10
5.0078658151
 20
2.7982074396
 30
0.0
 10
5.0102259941
 20
2.8006975576
 30
0.0
 10
5.0126852701
 20
2.8026856004
 30
0.0
 10
5.0159812757
 20
2.8047979709
 30
0.0
 10
5.0202427698
 20
2.8067707347
 30
0.0
 10
5.0254707831
 20
2.8083748262
 30
0.0
 10
5.0307118604
 20
2.809402519
 30
0.0
 10
5.0359587107
 20
2.8099766812
 30
0.0
 10
5.0412081426
 20
2.8101614803
 30
0.0
 10
5.0464575839
 20
2.8099767329
 30
0.0
 10
5.0517044364
 20
2.809402496
 30
0.0
 10
5.0569455441
 20
2.8083748741
 30
0.0
 10
5.0621735663
 20
2.8067707464
 30
0.0
 10
5.0664350768
 20
2.8047979945
 30
0.0
 10
5.0697310858
 20
2.8026856213
 30
0.0
 10
5.0721903655
 20
2.8006975856
 30
0.0
 10
5.0745505439
 20
2.7982074726
 30
0.0
 10
5.0762867585
 20
2.7956464994
 30
0.0
 10
5.0774654659
 20
2.7932014753
 30
0.0
 10
5.0782183121
 20
2.7910452209
 30
0.0
 10
5.0787279638
 20
2.7886452995
 30
0.0
 10
5.0788485562
 20
2.7869546735
 30
0.0
 10
5.0788485562
 20
2.7860882503
 30
0.0
  0
LINE
  5
4B4
100
AcDbEntity
  8
ALL_ASSEMBLY_MEMBERS
100
AcDbLine
 62
7
  6
CONTINUOUS
 10
4.9042340123
 20
2.282202041
 11
4.9041877346
 21
2.2831697666
  0
LINE
  5
4B5
100
AcDbEntity
  8
ALL_ASSEMBLY_MEMBERS
100
AcDbLine
 62
7
  6
CONTINUOUS
 10
4.7335961144
 20
2.239702041
 11
4.734371382
 21
2.2392227723
  0
LINE
  5
4B6
100
AcDbEntity
  8
ALL_ASSEMBLY_MEMBERS
100
AcDbLine
 62
7
  6
CONTINUOUS
 10
4.7379897668
 20
2.239702041
 11
4.738563689
 21
2.2392227723
  0
LINE
  5
4B7
100
AcDbEntity
  8
ALL_ASSEMBLY_MEMBERS
100
AcDbLine
 62
7
  6
CONTINUOUS
 10
4.7429380504
 20
2.239702041
 11
4.7433070888
 21
2.2392227723
  0
LINE
  5
4B8
100
AcDbEntity
  8
ALL_ASSEMBLY_MEMBERS
100
AcDbLine
 62
7
  6
CONTINUOUS
 10
4.7484104575
 20
2.239702041
 11
4.7485723369
 21
2.2392227723
  0
LINE
  5
4B9
100
AcDbEntity
  8
ALL_ASSEMBLY_MEMBERS
100
AcDbLine
 62
7
  6
CONTINUOUS
 10
4.9041877346
 20
2.2392227723
 11
4.9042340123
 21
2.239702041
  0
LINE
  5
4BA
100
AcDbEntity
  8
ALL_ASSEMBLY_MEMBERS
100
AcDbLine
 62
7
  6
CONTINUOUS
 10
4.9097290695
 20
2.2392227723
 11
4.909983219
 21
2.239702041
  0
LINE
  5
4BB
100
AcDbEntity
  8
ALL_ASSEMBLY_MEMBERS
100
AcDbLine
 62
7
  6
CONTINUOUS
 10
4.9147662059
 20
2.2392227723
 11
4.9152266602
 21
2.239702041
  0
LINE
  5
4BC
100
AcDbEntity
  8
ALL_ASSEMBLY_MEMBERS
100
AcDbLine
 62
7
  6
CONTINUOUS
 10
4.919268088
 20
2.2392227723
 11
4.9199320082
 21
2.239702041
  0
LINE
  5
4BD
100
AcDbEntity
  8
ALL_ASSEMBLY_MEMBERS
100
AcDbLine
 62
7
  6
CONTINUOUS
 10
4.9232069602
 20
2.2392227723
 11
4.9240702532
 21
2.239702041
  0
LINE
  5
4BE
100
AcDbEntity
  8
ALL_ASSEMBLY_MEMBERS
100
AcDbLine
 62
7
  6
CONTINUOUS
 10
4.8777057733
 20
2.2392227723
 11
4.8769305057
 21
2.239702041
  0
LINE
  5
4BF
100
AcDbEntity
  8
ALL_ASSEMBLY_MEMBERS
100
AcDbLine
 62
7
  6
CONTINUOUS
 10
4.8848944408
 20
2.2392227723
 11
4.8843205186
 21
2.239702041
  0
LINE
  5
4C0
100
AcDbEntity
  8
ALL_ASSEMBLY_MEMBERS
100
AcDbLine
 62
7
  6
CONTINUOUS
 10
4.8917320234
 20
2.2392227723
 11
4.891362985
 21
2.239702041
  0
LINE
  5
4C1
100
AcDbEntity
  8
ALL_ASSEMBLY_MEMBERS
100
AcDbLine
 62
7
  6
CONTINUOUS
 10
4.8981763652
 20
2.2392227723
 11
4.8980144858
 21
2.239702041
  0
LINE
  5
4C2
100
AcDbEntity
  8
ALL_ASSEMBLY_MEMBERS
100
AcDbLine
 62
7
  6
CONTINUOUS
 10
4.7543269712
 20
2.2831697666
 11
4.7543732489
 21
2.282202041
  0
LINE
  5
4C3
100
AcDbEntity
  8
ALL_ASSEMBLY_MEMBERS
100
AcDbLine
 62
7
  6
CONTINUOUS
 10
4.7607896619
 20
2.239702041
 11
4.7605355125
 21
2.2392227723
  0
LINE
  5
4C4
100
AcDbEntity
  8
ALL_ASSEMBLY_MEMBERS
100
AcDbLine
 62
7
  6
CONTINUOUS
 10
4.7676201373
 20
2.239702041
 11
4.767159683
 21
2.2392227723
  0
LINE
  5
4C5
100
AcDbEntity
  8
ALL_ASSEMBLY_MEMBERS
100
AcDbLine
 62
7
  6
CONTINUOUS
 10
4.7748225629
 20
2.239702041
 11
4.7741586426
 21
2.2392227723
  0
LINE
  5
4C6
100
AcDbEntity
  8
ALL_ASSEMBLY_MEMBERS
100
AcDbLine
 62
7
  6
CONTINUOUS
 10
4.7823525333
 20
2.239702041
 11
4.7814892404
 21
2.2392227723
  0
SPLINE
  5
4C7
100
AcDbEntity
  8
0
100
AcDbSpline
 62
7
  6
CONTINUOUS
 70
0
 71
3
 72
17
 73
13
 74
0
 42
0.0000001
 43
0.0000001
 44
0.0000000001
 40
0.0
 40
0.0
 40
0.0
 40
0.0
 40
0.0564391121
 40
0.1125191239
 40
0.1686226173
 40
0.2250927109
 40
0.3401270987
 40
0.4592508294
 40
0.5834686519
 40
0.7142486056
 40
0.8528245191
 40
1.0
 40
1.0
 40
1.0
 40
1.0
 10
5.0154494382
 20
6.8678577056
 30
0.0
 10
5.0154494382
 20
6.8669736732
 30
0.0
 10
5.0153680011
 20
6.8652101305
 30
0.0
 10
5.0150037584
 20
6.8625906729
 30
0.0
 10
5.0144058378
 20
6.8600138586
 30
0.0
 10
5.0133014764
 20
6.8566201173
 30
0.0
 10
5.0113564468
 20
6.8524817572
 30
0.0
 10
5.0082491515
 20
6.8477871085
 30
0.0
 10
5.0044156432
 20
6.8433368885
 30
0.0
 10
4.9999005539
 20
6.8391246495
 30
0.0
 10
4.994740376
 20
6.8351203319
 30
0.0
 10
4.9909983082
 20
6.8326564413
 30
0.0
 10
4.9890326123
 20
6.8314521364
 30
0.0
  0
SPLINE
  5
4C8
100
AcDbEntity
  8
0
100
AcDbSpline
 62
7
  6
CONTINUOUS
 70
0
 71
3
 72
17
 73
13
 74
0
 42
0.0000001
 43
0.0000001
 44
0.0000000001
 40
0.0
 40
0.0
 40
0.0
 40
0.0
 40
0.1471721428
 40
0.2857470269
 40
0.4165270622
 40
0.5407390141
 40
0.6598603292
 40
0.7749040594
 40
0.8313807042
 40
0.8874890127
 40
0.9435690031
 40
1.0
 40
1.0
 40
1.0
 40
1.0
 10
4.6668619541
 20
6.8314547522
 30
0.0
 10
4.6648965633
 20
6.8326589813
 30
0.0
 10
4.66115503
 20
6.8351226948
 30
0.0
 10
4.655995831
 20
6.8391270231
 30
0.0
 10
4.6514814805
 20
6.8433389038
 30
0.0
 10
4.64764848
 20
6.8477885631
 30
0.0
 10
4.6445417207
 20
6.8524828699
 30
0.0
 10
4.6425970088
 20
6.8566210709
 30
0.0
 10
4.6414928327
 20
6.8600148108
 30
0.0
 10
4.640895034
 20
6.8625915429
 30
0.0
 10
4.6405308713
 20
6.8652106703
 30
0.0
 10
4.6404494382
 20
6.8669738952
 30
0.0
 10
4.6404494382
 20
6.8678577056
 30
0.0
  0
SPLINE
  5
4C9
100
AcDbEntity
  8
0
100
AcDbSpline
 62
7
  6
CONTINUOUS
 70
0
 71
3
 72
53
 73
49
 74
0
 42
0.0000001
 43
0.0000001
 44
0.0000000001
 40
0.0
 40
0.0
 40
0.0
 40
0.0
 40
0.0075197302
 40
0.0151787838
 40
0.0231002497
 40
0.0313943612
 40
0.0401555209
 40
0.049460587
 40
0.0593698261
 40
0.0699260876
 40
0.0811592569
 40
0.0930893681
 40
0.1057256662
 40
0.1190699116
 40
0.1331185426
 40
0.1478607889
 40
0.1793571444
 40
0.2133964733
 40
0.2497578799
 40
0.2881777625
 40
0.3283606775
 40
0.3699842106
 40
0.412705232
 40
0.4561664271
 40
0.5000000003
 40
0.5438335734
 40
0.5872947685
 40
0.6300157899
 40
0.6716393229
 40
0.7118222379
 40
0.7502421205
 40
0.7866035271
 40
0.820642856
 40
0.8521392115
 40
0.8668814577
 40
0.8809300888
 40
0.8942743341
 40
0.9069106322
 40
0.9188407434
 40
0.9300739127
 40
0.9406301742
 40
0.9505394133
 40
0.9598444793
 40
0.968605639
 40
0.9768997504
 40
0.9848212162
 40
0.9924802698
 40
1.0
 40
1.0
 40
1.0
 40
1.0
 10
4.9991994382
 20
6.8608100109
 30
0.0
 10
4.9991994382
 20
6.8617700031
 30
0.0
 10
4.9990585478
 20
6.8637105357
 30
0.0
 10
4.9984295881
 20
6.8666008785
 30
0.0
 10
4.9973858419
 20
6.869473695
 30
0.0
 10
4.9959311105
 20
6.8723193692
 30
0.0
 10
4.9940719917
 20
6.8751318858
 30
0.0
 10
4.9918142865
 20
6.8779058269
 30
0.0
 10
4.9891635534
 20
6.8806354017
 30
0.0
 10
4.9861268787
 20
6.8833155371
 30
0.0
 10
4.9827114445
 20
6.8859405574
 30
0.0
 10
4.9789248418
 20
6.888504039
 30
0.0
 10
4.9747763107
 20
6.8910006478
 30
0.0
 10
4.9702756282
 20
6.8934247399
 30
0.0
 10
4.9654331163
 20
6.8957702029
 30
0.0
 10
4.9583796607
 20
6.8988538676
 30
0.0
 10
4.948773622
 20
6.902448798
 30
0.0
 10
4.936334945
 20
6.9062778846
 30
0.0
 10
4.9228586046
 20
6.9096750778
 30
0.0
 10
4.9084732555
 20
6.9126079295
 30
0.0
 10
4.8933157909
 20
6.9150475325
 30
0.0
 10
4.8775312133
 20
6.9169699853
 30
0.0
 10
4.8612707901
 20
6.9183569285
 30
0.0
 10
4.8446904885
 20
6.9191944947
 30
0.0
 10
4.8279494381
 20
6.9194744756
 30
0.0
 10
4.8112083877
 20
6.9191944947
 30
0.0
 10
4.7946280861
 20
6.9183569285
 30
0.0
 10
4.7783676629
 20
6.9169699852
 30
0.0
 10
4.7625830853
 20
6.9150475325
 30
0.0
 10
4.7474256207
 20
6.9126079295
 30
0.0
 10
4.7330402716
 20
6.9096750777
 30
0.0
 10
4.7195639312
 20
6.9062778845
 30
0.0
 10
4.7071252542
 20
6.9024487979
 30
0.0
 10
4.6975192156
 20
6.8988538675
 30
0.0
 10
4.69046576
 20
6.8957702028
 30
0.0
 10
4.6856232481
 20
6.8934247398
 30
0.0
 10
4.6811225656
 20
6.8910006478
 30
0.0
 10
4.6769740345
 20
6.888504039
 30
0.0
 10
4.6731874318
 20
6.8859405573
 30
0.0
 10
4.6697719976
 20
6.883315537
 30
0.0
 10
4.6667353229
 20
6.8806354016
 30
0.0
 10
4.6640845898
 20
6.8779058268
 30
0.0
 10
4.6618268846
 20
6.8751318858
 30
0.0
 10
4.6599677659
 20
6.8723193691
 30
0.0
 10
4.6585130345
 20
6.8694736949
 30
0.0
 10
4.6574692883
 20
6.8666008785
 30
0.0
 10
4.6568403286
 20
6.8637105357
 30
0.0
 10
4.6566994382
 20
6.8617700031
 30
0.0
 10
4.6566994382
 20
6.8608100109
 30
0.0
  0
SPLINE
  5
4CA
100
AcDbEntity
  8
0
100
AcDbSpline
 62
7
  6
CONTINUOUS
 70
0
 71
3
 72
16
 73
12
 74
0
 42
0.0000001
 43
0.0000001
 44
0.0000000001
 40
0.0
 40
0.0
 40
0.0
 40
0.0
 40
0.1063045747
 40
0.2147615428
 40
0.3272670493
 40
0.4455038225
 40
0.5072498541
 40
0.5709360076
 40
0.7046093545
 40
0.8474327903
 40
1.0
 40
1.0
 40
1.0
 40
1.0
 10
4.6566994382
 20
6.8608100109
 30
0.0
 10
4.6566994382
 20
6.8598041325
 30
0.0
 10
4.6568543671
 20
6.8577688525
 30
0.0
 10
4.6575455038
 20
6.854739764
 30
0.0
 10
4.6586918617
 20
6.8517315414
 30
0.0
 10
4.6600034716
 20
6.8492863309
 30
0.0
 10
4.6612613099
 20
6.8473529532
 30
0.0
 10
4.6627074647
 20
6.8453718341
 30
0.0
 10
4.6648028461
 20
6.8429212632
 30
0.0
 10
4.6677065174
 20
6.8400776809
 30
0.0
 10
4.6698505613
 20
6.8382800357
 30
0.0
 10
4.6709866309
 20
6.8373893043
 30
0.0
  0
SPLINE
  5
4CB
100
AcDbEntity
  8
0
100
AcDbSpline
 62
7
  6
CONTINUOUS
 70
0
 71
3
 72
16
 73
12
 74
0
 42
0.0000001
 43
0.0000001
 44
0.0000000001
 40
0.0
 40
0.0
 40
0.0
 40
0.0
 40
0.1525677106
 40
0.2953914961
 40
0.429065035
 40
0.4927512247
 40
0.5544972538
 40
0.6727339121
 40
0.7852391771
 40
0.8936958105
 40
1.0
 40
1.0
 40
1.0
 40
1.0
 10
4.9849118444
 20
6.8373889898
 30
0.0
 10
4.986047945
 20
6.8382797313
 30
0.0
 10
4.9881920476
 20
6.8400773972
 30
0.0
 10
4.9910958
 20
6.8429210151
 30
0.0
 10
4.9931912408
 20
6.8453716184
 30
0.0
 10
4.9946374369
 20
6.8473527646
 30
0.0
 10
4.9958953104
 20
6.8492861679
 30
0.0
 10
4.9972069573
 20
6.8517314113
 30
0.0
 10
4.9983533481
 20
6.8547396763
 30
0.0
 10
4.9990445048
 20
6.8577688083
 30
0.0
 10
4.9991994382
 20
6.8598041181
 30
0.0
 10
4.9991994382
 20
6.8608100109
 30
0.0
  0
SPLINE
  5
4CC
100
AcDbEntity
  8
0
100
AcDbSpline
 62
7
  6
CONTINUOUS
 70
0
 71
3
 72
15
 73
11
 74
0
 42
0.0000001
 43
0.0000001
 44
0.0000000001
 40
0.0
 40
0.0
 40
0.0
 40
0.0
 40
0.1022798035
 40
0.2072631588
 40
0.3173034002
 40
0.4344192333
 40
0.5602236985
 40
0.6959283324
 40
0.8423457008
 40
1.0
 40
1.0
 40
1.0
 40
1.0
 10
5.0079494382
 20
6.8608100109
 30
0.0
 10
5.0079494382
 20
6.8595932861
 30
0.0
 10
5.0077324976
 20
6.8571226896
 30
0.0
 10
5.006767531
 20
6.8534568203
 30
0.0
 10
5.005169556
 20
6.8498269662
 30
0.0
 10
5.0029501947
 20
6.8462485843
 30
0.0
 10
5.0001224606
 20
6.8427304074
 30
0.0
 10
4.9966970389
 20
6.8392822898
 30
0.0
 10
4.992687408
 20
6.8359128136
 30
0.0
 10
4.98974349
 20
6.8338046897
 30
0.0
 10
4.9881841584
 20
6.8327626519
 30
0.0
  0
SPLINE
  5
4CD
100
AcDbEntity
  8
0
100
AcDbSpline
 62
7
  6
CONTINUOUS
 70
0
 71
3
 72
15
 73
11
 74
0
 42
0.0000001
 43
0.0000001
 44
0.0000000001
 40
0.0
 40
0.0
 40
0.0
 40
0.0
 40
0.1576558954
 40
0.3040744064
 40
0.4397797007
 40
0.5655843202
 40
0.6826998107
 40
0.792739268
 40
0.8977215027
 40
1.0
 40
1.0
 40
1.0
 40
1.0
 10
4.6677163739
 20
6.8327615453
 30
0.0
 10
4.6661569156
 20
6.8338036159
 30
0.0
 10
4.663212758
 20
6.8359118077
 30
0.0
 10
4.659202794
 20
6.8392814042
 30
0.0
 10
4.6557770851
 20
6.8427296514
 30
0.0
 10
4.6529491119
 20
6.8462479666
 30
0.0
 10
4.6507295614
 20
6.8498264942
 30
0.0
 10
4.6491314484
 20
6.8534565008
 30
0.0
 10
4.6481663979
 20
6.8571225281
 30
0.0
 10
4.6479494382
 20
6.8595932338
 30
0.0
 10
4.6479494382
 20
6.8608100109
 30
0.0
  0
LINE
  5
4CE
100
AcDbEntity
  8
0
100
AcDbLine
 62
7
  6
CONTINUOUS
 10
4.982974418
 20
6.8400283647
 11
4.9811014269
 21
6.843939218
  0
SPLINE
  5
4CF
100
AcDbEntity
  8
0
100
AcDbSpline
 62
7
  6
CONTINUOUS
 70
0
 71
3
 72
18
 73
14
 74
0
 42
0.0000001
 43
0.0000001
 44
0.0000000001
 40
0.0
 40
0.0
 40
0.0
 40
0.0
 40
0.0853392031
 40
0.1318352943
 40
0.1810905951
 40
0.2332216652
 40
0.2883106302
 40
0.3464010386
 40
0.4075060288
 40
0.5386913098
 40
0.6815828543
 40
0.8356136254
 40
1.0
 40
1.0
 40
1.0
 40
1.0
 10
4.9807450179
 20
6.8445252699
 30
0.0
 10
4.9797166905
 20
6.8461699273
 30
0.0
 10
4.9778631881
 20
6.8485502131
 30
0.0
 10
4.974979084
 20
6.8514886108
 30
0.0
 10
4.9724605931
 20
6.8537191097
 30
0.0
 10
4.9696548303
 20
6.8559077525
 30
0.0
 10
4.9665663382
 20
6.8580507236
 30
0.0
 10
4.9632015118
 20
6.8601440086
 30
0.0
 10
4.9582372467
 20
6.8629298623
 30
0.0
 10
4.9513663032
 20
6.8662391264
 30
0.0
 10
4.9423290026
 20
6.8698618934
 30
0.0
 10
4.9323827842
 20
6.8731957814
 30
0.0
 10
4.9254108396
 20
6.8751492209
 30
0.0
 10
4.921792
 20
6.8760788898
 30
0.0
  0
SPLINE
  5
4D0
100
AcDbEntity
  8
0
100
AcDbSpline
 62
7
  6
CONTINUOUS
 70
0
 71
3
 72
21
 73
17
 74
0
 42
0.0000001
 43
0.0000001
 44
0.0000000001
 40
0.0
 40
0.0
 40
0.0
 40
0.0
 40
0.0561789825
 40
0.1148236325
 40
0.1756276354
 40
0.2382626998
 40
0.3023828437
 40
0.3676289164
 40
0.4999999997
 40
0.6323710831
 40
0.6976171558
 40
0.7617372995
 40
0.8243723639
 40
0.8851763674
 40
0.9438210177
 40
1.0
 40
1.0
 40
1.0
 40
1.0
 10
4.921792
 20
6.8760788898
 30
0.0
 10
4.9183573974
 20
6.8769612287
 30
0.0
 10
4.9112997194
 20
6.8786201828
 30
0.0
 10
4.9004200433
 20
6.8807599034
 30
0.0
 10
4.8890718458
 20
6.8825947972
 30
0.0
 10
4.8773285652
 20
6.884112557
 30
0.0
 10
4.8652659168
 20
6.8853037195
 30
0.0
 10
4.8487824769
 20
6.8864505096
 30
0.0
 10
4.8279494383
 20
6.8870186478
 30
0.0
 10
4.8071163998
 20
6.8864505096
 30
0.0
 10
4.7906329599
 20
6.8853037195
 30
0.0
 10
4.7785703115
 20
6.884112557
 30
0.0
 10
4.7668270308
 20
6.8825947972
 30
0.0
 10
4.7554788333
 20
6.8807599034
 30
0.0
 10
4.7445991572
 20
6.8786201829
 30
0.0
 10
4.7375414791
 20
6.8769612287
 30
0.0
 10
4.7341068765
 20
6.8760788898
 30
0.0
  0
SPLINE
  5
4D1
100
AcDbEntity
  8
0
100
AcDbSpline
 62
7
  6
CONTINUOUS
 70
0
 71
3
 72
18
 73
14
 74
0
 42
0.0000001
 43
0.0000001
 44
0.0000000001
 40
0.0
 40
0.0
 40
0.0
 40
0.0
 40
0.1643863744
 40
0.3184171458
 40
0.4613086899
 40
0.5924939705
 40
0.6535989609
 40
0.7116893695
 40
0.7667783346
 40
0.8189094048
 40
0.8681647057
 40
0.9146607969
 40
1.0
 40
1.0
 40
1.0
 40
1.0
 10
4.7341068765
 20
6.8760788898
 30
0.0
 10
4.7304880369
 20
6.875149221
 30
0.0
 10
4.7235160923
 20
6.8731957815
 30
0.0
 10
4.7135698739
 20
6.8698618934
 30
0.0
 10
4.7045325733
 20
6.8662391265
 30
0.0
 10
4.6976616298
 20
6.8629298623
 30
0.0
 10
4.6926973647
 20
6.8601440086
 30
0.0
 10
4.6893325382
 20
6.8580507236
 30
0.0
 10
4.6862440461
 20
6.8559077525
 30
0.0
 10
4.6834382834
 20
6.8537191097
 30
0.0
 10
4.6809197924
 20
6.8514886108
 30
0.0
 10
4.6780356883
 20
6.8485502132
 30
0.0
 10
4.6761821859
 20
6.8461699273
 30
0.0
 10
4.6751538585
 20
6.8445252699
 30
0.0
  0
LINE
  5
4D2
100
AcDbEntity
  8
0
100
AcDbLine
 62
7
  6
CONTINUOUS
 10
4.6747974495
 20
6.843939218
 11
4.6729236215
 21
6.8400260906
  0
SPLINE
  5
4D3
100
AcDbEntity
  8
0
100
AcDbSpline
 62
7
  6
CONTINUOUS
 70
0
 71
3
 72
53
 73
49
 74
0
 42
0.0000001
 43
0.0000001
 44
0.0000000001
 40
0.0
 40
0.0
 40
0.0
 40
0.0
 40
0.0075197326
 40
0.0151787922
 40
0.0231002648
 40
0.0313943803
 40
0.0401555413
 40
0.0494606065
 40
0.0593698446
 40
0.0699261067
 40
0.0811592765
 40
0.0930893876
 40
0.1057256864
 40
0.1190699319
 40
0.1331185624
 40
0.1478608089
 40
0.1793571636
 40
0.2133964917
 40
0.2497578965
 40
0.288177777
 40
0.3283606897
 40
0.3699842199
 40
0.4127052382
 40
0.4561664301
 40
0.5
 40
0.5438335699
 40
0.5872947618
 40
0.6300157802
 40
0.6716393103
 40
0.7118222231
 40
0.7502421035
 40
0.7866035083
 40
0.8206428364
 40
0.8521391911
 40
0.8668814376
 40
0.8809300681
 40
0.8942743137
 40
0.9069106124
 40
0.9188407235
 40
0.9300738933
 40
0.9406301554
 40
0.9505393935
 40
0.9598444588
 40
0.9686056197
 40
0.9768997352
 40
0.9848212078
 40
0.9924802674
 40
1.0
 40
1.0
 40
1.0
 40
1.0
 10
4.6479494382
 20
6.8608100109
 30
0.0
 10
4.6479494382
 20
6.8618190542
 30
0.0
 10
4.6480975282
 20
6.8638587391
 30
0.0
 10
4.6487586262
 20
6.8668967654
 30
0.0
 10
4.6498557027
 20
6.8699163703
 30
0.0
 10
4.6513847638
 20
6.8729074456
 30
0.0
 10
4.6533388756
 20
6.8758636672
 30
0.0
 10
4.6557119387
 20
6.8787793417
 30
0.0
 10
4.658498111
 20
6.8816483833
 30
0.0
 10
4.661689945
 20
6.8844654592
 30
0.0
 10
4.6652798907
 20
6.8872246045
 30
0.0
 10
4.6692599696
 20
6.889919067
 30
0.0
 10
4.6736204699
 20
6.8925432391
 30
0.0
 10
4.6783511145
 20
6.8950911896
 30
0.0
 10
4.683441054
 20
6.8975564937
 30
0.0
 10
4.6908549053
 20
6.9007977171
 30
0.0
 10
4.7009517633
 20
6.90457633
 30
0.0
 10
4.7140259929
 20
6.9086010624
 30
0.0
 10
4.7281909049
 20
6.9121718345
 30
0.0
 10
4.743311271
 20
6.9152545396
 30
0.0
 10
4.7592432037
 20
6.9178187933
 30
0.0
 10
4.7758342915
 20
6.9198394734
 30
0.0
 10
4.792925538
 20
6.9212972821
 30
0.0
 10
4.8103530069
 20
6.9221776435
 30
0.0
 10
4.8279494382
 20
6.92247193
 30
0.0
 10
4.8455458695
 20
6.9221776435
 30
0.0
 10
4.8629733384
 20
6.9212972821
 30
0.0
 10
4.8800645849
 20
6.9198394734
 30
0.0
 10
4.8966556727
 20
6.9178187933
 30
0.0
 10
4.9125876054
 20
6.9152545396
 30
0.0
 10
4.9277079715
 20
6.9121718345
 30
0.0
 10
4.9418728835
 20
6.9086010624
 30
0.0
 10
4.9549471131
 20
6.90457633
 30
0.0
 10
4.9650439711
 20
6.900797717
 30
0.0
 10
4.9724578224
 20
6.8975564936
 30
0.0
 10
4.9775477619
 20
6.8950911896
 30
0.0
 10
4.9822784065
 20
6.8925432391
 30
0.0
 10
4.9866389068
 20
6.889919067
 30
0.0
 10
4.9906189857
 20
6.8872246045
 30
0.0
 10
4.9942089314
 20
6.8844654592
 30
0.0
 10
4.9974007654
 20
6.8816483833
 30
0.0
 10
5.0001869377
 20
6.8787793417
 30
0.0
 10
5.0025600008
 20
6.8758636672
 30
0.0
 10
5.0045141126
 20
6.8729074456
 30
0.0
 10
5.0060431737
 20
6.8699163703
 30
0.0
 10
5.0071402502
 20
6.8668967653
 30
0.0
 10
5.0078013483
 20
6.8638587391
 30
0.0
 10
5.0079494382
 20
6.8618190542
 30
0.0
 10
5.0079494382
 20
6.8608100109
 30
0.0
  0
SPLINE
  5
4D4
100
AcDbEntity
  8
0
100
AcDbSpline
 62
7
  6
CONTINUOUS
 70
0
 71
3
 72
53
 73
49
 74
0
 42
0.0000001
 43
0.0000001
 44
0.0000000001
 40
0.0
 40
0.0
 40
0.0
 40
0.0
 40
0.0075197373
 40
0.015178809
 40
0.0231002955
 40
0.0313944197
 40
0.040155584
 40
0.0494606483
 40
0.0593698846
 40
0.0699261485
 40
0.0811593194
 40
0.0930894303
 40
0.1057257305
 40
0.1190699764
 40
0.1331186058
 40
0.1478608528
 40
0.1793572054
 40
0.2133965319
 40
0.2497579328
 40
0.2881778086
 40
0.3283607163
 40
0.3699842403
 40
0.4127052521
 40
0.4561664372
 40
0.5
 40
0.5438335628
 40
0.5872947479
 40
0.6300157597
 40
0.6716392837
 40
0.7118221914
 40
0.7502420672
 40
0.7866034681
 40
0.8206427946
 40
0.8521391472
 40
0.8668813942
 40
0.8809300236
 40
0.8942742695
 40
0.9069105697
 40
0.9188406806
 40
0.9300738515
 40
0.9406301154
 40
0.9505393517
 40
0.959844416
 40
0.9686055803
 40
0.9768997045
 40
0.984821191
 40
0.9924802627
 40
1.0
 40
1.0
 40
1.0
 40
1.0
 10
4.9841994382
 20
6.8467146216
 30
0.0
 10
4.9841994382
 20
6.8475905277
 30
0.0
 10
4.9840708866
 20
6.8493610896
 30
0.0
 10
4.9834970138
 20
6.851998268
 30
0.0
 10
4.9825446898
 20
6.8546194569
 30
0.0
 10
4.9812173793
 20
6.8572158797
 30
0.0
 10
4.9795210987
 20
6.8597820439
 30
0.0
 10
4.9774611467
 20
6.8623130102
 30
0.0
 10
4.9750425937
 20
6.8648034969
 30
0.0
 10
4.972271903
 20
6.8672488738
 30
0.0
 10
4.9691556302
 20
6.8696439649
 30
0.0
 10
4.9657007003
 20
6.8719829082
 30
0.0
 10
4.9619155429
 20
6.8742608343
 30
0.0
 10
4.9578090801
 20
6.8764725962
 30
0.0
 10
4.9533907298
 20
6.8786126169
 30
0.0
 10
4.9469550947
 20
6.8814261774
 30
0.0
 10
4.9381904615
 20
6.8847062232
 30
0.0
 10
4.9268413042
 20
6.8881999129
 30
0.0
 10
4.9145453748
 20
6.8912995407
 30
0.0
 10
4.9014200584
 20
6.8939754993
 30
0.0
 10
4.8875902575
 20
6.896201413
 30
0.0
 10
4.8731882737
 20
6.8979554752
 30
0.0
 10
4.8583521245
 20
6.8992209338
 30
0.0
 10
4.8432241156
 20
6.899985136
 30
0.0
 10
4.8279494382
 20
6.900240593
 30
0.0
 10
4.8126747608
 20
6.899985136
 30
0.0
 10
4.7975467519
 20
6.8992209338
 30
0.0
 10
4.7827106027
 20
6.8979554752
 30
0.0
 10
4.7683086189
 20
6.896201413
 30
0.0
 10
4.754478818
 20
6.8939754993
 30
0.0
 10
4.7413535016
 20
6.8912995407
 30
0.0
 10
4.7290575722
 20
6.8881999129
 30
0.0
 10
4.7177084149
 20
6.8847062232
 30
0.0
 10
4.7089437817
 20
6.8814261774
 30
0.0
 10
4.7025081466
 20
6.8786126169
 30
0.0
 10
4.6980897963
 20
6.8764725962
 30
0.0
 10
4.6939833335
 20
6.8742608343
 30
0.0
 10
4.6901981761
 20
6.8719829082
 30
0.0
 10
4.6867432463
 20
6.8696439649
 30
0.0
 10
4.6836269734
 20
6.8672488738
 30
0.0
 10
4.6808562827
 20
6.8648034969
 30
0.0
 10
4.6784377297
 20
6.8623130102
 30
0.0
 10
4.6763777777
 20
6.8597820439
 30
0.0
 10
4.6746814971
 20
6.8572158797
 30
0.0
 10
4.6733541866
 20
6.8546194569
 30
0.0
 10
4.6724018626
 20
6.851998268
 30
0.0
 10
4.6718279898
 20
6.8493610896
 30
0.0
 10
4.6716994382
 20
6.8475905277
 30
0.0
 10
4.6716994382
 20
6.8467146216
 30
0.0
  0
SPLINE
  5
4D5
100
AcDbEntity
  8
0
100
AcDbSpline
 62
7
  6
CONTINUOUS
 70
0
 71
3
 72
55
 73
51
 74
0
 42
0.0000001
 43
0.0000001
 44
0.0000000001
 40
0.0
 40
0.0
 40
0.0
 40
0.0
 40
0.0075201096
 40
0.0151791814
 40
0.0231003724
 40
0.031394126
 40
0.0401550308
 40
0.0494601919
 40
0.0593694783
 40
0.0699255112
 40
0.0811587344
 40
0.0930887658
 40
0.1057246844
 40
0.119069045
 40
0.1331176342
 40
0.1478594382
 40
0.1632799546
 40
0.1793600488
 40
0.2133989995
 40
0.2497598408
 40
0.2881797257
 40
0.3283621905
 40
0.3699852093
 40
0.4127060729
 40
0.4561667828
 40
0.5
 40
0.5438332172
 40
0.5872939271
 40
0.6300147907
 40
0.6716378095
 40
0.7118202743
 40
0.7502401592
 40
0.7866010005
 40
0.8206399512
 40
0.8367200454
 40
0.8521405618
 40
0.8668823658
 40
0.880930955
 40
0.8942753156
 40
0.9069112342
 40
0.9188412656
 40
0.9300744888
 40
0.9406305217
 40
0.9505398081
 40
0.9598449692
 40
0.968605874
 40
0.9768996276
 40
0.9848208186
 40
0.9924798904
 40
1.0
 40
1.0
 40
1.0
 40
1.0
 10
4.6404494382
 20
6.8678577056
 30
0.0
 10
4.6404494382
 20
6.8689088539
 30
0.0
 10
4.6406036658
 20
6.871033598
 30
0.0
 10
4.6412922565
 20
6.8741982701
 30
0.0
 10
4.6424351479
 20
6.8773435959
 30
0.0
 10
4.6440279409
 20
6.8804591716
 30
0.0
 10
4.6460633769
 20
6.8835385847
 30
0.0
 10
4.6485354081
 20
6.8865756992
 30
0.0
 10
4.6514376552
 20
6.8895643219
 30
0.0
 10
4.6547623799
 20
6.8924989284
 30
0.0
 10
4.6585020212
 20
6.8953729039
 30
0.0
 10
4.6626479431
 20
6.8981795897
 30
0.0
 10
4.6671900349
 20
6.9009132564
 30
0.0
 10
4.6721178809
 20
6.9035672353
 30
0.0
 10
4.6774198915
 20
6.906135199
 30
0.0
 10
4.6830832896
 20
6.9086115501
 30
0.0
 10
4.68909482
 20
6.9109900248
 30
0.0
 10
4.6977197292
 20
6.9140818881
 30
0.0
 10
4.709279558
 20
6.9176399929
 30
0.0
 10
4.7240341653
 20
6.9213597573
 30
0.0
 10
4.7397847259
 20
6.9245706822
 30
0.0
 10
4.7563804513
 20
6.9272418005
 30
0.0
 10
4.7736628155
 20
6.9293468842
 30
0.0
 10
4.7914662078
 20
6.9308652094
 30
0.0
 10
4.8096198333
 20
6.9317822591
 30
0.0
 10
4.8279494382
 20
6.9320890298
 30
0.0
 10
4.8462790431
 20
6.9317822591
 30
0.0
 10
4.8644326686
 20
6.9308652094
 30
0.0
 10
4.8822360609
 20
6.9293468842
 30
0.0
 10
4.8995184252
 20
6.9272418005
 30
0.0
 10
4.9161141505
 20
6.9245706822
 30
0.0
 10
4.9318647111
 20
6.9213597573
 30
0.0
 10
4.9466193184
 20
6.9176399929
 30
0.0
 10
4.9581791472
 20
6.9140818881
 30
0.0
 10
4.9668040564
 20
6.9109900248
 30
0.0
 10
4.9728155868
 20
6.9086115501
 30
0.0
 10
4.9784789849
 20
6.906135199
 30
0.0
 10
4.9837809955
 20
6.9035672353
 30
0.0
 10
4.9887088416
 20
6.9009132564
 30
0.0
 10
4.9932509333
 20
6.8981795897
 30
0.0
 10
4.9973968552
 20
6.8953729039
 30
0.0
 10
5.0011364965
 20
6.8924989284
 30
0.0
 10
5.0044612212
 20
6.8895643219
 30
0.0
 10
5.0073634683
 20
6.8865756992
 30
0.0
 10
5.0098354995
 20
6.8835385847
 30
0.0
 10
5.0118709355
 20
6.8804591716
 30
0.0
 10
5.0134637285
 20
6.8773435959
 30
0.0
 10
5.0146066199
 20
6.8741982701
 30
0.0
 10
5.0152952106
 20
6.871033598
 30
0.0
 10
5.0154494382
 20
6.8689088539
 30
0.0
 10
5.0154494382
 20
6.8678577056
 30
0.0
  0
SPLINE
  5
4D6
100
AcDbEntity
  8
0
100
AcDbSpline
 62
7
  6
CONTINUOUS
 70
0
 71
3
 72
39
 73
35
 74
0
 42
0.0000001
 43
0.0000001
 44
0.0000000001
 40
0.0
 40
0.0
 40
0.0
 40
0.0
 40
0.017743104
 40
0.0273452576
 40
0.0374582019
 40
0.0592604251
 40
0.0832055441
 40
0.1092819184
 40
0.1374275075
 40
0.1675462825
 40
0.1995095596
 40
0.233166889
 40
0.2683457189
 40
0.3048581959
 40
0.3425019389
 40
0.3810637175
 40
0.4203216289
 40
0.4999995324
 40
0.5796774548
 40
0.6189353897
 40
0.6574972008
 40
0.6951409853
 40
0.7316535125
 40
0.7668324002
 40
0.8004897945
 40
0.8324531431
 40
0.8625719953
 40
0.8907176662
 40
0.9167941254
 40
0.9407393311
 40
0.9625416404
 40
0.9726546265
 40
0.9822568206
 40
1.0
 40
1.0
 40
1.0
 40
1.0
 10
4.9798877789
 20
6.8440132707
 30
0.0
 10
4.9787076218
 20
6.8455023087
 30
0.0
 10
4.9766978875
 20
6.8476495939
 30
0.0
 10
4.9736972459
 20
6.8503128752
 30
0.0
 10
4.9702066475
 20
6.8530702521
 30
0.0
 10
4.9652258471
 20
6.8564002775
 30
0.0
 10
4.9584886388
 20
6.860125002
 30
0.0
 10
4.9508897879
 20
6.8636495364
 30
0.0
 10
4.9424788438
 20
6.8669523383
 30
0.0
 10
4.9333096764
 20
6.8700107233
 30
0.0
 10
4.9234424419
 20
6.8728053725
 30
0.0
 10
4.9129418395
 20
6.8753168495
 30
0.0
 10
4.9018772176
 20
6.8775288591
 30
0.0
 10
4.8903217535
 20
6.8794262629
 30
0.0
 10
4.8783520363
 20
6.8809963296
 30
0.0
 10
4.8660474118
 20
6.8822287763
 30
0.0
 10
4.8492217517
 20
6.8834157398
 30
0.0
 10
4.8279496957
 20
6.8840036
 30
0.0
 10
4.8066776365
 20
6.8834157636
 30
0.0
 10
4.7898519671
 20
6.8822288192
 30
0.0
 10
4.7775473306
 20
6.8809963862
 30
0.0
 10
4.7655775983
 20
6.879426333
 30
0.0
 10
4.7540221159
 20
6.8775289421
 30
0.0
 10
4.7429574726
 20
6.875316945
 30
0.0
 10
4.732456846
 20
6.8728054797
 30
0.0
 10
4.7225895846
 20
6.8700108415
 30
0.0
 10
4.7134203879
 20
6.8669524668
 30
0.0
 10
4.705009412
 20
6.8636496744
 30
0.0
 10
4.6974105273
 20
6.8601251485
 30
0.0
 10
4.6906732834
 20
6.8564004315
 30
0.0
 10
4.6856924515
 20
6.8530704121
 30
0.0
 10
4.6822018269
 20
6.8503130394
 30
0.0
 10
4.6792011596
 20
6.8476497615
 30
0.0
 10
4.6771914048
 20
6.8455024788
 30
0.0
 10
4.6760112332
 20
6.844013442
 30
0.0
  0
SPLINE
  5
4D7
100
AcDbEntity
  8
0
100
AcDbSpline
 62
7
  6
CONTINUOUS
 70
0
 71
3
 72
15
 73
11
 74
0
 42
0.0000001
 43
0.0000001
 44
0.0000000001
 40
0.0
 40
0.0
 40
0.0
 40
0.0
 40
0.0724738057
 40
0.157414963
 40
0.2580183746
 40
0.3753503728
 40
0.5092947897
 40
0.6591173681
 40
0.8234940948
 40
1.0
 40
1.0
 40
1.0
 40
1.0
 10
5.1980455138
 20
7.4029773833
 30
0.0
 10
5.1982317941
 20
7.4029775316
 30
0.0
 10
5.1986369952
 20
7.4030632478
 30
0.0
 10
5.1992237988
 20
7.4033838726
 30
0.0
 10
5.1998230522
 20
7.403886562
 30
0.0
 10
5.20042791
 20
7.4045619203
 30
0.0
 10
5.2010300653
 20
7.405400678
 30
0.0
 10
5.20161907
 20
7.4063919553
 30
0.0
 10
5.2021831935
 20
7.4075210561
 30
0.0
 10
5.2025249867
 20
7.4083284866
 30
0.0
 10
5.2026899549
 20
7.4087511058
 30
0.0
  0
SPLINE
  5
4D8
100
AcDbEntity
  8
ALL_FEATURES
100
AcDbSpline
 62
7
  6
CONTINUOUS
 70
0
 71
3
 72
18
 73
14
 74
0
 42
0.0000001
 43
0.0000001
 44
0.0000000001
 40
0.0
 40
0.0
 40
0.0
 40
0.0
 40
0.1280303229
 40
0.1919671119
 40
0.2557612552
 40
0.382729775
 40
0.5087126584
 40
0.5712974027
 40
0.6335628913
 40
0.6954961425
 40
0.7570880211
 40
0.8791855257
 40
1.0
 40
1.0
 40
1.0
 40
1.0
 10
4.8279494382
 20
7.907944963
 30
0.0
 10
4.845286013
 20
7.907944963
 30
0.0
 10
4.8713186189
 20
7.9063224158
 30
0.0
 10
4.9055464299
 20
7.9009373062
 30
0.0
 10
4.9392334639
 20
7.8934482484
 30
0.0
 10
4.9801529255
 20
7.8801956695
 30
0.0
 10
5.0189014594
 20
7.8618902586
 30
0.0
 10
5.0480587231
 20
7.844428743
 30
0.0
 10
5.0688684825
 20
7.8300194687
 30
0.0
 10
5.0885616904
 20
7.8143322882
 30
0.0
 10
5.1131317964
 20
7.7918832689
 30
0.0
 10
5.1406522875
 20
7.7609946527
 30
0.0
 10
5.1589357023
 20
7.7334957949
 30
0.0
 10
5.1669839267
 20
7.7192529517
 30
0.0
  0
SPLINE
  5
4D9
100
AcDbEntity
  8
ALL_FEATURES
100
AcDbSpline
 62
7
  6
CONTINUOUS
 70
0
 71
3
 72
18
 73
14
 74
0
 42
0.0000001
 43
0.0000001
 44
0.0000000001
 40
0.0
 40
0.0
 40
0.0
 40
0.0
 40
0.1208144446
 40
0.2429120275
 40
0.3045039472
 40
0.3664372323
 40
0.4287027536
 40
0.4912875255
 40
0.6172704319
 40
0.744238943
 40
0.8080330622
 40
0.8719697833
 40
1.0
 40
1.0
 40
1.0
 40
1.0
 10
4.4889149497
 20
7.7192529517
 30
0.0
 10
4.4969631721
 20
7.7334957914
 30
0.0
 10
4.5152465899
 20
7.760994655
 30
0.0
 10
4.5427670893
 20
7.7918832805
 30
0.0
 10
4.5673372131
 20
7.8143323112
 30
0.0
 10
4.5870304339
 20
7.830019499
 30
0.0
 10
4.6078402066
 20
7.8444287766
 30
0.0
 10
4.6369974823
 20
7.861890294
 30
0.0
 10
4.6757460251
 20
7.8801956997
 30
0.0
 10
4.7166654886
 20
7.8934482686
 30
0.0
 10
4.7503525106
 20
7.9009373171
 30
0.0
 10
4.7845802953
 20
7.9063224207
 30
0.0
 10
4.8106128778
 20
7.907944963
 30
0.0
 10
4.8279494382
 20
7.907944963
 30
0.0
  0
SPLINE
  5
4DA
100
AcDbEntity
  8
0
100
AcDbSpline
 62
7
  6
CONTINUOUS
 70
0
 71
3
 72
15
 73
11
 74
0
 42
0.0000001
 43
0.0000001
 44
0.0000000001
 40
0.0
 40
0.0
 40
0.0
 40
0.0
 40
0.1765059052
 40
0.3408826319
 40
0.4907052103
 40
0.6246496272
 40
0.7419816254
 40
0.842585037
 40
0.9275261943
 40
1.0
 40
1.0
 40
1.0
 40
1.0
 10
4.4532089215
 20
7.4087511058
 30
0.0
 10
4.4533738897
 20
7.4083284866
 30
0.0
 10
4.4537156829
 20
7.4075210561
 30
0.0
 10
4.4542798065
 20
7.4063919553
 30
0.0
 10
4.4548688111
 20
7.405400678
 30
0.0
 10
4.4554709664
 20
7.4045619203
 30
0.0
 10
4.4560758242
 20
7.403886562
 30
0.0
 10
4.4566750776
 20
7.4033838726
 30
0.0
 10
4.4572618812
 20
7.4030632478
 30
0.0
 10
4.4576670823
 20
7.4029775316
 30
0.0
 10
4.4578533626
 20
7.4029773833
 30
0.0
  0
SPLINE
  5
4DB
100
AcDbEntity
  8
0
100
AcDbSpline
 62
7
  6
CONTINUOUS
 70
0
 71
3
 72
15
 73
11
 74
0
 42
0.0000001
 43
0.0000001
 44
0.0000000001
 40
0.0
 40
0.0
 40
0.0
 40
0.0
 40
0.1253356746
 40
0.2500436037
 40
0.374384215
 40
0.4986282918
 40
0.6230545213
 40
0.7479320317
 40
0.8735087646
 40
1.0
 40
1.0
 40
1.0
 40
1.0
 10
4.4532089215
 20
7.4087511058
 30
0.0
 10
4.448732299
 20
7.4202194135
 30
0.0
 10
4.4410448286
 20
7.4436076834
 30
0.0
 10
4.4334863084
 20
7.4796704994
 30
0.0
 10
4.4300078597
 20
7.516249809
 30
0.0
 10
4.4306488319
 20
7.552959974
 30
0.0
 10
4.4354014855
 20
7.5894196726
 30
0.0
 10
4.4442165006
 20
7.6252505339
 30
0.0
 10
4.4569980392
 20
7.6600755623
 30
0.0
 10
4.4680352666
 20
7.6823024253
 30
0.0
 10
4.4741477074
 20
7.6931194447
 30
0.0
  0
SPLINE
  5
4DC
100
AcDbEntity
  8
0
100
AcDbSpline
 62
7
  6
CONTINUOUS
 70
0
 71
3
 72
15
 73
11
 74
0
 42
0.0000001
 43
0.0000001
 44
0.0000000001
 40
0.0
 40
0.0
 40
0.0
 40
0.0
 40
0.1545810875
 40
0.3049819963
 40
0.4472701925
 40
0.57898853
 40
0.6988327697
 40
0.8070581442
 40
0.9060840669
 40
1.0
 40
1.0
 40
1.0
 40
1.0
 10
4.8054494382
 20
7.1692239615
 30
0.0
 10
4.8061038588
 20
7.1691903355
 30
0.0
 10
4.8074006968
 20
7.1692051081
 30
0.0
 10
4.8092835767
 20
7.1694697266
 30
0.0
 10
4.8110192873
 20
7.1699675679
 30
0.0
 10
4.8125397725
 20
7.1706758241
 30
0.0
 10
4.8137918119
 20
7.1715639764
 30
0.0
 10
4.8147305061
 20
7.1726030726
 30
0.0
 10
4.8153151524
 20
7.1737569034
 30
0.0
 10
4.8154494382
 20
7.1745799781
 30
0.0
 10
4.8154494382
 20
7.1749780967
 30
0.0
  0
SPLINE
  5
4DD
100
AcDbEntity
  8
0
100
AcDbSpline
 62
7
  6
CONTINUOUS
 70
0
 71
3
 72
13
 73
9
 74
0
 42
0.0000001
 43
0.0000001
 44
0.0000000001
 40
0.0
 40
0.0
 40
0.0
 40
0.0
 40
0.1024497013
 40
0.2130073843
 40
0.3311848655
 40
0.4562518002
 40
0.7224728235
 40
1.0
 40
1.0
 40
1.0
 40
1.0
 10
4.763603865
 20
7.1772616958
 30
0.0
 10
4.7637947771
 20
7.176941265
 30
0.0
 10
4.7642513072
 20
7.176309631
 30
0.0
 10
4.7650929365
 20
7.175441567
 30
0.0
 10
4.7661020477
 20
7.174635853
 30
0.0
 10
4.7676752049
 20
7.1736471527
 30
0.0
 10
4.7699287008
 20
7.1726822774
 30
0.0
 10
4.7718733251
 20
7.1722479996
 30
0.0
 10
4.7728757035
 20
7.172120906
 30
0.0
  0
SPLINE
  5
4DE
100
AcDbEntity
  8
0
100
AcDbSpline
 62
7
  6
CONTINUOUS
 70
0
 71
3
 72
15
 73
11
 74
0
 42
0.0000001
 43
0.0000001
 44
0.0000000001
 40
0.0
 40
0.0
 40
0.0
 40
0.0
 40
0.0939159331
 40
0.1929418558
 40
0.3011672303
 40
0.42101147
 40
0.5527298075
 40
0.6950180037
 40
0.8454189125
 40
1.0
 40
1.0
 40
1.0
 40
1.0
 10
4.8404494382
 20
7.1749780967
 30
0.0
 10
4.8404494382
 20
7.1745799781
 30
0.0
 10
4.840583724
 20
7.1737569034
 30
0.0
 10
4.8411683703
 20
7.1726030726
 30
0.0
 10
4.8421070645
 20
7.1715639764
 30
0.0
 10
4.8433591039
 20
7.1706758241
 30
0.0
 10
4.8448795891
 20
7.1699675679
 30
0.0
 10
4.8466152997
 20
7.1694697266
 30
0.0
 10
4.8484981796
 20
7.1692051081
 30
0.0
 10
4.8497950176
 20
7.1691903355
 30
0.0
 10
4.8504494382
 20
7.1692239615
 30
0.0
  0
SPLINE
  5
4DF
100
AcDbEntity
  8
0
100
AcDbSpline
 62
7
  6
CONTINUOUS
 70
0
 71
3
 72
15
 73
11
 74
0
 42
0.0000001
 43
0.0000001
 44
0.0000000001
 40
0.0
 40
0.0
 40
0.0
 40
0.0
 40
0.1253356746
 40
0.2500436037
 40
0.374384215
 40
0.4986282918
 40
0.6230545213
 40
0.7479320317
 40
0.8735087646
 40
1.0
 40
1.0
 40
1.0
 40
1.0
 10
5.2026899549
 20
7.4087511058
 30
0.0
 10
5.2071665774
 20
7.4202194135
 30
0.0
 10
5.2148540478
 20
7.4436076834
 30
0.0
 10
5.222412568
 20
7.4796704994
 30
0.0
 10
5.2258910167
 20
7.516249809
 30
0.0
 10
5.2252500445
 20
7.552959974
 30
0.0
 10
5.2204973909
 20
7.5894196726
 30
0.0
 10
5.2116823758
 20
7.6252505339
 30
0.0
 10
5.1989008372
 20
7.6600755623
 30
0.0
 10
5.1878636098
 20
7.6823024253
 30
0.0
 10
5.181751169
 20
7.6931194447
 30
0.0
  0
SPLINE
  5
4E0
100
AcDbEntity
  8
0
100
AcDbSpline
 62
7
  6
CONTINUOUS
 70
0
 71
3
 72
13
 73
9
 74
0
 42
0.0000001
 43
0.0000001
 44
0.0000000001
 40
0.0
 40
0.0
 40
0.0
 40
0.0
 40
0.2775271765
 40
0.5437481998
 40
0.6688151345
 40
0.7869926157
 40
0.8975502987
 40
1.0
 40
1.0
 40
1.0
 40
1.0
 10
4.8830231729
 20
7.172120906
 30
0.0
 10
4.8840255513
 20
7.1722479996
 30
0.0
 10
4.8859701756
 20
7.1726822774
 30
0.0
 10
4.8882236715
 20
7.1736471527
 30
0.0
 10
4.8897968287
 20
7.174635853
 30
0.0
 10
4.8908059399
 20
7.175441567
 30
0.0
 10
4.8916475692
 20
7.176309631
 30
0.0
 10
4.8921040993
 20
7.176941265
 30
0.0
 10
4.8922950114
 20
7.1772616958
 30
0.0
  0
SPLINE
  5
4E1
100
AcDbEntity
  8
0
100
AcDbSpline
 62
7
  6
CONTINUOUS
 70
0
 71
3
 72
20
 73
16
 74
0
 42
0.0000001
 43
0.0000001
 44
0.0000000001
 40
0.0
 40
0.0
 40
0.0
 40
0.0
 40
0.1203482786
 40
0.2419951048
 40
0.3033611092
 40
0.3650881473
 40
0.4271748817
 40
0.4896165581
 40
0.5524054721
 40
0.61552986
 40
0.6789703324
 40
0.7427026391
 40
0.8067062373
 40
0.8709626939
 40
1.0
 40
1.0
 40
1.0
 40
1.0
 10
4.4734254205
 20
7.4051780592
 30
0.0
 10
4.4796531782
 20
7.3924731221
 30
0.0
 10
4.4938070897
 20
7.3676939739
 30
0.0
 10
4.5152307538
 20
7.3390652238
 30
0.0
 10
4.5344853335
 20
7.3176636839
 30
0.0
 10
4.549994482
 20
7.3023653671
 30
0.0
 10
4.566471293
 20
7.2879232924
 30
0.0
 10
4.5838604034
 20
7.2743895422
 30
0.0
 10
4.6020990853
 20
7.2618088345
 30
0.0
 10
4.6211255045
 20
7.2502274684
 30
0.0
 10
4.6408714144
 20
7.2396833127
 30
0.0
 10
4.6612684002
 20
7.2302143565
 30
0.0
 10
4.6822481392
 20
7.221852489
 30
0.0
 10
4.7109305575
 20
7.2122082249
 30
0.0
 10
4.7330480462
 20
7.2067364724
 30
0.0
 10
4.7479494382
 20
7.2038902404
 30
0.0
  0
SPLINE
  5
4E2
100
AcDbEntity
  8
0
100
AcDbSpline
 62
7
  6
CONTINUOUS
 70
0
 71
3
 72
20
 73
16
 74
0
 42
0.0000001
 43
0.0000001
 44
0.0000000001
 40
0.0
 40
0.0
 40
0.0
 40
0.0
 40
0.1290373061
 40
0.1932937627
 40
0.2572973609
 40
0.3210296676
 40
0.38447014
 40
0.4475945279
 40
0.5103834419
 40
0.5728251183
 40
0.6349118527
 40
0.6966388908
 40
0.7580048952
 40
0.8796517214
 40
1.0
 40
1.0
 40
1.0
 40
1.0
 10
4.9079494382
 20
7.2038902404
 30
0.0
 10
4.9228508302
 20
7.2067364724
 30
0.0
 10
4.9449683189
 20
7.2122082249
 30
0.0
 10
4.9736507372
 20
7.221852489
 30
0.0
 10
4.9946304762
 20
7.2302143565
 30
0.0
 10
5.015027462
 20
7.2396833127
 30
0.0
 10
5.0347733719
 20
7.2502274684
 30
0.0
 10
5.0537997911
 20
7.2618088345
 30
0.0
 10
5.0720384731
 20
7.2743895422
 30
0.0
 10
5.0894275834
 20
7.2879232924
 30
0.0
 10
5.1059043944
 20
7.3023653671
 30
0.0
 10
5.1214135429
 20
7.3176636839
 30
0.0
 10
5.1406681226
 20
7.3390652238
 30
0.0
 10
5.1620917867
 20
7.3676939739
 30
0.0
 10
5.1762456982
 20
7.3924731221
 30
0.0
 10
5.1824734559
 20
7.4051780592
 30
0.0
  0
SPLINE
  5
4E3
100
AcDbEntity
  8
ALL_FEATURES
100
AcDbSpline
 62
7
  6
CONTINUOUS
 70
0
 71
3
 72
35
 73
31
 74
0
 42
0.0000001
 43
0.0000001
 44
0.0000000001
 40
0.0
 40
0.0
 40
0.0
 40
0.0
 40
0.0660389338
 40
0.1319082622
 40
0.197440983
 40
0.2624907787
 40
0.2948096888
 40
0.326965487
 40
0.358948131
 40
0.3907500582
 40
0.4223668985
 40
0.4537966222
 40
0.4850389772
 40
0.5160962302
 40
0.5469748737
 40
0.5776840747
 40
0.6082360612
 40
0.6386452374
 40
0.6689286207
 40
0.6991051777
 40
0.7291957597
 40
0.7592228006
 40
0.7892097138
 40
0.819180622
 40
0.8491596777
 40
0.8791712743
 40
0.9092390574
 40
0.9393859272
 40
0.9696329893
 40
1.0
 40
1.0
 40
1.0
 40
1.0
 10
4.8279494382
 20
7.2166707706
 30
0.0
 10
4.8434722974
 20
7.2166707706
 30
0.0
 10
4.8745056168
 20
7.2183908257
 30
0.0
 10
4.9203645218
 20
7.2260977303
 30
0.0
 10
4.9648560198
 20
7.2388160961
 30
0.0
 10
5.0003279857
 20
7.2534768709
 30
0.0
 10
5.0273643207
 20
7.267506629
 30
0.0
 10
5.0468576362
 20
7.2791120343
 30
0.0
 10
5.0655328385
 20
7.2917765854
 30
0.0
 10
5.0833197235
 20
7.3054549594
 30
0.0
 10
5.1001525175
 20
7.3200947068
 30
0.0
 10
5.1159661071
 20
7.3356431874
 30
0.0
 10
5.1307030122
 20
7.3520396273
 30
0.0
 10
5.1443046249
 20
7.36922488
 30
0.0
 10
5.1567220628
 20
7.387132324
 30
0.0
 10
5.1679066945
 20
7.4056963555
 30
0.0
 10
5.1778175134
 20
7.4248466112
 30
0.0
 10
5.1864171026
 20
7.4445115092
 30
0.0
 10
5.1936719008
 20
7.4646176152
 30
0.0
 10
5.199556737
 20
7.4850887856
 30
0.0
 10
5.2040462825
 20
7.5058489867
 30
0.0
 10
5.20712719
 20
7.5268195086
 30
0.0
 10
5.2087840643
 20
7.5479221417
 30
0.0
 10
5.2090140189
 20
7.569077191
 30
0.0
 10
5.2078136628
 20
7.5902052405
 30
0.0
 10
5.2051888654
 20
7.6112268201
 30
0.0
 10
5.2011495216
 20
7.6320630392
 30
0.0
 10
5.1957095867
 20
7.6526355362
 30
0.0
 10
5.1888924155
 20
7.6728666769
 30
0.0
 10
5.1834551338
 20
7.6860492453
 30
0.0
 10
5.1805195274
 20
7.6925555956
 30
0.0
  0
SPLINE
  5
4E4
100
AcDbEntity
  8
ALL_FEATURES
100
AcDbSpline
 62
7
  6
CONTINUOUS
 70
0
 71
3
 72
30
 73
26
 74
0
 42
0.0000001
 43
0.0000001
 44
0.0000000001
 40
0.0
 40
0.0
 40
0.0
 40
0.0
 40
0.0303709969
 40
0.0606221266
 40
0.0907728576
 40
0.120844715
 40
0.150860399
 40
0.1808436955
 40
0.2108186965
 40
0.2408097061
 40
0.2708409244
 40
0.300935817
 40
0.3311167721
 40
0.3614044216
 40
0.3918179357
 40
0.4223740802
 40
0.48393925
 40
0.5462174532
 40
0.6092438395
 40
0.67301052
 40
0.7374686015
 40
0.8025289202
 40
0.8680719312
 40
0.9339512938
 40
1.0
 40
1.0
 40
1.0
 40
1.0
 10
4.4753761939
 20
7.6925492938
 30
0.0
 10
4.4724406776
 20
7.6860431048
 30
0.0
 10
4.4670048681
 20
7.6728603081
 30
0.0
 10
4.4601871887
 20
7.6526299484
 30
0.0
 10
4.454748244
 20
7.6320576882
 30
0.0
 10
4.4507094463
 20
7.611221918
 30
0.0
 10
4.4480843041
 20
7.5902007579
 30
0.0
 10
4.4468855131
 20
7.569073052
 30
0.0
 10
4.4471140682
 20
7.5479183687
 30
0.0
 10
4.4487729772
 20
7.5268163159
 30
0.0
 10
4.4518523292
 20
7.505845947
 30
0.0
 10
4.4563434371
 20
7.4850863845
 30
0.0
 10
4.4622273809
 20
7.4646152491
 30
0.0
 10
4.4694825303
 20
7.4445097353
 30
0.0
 10
4.4780825999
 20
7.4248447585
 30
0.0
 10
4.4913255319
 20
7.3992532258
 30
0.0
 10
4.5111144643
 20
7.3687075112
 30
0.0
 10
4.5395298214
 20
7.3350745396
 30
0.0
 10
4.5722531779
 20
7.3048489297
 30
0.0
 10
4.6087868492
 20
7.2784831502
 30
0.0
 10
4.6485817314
 20
7.2563643034
 30
0.0
 10
4.691041639
 20
7.2388170045
 30
0.0
 10
4.7355353861
 20
7.2260972901
 30
0.0
 10
4.7813934791
 20
7.2183908923
 30
0.0
 10
4.8124267197
 20
7.2166707706
 30
0.0
 10
4.8279494382
 20
7.2166707706
 30
0.0
  0
SPLINE
  5
4E5
100
AcDbEntity
  8
ALL_FEATURES
100
AcDbSpline
 62
7
  6
CONTINUOUS
 70
0
 71
3
 72
39
 73
35
 74
0
 42
0.0000001
 43
0.0000001
 44
0.0000000001
 40
0.0
 40
0.0
 40
0.0
 40
0.0
 40
0.0327436112
 40
0.0654334918
 40
0.0980150043
 40
0.130437725
 40
0.1626575401
 40
0.1946372704
 40
0.2263476093
 40
0.2577691187
 40
0.2888936307
 40
0.3197215965
 40
0.3502663576
 40
0.3805540382
 40
0.4106212798
 40
0.4405141833
 40
0.4702864905
 40
0.4999972436
 40
0.5297079016
 40
0.5594802231
 40
0.5893733358
 40
0.6194406584
 40
0.6497282637
 40
0.6802731479
 40
0.7111014037
 40
0.742225795
 40
0.7736479602
 40
0.8053590744
 40
0.8373397657
 40
0.8695603508
 40
0.9019837276
 40
0.9345657679
 40
0.9672560617
 40
1.0
 40
1.0
 40
1.0
 40
1.0
 10
4.8279494382
 20
7.8934045642
 30
0.0
 10
4.8163791034
 20
7.8934045642
 30
0.0
 10
4.7932441966
 20
7.8923761266
 30
0.0
 10
4.7588741287
 20
7.8877612608
 30
0.0
 10
4.7251612947
 20
7.8801180291
 30
0.0
 10
4.6924326253
 20
7.8695184874
 30
0.0
 10
4.6610009094
 20
7.8560628627
 30
0.0
 10
4.631168198
 20
7.8398783233
 30
0.0
 10
4.6032215946
 20
7.8211183379
 30
0.0
 10
4.5774308283
 20
7.7999610245
 30
0.0
 10
4.5540466451
 20
7.7766077932
 30
0.0
 10
4.5332961642
 20
7.7512832479
 30
0.0
 10
4.5153819313
 20
7.7242310094
 30
0.0
 10
4.5004793554
 20
7.6957111574
 30
0.0
 10
4.488734157
 20
7.6659986949
 30
0.0
 10
4.4802606429
 20
7.6353810077
 30
0.0
 10
4.4751425078
 20
7.604154245
 30
0.0
 10
4.473431191
 20
7.572621242
 30
0.0
 10
4.4751423691
 20
7.5410882666
 30
0.0
 10
4.4802591223
 20
7.5098612487
 30
0.0
 10
4.4887319942
 20
7.4792432238
 30
0.0
 10
4.5004773339
 20
7.4495307393
 30
0.0
 10
4.5153791945
 20
7.4210105081
 30
0.0
 10
4.533292482
 20
7.3939574691
 30
0.0
 10
4.5540430721
 20
7.3686328483
 30
0.0
 10
4.5774272044
 20
7.345279193
 30
0.0
 10
4.6032177983
 20
7.324120937
 30
0.0
 10
4.6311648539
 20
7.3053600812
 30
0.0
 10
4.6609982421
 20
7.2891749245
 30
0.0
 10
4.6924306507
 20
7.2757187669
 30
0.0
 10
4.7251599517
 20
7.2651189245
 30
0.0
 10
4.7588733122
 20
7.2574754609
 30
0.0
 10
4.7932438188
 20
7.2528604738
 30
0.0
 10
4.8163789878
 20
7.2518320212
 30
0.0
 10
4.8279494382
 20
7.2518320212
 30
0.0
  0
SPLINE
  5
4E6
100
AcDbEntity
  8
0
100
AcDbSpline
 62
7
  6
CONTINUOUS
 70
0
 71
3
 72
30
 73
26
 74
0
 42
0.0000001
 43
0.0000001
 44
0.0000000001
 40
0.0
 40
0.0
 40
0.0
 40
0.0
 40
0.0592453621
 40
0.1184424318
 40
0.1781100443
 40
0.2386725853
 40
0.3004013435
 40
0.331772072
 40
0.3634481792
 40
0.4275658361
 40
0.4925683971
 40
0.558088841
 40
0.623692776
 40
0.6564157661
 40
0.6889932691
 40
0.721377165
 40
0.753525321
 40
0.7854026238
 40
0.8169812843
 40
0.8482433259
 40
0.8791817953
 40
0.9098018148
 40
0.9401219916
 40
0.9701731553
 40
1.0
 40
1.0
 40
1.0
 40
1.0
 10
4.5112207941
 20
7.5748796441
 30
0.0
 10
4.5112216059
 20
7.5702846638
 30
0.0
 10
4.5122299136
 20
7.5610652642
 30
0.0
 10
4.5167563302
 20
7.5478997461
 30
0.0
 10
4.5240909594
 20
7.5359433339
 30
0.0
 10
4.5339175692
 20
7.5256741398
 30
0.0
 10
4.5438041578
 20
7.5188669961
 30
0.0
 10
4.5524985014
 20
7.5145891629
 30
0.0
 10
4.5617339683
 20
7.5110907389
 30
0.0
 10
4.5739756081
 20
7.5083365295
 30
0.0
 10
4.5891369784
 20
7.5077142625
 30
0.0
 10
4.6042858578
 20
7.5097702848
 30
0.0
 10
4.616457116
 20
7.5136637179
 30
0.0
 10
4.625644878
 20
7.5180095103
 30
0.0
 10
4.6321885428
 20
7.5218488091
 30
0.0
 10
4.6383232729
 20
7.5262357853
 30
0.0
 10
4.6439908752
 20
7.5311295147
 30
0.0
 10
4.6491353742
 20
7.5364846732
 30
0.0
 10
4.6537052778
 20
7.5422508683
 30
0.0
 10
4.6576548915
 20
7.5483723881
 30
0.0
 10
4.6609436935
 20
7.5547899206
 30
0.0
 10
4.6635380146
 20
7.5614402751
 30
0.0
 10
4.6654111303
 20
7.5682579043
 30
0.0
 10
4.6665438832
 20
7.5751740194
 30
0.0
 10
4.6667982327
 20
7.5798218859
 30
0.0
 10
4.6667982491
 20
7.5821352107
 30
0.0
  0
SPLINE
  5
4E7
100
AcDbEntity
  8
0
100
AcDbSpline
 62
7
  6
CONTINUOUS
 70
0
 71
3
 72
32
 73
28
 74
0
 42
0.0000001
 43
0.0000001
 44
0.0000000001
 40
0.0
 40
0.0
 40
0.0
 40
0.0
 40
0.0296984057
 40
0.0592917243
 40
0.0888505277
 40
0.1184461125
 40
0.1481489202
 40
0.1780234719
 40
0.2081257241
 40
0.2385006993
 40
0.2691807759
 40
0.3001860362
 40
0.3315232583
 40
0.3631855626
 40
0.4273296581
 40
0.4924070814
 40
0.5580204237
 40
0.6237122373
 40
0.6564720958
 40
0.6890795348
 40
0.7535758347
 40
0.8169546618
 40
0.8790660594
 40
0.9096874308
 40
0.9400267304
 40
0.9701254907
 40
1.0
 40
1.0
 40
1.0
 40
1.0
 10
4.6667982491
 20
7.5821352107
 30
0.0
 10
4.6667982377
 20
7.5844354173
 30
0.0
 10
4.6665481183
 20
7.5890317586
 30
0.0
 10
4.6654188497
 20
7.5958336645
 30
0.0
 10
4.6635478262
 20
7.602462585
 30
0.0
 10
4.660953845
 20
7.6088522183
 30
0.0
 10
4.6576635608
 20
7.6149404121
 30
0.0
 10
4.6537108042
 20
7.6206682268
 30
0.0
 10
4.6491365029
 20
7.6259814107
 30
0.0
 10
4.6439868149
 20
7.6308298521
 30
0.0
 10
4.6383136961
 20
7.6351692202
 30
0.0
 10
4.6321735321
 20
7.6389606212
 30
0.0
 10
4.6256249213
 20
7.6421695121
 30
0.0
 10
4.6163995113
 20
7.6456491947
 30
0.0
 10
4.6041665824
 20
7.648392507
 30
0.0
 10
4.5890124353
 20
7.6490219923
 30
0.0
 10
4.5738619664
 20
7.6469926125
 30
0.0
 10
4.5616812531
 20
7.6431341478
 30
0.0
 10
4.5524802651
 20
7.6388194939
 30
0.0
 10
4.5437768665
 20
7.6337556784
 30
0.0
 10
4.5339084333
 20
7.6260748681
 30
0.0
 10
4.5241150613
 20
7.6149785602
 30
0.0
 10
4.5179803294
 20
7.6044559463
 30
0.0
 10
4.5144943748
 20
7.5955686612
 30
0.0
 10
4.5126125043
 20
7.5887572844
 30
0.0
 10
4.5114770727
 20
7.5818423272
 30
0.0
 10
4.5112211252
 20
7.5771934903
 30
0.0
 10
4.5112207941
 20
7.5748796441
 30
0.0
  0
SPLINE
  5
4E8
100
AcDbEntity
  8
0
100
AcDbSpline
 62
7
  6
CONTINUOUS
 70
0
 71
3
 72
30
 73
26
 74
0
 42
0.0000001
 43
0.0000001
 44
0.0000000001
 40
0.0
 40
0.0
 40
0.0
 40
0.0
 40
0.0599054116
 40
0.1207961947
 40
0.1829165612
 40
0.2463050351
 40
0.3108110701
 40
0.3434233379
 40
0.3761880966
 40
0.441889701
 40
0.5075127623
 40
0.5725998114
 40
0.6367534375
 40
0.6684205613
 40
0.6997626057
 40
0.7307726923
 40
0.7614575627
 40
0.7918373149
 40
0.8219444701
 40
0.8518240953
 40
0.8815321754
 40
0.9111331913
 40
0.9406974804
 40
0.9702962712
 40
1.0
 40
1.0
 40
1.0
 40
1.0
 10
5.1446780823
 20
7.5748796441
 30
0.0
 10
5.144677255
 20
7.5795186607
 30
0.0
 10
5.143641331
 20
7.5889026776
 30
0.0
 10
5.1391041805
 20
7.6024251082
 30
0.0
 10
5.1317830477
 20
7.6149787669
 30
0.0
 10
5.1219887345
 20
7.6260768167
 30
0.0
 10
5.1121205131
 20
7.6337566865
 30
0.0
 10
5.1034171355
 20
7.6388202527
 30
0.0
 10
5.0942162899
 20
7.6431346699
 30
0.0
 10
5.0820357636
 20
7.646992847
 30
0.0
 10
5.0668856079
 20
7.6490220127
 30
0.0
 10
5.051731797
 20
7.6483924196
 30
0.0
 10
5.039499144
 20
7.6456491072
 30
0.0
 10
5.0302739069
 20
7.642169501
 30
0.0
 10
5.023725414
 20
7.6389606389
 30
0.0
 10
5.0175853164
 20
7.6351693332
 30
0.0
 10
5.0119122823
 20
7.6308300147
 30
0.0
 10
5.0067626093
 20
7.6259816759
 30
0.0
 10
5.0021883096
 20
7.6206685504
 30
0.0
 10
4.9982355399
 20
7.6149407461
 30
0.0
 10
4.9949451779
 20
7.6088525404
 30
0.0
 10
4.9923511341
 20
7.6024628408
 30
0.0
 10
4.9904800603
 20
7.5958338294
 30
0.0
 10
4.9893507665
 20
7.5890318351
 30
0.0
 10
4.989100638
 20
7.5844354385
 30
0.0
 10
4.9891006273
 20
7.5821352107
 30
0.0
  0
SPLINE
  5
4E9
100
AcDbEntity
  8
ALL_FEATURES
100
AcDbSpline
 62
7
  6
CONTINUOUS
 70
0
 71
3
 72
39
 73
35
 74
0
 42
0.0000001
 43
0.0000001
 44
0.0000000001
 40
0.0
 40
0.0
 40
0.0
 40
0.0
 40
0.0327436113
 40
0.0654334919
 40
0.0980150045
 40
0.1304377254
 40
0.1626575409
 40
0.1946372715
 40
0.2263476106
 40
0.2577691219
 40
0.2888936323
 40
0.3197215968
 40
0.3502663586
 40
0.3805540387
 40
0.4106212798
 40
0.4405141831
 40
0.4702864902
 40
0.4999972429
 40
0.5297079007
 40
0.5594802222
 40
0.5893733348
 40
0.6194406575
 40
0.6497282627
 40
0.680273147
 40
0.7111014032
 40
0.7422257948
 40
0.77364796
 40
0.8053590742
 40
0.8373397657
 40
0.8695603506
 40
0.9019837274
 40
0.9345657679
 40
0.9672560617
 40
1.0
 40
1.0
 40
1.0
 40
1.0
 10
4.8279494382
 20
7.2518320212
 30
0.0
 10
4.839519773
 20
7.2518320212
 30
0.0
 10
4.8626546798
 20
7.2528604595
 30
0.0
 10
4.8970247478
 20
7.2574753253
 30
0.0
 10
4.9307375817
 20
7.2651185571
 30
0.0
 10
4.9634662513
 20
7.2757180992
 30
0.0
 10
4.9948979669
 20
7.2891737251
 30
0.0
 10
5.0247306783
 20
7.305358265
 30
0.0
 10
5.0526772829
 20
7.3241182502
 30
0.0
 10
5.0784680462
 20
7.3452755673
 30
0.0
 10
5.1018522317
 20
7.3686287956
 30
0.0
 10
5.1226027129
 20
7.3939533397
 30
0.0
 10
5.1405169447
 20
7.4210055785
 30
0.0
 10
5.1554195211
 20
7.44952543
 30
0.0
 10
5.1671647195
 20
7.4792378919
 30
0.0
 10
5.1756382335
 20
7.5098555789
 30
0.0
 10
5.1807563686
 20
7.5410823413
 30
0.0
 10
5.1824676854
 20
7.5726153439
 30
0.0
 10
5.1807565073
 20
7.6041483191
 30
0.0
 10
5.1756397541
 20
7.6353753369
 30
0.0
 10
5.1671668822
 20
7.6659933617
 30
0.0
 10
5.1554215425
 20
7.6957058461
 30
0.0
 10
5.1405196819
 20
7.7242260773
 30
0.0
 10
5.1226063942
 20
7.7512791163
 30
0.0
 10
5.1018558044
 20
7.7766037375
 30
0.0
 10
5.0784716721
 20
7.7999573932
 30
0.0
 10
5.0526810781
 20
7.8211156492
 30
0.0
 10
5.0247340224
 20
7.8398765048
 30
0.0
 10
4.9949006344
 20
7.8560616619
 30
0.0
 10
4.9634682256
 20
7.8695178189
 30
0.0
 10
4.9307389247
 20
7.8801176614
 30
0.0
 10
4.8970255642
 20
7.8877611248
 30
0.0
 10
4.8626550576
 20
7.892376112
 30
0.0
 10
4.8395198886
 20
7.8934045642
 30
0.0
 10
4.8279494382
 20
7.8934045642
 30
0.0
  0
SPLINE
  5
4EA
100
AcDbEntity
  8
0
100
AcDbSpline
 62
7
  6
CONTINUOUS
 70
0
 71
3
 72
34
 73
30
 74
0
 42
0.0000001
 43
0.0000001
 44
0.0000000001
 40
0.0
 40
0.0
 40
0.0
 40
0.0
 40
0.0298158728
 40
0.0598557917
 40
0.0901645903
 40
0.1207731782
 40
0.1517002877
 40
0.1829511143
 40
0.2145186789
 40
0.2463849777
 40
0.3108272469
 40
0.3433936105
 40
0.3761054661
 40
0.4416873102
 40
0.5071857102
 40
0.5721663687
 40
0.6362623557
 40
0.6679277471
 40
0.6992879029
 40
0.7303347555
 40
0.761072615
 40
0.791516974
 40
0.8216969334
 40
0.8516524036
 40
0.8814316828
 40
0.9110894542
 40
0.9406949959
 40
0.9703199126
 40
1.0
 40
1.0
 40
1.0
 40
1.0
 10
4.9891006273
 20
7.5821352107
 30
0.0
 10
4.9891006444
 20
7.5798219096
 30
0.0
 10
4.9893549841
 20
7.5751741052
 30
0.0
 10
4.9904877081
 20
7.5682580918
 30
0.0
 10
4.9923607699
 20
7.5614405677
 30
0.0
 10
4.9949550131
 20
7.5547903039
 30
0.0
 10
4.9982437612
 20
7.5483727705
 30
0.0
 10
5.0021932124
 20
7.5422513421
 30
0.0
 10
5.0067636397
 20
7.5364847292
 30
0.0
 10
5.0136444394
 20
7.5293210973
 30
0.0
 10
5.0215636313
 20
7.5231075985
 30
0.0
 10
5.0302535102
 20
7.5180099343
 30
0.0
 10
5.0394421653
 20
7.5136634089
 30
0.0
 10
5.0516133232
 20
7.509770244
 30
0.0
 10
5.0667626802
 20
7.5077142037
 30
0.0
 10
5.0819242199
 20
7.5083365868
 30
0.0
 10
5.0941664048
 20
7.5110912915
 30
0.0
 10
5.1034013225
 20
7.514589442
 30
0.0
 10
5.1099605825
 20
7.5178173933
 30
0.0
 10
5.1161119136
 20
7.5216325531
 30
0.0
 10
5.1217972205
 20
7.5259978958
 30
0.0
 10
5.1269582971
 20
7.5308751947
 30
0.0
 10
5.1315450855
 20
7.5362169057
 30
0.0
 10
5.1355084212
 20
7.5419741208
 30
0.0
 10
5.1388099307
 20
7.5480890981
 30
0.0
 10
5.141413324
 20
7.5545032294
 30
0.0
 10
5.1432929266
 20
7.5611534614
 30
0.0
 10
5.1444254449
 20
7.5679716653
 30
0.0
 10
5.1446777586
 20
7.5725768781
 30
0.0
 10
5.1446780823
 20
7.5748796441
 30
0.0
  0
SPLINE
  5
4EB
100
AcDbEntity
  8
0
100
AcDbSpline
 62
7
  6
CONTINUOUS
 70
0
 71
3
 72
15
 73
11
 74
0
 42
0.0000001
 43
0.0000001
 44
0.0000000001
 40
0.0
 40
0.0
 40
0.0
 40
0.0
 40
0.1225775543
 40
0.2459458021
 40
0.3700702537
 40
0.49490496
 40
0.6203898666
 40
0.7464556376
 40
0.8730215407
 40
1.0
 40
1.0
 40
1.0
 40
1.0
 10
4.5804179836
 20
7.2772336309
 30
0.0
 10
4.5864146107
 20
7.2721205147
 30
0.0
 10
4.5987977431
 20
7.2622655181
 30
0.0
 10
4.6183716988
 20
7.2487118093
 30
0.0
 10
4.6389180347
 20
7.2363967242
 30
0.0
 10
4.6603412748
 20
7.2253800305
 30
0.0
 10
4.6825410365
 20
7.2157099324
 30
0.0
 10
4.7054157497
 20
7.2074340533
 30
0.0
 10
4.7288569808
 20
7.2005874787
 30
0.0
 10
4.7447715299
 20
7.1970038979
 30
0.0
 10
4.7527874348
 20
7.1954585107
 30
0.0
  0
SPLINE
  5
4EC
100
AcDbEntity
  8
0
100
AcDbSpline
 62
7
  6
CONTINUOUS
 70
0
 71
3
 72
15
 73
11
 74
0
 42
0.0000001
 43
0.0000001
 44
0.0000000001
 40
0.0
 40
0.0
 40
0.0
 40
0.0
 40
0.1269784593
 40
0.2535443624
 40
0.3796101334
 40
0.50509504
 40
0.6299297463
 40
0.7540541979
 40
0.8774224457
 40
1.0
 40
1.0
 40
1.0
 40
1.0
 10
4.903111442
 20
7.1954585108
 30
0.0
 10
4.911127347
 20
7.197003898
 30
0.0
 10
4.927041896
 20
7.2005874788
 30
0.0
 10
4.9504831271
 20
7.2074340535
 30
0.0
 10
4.9733578402
 20
7.2157099325
 30
0.0
 10
4.9955576018
 20
7.2253800306
 30
0.0
 10
5.0169808419
 20
7.2363967243
 30
0.0
 10
5.0375271777
 20
7.2487118094
 30
0.0
 10
5.0571011334
 20
7.2622655182
 30
0.0
 10
5.0694842658
 20
7.2721205147
 30
0.0
 10
5.0754808928
 20
7.2772336309
 30
0.0
  0
SPLINE
  5
4ED
100
AcDbEntity
  8
0
100
AcDbSpline
 62
7
  6
CONTINUOUS
 70
0
 71
3
 72
21
 73
17
 74
0
 42
0.0000001
 43
0.0000001
 44
0.0000000001
 40
0.0
 40
0.0
 40
0.0
 40
0.0
 40
0.1536171725
 40
0.3042168366
 40
0.377452679
 40
0.4488485141
 40
0.5180620099
 40
0.5847719083
 40
0.6486851283
 40
0.7095303745
 40
0.7670731611
 40
0.8211079219
 40
0.8714838019
 40
0.9180960032
 40
0.9609166714
 40
1.0
 40
1.0
 40
1.0
 40
1.0
 10
4.8279494382
 20
6.9674408752
 30
0.0
 10
4.8376518574
 20
6.9674408753
 30
0.0
 10
4.8568694783
 20
6.9669523119
 30
0.0
 10
4.8806502972
 20
6.9651133377
 30
0.0
 10
4.899167467
 20
6.9629003392
 30
0.0
 10
4.9125284101
 20
6.9609095372
 30
0.0
 10
4.9254166525
 20
6.9585838293
 30
0.0
 10
4.9377598231
 20
6.9559356069
 30
0.0
 10
4.9494892659
 20
6.952980954
 30
0.0
 10
4.9605397142
 20
6.9497350913
 30
0.0
 10
4.9708502957
 20
6.9462179853
 30
0.0
 10
4.9803637797
 20
6.94244729
 30
0.0
 10
4.9890285336
 20
6.9384458517
 30
0.0
 10
4.9967975463
 20
6.9342333101
 30
0.0
 10
5.0036287219
 20
6.9298339331
 30
0.0
 10
5.0077168801
 20
6.9266473884
 30
0.0
 10
5.0095743046
 20
6.9250215258
 30
0.0
  0
SPLINE
  5
4EE
100
AcDbEntity
  8
0
100
AcDbSpline
 62
7
  6
CONTINUOUS
 70
0
 71
3
 72
9
 73
5
 74
0
 42
0.0000001
 43
0.0000001
 44
0.0000000001
 40
0.0
 40
0.0
 40
0.0
 40
0.0
 40
0.5242896703
 40
1.0
 40
1.0
 40
1.0
 40
1.0
 10
5.0092859052
 20
6.9248442372
 30
0.0
 10
5.0107685528
 20
6.9232231433
 30
0.0
 10
5.0133929389
 20
6.9199326066
 30
0.0
 10
5.0153992153
 20
6.9162184538
 30
0.0
 10
5.0161483013
 20
6.9143712588
 30
0.0
  0
SPLINE
  5
4EF
100
AcDbEntity
  8
0
100
AcDbSpline
 62
7
  6
CONTINUOUS
 70
0
 71
3
 72
9
 73
5
 74
0
 42
0.0000001
 43
0.0000001
 44
0.0000000001
 40
0.0
 40
0.0
 40
0.0
 40
0.0
 40
0.5077716467
 40
1.0
 40
1.0
 40
1.0
 40
1.0
 10
5.0163186639
 20
6.9139405854
 30
0.0
 10
5.0168477233
 20
6.9125686418
 30
0.0
 10
5.0176671863
 20
6.9097731496
 30
0.0
 10
5.0179490659
 20
6.9068708191
 30
0.0
 10
5.0179490659
 20
6.9054454104
 30
0.0
  0
SPLINE
  5
4F0
100
AcDbEntity
  8
0
100
AcDbSpline
 62
7
  6
CONTINUOUS
 70
0
 71
3
 72
21
 73
17
 74
0
 42
0.0000001
 43
0.0000001
 44
0.0000000001
 40
0.0
 40
0.0
 40
0.0
 40
0.0
 40
0.0390833286
 40
0.0819039968
 40
0.128516198
 40
0.178892078
 40
0.2329268386
 40
0.2904696251
 40
0.3513148711
 40
0.415228091
 40
0.4819379892
 40
0.551151485
 40
0.62254732
 40
0.6957831625
 40
0.8463828272
 40
1.0
 40
1.0
 40
1.0
 40
1.0
 10
4.6463245718
 20
6.9250215258
 30
0.0
 10
4.6481819963
 20
6.9266473884
 30
0.0
 10
4.6522701545
 20
6.9298339331
 30
0.0
 10
4.6591013301
 20
6.9342333101
 30
0.0
 10
4.6668703427
 20
6.9384458516
 30
0.0
 10
4.6755350967
 20
6.9424472899
 30
0.0
 10
4.6850485806
 20
6.9462179853
 30
0.0
 10
4.6953591621
 20
6.9497350913
 30
0.0
 10
4.7064096104
 20
6.952980954
 30
0.0
 10
4.7181390532
 20
6.9559356068
 30
0.0
 10
4.7304822238
 20
6.9585838293
 30
0.0
 10
4.7433704661
 20
6.9609095372
 30
0.0
 10
4.7567314092
 20
6.9629003392
 30
0.0
 10
4.7752485791
 20
6.9651133376
 30
0.0
 10
4.799029398
 20
6.9669523119
 30
0.0
 10
4.818247019
 20
6.9674408753
 30
0.0
 10
4.8279494382
 20
6.9674408752
 30
0.0
  0
SPLINE
  5
4F1
100
AcDbEntity
  8
0
100
AcDbSpline
 62
7
  6
CONTINUOUS
 70
0
 71
3
 72
15
 73
11
 74
0
 42
0.0000001
 43
0.0000001
 44
0.0000000001
 40
0.0
 40
0.0
 40
0.0
 40
0.0
 40
0.1016234083
 40
0.2059885724
 40
0.3155859824
 40
0.432523934
 40
0.5584272575
 40
0.6944730756
 40
0.8414957301
 40
1.0
 40
1.0
 40
1.0
 40
1.0
 10
5.0404494381
 20
6.900744794
 30
0.0
 10
5.0404493104
 20
6.8992749314
 30
0.0
 10
5.0401807522
 20
6.8962892475
 30
0.0
 10
5.0389869385
 20
6.8918625968
 30
0.0
 10
5.0370132804
 20
6.8874820258
 30
0.0
 10
5.0342723334
 20
6.8831664219
 30
0.0
 10
5.0307812768
 20
6.8789268904
 30
0.0
 10
5.0265556629
 20
6.8747741071
 30
0.0
 10
5.021609914
 20
6.8707216136
 30
0.0
 10
5.0179818627
 20
6.8681909023
 30
0.0
 10
5.016060442
 20
6.8669402815
 30
0.0
  0
SPLINE
  5
4F2
100
AcDbEntity
  8
0
100
AcDbSpline
 62
7
  6
CONTINUOUS
 70
0
 71
3
 72
15
 73
11
 74
0
 42
0.0000001
 43
0.0000001
 44
0.0000000001
 40
0.0
 40
0.0
 40
0.0
 40
0.0
 40
0.1585042652
 40
0.305526916
 40
0.4415727318
 40
0.5674760543
 40
0.6844140065
 40
0.7940114189
 40
0.8983765867
 40
1.0
 40
1.0
 40
1.0
 40
1.0
 10
4.6398384273
 20
6.8669402862
 30
0.0
 10
4.637917007
 20
6.8681909068
 30
0.0
 10
4.6342889567
 20
6.870721618
 30
0.0
 10
4.629343209
 20
6.8747741111
 30
0.0
 10
4.6251175964
 20
6.878926894
 30
0.0
 10
4.6216265407
 20
6.8831664251
 30
0.0
 10
4.6188855946
 20
6.8874820285
 30
0.0
 10
4.6169119371
 20
6.891862599
 30
0.0
 10
4.6157181239
 20
6.8962892493
 30
0.0
 10
4.615449566
 20
6.8992749328
 30
0.0
 10
4.6154494383
 20
6.9007447953
 30
0.0
  0
SPLINE
  5
4F3
100
AcDbEntity
  8
0
100
AcDbSpline
 62
7
  6
CONTINUOUS
 70
0
 71
3
 72
9
 73
5
 74
0
 42
0.0000001
 43
0.0000001
 44
0.0000000001
 40
0.0
 40
0.0
 40
0.0
 40
0.0
 40
0.4922283546
 40
1.0
 40
1.0
 40
1.0
 40
1.0
 10
4.6379498105
 20
6.9054454104
 30
0.0
 10
4.6379498105
 20
6.9068708189
 30
0.0
 10
4.63823169
 20
6.9097731492
 30
0.0
 10
4.6390511529
 20
6.9125686411
 30
0.0
 10
4.6395802122
 20
6.9139405847
 30
0.0
  0
SPLINE
  5
4F4
100
AcDbEntity
  8
0
100
AcDbSpline
 62
7
  6
CONTINUOUS
 70
0
 71
3
 72
9
 73
5
 74
0
 42
0.0000001
 43
0.0000001
 44
0.0000000001
 40
0.0
 40
0.0
 40
0.0
 40
0.0
 40
0.475805789
 40
1.0
 40
1.0
 40
1.0
 40
1.0
 10
4.6397505592
 20
6.9143712196
 30
0.0
 10
4.6404969579
 20
6.9162117961
 30
0.0
 10
4.6424940898
 20
6.91991251
 30
0.0
 10
4.645105593
 20
6.9231928471
 30
0.0
 10
4.6465807571
 20
6.9248089799
 30
0.0
  0
SPLINE
  5
4F5
100
AcDbEntity
  8
0
100
AcDbSpline
 62
7
  6
CONTINUOUS
 70
0
 71
3
 72
11
 73
7
 74
0
 42
0.0000001
 43
0.0000001
 44
0.0000000001
 40
0.0
 40
0.0
 40
0.0
 40
0.0
 40
0.2597841429
 40
0.5112953387
 40
0.7571005183
 40
1.0
 40
1.0
 40
1.0
 40
1.0
 10
4.6403811183
 20
6.895082793
 30
0.0
 10
4.639984424
 20
6.8959227034
 30
0.0
 10
4.6392826711
 20
6.8976148324
 30
0.0
 10
4.6385142603
 20
6.9002160459
 30
0.0
 10
4.6380526461
 20
6.9028278261
 30
0.0
 10
4.6379498105
 20
6.904576904
 30
0.0
 10
4.6379498105
 20
6.9054454104
 30
0.0
  0
SPLINE
  5
4F6
100
AcDbEntity
  8
0
100
AcDbSpline
 62
7
  6
CONTINUOUS
 70
0
 71
3
 72
30
 73
26
 74
0
 42
0.0000001
 43
0.0000001
 44
0.0000000001
 40
0.0
 40
0.0
 40
0.0
 40
0.0
 40
0.0150467624
 40
0.0303632047
 40
0.0462015944
 40
0.0627868532
 40
0.080310379
 40
0.0989229466
 40
0.1187405986
 40
0.1398515791
 40
0.1623194756
 40
0.1861801864
 40
0.2114515835
 40
0.2381393024
 40
0.2662372695
 40
0.2957224585
 40
0.358713146
 40
0.4267937816
 40
0.4995141188
 40
0.5763556284
 40
0.6567200849
 40
0.7399679423
 40
0.8254095886
 40
0.9123325746
 40
1.0
 40
1.0
 40
1.0
 40
1.0
 10
4.6154494382
 20
6.9007469473
 30
0.0
 10
4.6154494382
 20
6.901938731
 30
0.0
 10
4.6156243179
 20
6.9043470991
 30
0.0
 10
4.6164052873
 20
6.9079335699
 30
0.0
 10
4.6177005469
 20
6.9114974295
 30
0.0
 10
4.6195046803
 20
6.9150284157
 30
0.0
 10
4.6218121025
 20
6.9185180874
 30
0.0
 10
4.6246140109
 20
6.9219600117
 30
0.0
 10
4.6279025646
 20
6.9253475705
 30
0.0
 10
4.6316702314
 20
6.928673606
 30
0.0
 10
4.6359088506
 20
6.9319301818
 30
0.0
 10
4.6406074957
 20
6.9351110922
 30
0.0
 10
4.6457548833
 20
6.938209301
 30
0.0
 10
4.6513393626
 20
6.9412173816
 30
0.0
 10
4.6573483183
 20
6.9441276031
 30
0.0
 10
4.6661006194
 20
6.9479537512
 30
0.0
 10
4.6780199913
 20
6.9524154171
 30
0.0
 10
4.6934546402
 20
6.9571656429
 30
0.0
 10
4.710176495
 20
6.9613823924
 30
0.0
 10
4.7280265879
 20
6.9650206095
 30
0.0
 10
4.7468346319
 20
6.9680488142
 30
0.0
 10
4.7664208983
 20
6.9704336708
 30
0.0
 10
4.7865976775
 20
6.9721555575
 30
0.0
 10
4.8071712113
 20
6.9731941177
 30
0.0
 10
4.8210008223
 20
6.9734261729
 30
0.0
 10
4.8279445492
 20
6.9734262277
 30
0.0
  0
SPLINE
  5
4F7
100
AcDbEntity
  8
0
100
AcDbSpline
 62
7
  6
CONTINUOUS
 70
0
 71
3
 72
15
 73
11
 74
0
 42
0.0000001
 43
0.0000001
 44
0.0000000001
 40
0.0
 40
0.0
 40
0.0
 40
0.0
 40
0.1347383162
 40
0.2685183191
 40
0.4003873991
 40
0.5294224284
 40
0.6547220943
 40
0.7754390009
 40
0.8907736856
 40
1.0
 40
1.0
 40
1.0
 40
1.0
 10
4.8279445492
 20
6.9734262277
 30
0.0
 10
4.8343029982
 20
6.9734262779
 30
0.0
 10
4.8469755339
 20
6.9732316293
 30
0.0
 10
4.8658530491
 20
6.9723599346
 30
0.0
 10
4.884425577
 20
6.9709130312
 30
0.0
 10
4.9025434409
 20
6.9689052547
 30
0.0
 10
4.9200609994
 20
6.9663510931
 30
0.0
 10
4.9368376614
 20
6.9632725016
 30
0.0
 10
4.9527385126
 20
6.959694511
 30
0.0
 10
4.962969277
 20
6.9569138443
 30
0.0
 10
4.9679073003
 20
6.9554357052
 30
0.0
  0
SPLINE
  5
4F8
100
AcDbEntity
  8
0
100
AcDbSpline
 62
7
  6
CONTINUOUS
 70
0
 71
3
 72
22
 73
18
 74
0
 42
0.0000001
 43
0.0000001
 44
0.0000000001
 40
0.0
 40
0.0
 40
0.0
 40
0.0
 40
0.1773743035
 40
0.2604240428
 40
0.3395506822
 40
0.4146589539
 40
0.4856894515
 40
0.5526353942
 40
0.6155267635
 40
0.6744390561
 40
0.729524253
 40
0.7810213705
 40
0.8292542994
 40
0.874652413
 40
0.917776322
 40
0.9593024974
 40
1.0
 40
1.0
 40
1.0
 40
1.0
 10
4.9700834375
 20
6.9547752607
 30
0.0
 10
4.9753828296
 20
6.9531446309
 30
0.0
 10
4.9831002187
 20
6.9505300826
 30
0.0
 10
4.9929595098
 20
6.9465938913
 30
0.0
 10
4.9997400334
 20
6.9435818774
 30
0.0
 10
5.0060508591
 20
6.9404528727
 30
0.0
 10
5.0118746632
 20
6.9372144643
 30
0.0
 10
5.017196603
 20
6.9338762736
 30
0.0
 10
5.0220028092
 20
6.9304471235
 30
0.0
 10
5.0262796251
 20
6.9269347503
 30
0.0
 10
5.0300153554
 20
6.9233475828
 30
0.0
 10
5.0332008093
 20
6.91969486
 30
0.0
 10
5.0358266809
 20
6.9159845923
 30
0.0
 10
5.0378820417
 20
6.9122241061
 30
0.0
 10
5.0393586762
 20
6.9084229132
 30
0.0
 10
5.0402497119
 20
6.9045935385
 30
0.0
 10
5.0404494382
 20
6.9020191219
 30
0.0
 10
5.0404494382
 20
6.9007469473
 30
0.0
  0
SPLINE
  5
4F9
100
AcDbEntity
  8
0
100
AcDbSpline
 62
7
  6
CONTINUOUS
 70
0
 71
3
 72
18
 73
14
 74
0
 42
0.0000001
 43
0.0000001
 44
0.0000000001
 40
0.0
 40
0.0
 40
0.0
 40
0.0
 40
0.1323330627
 40
0.2532464418
 40
0.3107382512
 40
0.3669994425
 40
0.4226963288
 40
0.4785159406
 40
0.5351409176
 40
0.5932230067
 40
0.7159050894
 40
0.8506090487
 40
1.0
 40
1.0
 40
1.0
 40
1.0
 10
4.640377293
 20
6.8825148645
 30
0.0
 10
4.6390062292
 20
6.8841646763
 30
0.0
 10
4.636602152
 20
6.887518253
 30
0.0
 10
4.6344558384
 20
6.8921163893
 30
0.0
 10
4.6334349756
 20
6.8957885043
 30
0.0
 10
4.6330056283
 20
6.8985079913
 30
0.0
 10
4.6329010552
 20
6.9012321059
 30
0.0
 10
4.6331212965
 20
6.9039551909
 30
0.0
 10
4.6336661896
 20
6.9066716034
 30
0.0
 10
4.634844442
 20
6.9103423231
 30
0.0
 10
4.63718729
 20
6.914929251
 30
0.0
 10
4.6411999934
 20
6.9201946989
 30
0.0
 10
4.6445023795
 20
6.923426503
 30
0.0
 10
4.6463245718
 20
6.9250215258
 30
0.0
  0
SPLINE
  5
4FA
100
AcDbEntity
  8
0
100
AcDbSpline
 62
7
  6
CONTINUOUS
 70
0
 71
3
 72
18
 73
14
 74
0
 42
0.0000001
 43
0.0000001
 44
0.0000000001
 40
0.0
 40
0.0
 40
0.0
 40
0.0
 40
0.1493909513
 40
0.2840949104
 40
0.406776993
 40
0.4648590821
 40
0.521484059
 40
0.5773036708
 40
0.633000557
 40
0.6892617483
 40
0.7467535578
 40
0.867666937
 40
1.0
 40
1.0
 40
1.0
 40
1.0
 10
5.0095743046
 20
6.9250215258
 30
0.0
 10
5.0113964969
 20
6.923426503
 30
0.0
 10
5.014698883
 20
6.9201946989
 30
0.0
 10
5.0187115864
 20
6.9149292509
 30
0.0
 10
5.0210544345
 20
6.910342323
 30
0.0
 10
5.0222326869
 20
6.9066716034
 30
0.0
 10
5.0227775799
 20
6.9039551908
 30
0.0
 10
5.0229978212
 20
6.9012321058
 30
0.0
 10
5.0228932481
 20
6.8985079912
 30
0.0
 10
5.0224639008
 20
6.8957885042
 30
0.0
 10
5.0214430379
 20
6.8921163892
 30
0.0
 10
5.0192967243
 20
6.8875182528
 30
0.0
 10
5.0168926471
 20
6.8841646762
 30
0.0
 10
5.0155215833
 20
6.8825148644
 30
0.0
  0
SPLINE
  5
4FB
100
AcDbEntity
  8
0
100
AcDbSpline
 62
7
  6
CONTINUOUS
 70
0
 71
3
 72
20
 73
16
 74
0
 42
0.0000001
 43
0.0000001
 44
0.0000000001
 40
0.0
 40
0.0
 40
0.0
 40
0.0
 40
0.0598458581
 40
0.1199921175
 40
0.1804717392
 40
0.2413112909
 40
0.3640797173
 40
0.4260965143
 40
0.488514943
 40
0.5513267842
 40
0.6145175153
 40
0.741890148
 40
0.806075037
 40
0.8705260413
 40
1.0
 40
1.0
 40
1.0
 40
1.0
 10
5.1818930656
 20
7.4034164623
 30
0.0
 10
5.1791648055
 20
7.3963509238
 30
0.0
 10
5.1731878625
 20
7.3823741549
 30
0.0
 10
5.1627400599
 20
7.3620439726
 30
0.0
 10
5.150838634
 20
7.3423794978
 30
0.0
 10
5.1330537168
 20
7.3170986107
 30
0.0
 10
5.1125851704
 20
7.2935538596
 30
0.0
 10
5.0898137208
 20
7.2720764036
 30
0.0
 10
5.0715320104
 20
7.2569701218
 30
0.0
 10
5.0521949517
 20
7.2429869699
 30
0.0
 10
5.0250511273
 20
7.225882386
 30
0.0
 10
4.9961784044
 20
7.2113133876
 30
0.0
 10
4.9660148689
 20
7.1994395887
 30
0.0
 10
4.934928562
 20
7.1893551909
 30
0.0
 10
4.9109149841
 20
7.1839187252
 30
0.0
 10
4.894745048
 20
7.1812665768
 30
0.0
  0
SPLINE
  5
4FC
100
AcDbEntity
  8
0
100
AcDbSpline
 62
7
  6
CONTINUOUS
 70
0
 71
3
 72
20
 73
16
 74
0
 42
0.0000001
 43
0.0000001
 44
0.0000000001
 40
0.0
 40
0.0
 40
0.0
 40
0.0
 40
0.1294739587
 40
0.193924963
 40
0.258109852
 40
0.3854824847
 40
0.4486732158
 40
0.511485057
 40
0.5739034857
 40
0.6359202827
 40
0.7586887091
 40
0.8195282608
 40
0.8800078825
 40
0.9401541419
 40
1.0
 40
1.0
 40
1.0
 40
1.0
 10
4.7611538304
 20
7.1812665765
 30
0.0
 10
4.7449838942
 20
7.1839187248
 30
0.0
 10
4.7209703162
 20
7.1893551904
 30
0.0
 10
4.6898840091
 20
7.1994395881
 30
0.0
 10
4.6597204734
 20
7.211313387
 30
0.0
 10
4.6308477504
 20
7.2258823853
 30
0.0
 10
4.6037039258
 20
7.2429869692
 30
0.0
 10
4.5843668669
 20
7.2569701211
 30
0.0
 10
4.5660851564
 20
7.2720764029
 30
0.0
 10
4.5433137066
 20
7.293553859
 30
0.0
 10
4.5228451601
 20
7.3170986101
 30
0.0
 10
4.5050602428
 20
7.3423794972
 30
0.0
 10
4.4931588167
 20
7.3620439722
 30
0.0
 10
4.482711014
 20
7.3823741545
 30
0.0
 10
4.476734071
 20
7.3963509234
 30
0.0
 10
4.4740058109
 20
7.403416462
 30
0.0
  0
SPLINE
  5
4FD
100
AcDbEntity
  8
0
100
AcDbSpline
 62
7
  6
CONTINUOUS
 70
0
 71
3
 72
11
 73
7
 74
0
 42
0.0000001
 43
0.0000001
 44
0.0000000001
 40
0.0
 40
0.0
 40
0.0
 40
0.0
 40
0.2428994833
 40
0.4887046637
 40
0.7402158594
 40
1.0
 40
1.0
 40
1.0
 40
1.0
 10
5.0179490659
 20
6.9054454104
 30
0.0
 10
5.0179490659
 20
6.9045769041
 30
0.0
 10
5.0178462303
 20
6.9028278264
 30
0.0
 10
5.0173846162
 20
6.9002160465
 30
0.0
 10
5.0166162056
 20
6.8976148333
 30
0.0
 10
5.0159144529
 20
6.8959227046
 30
0.0
 10
5.0155177586
 20
6.8950827942
 30
0.0
  0
ELLIPSE
  5
4FE
100
AcDbEntity
  8
0
100
AcDbEllipse
 62
7
  6
CONTINUOUS
 10
4.8279494382
 20
7.336548282
 30
0.0
 11
0.5394743192
 21
-0.0
 31
0.0
 40
0.1642814839
 41
2.2856726412
 42
2.2939828656
  0
ELLIPSE
  5
4FF
100
AcDbEntity
  8
0
100
AcDbEllipse
 62
7
  6
CONTINUOUS
 10
5.1407618757
 20
7.137033086
 30
0.0
 11
-0.5451381539
 21
0.7532076074
 31
0.0
 40
0.3152000675
 41
1.2598584909
 42
1.2944113183
  0
ELLIPSE
  5
500
100
AcDbEntity
  8
0
100
AcDbEllipse
 62
7
  6
CONTINUOUS
 10
4.8279494382
 20
7.336548282
 30
0.0
 11
0.5394743192
 21
-0.0
 31
0.0
 40
0.1642814839
 41
0.847609788
 42
0.8559200177
  0
ELLIPSE
  5
501
100
AcDbEntity
  8
0
100
AcDbEllipse
 62
7
  6
CONTINUOUS
 10
4.5151370007
 20
7.137033086
 30
0.0
 11
0.5451381539
 21
0.7532076074
 31
0.0
 40
0.3152000675
 41
-1.2944113183
 42
-1.2598584909
  0
ELLIPSE
  5
502
100
AcDbEntity
  8
0
100
AcDbEllipse
 62
7
  6
CONTINUOUS
 10
4.8279494382
 20
7.335327464
 30
0.0
 11
0.5535996083
 21
-0.0
 31
0.0
 40
0.1642814839
 41
7.1222154189
 42
7.1589654314
  0
ELLIPSE
  5
503
100
AcDbEntity
  8
0
100
AcDbEllipse
 62
7
  6
CONTINUOUS
 10
4.8279494382
 20
7.335327464
 30
0.0
 11
0.5535996083
 21
-0.0
 31
0.0
 40
0.1642814839
 41
8.5489978365
 42
8.5857478491
  0
ENDSEC
  0
SECTION
  2
OBJECTS
  0
DICTIONARY
  5
C
100
AcDbDictionary
280
0
281
1
  3
ACAD_GROUP
350
D
  3
ACAD_MLINESTYLE
350
17
  3
ACAD_LAYOUT
350
1A
  3
ACAD_PLOTSETTINGS
350
19
  3
ACAD_PLOTSTYLENAME
350
E
  0
DICTIONARY
  5
D
102
{ACAD_REACTORS
330
C
102
}
100
AcDbDictionary
280
0
281
1
  0
ACDBDICTIONARYWDFLT
  5
E
102
{ACAD_REACTORS
330
C
102
}
100
AcDbDictionary
281
1
  3
Normal
350
F
100
AcDbDictionaryWithDefault
340
F
  0
DICTIONARY
  5
17
102
{ACAD_REACTORS
330
C
102
}
100
AcDbDictionary
280
0
281
1
  3
Standard
350
18
  0
DICTIONARY
  5
19
102
{ACAD_REACTORS
330
C
102
}
100
AcDbDictionary
281
1
  0
DICTIONARY
  5
1A
102
{ACAD_REACTORS
330
C
102
}
100
AcDbDictionary
281
1
  3
Model
350
504
  3
Layout1
350
505
  0
ACDBPLACEHOLDER
  5
F
102
{ACAD_REACTORS
330
E
102
}
  0
MLINESTYLE
  5
18
102
{ACAD_REACTORS
330
17
102
}
100
AcDbMlineStyle
  2
STANDARD
 70
0
  3

 62
256
 51
90.0
 52
90.0
 71
2
 49
0.5
 62
256
  6
BYLAYER
 49
-0.5
 62
256
  6
BYLAYER
  0
LAYOUT
  5
504
102
{ACAD_REACTORS
330
1A
102
}
100
AcDbPlotSettings
  1

  2
none_device
  4
ANSI_A_(11.00_x_8.50_Inches)
  6

 40
0.0
 41
0.0
 42
0.0
 43
0.0
 44
279.4
 45
215.9
 46
0.0
 47
0.0
 48
0.0
 49
0.0
140
0.0
141
0.0
142
1.0
143
1.0
 70
1024
 72
0
 73
0
 74
0
  7

 75
0
147
1.0
148
0.0
149
0.0
100
AcDbLayout
  1
Model
 70
0
 71
0
 10
0.0
 20
0.0
 11
11.0
 21
8.5
 12
0.0
 22
0.0
 32
0.0
 14
0.0
 24
0.0
 34
0.0
 15
0.0
 25
0.0
 35
0.0
146
0.0
 13
0.0
 23
0.0
 33
0.0
 16
1.0
 26
0.0
 36
0.0
 17
0.0
 27
1.0
 37
0.0
 76
0
330
21C
345
0
346
0
  0
LAYOUT
  5
505
102
{ACAD_REACTORS
330
1A
102
}
100
AcDbPlotSettings
  1

  2
none_device
  4
ANSI_A_(11.00_x_8.50_Inches)
  6

 40
0.0
 41
0.0
 42
0.0
 43
0.0
 44
279.4
 45
215.9
 46
0.0
 47
0.0
 48
0.0
 49
0.0
140
0.0
141
0.0
142
1.0
143
1.0
 70
0
 72
0
 73
0
 74
0
  7

 75
0
147
1.0
148
0.0
149
0.0
100
AcDbLayout
  1
Layout1
 70
0
 71
1
 10
0.0
 20
0.0
 11
11.0
 21
8.5
 12
0.0
 22
0.0
 32
0.0
 14
0.0
 24
0.0
 34
0.0
 15
0.0
 25
0.0
 35
0.0
146
0.0
 13
0.0
 23
0.0
 33
0.0
 16
1.0
 26
0.0
 36
0.0
 17
0.0
 27
1.0
 37
0.0
 76
0
330
21D
345
0
346
0
  0
ENDSEC
  0
EOF
