999
DXF file: 111-2961_right.dxf
999
Pro/ENGINEER 2018400 by Parametric Technology Corporation
  0
SECTION
  2
HEADER
  9
$ACADVER
  1
AC1027
  9
$DWGCODEPAGE
  3
ANSI_1252
  9
$EXTMAX
 10
11.0
 20
8.5
 30
0.0
  9
$EXTMIN
 10
0.0
 20
0.0
 30
0.0
  9
$LIMMIN
 10
0.0
 20
0.0
  9
$LIMMAX
 10
11.0
 20
8.5
  9
$VIEWCTR
 10
5.5
 20
4.25
  9
$VIEWSIZE
 40
8.5
  9
$CLAYER
  8
0
  9
$LTSCALE
 40
0.605
  9
$CELTYPE
  6
BYLAYER
  9
$DIMSCALE
 40
1.0
  9
$DIMASZ
 40
0.1
  9
$DIMEXO
 40
0.0625
  9
$DIMDLI
 40
0.418
  9
$DIMEXE
 40
0.125
  9
$DIMCEN
 40
0.099
  9
$DIMLFAC
 40
1.0
  9
$DIMBLK
  1
_FILLED
  9
$DIMALT
 70
1
  9
$DIMALTD
 70
1
  9
$DIMALTTD
 70
2
  9
$DIMALTF
 40
25.4
  9
$DIMTXT
 40
0.08
  9
$DIMTOL
 70
1
  9
$DIMLIM
 70
0
  9
$DIMTFAC
 40
1.0
  9
$DIMTP
 40
0.01
  9
$DIMTM
 40
0.01
  9
$DIMGAP
 40
0.09
  9
$DIMDSEP
 70
46
  9
$AUNITS
 70
0
  9
$PDMODE
 70
3
  9
$PDSIZE
 40
0.3125
  9
$HANDSEED
  5
578
  9
$TILEMODE
 70
1
  9
$MEASUREMENT
 70
0
  9
$INSUNITS
 70
1
  0
ENDSEC
  0
SECTION
  2
CLASSES
  0
CLASS
  1
ACDBDICTIONARYWDFLT
  2
AcDbDictionaryWithDefault
  3
AutoCAD 2000
 90
0
 91
1
280
0
281
0
  0
CLASS
  1
ACDBPLACEHOLDER
  2
AcDbPlaceHolder
  3
AutoCAD 2000
 90
0
 91
1
280
0
281
0
  0
CLASS
  1
LAYOUT
  2
AcDbLayout
  3
AutoCAD 2000
 90
0
 91
0
280
0
281
0
  0
ENDSEC
  0
SECTION
  2
TABLES
  0
TABLE
  2
VPORT
  5
8
100
AcDbSymbolTable
 70
2
  0
VPORT
  5
1F4
100
AcDbSymbolTableRecord
100
AcDbViewportTableRecord
  2
*ACTIVE
 70
0
 10
0.0
 20
0.0
 11
1.0
 21
1.0
 12
5.5
 22
4.25
 13
0.0
 23
0.0
 14
1.0
 24
1.0
 15
0.0
 25
0.0
 16
0.0
 26
0.0
 36
1.0
 17
0.0
 27
0.0
 37
0.0
 40
8.5
 41
1.2941176471
 42
50.0
 43
0.0
 44
0.0
 50
0.0
 51
0.0
 71
0
 72
100
 73
1
 74
1
 75
0
 76
0
 77
0
 78
0
  0
ENDTAB
  0
TABLE
  2
LTYPE
  5
5
100
AcDbSymbolTable
 70
6
  0
LTYPE
  5
14
100
AcDbSymbolTableRecord
100
AcDbLinetypeTableRecord
  2
BYBLOCK
 70
0
  3

 72
65
 73
0
 40
0.0
  0
LTYPE
  5
15
100
AcDbSymbolTableRecord
100
AcDbLinetypeTableRecord
  2
BYLAYER
 70
0
  3

 72
65
 73
0
 40
0.0
  0
LTYPE
  5
16
100
AcDbSymbolTableRecord
100
AcDbLinetypeTableRecord
  2
CONTINUOUS
 70
64
  3
Solid line
 72
65
 73
0
 40
0.0
  0
LTYPE
  5
1F5
100
AcDbSymbolTableRecord
100
AcDbLinetypeTableRecord
  2
CENTER
 70
64
  3
____ _ ____ _ ____ _ ____ _ ____ _ ____ _ ____
 72
65
 73
4
 40
0.6
 49
0.375
 74
0
 49
-0.075
 74
0
 49
0.075
 74
0
 49
-0.075
 74
0
  0
LTYPE
  5
1F6
100
AcDbSymbolTableRecord
100
AcDbLinetypeTableRecord
  2
HIDDEN
 70
64
  3
- - - - - - - - - - - - - - - - - - - -
 72
65
 73
2
 40
0.2
 49
0.1
 74
0
 49
-0.1
 74
0
  0
LTYPE
  5
1F7
100
AcDbSymbolTableRecord
100
AcDbLinetypeTableRecord
  2
PHANTOM
 70
64
  3
_____ _ _ _____ _ _ _____ _ _ _____
 72
65
 73
6
 40
0.8
 49
0.45
 74
0
 49
-0.05
 74
0
 49
0.1
 74
0
 49
-0.05
 74
0
 49
0.1
 74
0
 49
-0.05
 74
0
  0
LTYPE
  5
1F8
100
AcDbSymbolTableRecord
100
AcDbLinetypeTableRecord
  2
DOT
 70
64
  3
. . . . . . . . . . . . . . . . . . . .
 72
65
 73
2
 40
0.2
 49
0.1
 74
0
 49
-0.1
 74
0
  0
LTYPE
  5
1F9
100
AcDbSymbolTableRecord
100
AcDbLinetypeTableRecord
  2
DASHED
 70
64
  3
- - - - - - - - - - - - - - - - - - - -
 72
65
 73
2
 40
0.2
 49
0.1
 74
0
 49
-0.1
 74
0
  0
ENDTAB
  0
TABLE
  2
LAYER
  5
2
100
AcDbSymbolTable
 70
36
  0
LAYER
  5
10
100
AcDbSymbolTableRecord
100
AcDbLayerTableRecord
  2
0
 70
0
 62
7
  6
CONTINUOUS
370
-3
390
F
  0
LAYER
  5
1FA
100
AcDbSymbolTableRecord
100
AcDbLayerTableRecord
  2
DEFAULT_1
 70
0
 62
7
  6
CENTER
370
-3
390
F
  0
LAYER
  5
1FB
100
AcDbSymbolTableRecord
100
AcDbLayerTableRecord
  2
DEFAULT_2
 70
0
 62
8
  6
HIDDEN
370
-3
390
F
  0
LAYER
  5
1FC
100
AcDbSymbolTableRecord
100
AcDbLayerTableRecord
  2
DEFAULT_3
 70
0
 62
7
  6
PHANTOM
370
-3
390
F
  0
LAYER
  5
1FD
100
AcDbSymbolTableRecord
100
AcDbLayerTableRecord
  2
ALL_ASSEMBLY_MEMBERS
 70
0
 62
7
  6
CONTINUOUS
370
-3
390
F
  0
LAYER
  5
1FE
100
AcDbSymbolTableRecord
100
AcDbLayerTableRecord
  2
ALL_FEATURES
 70
0
 62
7
  6
CONTINUOUS
370
-3
390
F
  0
LAYER
  5
1FF
100
AcDbSymbolTableRecord
100
AcDbLayerTableRecord
  2
AXES_FEATURES
 70
0
 62
7
  6
CONTINUOUS
370
-3
390
F
  0
LAYER
  5
200
100
AcDbSymbolTableRecord
100
AcDbLayerTableRecord
  2
CHAMFER_FEATURES
 70
0
 62
7
  6
CONTINUOUS
370
-3
390
F
  0
LAYER
  5
201
100
AcDbSymbolTableRecord
100
AcDbLayerTableRecord
  2
CUT_FEATURES
 70
0
 62
7
  6
CONTINUOUS
370
-3
390
F
  0
LAYER
  5
202
100
AcDbSymbolTableRecord
100
AcDbLayerTableRecord
  2
DATUM_CURVES
 70
0
 62
7
  6
CONTINUOUS
370
-3
390
F
  0
LAYER
  5
203
100
AcDbSymbolTableRecord
100
AcDbLayerTableRecord
  2
DATUM_PLANES
 70
0
 62
7
  6
CONTINUOUS
370
-3
390
F
  0
LAYER
  5
204
100
AcDbSymbolTableRecord
100
AcDbLayerTableRecord
  2
DATUM_POINTS
 70
0
 62
7
  6
CONTINUOUS
370
-3
390
F
  0
LAYER
  5
205
100
AcDbSymbolTableRecord
100
AcDbLayerTableRecord
  2
DEFAULT_COORDINATE_SYSTEM
 70
0
 62
7
  6
CONTINUOUS
370
-3
390
F
  0
LAYER
  5
206
100
AcDbSymbolTableRecord
100
AcDbLayerTableRecord
  2
DEFAULT_DATUM_AXES
 70
0
 62
7
  6
CONTINUOUS
370
-3
390
F
  0
LAYER
  5
207
100
AcDbSymbolTableRecord
100
AcDbLayerTableRecord
  2
DEFAULT_DATUM_CURVES
 70
0
 62
7
  6
CONTINUOUS
370
-3
390
F
  0
LAYER
  5
208
100
AcDbSymbolTableRecord
100
AcDbLayerTableRecord
  2
DEFAULT_DATUM_PLANES
 70
0
 62
7
  6
CONTINUOUS
370
-3
390
F
  0
LAYER
  5
209
100
AcDbSymbolTableRecord
100
AcDbLayerTableRecord
  2
DEFAULT_SURFACES
 70
0
 62
7
  6
CONTINUOUS
370
-3
390
F
  0
LAYER
  5
20A
100
AcDbSymbolTableRecord
100
AcDbLayerTableRecord
  2
DIMENSIONS
 70
0
 62
7
  6
CONTINUOUS
370
-3
390
F
  0
LAYER
  5
20B
100
AcDbSymbolTableRecord
100
AcDbLayerTableRecord
  2
HOLE_FEATURES
 70
0
 62
7
  6
CONTINUOUS
370
-3
390
F
  0
LAYER
  5
20C
100
AcDbSymbolTableRecord
100
AcDbLayerTableRecord
  2
NOTES
 70
0
 62
7
  6
CONTINUOUS
370
-3
390
F
  0
LAYER
  5
20D
100
AcDbSymbolTableRecord
100
AcDbLayerTableRecord
  2
PART_REFERENCE_DIMENSIONS
 70
0
 62
7
  6
CONTINUOUS
370
-3
390
F
  0
LAYER
  5
20E
100
AcDbSymbolTableRecord
100
AcDbLayerTableRecord
  2
PLATED_SURFACE_AREA
 70
0
 62
7
  6
CONTINUOUS
370
-3
390
F
  0
LAYER
  5
20F
100
AcDbSymbolTableRecord
100
AcDbLayerTableRecord
  2
PLATING_AREA
 70
0
 62
7
  6
CONTINUOUS
370
-3
390
F
  0
LAYER
  5
210
100
AcDbSymbolTableRecord
100
AcDbLayerTableRecord
  2
POINTS
 70
0
 62
7
  6
CONTINUOUS
370
-3
390
F
  0
LAYER
  5
211
100
AcDbSymbolTableRecord
100
AcDbLayerTableRecord
  2
PROTRUSION_FEATURES
 70
0
 62
7
  6
CONTINUOUS
370
-3
390
F
  0
LAYER
  5
212
100
AcDbSymbolTableRecord
100
AcDbLayerTableRecord
  2
QUILT
 70
0
 62
7
  6
CONTINUOUS
370
-3
390
F
  0
LAYER
  5
213
100
AcDbSymbolTableRecord
100
AcDbLayerTableRecord
  2
QUILT1
 70
0
 62
7
  6
CONTINUOUS
370
-3
390
F
  0
LAYER
  5
214
100
AcDbSymbolTableRecord
100
AcDbLayerTableRecord
  2
QUILTS
 70
0
 62
7
  6
CONTINUOUS
370
-3
390
F
  0
LAYER
  5
215
100
AcDbSymbolTableRecord
100
AcDbLayerTableRecord
  2
REFERENCE_DIMENSIONS
 70
0
 62
7
  6
CONTINUOUS
370
-3
390
F
  0
LAYER
  5
216
100
AcDbSymbolTableRecord
100
AcDbLayerTableRecord
  2
ROUND_FEATURES
 70
0
 62
7
  6
CONTINUOUS
370
-3
390
F
  0
LAYER
  5
217
100
AcDbSymbolTableRecord
100
AcDbLayerTableRecord
  2
SHELL_FEATURES
 70
0
 62
7
  6
CONTINUOUS
370
-3
390
F
  0
LAYER
  5
218
100
AcDbSymbolTableRecord
100
AcDbLayerTableRecord
  2
SIZE_REF
 70
0
 62
7
  6
CONTINUOUS
370
-3
390
F
  0
LAYER
  5
219
100
AcDbSymbolTableRecord
100
AcDbLayerTableRecord
  2
THREADS
 70
0
 62
7
  6
CONTINUOUS
370
-3
390
F
  0
ENDTAB
  0
TABLE
  2
STYLE
  5
3
100
AcDbSymbolTable
 70
1
  0
STYLE
  5
11
100
AcDbSymbolTableRecord
100
AcDbTextStyleTableRecord
  2
STANDARD
 70
0
 40
0.0
 41
0.8
 50
0.0
 71
0
 42
0.2
  3
txt
  4

  0
STYLE
  5
21A
100
AcDbSymbolTableRecord
100
AcDbTextStyleTableRecord
  2
TEXTSTYLE_1
 70
0
 40
0.0
 41
0.8
 50
0.0
 71
0
 42
0.2
  3
gdt
  4

  0
ENDTAB
  0
TABLE
  2
VIEW
  5
6
100
AcDbSymbolTable
 70
0
  0
ENDTAB
  0
TABLE
  2
UCS
  5
7
100
AcDbSymbolTable
 70
0
  0
ENDTAB
  0
TABLE
  2
APPID
  5
9
100
AcDbSymbolTable
 70
1
  0
APPID
  5
21B
100
AcDbSymbolTableRecord
100
AcDbRegAppTableRecord
  2
ACAD
 70
0
  0
ENDTAB
  0
TABLE
  2
BLOCK_RECORD
  5
1
100
AcDbSymbolTable
 70
0
  0
BLOCK_RECORD
  5
21C
100
AcDbSymbolTableRecord
100
AcDbBlockTableRecord
  2
*Model_Space
  0
BLOCK_RECORD
  5
21D
100
AcDbSymbolTableRecord
100
AcDbBlockTableRecord
  2
*Paper_Space
  0
BLOCK_RECORD
  5
21E
100
AcDbSymbolTableRecord
100
AcDbBlockTableRecord
  2
_FILLED
  0
ENDTAB
  0
TABLE
  2
DIMSTYLE
  5
A
100
AcDbSymbolTable
 70
1
100
AcDbDimStyleTable
 71
0
  0
DIMSTYLE
105
21F
100
AcDbSymbolTableRecord
100
AcDbDimStyleTableRecord
  2
STANDARD
 70
0
  3

  4

 40
1.0
 41
0.1
 42
0.0625
 43
0.38
 44
0.125
 45
0.0
 46
0.0
 47
0.01
 48
0.01
140
0.08
141
0.09
142
0.0
143
25.4
144
1.0
145
0.0
146
1.0
147
0.09
 71
1.0
 72
0.0
 73
1
 74
1
 75
0
 76
0
 77
0
 78
4
 79
1
170
1
171
1
172
0
173
0
174
0
175
0
176
0
177
0
178
0
270
2
179
2
271
2
272
2
273
2
274
2
275
0
280
0
281
0
282
0
283
1
284
4
285
0
286
0
287
3
288
0
340
11
278
46
341
21E
342
21E
343
21E
344
21E
  0
ENDTAB
  0
ENDSEC
  0
SECTION
  2
BLOCKS
  0
BLOCK
  5
20
100
AcDbEntity
  8
0
100
AcDbBlockBegin
  2
*Model_Space
 70
0
 10
0.0
 20
0.0
 30
0.0
  3
*Model_Space
  1

  0
ENDBLK
  5
21
100
AcDbEntity
  8
0
100
AcDbBlockEnd
  0
BLOCK
  5
1C
100
AcDbEntity
  8
0
100
AcDbBlockBegin
  2
*Paper_Space
 70
0
 10
0.0
 20
0.0
 30
0.0
  3
*Paper_Space
  1

  0
ENDBLK
  5
1D
100
AcDbEntity
  8
0
100
AcDbBlockEnd
  0
BLOCK
  5
220
100
AcDbEntity
  8
0
100
AcDbBlockBegin
  2
_FILLED
 70
64
 10
0.0
 20
0.0
  3
_FILLED
  1

  0
SOLID
  5
221
100
AcDbEntity
  8
0
  6
BYBLOCK
 62
0
100
AcDbTrace
 10
0.0
 20
0.0
 11
-1.0
 21
0.2
 12
-1.0
 22
-0.2
 13
-1.0
 23
-0.2
  0
ENDBLK
  5
222
100
AcDbEntity
  8
0
  6
BYBLOCK
 62
0
100
AcDbBlockEnd
  0
ENDSEC
  0
SECTION
  2
ENTITIES
  0
MTEXT
  5
223
100
AcDbEntity
  8
0
100
AcDbMText
 62
2
  6
CONTINUOUS
  7
STANDARD
 71
3
 72
1
 10
7.4816674017
 20
0.3825786282
 30
0.0
 11
1.0
 21
0.0
 31
0.0
 73
2
 44
0.9
  1
SCALE  .250
 40
0.08
 41
0.704
  0
LINE
  5
224
100
AcDbEntity
  8
0
100
AcDbLine
 62
7
  6
CONTINUOUS
 10
0.0
 20
0.0
 11
0.0
 21
8.5
  0
LINE
  5
225
100
AcDbEntity
  8
0
100
AcDbLine
 62
7
  6
CONTINUOUS
 10
0.0
 20
0.0
 11
11.0
 21
0.0
  0
LINE
  5
226
100
AcDbEntity
  8
0
100
AcDbLine
 62
7
  6
CONTINUOUS
 10
0.0
 20
8.5
 11
11.0
 21
8.5
  0
LINE
  5
227
100
AcDbEntity
  8
0
100
AcDbLine
 62
7
  6
CONTINUOUS
 10
11.0
 20
0.0
 11
11.0
 21
8.5
  0
LINE
  5
228
100
AcDbEntity
  8
ALL_FEATURES
100
AcDbLine
 62
7
  6
CONTINUOUS
 10
6.9128764878
 20
0.7890393024
 11
7.662872389
 21
0.7890393024
  0
LINE
  5
229
100
AcDbEntity
  8
ALL_FEATURES
100
AcDbLine
 62
7
  6
CONTINUOUS
 10
6.9128744384
 20
1.1015393024
 11
7.6628744384
 21
1.1015393024
  0
LINE
  5
22A
100
AcDbEntity
  8
ALL_FEATURES
100
AcDbLine
 62
7
  6
CONTINUOUS
 10
7.0378755934
 20
1.2265393024
 11
7.5378732834
 21
1.2265393024
  0
LINE
  5
22B
100
AcDbEntity
  8
ALL_ASSEMBLY_MEMBERS
100
AcDbLine
 62
7
  6
CONTINUOUS
 10
2.4359753039
 20
2.2830106835
 11
2.4357086059
 21
2.2831697666
  0
LINE
  5
22C
100
AcDbEntity
  8
0
100
AcDbLine
 62
7
  6
CONTINUOUS
 10
1.9870063281
 20
2.0725393024
 11
1.9870063281
 21
2.0925393024
  0
LINE
  5
22D
100
AcDbEntity
  8
ALL_FEATURES
100
AcDbLine
 62
7
  6
CONTINUOUS
 10
1.9920063281
 20
2.0925393024
 11
1.9920063281
 21
2.1225393024
  0
LINE
  5
22E
100
AcDbEntity
  8
0
100
AcDbLine
 62
7
  6
CONTINUOUS
 10
2.0557563281
 20
1.5815014195
 11
2.0557563281
 21
2.0475311371
  0
LINE
  5
22F
100
AcDbEntity
  8
0
100
AcDbLine
 62
7
  6
CONTINUOUS
 10
2.0695063281
 20
1.5677514183
 11
2.0695063281
 21
1.5679603117
  0
LINE
  5
230
100
AcDbEntity
  8
ALL_FEATURES
100
AcDbLine
 62
7
  6
CONTINUOUS
 10
7.0880206084
 20
1.3579394473
 11
7.4879548916
 21
1.3579394473
  0
LINE
  5
231
100
AcDbEntity
  8
ALL_FEATURES
100
AcDbLine
 62
7
  6
CONTINUOUS
 10
7.0464095856
 20
1.3686943702
 11
7.5293392911
 21
1.3686943702
  0
LINE
  5
232
100
AcDbEntity
  8
ALL_FEATURES
100
AcDbLine
 62
7
  6
CONTINUOUS
 10
7.0995544184
 20
1.3959903544
 11
7.0416244384
 21
1.3959903544
  0
LINE
  5
233
100
AcDbEntity
  8
ALL_FEATURES
100
AcDbLine
 62
7
  6
CONTINUOUS
 10
7.2299444583
 20
1.3959903544
 11
7.3458044184
 21
1.3959903544
  0
LINE
  5
234
100
AcDbEntity
  8
ALL_FEATURES
100
AcDbLine
 62
7
  6
CONTINUOUS
 10
7.4761944583
 20
1.3959903544
 11
7.5341244384
 21
1.3959903544
  0
LINE
  5
235
100
AcDbEntity
  8
ALL_FEATURES
100
AcDbLine
 62
7
  6
CONTINUOUS
 10
7.0995544184
 20
1.4343466067
 11
7.0416244384
 21
1.4343466067
  0
LINE
  5
236
100
AcDbEntity
  8
ALL_FEATURES
100
AcDbLine
 62
7
  6
CONTINUOUS
 10
7.2299444583
 20
1.4343466067
 11
7.3458044184
 21
1.4343466067
  0
LINE
  5
237
100
AcDbEntity
  8
ALL_FEATURES
100
AcDbLine
 62
7
  6
CONTINUOUS
 10
7.4761944583
 20
1.4343466067
 11
7.5341244384
 21
1.4343466067
  0
LINE
  5
238
100
AcDbEntity
  8
ALL_FEATURES
100
AcDbLine
 62
7
  6
CONTINUOUS
 10
7.0453744384
 20
1.4610393024
 11
7.5303744384
 21
1.4610393024
  0
LINE
  5
239
100
AcDbEntity
  8
ALL_FEATURES
100
AcDbLine
 62
7
  6
CONTINUOUS
 10
7.0453744384
 20
1.4910393024
 11
7.5303744384
 21
1.4910393024
  0
LINE
  5
23A
100
AcDbEntity
  8
ALL_FEATURES
100
AcDbLine
 62
7
  6
CONTINUOUS
 10
6.74831391
 20
1.5337893024
 11
6.8346932467
 21
1.5337893024
  0
LINE
  5
23B
100
AcDbEntity
  8
ALL_FEATURES
100
AcDbLine
 62
7
  6
CONTINUOUS
 10
6.8373744384
 20
1.5375393024
 11
6.8673744384
 21
1.5375393024
  0
LINE
  5
23C
100
AcDbEntity
  8
0
100
AcDbLine
 62
7
  6
CONTINUOUS
 10
7.0803744384
 20
1.5440393024
 11
7.4953744384
 21
1.5440393024
  0
LINE
  5
23D
100
AcDbEntity
  8
0
100
AcDbLine
 62
7
  6
CONTINUOUS
 10
2.5920063281
 20
1.5677514183
 11
2.0695063281
 21
1.5677514183
  0
LINE
  5
23E
100
AcDbEntity
  8
0
100
AcDbLine
 62
7
  6
CONTINUOUS
 10
2.5920088947
 20
1.5679603117
 11
2.0695009768
 21
1.5679603117
  0
LINE
  5
23F
100
AcDbEntity
  8
0
100
AcDbLine
 62
7
  6
CONTINUOUS
 10
7.079508413
 20
1.5725393024
 11
6.8698744384
 21
1.5725393024
  0
LINE
  5
240
100
AcDbEntity
  8
0
100
AcDbLine
 62
7
  6
CONTINUOUS
 10
2.6041431959
 20
1.5750393024
 11
2.6857563281
 21
1.5750393024
  0
LINE
  5
241
100
AcDbEntity
  8
0
100
AcDbLine
 62
7
  6
CONTINUOUS
 10
7.1226073707
 20
1.5851755091
 11
7.4716244384
 21
1.5851755091
  0
LINE
  5
242
100
AcDbEntity
  8
ALL_FEATURES
100
AcDbLine
 62
7
  6
CONTINUOUS
 10
6.7723254904
 20
1.5917192824
 11
6.8106817428
 21
1.5917192824
  0
LINE
  5
243
100
AcDbEntity
  8
0
100
AcDbLine
 62
7
  6
CONTINUOUS
 10
6.7342745833
 20
1.5925393024
 11
2.6857563281
 21
1.5925393024
  0
LINE
  5
244
100
AcDbEntity
  8
0
100
AcDbLine
 62
7
  6
CONTINUOUS
 10
2.6041431959
 20
1.5750393024
 11
2.6040912532
 21
1.5750424709
  0
LINE
  5
245
100
AcDbEntity
  8
ALL_ASSEMBLY_MEMBERS
100
AcDbLine
 62
7
  6
CONTINUOUS
 10
2.2247887661
 20
2.2392227723
 11
2.2247357138
 21
2.2392371649
  0
LINE
  5
246
100
AcDbEntity
  8
ALL_ASSEMBLY_MEMBERS
100
AcDbLine
 62
7
  6
CONTINUOUS
 10
2.2247316943
 20
2.2392388054
 11
2.2247887661
 21
2.2392227723
  0
LINE
  5
247
100
AcDbEntity
  8
ALL_ASSEMBLY_MEMBERS
100
AcDbLine
 62
7
  6
CONTINUOUS
 10
2.4357086059
 20
2.2831697666
 11
2.4360238023
 21
2.2830280999
  0
LINE
  5
248
100
AcDbEntity
  8
ALL_ASSEMBLY_MEMBERS
100
AcDbLine
 62
7
  6
CONTINUOUS
 10
2.4357086059
 20
2.2831697666
 11
2.4360238132
 21
2.2830281376
  0
LINE
  5
249
100
AcDbEntity
  8
ALL_ASSEMBLY_MEMBERS
100
AcDbLine
 62
7
  6
CONTINUOUS
 10
2.4374727574
 20
2.2823662583
 11
2.4378263081
 21
2.282202041
  0
LINE
  5
24A
100
AcDbEntity
  8
ALL_ASSEMBLY_MEMBERS
100
AcDbLine
 62
7
  6
CONTINUOUS
 10
2.4374727554
 20
2.2823662515
 11
2.4378263081
 21
2.282202041
  0
LINE
  5
24B
100
AcDbEntity
  8
ALL_ASSEMBLY_MEMBERS
100
AcDbLine
 62
7
  6
CONTINUOUS
 10
2.436542351
 20
2.2831697666
 11
2.436874049
 21
2.283010784
  0
LINE
  5
24C
100
AcDbEntity
  8
ALL_ASSEMBLY_MEMBERS
100
AcDbLine
 62
7
  6
CONTINUOUS
 10
2.4383444859
 20
2.2822930935
 11
2.4385283198
 21
2.282202041
  0
LINE
  5
24D
100
AcDbEntity
  8
ALL_ASSEMBLY_MEMBERS
100
AcDbLine
 62
7
  6
CONTINUOUS
 10
2.4368359952
 20
2.2830106835
 11
2.436542351
 21
2.2831697666
  0
LINE
  5
24E
100
AcDbEntity
  8
ALL_ASSEMBLY_MEMBERS
100
AcDbLine
 62
7
  6
CONTINUOUS
 10
2.2228813284
 20
2.282202041
 11
2.2228813284
 21
2.239702041
  0
LINE
  5
24F
100
AcDbEntity
  8
ALL_ASSEMBLY_MEMBERS
100
AcDbLine
 62
7
  6
CONTINUOUS
 10
2.2229467749
 20
2.282202041
 11
2.2229467749
 21
2.239702041
  0
LINE
  5
250
100
AcDbEntity
  8
ALL_ASSEMBLY_MEMBERS
100
AcDbLine
 62
7
  6
CONTINUOUS
 10
2.2232144736
 20
2.282202041
 11
2.2232144736
 21
2.239702041
  0
LINE
  5
251
100
AcDbEntity
  8
ALL_ASSEMBLY_MEMBERS
100
AcDbLine
 62
7
  6
CONTINUOUS
 10
2.2235738951
 20
2.282202041
 11
2.2235738951
 21
2.239702041
  0
LINE
  5
252
100
AcDbEntity
  8
ALL_ASSEMBLY_MEMBERS
100
AcDbLine
 62
7
  6
CONTINUOUS
 10
2.22421065
 20
2.282202041
 11
2.22421065
 21
2.239702041
  0
LINE
  5
253
100
AcDbEntity
  8
ALL_ASSEMBLY_MEMBERS
100
AcDbLine
 62
7
  6
CONTINUOUS
 10
2.2248618307
 20
2.282202041
 11
2.2248618307
 21
2.239702041
  0
LINE
  5
254
100
AcDbEntity
  8
ALL_ASSEMBLY_MEMBERS
100
AcDbLine
 62
7
  6
CONTINUOUS
 10
2.225863716
 20
2.282202041
 11
2.225863716
 21
2.239702041
  0
LINE
  5
255
100
AcDbEntity
  8
ALL_ASSEMBLY_MEMBERS
100
AcDbLine
 62
7
  6
CONTINUOUS
 10
2.226802641
 20
2.282202041
 11
2.226802641
 21
2.239702041
  0
LINE
  5
256
100
AcDbEntity
  8
ALL_ASSEMBLY_MEMBERS
100
AcDbLine
 62
7
  6
CONTINUOUS
 10
2.2281634798
 20
2.282202041
 11
2.2281634798
 21
2.239702041
  0
LINE
  5
257
100
AcDbEntity
  8
ALL_ASSEMBLY_MEMBERS
100
AcDbLine
 62
7
  6
CONTINUOUS
 10
2.2293843604
 20
2.282202041
 11
2.2293843604
 21
2.239702041
  0
LINE
  5
258
100
AcDbEntity
  8
ALL_ASSEMBLY_MEMBERS
100
AcDbLine
 62
7
  6
CONTINUOUS
 10
2.2310957627
 20
2.282202041
 11
2.2310957627
 21
2.239702041
  0
LINE
  5
259
100
AcDbEntity
  8
ALL_ASSEMBLY_MEMBERS
100
AcDbLine
 62
7
  6
CONTINUOUS
 10
2.2325063281
 20
2.1672061253
 11
2.2325063281
 21
2.1634561253
  0
LINE
  5
25A
100
AcDbEntity
  8
ALL_ASSEMBLY_MEMBERS
100
AcDbLine
 62
7
  6
CONTINUOUS
 10
2.2325910717
 20
2.282202041
 11
2.2325910717
 21
2.239702041
  0
LINE
  5
25B
100
AcDbEntity
  8
ALL_ASSEMBLY_MEMBERS
100
AcDbLine
 62
7
  6
CONTINUOUS
 10
2.234642486
 20
2.282202041
 11
2.234642486
 21
2.239702041
  0
LINE
  5
25C
100
AcDbEntity
  8
ALL_ASSEMBLY_MEMBERS
100
AcDbLine
 62
7
  6
CONTINUOUS
 10
2.2364030044
 20
2.282202041
 11
2.2364030044
 21
2.239702041
  0
LINE
  5
25D
100
AcDbEntity
  8
ALL_ASSEMBLY_MEMBERS
100
AcDbLine
 62
7
  6
CONTINUOUS
 10
2.2387817832
 20
2.282202041
 11
2.2387817832
 21
2.239702041
  0
LINE
  5
25E
100
AcDbEntity
  8
ALL_ASSEMBLY_MEMBERS
100
AcDbLine
 62
7
  6
CONTINUOUS
 10
2.2407966567
 20
2.282202041
 11
2.2407966567
 21
2.239702041
  0
LINE
  5
25F
100
AcDbEntity
  8
ALL_ASSEMBLY_MEMBERS
100
AcDbLine
 62
7
  6
CONTINUOUS
 10
2.243488134
 20
2.282202041
 11
2.243488134
 21
2.239702041
  0
LINE
  5
260
100
AcDbEntity
  8
ALL_ASSEMBLY_MEMBERS
100
AcDbLine
 62
7
  6
CONTINUOUS
 10
2.2457449403
 20
2.282202041
 11
2.2457449403
 21
2.239702041
  0
LINE
  5
261
100
AcDbEntity
  8
ALL_ASSEMBLY_MEMBERS
100
AcDbLine
 62
7
  6
CONTINUOUS
 10
2.2487325223
 20
2.282202041
 11
2.2487325223
 21
2.239702041
  0
LINE
  5
262
100
AcDbEntity
  8
ALL_ASSEMBLY_MEMBERS
100
AcDbLine
 62
7
  6
CONTINUOUS
 10
2.2512173474
 20
2.282202041
 11
2.2512173474
 21
2.239702041
  0
LINE
  5
263
100
AcDbEntity
  8
ALL_ASSEMBLY_MEMBERS
100
AcDbLine
 62
7
  6
CONTINUOUS
 10
2.2517563281
 20
2.1634561253
 11
2.2517563281
 21
2.163050193
  0
LINE
  5
264
100
AcDbEntity
  8
ALL_ASSEMBLY_MEMBERS
100
AcDbLine
 62
7
  6
CONTINUOUS
 10
2.2544826146
 20
2.282202041
 11
2.2544826146
 21
2.239702041
  0
LINE
  5
265
100
AcDbEntity
  8
ALL_ASSEMBLY_MEMBERS
100
AcDbLine
 62
7
  6
CONTINUOUS
 10
2.2571338611
 20
2.2831697666
 11
2.2571338611
 21
2.2392227723
  0
LINE
  5
266
100
AcDbEntity
  8
ALL_ASSEMBLY_MEMBERS
100
AcDbLine
 62
7
  6
CONTINUOUS
 10
2.2571801388
 20
2.282202041
 11
2.2571801388
 21
2.239702041
  0
LINE
  5
267
100
AcDbEntity
  8
ALL_ASSEMBLY_MEMBERS
100
AcDbLine
 62
7
  6
CONTINUOUS
 10
2.2607029597
 20
2.282202041
 11
2.2607029597
 21
2.239702041
  0
LINE
  5
268
100
AcDbEntity
  8
ALL_ASSEMBLY_MEMBERS
100
AcDbLine
 62
7
  6
CONTINUOUS
 10
2.2633424024
 20
2.2831697666
 11
2.2633424024
 21
2.2392227723
  0
LINE
  5
269
100
AcDbEntity
  8
ALL_ASSEMBLY_MEMBERS
100
AcDbLine
 62
7
  6
CONTINUOUS
 10
2.2635965518
 20
2.282202041
 11
2.2635965518
 21
2.239702041
  0
LINE
  5
26A
100
AcDbEntity
  8
ALL_ASSEMBLY_MEMBERS
100
AcDbLine
 62
7
  6
CONTINUOUS
 10
2.2673552071
 20
2.282202041
 11
2.2673552071
 21
2.239702041
  0
LINE
  5
26B
100
AcDbEntity
  8
ALL_ASSEMBLY_MEMBERS
100
AcDbLine
 62
7
  6
CONTINUOUS
 10
2.269966573
 20
2.2831697666
 11
2.269966573
 21
2.2392227723
  0
LINE
  5
26C
100
AcDbEntity
  8
ALL_ASSEMBLY_MEMBERS
100
AcDbLine
 62
7
  6
CONTINUOUS
 10
2.2704270272
 20
2.282202041
 11
2.2704270272
 21
2.239702041
  0
LINE
  5
26D
100
AcDbEntity
  8
ALL_ASSEMBLY_MEMBERS
100
AcDbLine
 62
7
  6
CONTINUOUS
 10
2.2743983435
 20
2.282202041
 11
2.2743983435
 21
2.239702041
  0
LINE
  5
26E
100
AcDbEntity
  8
ALL_ASSEMBLY_MEMBERS
100
AcDbLine
 62
7
  6
CONTINUOUS
 10
2.2769655326
 20
2.2831697666
 11
2.2769655326
 21
2.2392227723
  0
LINE
  5
26F
100
AcDbEntity
  8
ALL_ASSEMBLY_MEMBERS
100
AcDbLine
 62
7
  6
CONTINUOUS
 10
2.2776294528
 20
2.282202041
 11
2.2776294528
 21
2.239702041
  0
LINE
  5
270
100
AcDbEntity
  8
ALL_ASSEMBLY_MEMBERS
100
AcDbLine
 62
7
  6
CONTINUOUS
 10
2.2817889456
 20
2.282202041
 11
2.2817889456
 21
2.239702041
  0
LINE
  5
271
100
AcDbEntity
  8
ALL_ASSEMBLY_MEMBERS
100
AcDbLine
 62
7
  6
CONTINUOUS
 10
2.2842961303
 20
2.2831697666
 11
2.2842961303
 21
2.2392227723
  0
LINE
  5
272
100
AcDbEntity
  8
ALL_ASSEMBLY_MEMBERS
100
AcDbLine
 62
7
  6
CONTINUOUS
 10
2.2851594233
 20
2.282202041
 11
2.2851594233
 21
2.239702041
  0
LINE
  5
273
100
AcDbEntity
  8
ALL_ASSEMBLY_MEMBERS
100
AcDbLine
 62
7
  6
CONTINUOUS
 10
2.2894814479
 20
2.282202041
 11
2.2894814479
 21
2.239702041
  0
LINE
  5
274
100
AcDbEntity
  8
ALL_ASSEMBLY_MEMBERS
100
AcDbLine
 62
7
  6
CONTINUOUS
 10
2.2919131707
 20
2.2831697666
 11
2.2919131707
 21
2.2392227723
  0
LINE
  5
275
100
AcDbEntity
  8
ALL_ASSEMBLY_MEMBERS
100
AcDbLine
 62
7
  6
CONTINUOUS
 10
2.2929705138
 20
2.282202041
 11
2.2929705138
 21
2.239702041
  0
LINE
  5
276
100
AcDbEntity
  8
ALL_ASSEMBLY_MEMBERS
100
AcDbLine
 62
7
  6
CONTINUOUS
 10
2.2974284236
 20
2.282202041
 11
2.2974284236
 21
2.239702041
  0
LINE
  5
277
100
AcDbEntity
  8
ALL_ASSEMBLY_MEMBERS
100
AcDbLine
 62
7
  6
CONTINUOUS
 10
2.299769692
 20
2.2831697666
 11
2.299769692
 21
2.2392227723
  0
LINE
  5
278
100
AcDbEntity
  8
ALL_ASSEMBLY_MEMBERS
100
AcDbLine
 62
7
  6
CONTINUOUS
 10
2.3010145664
 20
2.282202041
 11
2.3010145664
 21
2.239702041
  0
LINE
  5
279
100
AcDbEntity
  8
ALL_ASSEMBLY_MEMBERS
100
AcDbLine
 62
7
  6
CONTINUOUS
 10
2.3055808769
 20
2.282202041
 11
2.3055808769
 21
2.239702041
  0
LINE
  5
27A
100
AcDbEntity
  8
ALL_ASSEMBLY_MEMBERS
100
AcDbLine
 62
7
  6
CONTINUOUS
 10
2.3078172562
 20
2.2831697666
 11
2.3078172562
 21
2.2392227723
  0
LINE
  5
27B
100
AcDbEntity
  8
ALL_ASSEMBLY_MEMBERS
100
AcDbLine
 62
7
  6
CONTINUOUS
 10
2.3092419869
 20
2.282202041
 11
2.3092419869
 21
2.239702041
  0
LINE
  5
27C
100
AcDbEntity
  8
ALL_ASSEMBLY_MEMBERS
100
AcDbLine
 62
7
  6
CONTINUOUS
 10
2.3138885452
 20
2.282202041
 11
2.3138885452
 21
2.239702041
  0
LINE
  5
27D
100
AcDbEntity
  8
ALL_ASSEMBLY_MEMBERS
100
AcDbLine
 62
7
  6
CONTINUOUS
 10
2.3160062474
 20
2.2831697666
 11
2.3160062474
 21
2.2392227723
  0
LINE
  5
27E
100
AcDbEntity
  8
ALL_ASSEMBLY_MEMBERS
100
AcDbLine
 62
7
  6
CONTINUOUS
 10
2.3176020505
 20
2.282202041
 11
2.3176020505
 21
2.239702041
  0
LINE
  5
27F
100
AcDbEntity
  8
ALL_ASSEMBLY_MEMBERS
100
AcDbLine
 62
7
  6
CONTINUOUS
 10
2.3223002091
 20
2.282202041
 11
2.3223002091
 21
2.239702041
  0
LINE
  5
280
100
AcDbEntity
  8
ALL_ASSEMBLY_MEMBERS
100
AcDbLine
 62
7
  6
CONTINUOUS
 10
2.3242861778
 20
2.2831697666
 11
2.3242861778
 21
2.2392227723
  0
LINE
  5
281
100
AcDbEntity
  8
ALL_ASSEMBLY_MEMBERS
100
AcDbLine
 62
7
  6
CONTINUOUS
 10
2.3260432145
 20
2.282202041
 11
2.3260432145
 21
2.239702041
  0
LINE
  5
282
100
AcDbEntity
  8
ALL_ASSEMBLY_MEMBERS
100
AcDbLine
 62
7
  6
CONTINUOUS
 10
2.3307640077
 20
2.282202041
 11
2.3307640077
 21
2.239702041
  0
LINE
  5
283
100
AcDbEntity
  8
ALL_ASSEMBLY_MEMBERS
100
AcDbLine
 62
7
  6
CONTINUOUS
 10
2.3326059988
 20
2.2831697666
 11
2.3326059988
 21
2.2392227723
  0
LINE
  5
284
100
AcDbEntity
  8
ALL_ASSEMBLY_MEMBERS
100
AcDbLine
 62
7
  6
CONTINUOUS
 10
2.3345134365
 20
2.282202041
 11
2.3345134365
 21
2.239702041
  0
LINE
  5
285
100
AcDbEntity
  8
ALL_ASSEMBLY_MEMBERS
100
AcDbLine
 62
7
  6
CONTINUOUS
 10
2.3392277589
 20
2.282202041
 11
2.3392277589
 21
2.239702041
  0
LINE
  5
286
100
AcDbEntity
  8
ALL_ASSEMBLY_MEMBERS
100
AcDbLine
 62
7
  6
CONTINUOUS
 10
2.340914416
 20
2.2831697666
 11
2.340914416
 21
2.2392227723
  0
LINE
  5
287
100
AcDbEntity
  8
ALL_ASSEMBLY_MEMBERS
100
AcDbLine
 62
7
  6
CONTINUOUS
 10
2.3429604947
 20
2.282202041
 11
2.3429604947
 21
2.239702041
  0
LINE
  5
288
100
AcDbEntity
  8
ALL_ASSEMBLY_MEMBERS
100
AcDbLine
 62
7
  6
CONTINUOUS
 10
2.347639281
 20
2.282202041
 11
2.347639281
 21
2.239702041
  0
LINE
  5
289
100
AcDbEntity
  8
ALL_ASSEMBLY_MEMBERS
100
AcDbLine
 62
7
  6
CONTINUOUS
 10
2.3491602052
 20
2.2831697666
 11
2.3491602052
 21
2.2392227723
  0
LINE
  5
28A
100
AcDbEntity
  8
ALL_ASSEMBLY_MEMBERS
100
AcDbLine
 62
7
  6
CONTINUOUS
 10
2.3513323101
 20
2.282202041
 11
2.3513323101
 21
2.239702041
  0
LINE
  5
28B
100
AcDbEntity
  8
ALL_ASSEMBLY_MEMBERS
100
AcDbLine
 62
7
  6
CONTINUOUS
 10
2.355946714
 20
2.282202041
 11
2.355946714
 21
2.239702041
  0
LINE
  5
28C
100
AcDbEntity
  8
ALL_ASSEMBLY_MEMBERS
100
AcDbLine
 62
7
  6
CONTINUOUS
 10
2.3572925284
 20
2.2831697666
 11
2.3572925284
 21
2.2392227723
  0
LINE
  5
28D
100
AcDbEntity
  8
ALL_ASSEMBLY_MEMBERS
100
AcDbLine
 62
7
  6
CONTINUOUS
 10
2.3595772677
 20
2.282202041
 11
2.3595772677
 21
2.239702041
  0
LINE
  5
28E
100
AcDbEntity
  8
ALL_ASSEMBLY_MEMBERS
100
AcDbLine
 62
7
  6
CONTINUOUS
 10
2.36409884
 20
2.282202041
 11
2.36409884
 21
2.239702041
  0
LINE
  5
28F
100
AcDbEntity
  8
ALL_ASSEMBLY_MEMBERS
100
AcDbLine
 62
7
  6
CONTINUOUS
 10
2.365261247
 20
2.2831697666
 11
2.365261247
 21
2.2392227723
  0
LINE
  5
290
100
AcDbEntity
  8
ALL_ASSEMBLY_MEMBERS
100
AcDbLine
 62
7
  6
CONTINUOUS
 10
2.3676445346
 20
2.282202041
 11
2.3676445346
 21
2.239702041
  0
LINE
  5
291
100
AcDbEntity
  8
ALL_ASSEMBLY_MEMBERS
100
AcDbLine
 62
7
  6
CONTINUOUS
 10
2.3720453982
 20
2.282202041
 11
2.3720453982
 21
2.239702041
  0
LINE
  5
292
100
AcDbEntity
  8
ALL_ASSEMBLY_MEMBERS
100
AcDbLine
 62
7
  6
CONTINUOUS
 10
2.3730172314
 20
2.2831697666
 11
2.3730172314
 21
2.2392227723
  0
LINE
  5
293
100
AcDbEntity
  8
ALL_ASSEMBLY_MEMBERS
100
AcDbLine
 62
7
  6
CONTINUOUS
 10
2.3754843735
 20
2.282202041
 11
2.3754843735
 21
2.239702041
  0
LINE
  5
294
100
AcDbEntity
  8
ALL_ASSEMBLY_MEMBERS
100
AcDbLine
 62
7
  6
CONTINUOUS
 10
2.3797373957
 20
2.282202041
 11
2.3797373957
 21
2.239702041
  0
LINE
  5
295
100
AcDbEntity
  8
ALL_ASSEMBLY_MEMBERS
100
AcDbLine
 62
7
  6
CONTINUOUS
 10
2.3805126632
 20
2.2831697666
 11
2.3805126632
 21
2.2392227723
  0
LINE
  5
296
100
AcDbEntity
  8
ALL_ASSEMBLY_MEMBERS
100
AcDbLine
 62
7
  6
CONTINUOUS
 10
2.3830484491
 20
2.282202041
 11
2.3830484491
 21
2.239702041
  0
LINE
  5
297
100
AcDbEntity
  8
ALL_ASSEMBLY_MEMBERS
100
AcDbLine
 62
7
  6
CONTINUOUS
 10
2.3871274085
 20
2.282202041
 11
2.3871274085
 21
2.239702041
  0
LINE
  5
298
100
AcDbEntity
  8
ALL_ASSEMBLY_MEMBERS
100
AcDbLine
 62
7
  6
CONTINUOUS
 10
2.3877013307
 20
2.2831697666
 11
2.3877013307
 21
2.2392227723
  0
LINE
  5
299
100
AcDbEntity
  8
ALL_ASSEMBLY_MEMBERS
100
AcDbLine
 62
7
  6
CONTINUOUS
 10
2.3902901265
 20
2.282202041
 11
2.3902901265
 21
2.239702041
  0
LINE
  5
29A
100
AcDbEntity
  8
ALL_ASSEMBLY_MEMBERS
100
AcDbLine
 62
7
  6
CONTINUOUS
 10
2.3941698749
 20
2.282202041
 11
2.3941698749
 21
2.239702041
  0
LINE
  5
29B
100
AcDbEntity
  8
ALL_ASSEMBLY_MEMBERS
100
AcDbLine
 62
7
  6
CONTINUOUS
 10
2.3945389133
 20
2.2831697666
 11
2.3945389133
 21
2.2392227723
  0
LINE
  5
29C
100
AcDbEntity
  8
ALL_ASSEMBLY_MEMBERS
100
AcDbLine
 62
7
  6
CONTINUOUS
 10
2.3971647581
 20
2.282202041
 11
2.3971647581
 21
2.239702041
  0
LINE
  5
29D
100
AcDbEntity
  8
ALL_ASSEMBLY_MEMBERS
100
AcDbLine
 62
7
  6
CONTINUOUS
 10
2.4008213757
 20
2.282202041
 11
2.4008213757
 21
2.239702041
  0
LINE
  5
29E
100
AcDbEntity
  8
ALL_ASSEMBLY_MEMBERS
100
AcDbLine
 62
7
  6
CONTINUOUS
 10
2.4009832551
 20
2.2831697666
 11
2.4009832551
 21
2.2392227723
  0
LINE
  5
29F
100
AcDbEntity
  8
ALL_ASSEMBLY_MEMBERS
100
AcDbLine
 62
7
  6
CONTINUOUS
 10
2.4036299597
 20
2.282202041
 11
2.4036299597
 21
2.239702041
  0
LINE
  5
2A0
100
AcDbEntity
  8
ALL_ASSEMBLY_MEMBERS
100
AcDbLine
 62
7
  6
CONTINUOUS
 10
2.4070409022
 20
2.282202041
 11
2.4070409022
 21
2.239702041
  0
LINE
  5
2A1
100
AcDbEntity
  8
ALL_ASSEMBLY_MEMBERS
100
AcDbLine
 62
7
  6
CONTINUOUS
 10
2.4096458711
 20
2.282202041
 11
2.4096458711
 21
2.239702041
  0
LINE
  5
2A2
100
AcDbEntity
  8
ALL_ASSEMBLY_MEMBERS
100
AcDbLine
 62
7
  6
CONTINUOUS
 10
2.4097563281
 20
2.1634561253
 11
2.4097563281
 21
2.163050193
  0
LINE
  5
2A3
100
AcDbEntity
  8
ALL_ASSEMBLY_MEMBERS
100
AcDbLine
 62
7
  6
CONTINUOUS
 10
2.4127901089
 20
2.282202041
 11
2.4127901089
 21
2.239702041
  0
LINE
  5
2A4
100
AcDbEntity
  8
ALL_ASSEMBLY_MEMBERS
100
AcDbLine
 62
7
  6
CONTINUOUS
 10
2.4151754022
 20
2.282202041
 11
2.4151754022
 21
2.239702041
  0
LINE
  5
2A5
100
AcDbEntity
  8
ALL_ASSEMBLY_MEMBERS
100
AcDbLine
 62
7
  6
CONTINUOUS
 10
2.4180335501
 20
2.282202041
 11
2.4180335501
 21
2.239702041
  0
LINE
  5
2A6
100
AcDbEntity
  8
ALL_ASSEMBLY_MEMBERS
100
AcDbLine
 62
7
  6
CONTINUOUS
 10
2.4201844617
 20
2.282202041
 11
2.4201844617
 21
2.239702041
  0
LINE
  5
2A7
100
AcDbEntity
  8
ALL_ASSEMBLY_MEMBERS
100
AcDbLine
 62
7
  6
CONTINUOUS
 10
2.4227388982
 20
2.282202041
 11
2.4227388982
 21
2.239702041
  0
LINE
  5
2A8
100
AcDbEntity
  8
ALL_ASSEMBLY_MEMBERS
100
AcDbLine
 62
7
  6
CONTINUOUS
 10
2.424642167
 20
2.282202041
 11
2.424642167
 21
2.239702041
  0
LINE
  5
2A9
100
AcDbEntity
  8
ALL_ASSEMBLY_MEMBERS
100
AcDbLine
 62
7
  6
CONTINUOUS
 10
2.4268771431
 20
2.282202041
 11
2.4268771431
 21
2.239702041
  0
LINE
  5
2AA
100
AcDbEntity
  8
ALL_ASSEMBLY_MEMBERS
100
AcDbLine
 62
7
  6
CONTINUOUS
 10
2.4285210349
 20
2.282202041
 11
2.4285210349
 21
2.239702041
  0
LINE
  5
2AB
100
AcDbEntity
  8
ALL_ASSEMBLY_MEMBERS
100
AcDbLine
 62
7
  6
CONTINUOUS
 10
2.4290063281
 20
2.1672061253
 11
2.4290063281
 21
2.1634561253
  0
LINE
  5
2AC
100
AcDbEntity
  8
ALL_ASSEMBLY_MEMBERS
100
AcDbLine
 62
7
  6
CONTINUOUS
 10
2.4304227713
 20
2.282202041
 11
2.4304227713
 21
2.239702041
  0
LINE
  5
2AD
100
AcDbEntity
  8
ALL_ASSEMBLY_MEMBERS
100
AcDbLine
 62
7
  6
CONTINUOUS
 10
2.4317971509
 20
2.282202041
 11
2.4317971509
 21
2.239702041
  0
LINE
  5
2AE
100
AcDbEntity
  8
ALL_ASSEMBLY_MEMBERS
100
AcDbLine
 62
7
  6
CONTINUOUS
 10
2.4333539227
 20
2.282202041
 11
2.4333539227
 21
2.239702041
  0
LINE
  5
2AF
100
AcDbEntity
  8
ALL_ASSEMBLY_MEMBERS
100
AcDbLine
 62
7
  6
CONTINUOUS
 10
2.4344503166
 20
2.282202041
 11
2.4344503166
 21
2.239702041
  0
LINE
  5
2B0
100
AcDbEntity
  8
ALL_ASSEMBLY_MEMBERS
100
AcDbLine
 62
7
  6
CONTINUOUS
 10
2.4356525258
 20
2.282202041
 11
2.4356525258
 21
2.239702041
  0
LINE
  5
2B1
100
AcDbEntity
  8
ALL_ASSEMBLY_MEMBERS
100
AcDbLine
 62
7
  6
CONTINUOUS
 10
2.4364641743
 20
2.282202041
 11
2.4364641743
 21
2.239702041
  0
LINE
  5
2B2
100
AcDbEntity
  8
ALL_ASSEMBLY_MEMBERS
100
AcDbLine
 62
7
  6
CONTINUOUS
 10
2.437304409
 20
2.282202041
 11
2.437304409
 21
2.239702041
  0
LINE
  5
2B3
100
AcDbEntity
  8
ALL_ASSEMBLY_MEMBERS
100
AcDbLine
 62
7
  6
CONTINUOUS
 10
2.4378263081
 20
2.282202041
 11
2.4378263081
 21
2.239702041
  0
LINE
  5
2B4
100
AcDbEntity
  8
ALL_ASSEMBLY_MEMBERS
100
AcDbLine
 62
7
  6
CONTINUOUS
 10
2.4382993878
 20
2.282202041
 11
2.4382993878
 21
2.239702041
  0
LINE
  5
2B5
100
AcDbEntity
  8
ALL_FEATURES
100
AcDbLine
 62
7
  6
CONTINUOUS
 10
7.0584360439
 20
7.5255008792
 11
7.057679449
 21
7.5252839291
  0
LINE
  5
2B6
100
AcDbEntity
  8
0
100
AcDbLine
 62
7
  6
CONTINUOUS
 10
7.3028515876
 20
1.716292627
 11
7.2959293488
 21
1.716292627
  0
LINE
  5
2B7
100
AcDbEntity
  8
ALL_FEATURES
100
AcDbLine
 62
7
  6
CONTINUOUS
 10
6.7723254904
 20
1.7221093223
 11
6.8106817428
 21
1.7221093223
  0
LINE
  5
2B8
100
AcDbEntity
  8
0
100
AcDbLine
 62
7
  6
CONTINUOUS
 10
7.3541244384
 20
1.8097025862
 11
7.3471619552
 21
1.8097025862
  0
LINE
  5
2B9
100
AcDbEntity
  8
0
100
AcDbLine
 62
7
  6
CONTINUOUS
 10
7.3399982445
 20
1.8150954903
 11
7.3333577256
 21
1.8150954903
  0
LINE
  5
2BA
100
AcDbEntity
  8
ALL_FEATURES
100
AcDbLine
 62
7
  6
CONTINUOUS
 10
6.7723254904
 20
1.8379692824
 11
6.8106817428
 21
1.8379692824
  0
LINE
  5
2BB
100
AcDbEntity
  8
0
100
AcDbLine
 62
7
  6
CONTINUOUS
 10
7.3541244384
 20
1.8406916726
 11
7.3399982445
 21
1.8406916726
  0
LINE
  5
2BC
100
AcDbEntity
  8
0
100
AcDbLine
 62
7
  6
CONTINUOUS
 10
7.3333577256
 20
1.8406916726
 11
7.3067554087
 21
1.8406916726
  0
LINE
  5
2BD
100
AcDbEntity
  8
0
100
AcDbLine
 62
7
  6
CONTINUOUS
 10
7.3541244384
 20
1.8479358805
 11
7.3399982445
 21
1.8479358805
  0
LINE
  5
2BE
100
AcDbEntity
  8
0
100
AcDbLine
 62
7
  6
CONTINUOUS
 10
7.3333577256
 20
1.8479358805
 11
7.2951244384
 21
1.8479358805
  0
LINE
  5
2BF
100
AcDbEntity
  8
0
100
AcDbLine
 62
7
  6
CONTINUOUS
 10
7.3399982445
 20
1.855904495
 11
7.3333577256
 21
1.855904495
  0
LINE
  5
2C0
100
AcDbEntity
  8
0
100
AcDbLine
 62
7
  6
CONTINUOUS
 10
7.3166960616
 20
1.8688635655
 11
7.3096933332
 21
1.8688635655
  0
LINE
  5
2C1
100
AcDbEntity
  8
0
100
AcDbLine
 62
7
  6
CONTINUOUS
 10
7.3541244384
 20
1.8833519671
 11
7.3079627744
 21
1.8833519671
  0
LINE
  5
2C2
100
AcDbEntity
  8
0
100
AcDbLine
 62
7
  6
CONTINUOUS
 10
7.3541244384
 20
1.890596175
 11
7.2948829624
 21
1.890596175
  0
LINE
  5
2C3
100
AcDbEntity
  8
ALL_ASSEMBLY_MEMBERS
100
AcDbLine
 62
7
  6
CONTINUOUS
 10
2.4232643633
 20
2.163050193
 11
2.5619323747
 21
2.1460239021
  0
LINE
  5
2C4
100
AcDbEntity
  8
ALL_ASSEMBLY_MEMBERS
100
AcDbLine
 62
7
  6
CONTINUOUS
 10
2.2229434856
 20
2.239687886
 11
2.2228813284
 21
2.239702041
  0
LINE
  5
2C5
100
AcDbEntity
  8
ALL_ASSEMBLY_MEMBERS
100
AcDbLine
 62
7
  6
CONTINUOUS
 10
2.4385283198
 20
2.282202041
 11
2.4385283198
 21
2.239702041
  0
LINE
  5
2C6
100
AcDbEntity
  8
ALL_ASSEMBLY_MEMBERS
100
AcDbLine
 62
7
  6
CONTINUOUS
 10
2.4386313279
 20
2.282202041
 11
2.4386313279
 21
2.239702041
  0
LINE
  5
2C7
100
AcDbEntity
  8
0
100
AcDbLine
 62
7
  6
CONTINUOUS
 10
2.5920063281
 20
1.5679603117
 11
2.5920063281
 21
1.5677514183
  0
LINE
  5
2C8
100
AcDbEntity
  8
0
100
AcDbLine
 62
7
  6
CONTINUOUS
 10
2.6057563281
 20
1.9850393024
 11
2.6057563281
 21
2.0475311371
  0
LINE
  5
2C9
100
AcDbEntity
  8
ALL_FEATURES
100
AcDbLine
 62
7
  6
CONTINUOUS
 10
2.6695063281
 20
2.0925393024
 11
2.6695063281
 21
2.1225393024
  0
LINE
  5
2CA
100
AcDbEntity
  8
0
100
AcDbLine
 62
7
  6
CONTINUOUS
 10
2.6745063281
 20
2.0725393024
 11
2.6745063281
 21
2.0925393024
  0
LINE
  5
2CB
100
AcDbEntity
  8
0
100
AcDbLine
 62
7
  6
CONTINUOUS
 10
2.6857563281
 20
1.9850393024
 11
2.6857563281
 21
1.5750393024
  0
LINE
  5
2CC
100
AcDbEntity
  8
ALL_ASSEMBLY_MEMBERS
100
AcDbLine
 62
7
  6
CONTINUOUS
 10
2.6677999738
 20
2.1247827177
 11
2.582975252
 21
2.1228829225
  0
LINE
  5
2CD
100
AcDbEntity
  8
0
100
AcDbLine
 62
7
  6
CONTINUOUS
 10
6.7342745833
 20
1.9675393024
 11
2.6857563281
 21
1.9675393024
  0
LINE
  5
2CE
100
AcDbEntity
  8
ALL_FEATURES
100
AcDbLine
 62
7
  6
CONTINUOUS
 10
6.7723254904
 20
1.9683593223
 11
6.8106817428
 21
1.9683593223
  0
LINE
  5
2CF
100
AcDbEntity
  8
0
100
AcDbLine
 62
7
  6
CONTINUOUS
 10
2.6057563281
 20
1.9850393024
 11
2.6857563281
 21
1.9850393024
  0
LINE
  5
2D0
100
AcDbEntity
  8
0
100
AcDbLine
 62
7
  6
CONTINUOUS
 10
7.0941244384
 20
1.9875393024
 11
6.8698744384
 21
1.9875393024
  0
LINE
  5
2D1
100
AcDbEntity
  8
0
100
AcDbLine
 62
7
  6
CONTINUOUS
 10
7.1041244384
 20
2.0029639848
 11
7.4716244384
 21
2.0029639848
  0
LINE
  5
2D2
100
AcDbEntity
  8
ALL_FEATURES
100
AcDbLine
 62
7
  6
CONTINUOUS
 10
6.8373744384
 20
2.0225393024
 11
6.8673744384
 21
2.0225393024
  0
LINE
  5
2D3
100
AcDbEntity
  8
ALL_FEATURES
100
AcDbLine
 62
7
  6
CONTINUOUS
 10
6.74831391
 20
2.0262893024
 11
6.8346932467
 21
2.0262893024
  0
LINE
  5
2D4
100
AcDbEntity
  8
0
100
AcDbLine
 62
7
  6
CONTINUOUS
 10
7.0803744384
 20
2.0441001915
 11
7.4953744384
 21
2.0441001915
  0
LINE
  5
2D5
100
AcDbEntity
  8
0
100
AcDbLine
 62
7
  6
CONTINUOUS
 10
2.0557563281
 20
2.0475311371
 11
2.6057563281
 21
2.0475311371
  0
LINE
  5
2D6
100
AcDbEntity
  8
0
100
AcDbLine
 62
7
  6
CONTINUOUS
 10
1.9870063281
 20
2.0725393024
 11
2.6745063281
 21
2.0725393024
  0
LINE
  5
2D7
100
AcDbEntity
  8
0
100
AcDbLine
 62
7
  6
CONTINUOUS
 10
1.9870063281
 20
2.0925393024
 11
2.6745063281
 21
2.0925393024
  0
LINE
  5
2D8
100
AcDbEntity
  8
ALL_FEATURES
100
AcDbLine
 62
7
  6
CONTINUOUS
 10
1.9920063281
 20
2.1225393024
 11
2.6695063281
 21
2.1225393024
  0
LINE
  5
2D9
100
AcDbEntity
  8
ALL_ASSEMBLY_MEMBERS
100
AcDbLine
 62
7
  6
CONTINUOUS
 10
2.582975252
 20
2.1228829225
 11
2.0785374043
 21
2.1228829225
  0
LINE
  5
2DA
100
AcDbEntity
  8
ALL_ASSEMBLY_MEMBERS
100
AcDbLine
 62
7
  6
CONTINUOUS
 10
1.9937126825
 20
2.1247827177
 11
2.6677999738
 21
2.1247827177
  0
LINE
  5
2DB
100
AcDbEntity
  8
ALL_ASSEMBLY_MEMBERS
100
AcDbLine
 62
7
  6
CONTINUOUS
 10
2.679204899
 20
2.1354018409
 11
1.9823077573
 21
2.1354018409
  0
LINE
  5
2DC
100
AcDbEntity
  8
ALL_ASSEMBLY_MEMBERS
100
AcDbLine
 62
7
  6
CONTINUOUS
 10
2.6675375781
 20
2.1460239021
 11
1.9939750781
 21
2.1460239021
  0
LINE
  5
2DD
100
AcDbEntity
  8
ALL_ASSEMBLY_MEMBERS
100
AcDbLine
 62
7
  6
CONTINUOUS
 10
2.4232643633
 20
2.163050193
 11
2.238248293
 21
2.163050193
  0
LINE
  5
2DE
100
AcDbEntity
  8
ALL_ASSEMBLY_MEMBERS
100
AcDbLine
 62
7
  6
CONTINUOUS
 10
2.2325071285
 20
2.1634561253
 11
2.4290055278
 21
2.1634561253
  0
LINE
  5
2DF
100
AcDbEntity
  8
ALL_ASSEMBLY_MEMBERS
100
AcDbLine
 62
7
  6
CONTINUOUS
 10
2.2325063281
 20
2.1672061253
 11
2.4290063281
 21
2.1672061253
  0
LINE
  5
2E0
100
AcDbEntity
  8
ALL_ASSEMBLY_MEMBERS
100
AcDbLine
 62
7
  6
CONTINUOUS
 10
2.3307640077
 20
2.239702041
 11
2.3260432145
 21
2.239702041
  0
LINE
  5
2E1
100
AcDbEntity
  8
ALL_ASSEMBLY_MEMBERS
100
AcDbLine
 62
7
  6
CONTINUOUS
 10
2.3223002091
 20
2.239702041
 11
2.3176020505
 21
2.239702041
  0
LINE
  5
2E2
100
AcDbEntity
  8
ALL_ASSEMBLY_MEMBERS
100
AcDbLine
 62
7
  6
CONTINUOUS
 10
2.3055808769
 20
2.239702041
 11
2.3010145664
 21
2.239702041
  0
LINE
  5
2E3
100
AcDbEntity
  8
ALL_ASSEMBLY_MEMBERS
100
AcDbLine
 62
7
  6
CONTINUOUS
 10
2.3138885452
 20
2.239702041
 11
2.3092419869
 21
2.239702041
  0
LINE
  5
2E4
100
AcDbEntity
  8
ALL_ASSEMBLY_MEMBERS
100
AcDbLine
 62
7
  6
CONTINUOUS
 10
2.2974284236
 20
2.239702041
 11
2.2929705138
 21
2.239702041
  0
LINE
  5
2E5
100
AcDbEntity
  8
ALL_ASSEMBLY_MEMBERS
100
AcDbLine
 62
7
  6
CONTINUOUS
 10
2.2817889456
 20
2.239702041
 11
2.2776294528
 21
2.239702041
  0
LINE
  5
2E6
100
AcDbEntity
  8
ALL_ASSEMBLY_MEMBERS
100
AcDbLine
 62
7
  6
CONTINUOUS
 10
2.2894814479
 20
2.239702041
 11
2.2851594233
 21
2.239702041
  0
LINE
  5
2E7
100
AcDbEntity
  8
ALL_ASSEMBLY_MEMBERS
100
AcDbLine
 62
7
  6
CONTINUOUS
 10
2.2743983435
 20
2.239702041
 11
2.2704270272
 21
2.239702041
  0
LINE
  5
2E8
100
AcDbEntity
  8
ALL_ASSEMBLY_MEMBERS
100
AcDbLine
 62
7
  6
CONTINUOUS
 10
2.2607029597
 20
2.239702041
 11
2.2571801388
 21
2.239702041
  0
LINE
  5
2E9
100
AcDbEntity
  8
ALL_ASSEMBLY_MEMBERS
100
AcDbLine
 62
7
  6
CONTINUOUS
 10
2.2673552071
 20
2.239702041
 11
2.2635965518
 21
2.239702041
  0
LINE
  5
2EA
100
AcDbEntity
  8
ALL_ASSEMBLY_MEMBERS
100
AcDbLine
 62
7
  6
CONTINUOUS
 10
2.2487325223
 20
2.239702041
 11
2.2457449403
 21
2.239702041
  0
LINE
  5
2EB
100
AcDbEntity
  8
ALL_ASSEMBLY_MEMBERS
100
AcDbLine
 62
7
  6
CONTINUOUS
 10
2.2544826146
 20
2.239702041
 11
2.2512173474
 21
2.239702041
  0
LINE
  5
2EC
100
AcDbEntity
  8
ALL_ASSEMBLY_MEMBERS
100
AcDbLine
 62
7
  6
CONTINUOUS
 10
2.2387817832
 20
2.239702041
 11
2.2364030044
 21
2.239702041
  0
LINE
  5
2ED
100
AcDbEntity
  8
ALL_ASSEMBLY_MEMBERS
100
AcDbLine
 62
7
  6
CONTINUOUS
 10
2.243488134
 20
2.239702041
 11
2.2407966567
 21
2.239702041
  0
LINE
  5
2EE
100
AcDbEntity
  8
ALL_ASSEMBLY_MEMBERS
100
AcDbLine
 62
7
  6
CONTINUOUS
 10
2.2232144736
 20
2.239702041
 11
2.2229467749
 21
2.239702041
  0
LINE
  5
2EF
100
AcDbEntity
  8
ALL_ASSEMBLY_MEMBERS
100
AcDbLine
 62
7
  6
CONTINUOUS
 10
2.22421065
 20
2.239702041
 11
2.2235738951
 21
2.239702041
  0
LINE
  5
2F0
100
AcDbEntity
  8
ALL_ASSEMBLY_MEMBERS
100
AcDbLine
 62
7
  6
CONTINUOUS
 10
2.225863716
 20
2.239702041
 11
2.2248618307
 21
2.239702041
  0
LINE
  5
2F1
100
AcDbEntity
  8
ALL_ASSEMBLY_MEMBERS
100
AcDbLine
 62
7
  6
CONTINUOUS
 10
2.2281634798
 20
2.239702041
 11
2.226802641
 21
2.239702041
  0
LINE
  5
2F2
100
AcDbEntity
  8
ALL_ASSEMBLY_MEMBERS
100
AcDbLine
 62
7
  6
CONTINUOUS
 10
2.2310957627
 20
2.239702041
 11
2.2293843604
 21
2.239702041
  0
LINE
  5
2F3
100
AcDbEntity
  8
ALL_ASSEMBLY_MEMBERS
100
AcDbLine
 62
7
  6
CONTINUOUS
 10
2.234642486
 20
2.239702041
 11
2.2325910717
 21
2.239702041
  0
LINE
  5
2F4
100
AcDbEntity
  8
ALL_ASSEMBLY_MEMBERS
100
AcDbLine
 62
7
  6
CONTINUOUS
 10
2.3345134365
 20
2.239702041
 11
2.3392277589
 21
2.239702041
  0
LINE
  5
2F5
100
AcDbEntity
  8
ALL_ASSEMBLY_MEMBERS
100
AcDbLine
 62
7
  6
CONTINUOUS
 10
2.3429604947
 20
2.239702041
 11
2.347639281
 21
2.239702041
  0
LINE
  5
2F6
100
AcDbEntity
  8
ALL_ASSEMBLY_MEMBERS
100
AcDbLine
 62
7
  6
CONTINUOUS
 10
2.3513323101
 20
2.239702041
 11
2.355946714
 21
2.239702041
  0
LINE
  5
2F7
100
AcDbEntity
  8
ALL_ASSEMBLY_MEMBERS
100
AcDbLine
 62
7
  6
CONTINUOUS
 10
2.3595772677
 20
2.239702041
 11
2.36409884
 21
2.239702041
  0
LINE
  5
2F8
100
AcDbEntity
  8
ALL_ASSEMBLY_MEMBERS
100
AcDbLine
 62
7
  6
CONTINUOUS
 10
2.3676445346
 20
2.239702041
 11
2.3720453982
 21
2.239702041
  0
LINE
  5
2F9
100
AcDbEntity
  8
ALL_ASSEMBLY_MEMBERS
100
AcDbLine
 62
7
  6
CONTINUOUS
 10
2.3754843735
 20
2.239702041
 11
2.3797373957
 21
2.239702041
  0
LINE
  5
2FA
100
AcDbEntity
  8
ALL_ASSEMBLY_MEMBERS
100
AcDbLine
 62
7
  6
CONTINUOUS
 10
2.3830484491
 20
2.239702041
 11
2.3871274085
 21
2.239702041
  0
LINE
  5
2FB
100
AcDbEntity
  8
ALL_ASSEMBLY_MEMBERS
100
AcDbLine
 62
7
  6
CONTINUOUS
 10
2.3902901265
 20
2.239702041
 11
2.3941698749
 21
2.239702041
  0
LINE
  5
2FC
100
AcDbEntity
  8
ALL_ASSEMBLY_MEMBERS
100
AcDbLine
 62
7
  6
CONTINUOUS
 10
2.3971647581
 20
2.239702041
 11
2.4008213757
 21
2.239702041
  0
LINE
  5
2FD
100
AcDbEntity
  8
ALL_ASSEMBLY_MEMBERS
100
AcDbLine
 62
7
  6
CONTINUOUS
 10
2.4036299597
 20
2.239702041
 11
2.4070409022
 21
2.239702041
  0
LINE
  5
2FE
100
AcDbEntity
  8
ALL_ASSEMBLY_MEMBERS
100
AcDbLine
 62
7
  6
CONTINUOUS
 10
2.4096458711
 20
2.239702041
 11
2.4127901089
 21
2.239702041
  0
LINE
  5
2FF
100
AcDbEntity
  8
ALL_ASSEMBLY_MEMBERS
100
AcDbLine
 62
7
  6
CONTINUOUS
 10
2.4151754022
 20
2.239702041
 11
2.4180335501
 21
2.239702041
  0
LINE
  5
300
100
AcDbEntity
  8
ALL_ASSEMBLY_MEMBERS
100
AcDbLine
 62
7
  6
CONTINUOUS
 10
2.4201844617
 20
2.239702041
 11
2.4227388982
 21
2.239702041
  0
LINE
  5
301
100
AcDbEntity
  8
ALL_ASSEMBLY_MEMBERS
100
AcDbLine
 62
7
  6
CONTINUOUS
 10
2.424642167
 20
2.239702041
 11
2.4268771431
 21
2.239702041
  0
LINE
  5
302
100
AcDbEntity
  8
ALL_ASSEMBLY_MEMBERS
100
AcDbLine
 62
7
  6
CONTINUOUS
 10
2.4285210349
 20
2.239702041
 11
2.4304227713
 21
2.239702041
  0
LINE
  5
303
100
AcDbEntity
  8
ALL_ASSEMBLY_MEMBERS
100
AcDbLine
 62
7
  6
CONTINUOUS
 10
2.4317971509
 20
2.239702041
 11
2.4333539227
 21
2.239702041
  0
LINE
  5
304
100
AcDbEntity
  8
ALL_ASSEMBLY_MEMBERS
100
AcDbLine
 62
7
  6
CONTINUOUS
 10
2.4344503166
 20
2.239702041
 11
2.4356525258
 21
2.239702041
  0
LINE
  5
305
100
AcDbEntity
  8
ALL_ASSEMBLY_MEMBERS
100
AcDbLine
 62
7
  6
CONTINUOUS
 10
2.4364641743
 20
2.239702041
 11
2.437304409
 21
2.239702041
  0
LINE
  5
306
100
AcDbEntity
  8
ALL_ASSEMBLY_MEMBERS
100
AcDbLine
 62
7
  6
CONTINUOUS
 10
2.4378263081
 20
2.239702041
 11
2.4382993878
 21
2.239702041
  0
LINE
  5
307
100
AcDbEntity
  8
ALL_ASSEMBLY_MEMBERS
100
AcDbLine
 62
7
  6
CONTINUOUS
 10
2.4385283198
 20
2.239702041
 11
2.4386285128
 21
2.239702041
  0
LINE
  5
308
100
AcDbEntity
  8
ALL_ASSEMBLY_MEMBERS
100
AcDbLine
 62
7
  6
CONTINUOUS
 10
1.9937126824
 20
2.1247827177
 11
2.0785374043
 21
2.1228829225
  0
LINE
  5
309
100
AcDbEntity
  8
0
100
AcDbLine
 62
7
  6
CONTINUOUS
 10
7.326234261
 20
1.6812387398
 11
7.2959293488
 21
1.6869536098
  0
LINE
  5
30A
100
AcDbEntity
  8
0
100
AcDbLine
 62
7
  6
CONTINUOUS
 10
7.3187083412
 20
1.6895695722
 11
7.3028515876
 21
1.6927489726
  0
LINE
  5
30B
100
AcDbEntity
  8
ALL_ASSEMBLY_MEMBERS
100
AcDbLine
 62
7
  6
CONTINUOUS
 10
2.238248293
 20
2.163050193
 11
2.0995802816
 21
2.1460239021
  0
LINE
  5
30C
100
AcDbEntity
  8
ALL_ASSEMBLY_MEMBERS
100
AcDbLine
 62
7
  6
CONTINUOUS
 10
2.3307640077
 20
2.282202041
 11
2.3260432145
 21
2.282202041
  0
LINE
  5
30D
100
AcDbEntity
  8
ALL_ASSEMBLY_MEMBERS
100
AcDbLine
 62
7
  6
CONTINUOUS
 10
2.3223002091
 20
2.282202041
 11
2.3176020505
 21
2.282202041
  0
LINE
  5
30E
100
AcDbEntity
  8
ALL_ASSEMBLY_MEMBERS
100
AcDbLine
 62
7
  6
CONTINUOUS
 10
2.3138885452
 20
2.282202041
 11
2.3092419869
 21
2.282202041
  0
LINE
  5
30F
100
AcDbEntity
  8
ALL_ASSEMBLY_MEMBERS
100
AcDbLine
 62
7
  6
CONTINUOUS
 10
2.3055808769
 20
2.282202041
 11
2.3010145664
 21
2.282202041
  0
LINE
  5
310
100
AcDbEntity
  8
ALL_ASSEMBLY_MEMBERS
100
AcDbLine
 62
7
  6
CONTINUOUS
 10
2.2974284236
 20
2.282202041
 11
2.2929705138
 21
2.282202041
  0
LINE
  5
311
100
AcDbEntity
  8
ALL_ASSEMBLY_MEMBERS
100
AcDbLine
 62
7
  6
CONTINUOUS
 10
2.2894814479
 20
2.282202041
 11
2.2851594233
 21
2.282202041
  0
LINE
  5
312
100
AcDbEntity
  8
ALL_ASSEMBLY_MEMBERS
100
AcDbLine
 62
7
  6
CONTINUOUS
 10
2.2817889456
 20
2.282202041
 11
2.2776294528
 21
2.282202041
  0
LINE
  5
313
100
AcDbEntity
  8
ALL_ASSEMBLY_MEMBERS
100
AcDbLine
 62
7
  6
CONTINUOUS
 10
2.2743983435
 20
2.282202041
 11
2.2704270272
 21
2.282202041
  0
LINE
  5
314
100
AcDbEntity
  8
ALL_ASSEMBLY_MEMBERS
100
AcDbLine
 62
7
  6
CONTINUOUS
 10
2.2673552071
 20
2.282202041
 11
2.2635965518
 21
2.282202041
  0
LINE
  5
315
100
AcDbEntity
  8
ALL_ASSEMBLY_MEMBERS
100
AcDbLine
 62
7
  6
CONTINUOUS
 10
2.2607029597
 20
2.282202041
 11
2.2571801388
 21
2.282202041
  0
LINE
  5
316
100
AcDbEntity
  8
ALL_ASSEMBLY_MEMBERS
100
AcDbLine
 62
7
  6
CONTINUOUS
 10
2.2487325223
 20
2.282202041
 11
2.2457449403
 21
2.282202041
  0
LINE
  5
317
100
AcDbEntity
  8
ALL_ASSEMBLY_MEMBERS
100
AcDbLine
 62
7
  6
CONTINUOUS
 10
2.2544826146
 20
2.282202041
 11
2.2512173474
 21
2.282202041
  0
LINE
  5
318
100
AcDbEntity
  8
ALL_ASSEMBLY_MEMBERS
100
AcDbLine
 62
7
  6
CONTINUOUS
 10
2.243488134
 20
2.282202041
 11
2.2407966567
 21
2.282202041
  0
LINE
  5
319
100
AcDbEntity
  8
ALL_ASSEMBLY_MEMBERS
100
AcDbLine
 62
7
  6
CONTINUOUS
 10
2.2387817832
 20
2.282202041
 11
2.2364030044
 21
2.282202041
  0
LINE
  5
31A
100
AcDbEntity
  8
ALL_ASSEMBLY_MEMBERS
100
AcDbLine
 62
7
  6
CONTINUOUS
 10
2.234642486
 20
2.282202041
 11
2.2325910717
 21
2.282202041
  0
LINE
  5
31B
100
AcDbEntity
  8
ALL_ASSEMBLY_MEMBERS
100
AcDbLine
 62
7
  6
CONTINUOUS
 10
2.2310957627
 20
2.282202041
 11
2.2293843604
 21
2.282202041
  0
LINE
  5
31C
100
AcDbEntity
  8
ALL_ASSEMBLY_MEMBERS
100
AcDbLine
 62
7
  6
CONTINUOUS
 10
2.2281634798
 20
2.282202041
 11
2.226802641
 21
2.282202041
  0
LINE
  5
31D
100
AcDbEntity
  8
ALL_ASSEMBLY_MEMBERS
100
AcDbLine
 62
7
  6
CONTINUOUS
 10
2.225863716
 20
2.282202041
 11
2.2248618307
 21
2.282202041
  0
LINE
  5
31E
100
AcDbEntity
  8
ALL_ASSEMBLY_MEMBERS
100
AcDbLine
 62
7
  6
CONTINUOUS
 10
2.22421065
 20
2.282202041
 11
2.2235738951
 21
2.282202041
  0
LINE
  5
31F
100
AcDbEntity
  8
ALL_ASSEMBLY_MEMBERS
100
AcDbLine
 62
7
  6
CONTINUOUS
 10
2.2232144736
 20
2.282202041
 11
2.2229467749
 21
2.282202041
  0
LINE
  5
320
100
AcDbEntity
  8
ALL_ASSEMBLY_MEMBERS
100
AcDbLine
 62
7
  6
CONTINUOUS
 10
2.3345134365
 20
2.282202041
 11
2.3392277589
 21
2.282202041
  0
LINE
  5
321
100
AcDbEntity
  8
ALL_ASSEMBLY_MEMBERS
100
AcDbLine
 62
7
  6
CONTINUOUS
 10
2.3429604947
 20
2.282202041
 11
2.347639281
 21
2.282202041
  0
LINE
  5
322
100
AcDbEntity
  8
ALL_ASSEMBLY_MEMBERS
100
AcDbLine
 62
7
  6
CONTINUOUS
 10
2.3513323101
 20
2.282202041
 11
2.355946714
 21
2.282202041
  0
LINE
  5
323
100
AcDbEntity
  8
ALL_ASSEMBLY_MEMBERS
100
AcDbLine
 62
7
  6
CONTINUOUS
 10
2.3595772677
 20
2.282202041
 11
2.36409884
 21
2.282202041
  0
LINE
  5
324
100
AcDbEntity
  8
ALL_ASSEMBLY_MEMBERS
100
AcDbLine
 62
7
  6
CONTINUOUS
 10
2.3754843735
 20
2.282202041
 11
2.3797373957
 21
2.282202041
  0
LINE
  5
325
100
AcDbEntity
  8
ALL_ASSEMBLY_MEMBERS
100
AcDbLine
 62
7
  6
CONTINUOUS
 10
2.3676445346
 20
2.282202041
 11
2.3720453982
 21
2.282202041
  0
LINE
  5
326
100
AcDbEntity
  8
ALL_ASSEMBLY_MEMBERS
100
AcDbLine
 62
7
  6
CONTINUOUS
 10
2.3830484491
 20
2.282202041
 11
2.3871274085
 21
2.282202041
  0
LINE
  5
327
100
AcDbEntity
  8
ALL_ASSEMBLY_MEMBERS
100
AcDbLine
 62
7
  6
CONTINUOUS
 10
2.3971647581
 20
2.282202041
 11
2.4008213757
 21
2.282202041
  0
LINE
  5
328
100
AcDbEntity
  8
ALL_ASSEMBLY_MEMBERS
100
AcDbLine
 62
7
  6
CONTINUOUS
 10
2.3902901265
 20
2.282202041
 11
2.3941698749
 21
2.282202041
  0
LINE
  5
329
100
AcDbEntity
  8
ALL_ASSEMBLY_MEMBERS
100
AcDbLine
 62
7
  6
CONTINUOUS
 10
2.4036299597
 20
2.282202041
 11
2.4070409022
 21
2.282202041
  0
LINE
  5
32A
100
AcDbEntity
  8
ALL_ASSEMBLY_MEMBERS
100
AcDbLine
 62
7
  6
CONTINUOUS
 10
2.4151754022
 20
2.282202041
 11
2.4180335501
 21
2.282202041
  0
LINE
  5
32B
100
AcDbEntity
  8
ALL_ASSEMBLY_MEMBERS
100
AcDbLine
 62
7
  6
CONTINUOUS
 10
2.4096458711
 20
2.282202041
 11
2.4127901089
 21
2.282202041
  0
LINE
  5
32C
100
AcDbEntity
  8
ALL_ASSEMBLY_MEMBERS
100
AcDbLine
 62
7
  6
CONTINUOUS
 10
2.4285210349
 20
2.282202041
 11
2.4304227713
 21
2.282202041
  0
LINE
  5
32D
100
AcDbEntity
  8
ALL_ASSEMBLY_MEMBERS
100
AcDbLine
 62
7
  6
CONTINUOUS
 10
2.424642167
 20
2.282202041
 11
2.4268771431
 21
2.282202041
  0
LINE
  5
32E
100
AcDbEntity
  8
ALL_ASSEMBLY_MEMBERS
100
AcDbLine
 62
7
  6
CONTINUOUS
 10
2.4201844617
 20
2.282202041
 11
2.4227388982
 21
2.282202041
  0
LINE
  5
32F
100
AcDbEntity
  8
ALL_ASSEMBLY_MEMBERS
100
AcDbLine
 62
7
  6
CONTINUOUS
 10
2.4385283198
 20
2.282202041
 11
2.4386285128
 21
2.282202041
  0
LINE
  5
330
100
AcDbEntity
  8
ALL_ASSEMBLY_MEMBERS
100
AcDbLine
 62
7
  6
CONTINUOUS
 10
2.4378263081
 20
2.282202041
 11
2.4382993878
 21
2.282202041
  0
LINE
  5
331
100
AcDbEntity
  8
ALL_ASSEMBLY_MEMBERS
100
AcDbLine
 62
7
  6
CONTINUOUS
 10
2.4364641743
 20
2.282202041
 11
2.437304409
 21
2.282202041
  0
LINE
  5
332
100
AcDbEntity
  8
ALL_ASSEMBLY_MEMBERS
100
AcDbLine
 62
7
  6
CONTINUOUS
 10
2.4344503166
 20
2.282202041
 11
2.4356525258
 21
2.282202041
  0
LINE
  5
333
100
AcDbEntity
  8
ALL_ASSEMBLY_MEMBERS
100
AcDbLine
 62
7
  6
CONTINUOUS
 10
2.4317971509
 20
2.282202041
 11
2.4333539227
 21
2.282202041
  0
LINE
  5
334
100
AcDbEntity
  8
ALL_ASSEMBLY_MEMBERS
100
AcDbLine
 62
7
  6
CONTINUOUS
 10
2.4357661982
 20
2.2392368452
 11
2.4357086059
 21
2.2392227723
  0
LINE
  5
335
100
AcDbEntity
  8
0
100
AcDbLine
 62
7
  6
CONTINUOUS
 10
7.0803744384
 20
2.6882893024
 11
7.4953744384
 21
2.6882893024
  0
LINE
  5
336
100
AcDbEntity
  8
ALL_FEATURES
100
AcDbLine
 62
7
  6
CONTINUOUS
 10
7.0453744384
 20
2.6910393024
 11
7.5303744384
 21
2.6910393024
  0
LINE
  5
337
100
AcDbEntity
  8
ALL_FEATURES
100
AcDbLine
 62
7
  6
CONTINUOUS
 10
7.0453744384
 20
2.7210393024
 11
7.5303744384
 21
2.7210393024
  0
LINE
  5
338
100
AcDbEntity
  8
ALL_FEATURES
100
AcDbLine
 62
7
  6
CONTINUOUS
 10
7.0995544184
 20
2.747731998
 11
7.0416244384
 21
2.747731998
  0
LINE
  5
339
100
AcDbEntity
  8
ALL_FEATURES
100
AcDbLine
 62
7
  6
CONTINUOUS
 10
7.2299444583
 20
2.747731998
 11
7.3458044184
 21
2.747731998
  0
LINE
  5
33A
100
AcDbEntity
  8
ALL_FEATURES
100
AcDbLine
 62
7
  6
CONTINUOUS
 10
7.4761944583
 20
2.747731998
 11
7.5341244384
 21
2.747731998
  0
LINE
  5
33B
100
AcDbEntity
  8
ALL_FEATURES
100
AcDbLine
 62
7
  6
CONTINUOUS
 10
7.0995544184
 20
2.7860882503
 11
7.0416244384
 21
2.7860882503
  0
LINE
  5
33C
100
AcDbEntity
  8
ALL_FEATURES
100
AcDbLine
 62
7
  6
CONTINUOUS
 10
7.2299444583
 20
2.7860882503
 11
7.3458044184
 21
2.7860882503
  0
LINE
  5
33D
100
AcDbEntity
  8
ALL_FEATURES
100
AcDbLine
 62
7
  6
CONTINUOUS
 10
7.4761944583
 20
2.7860882503
 11
7.5341244384
 21
2.7860882503
  0
LINE
  5
33E
100
AcDbEntity
  8
ALL_FEATURES
100
AcDbLine
 62
7
  6
CONTINUOUS
 10
7.0464095856
 20
2.8133842346
 11
7.5293392911
 21
2.8133842346
  0
LINE
  5
33F
100
AcDbEntity
  8
ALL_FEATURES
100
AcDbLine
 62
7
  6
CONTINUOUS
 10
7.4877282683
 20
2.8241391575
 11
7.0877939851
 21
2.8241391575
  0
LINE
  5
340
100
AcDbEntity
  8
ALL_FEATURES
100
AcDbLine
 62
7
  6
CONTINUOUS
 10
7.2075566916
 20
7.5509862054
 11
7.201960967
 21
7.5470965712
  0
LINE
  5
341
100
AcDbEntity
  8
ALL_FEATURES
100
AcDbLine
 62
7
  6
CONTINUOUS
 10
7.2188855389
 20
7.5457034771
 11
7.2132898143
 21
7.5418138429
  0
LINE
  5
342
100
AcDbEntity
  8
ALL_FEATURES
100
AcDbLine
 62
7
  6
CONTINUOUS
 10
7.1782061139
 20
7.4980695563
 11
7.1838631905
 21
7.502001762
  0
LINE
  5
343
100
AcDbEntity
  8
ALL_FEATURES
100
AcDbLine
 62
7
  6
CONTINUOUS
 10
7.1895349613
 20
7.492786828
 11
7.1951920379
 21
7.4967190337
  0
LINE
  5
344
100
AcDbEntity
  8
ALL_FEATURES
100
AcDbLine
 62
7
  6
CONTINUOUS
 10
7.201960967
 20
7.5470965712
 11
7.201312854
 21
7.5466469831
  0
LINE
  5
345
100
AcDbEntity
  8
ALL_FEATURES
100
AcDbLine
 62
7
  6
CONTINUOUS
 10
7.2132898143
 20
7.5418138429
 11
7.2126417013
 21
7.5413642548
  0
LINE
  5
346
100
AcDbEntity
  8
ALL_FEATURES
100
AcDbLine
 62
7
  6
CONTINUOUS
 10
7.1838631905
 20
7.502001762
 11
7.1844499617
 21
7.5024087735
  0
LINE
  5
347
100
AcDbEntity
  8
ALL_FEATURES
100
AcDbLine
 62
7
  6
CONTINUOUS
 10
7.1951920379
 20
7.4967190337
 11
7.1957788091
 21
7.4971260453
  0
LINE
  5
348
100
AcDbEntity
  8
ALL_ASSEMBLY_MEMBERS
100
AcDbLine
 62
7
  6
CONTINUOUS
 10
2.4357661707
 20
2.2392370198
 11
2.4357086059
 21
2.2392227723
  0
LINE
  5
349
100
AcDbEntity
  8
0
100
AcDbLine
 62
7
  6
CONTINUOUS
 10
7.3333577256
 20
1.8222189637
 11
7.3067554087
 21
1.8406916726
  0
LINE
  5
34A
100
AcDbEntity
  8
0
100
AcDbLine
 62
7
  6
CONTINUOUS
 10
7.3333577256
 20
1.8150954903
 11
7.2951244384
 21
1.8420197797
  0
LWPOLYLINE
  5
34B
100
AcDbEntity
  8
0
100
AcDbPolyline
 62
7
  6
CONTINUOUS
 90
6
 70
0
 10
7.2878744384
 20
1.7800393024
 10
7.2773426724
 20
1.7899737544
 10
7.2668183945
 20
1.7999651284
 10
7.2563016045
 20
1.8099825343
 10
7.2456970001
 20
1.8200556377
 10
7.2350998837
 20
1.8300871841
  0
LINE
  5
34C
100
AcDbEntity
  8
0
100
AcDbLine
 62
7
  6
CONTINUOUS
 10
7.1871306042
 20
1.8755898762
 11
7.1707984639
 21
1.891072073
  0
LINE
  5
34D
100
AcDbEntity
  8
0
100
AcDbLine
 62
7
  6
CONTINUOUS
 10
7.1562425494
 20
1.9048789131
 11
7.1496243807
 21
1.9111538696
  0
LINE
  5
34E
100
AcDbEntity
  8
0
100
AcDbLine
 62
7
  6
CONTINUOUS
 10
7.2878744384
 20
1.7800393024
 11
7.1496243807
 21
1.9111538696
  0
LWPOLYLINE
  5
34F
100
AcDbEntity
  8
0
100
AcDbPolyline
 62
7
  6
CONTINUOUS
 90
4
 70
0
 10
7.2247961626
 20
1.8398618142
 10
7.2148407129
 20
1.8493167002
 10
7.2051786584
 20
1.8584683902
 10
7.1959312783
 20
1.8672363566
  0
LWPOLYLINE
  5
350
100
AcDbEntity
  8
0
100
AcDbPolyline
 62
7
  6
CONTINUOUS
 90
3
 70
0
 10
7.230026823
 20
1.8410351628
 10
7.2208212242
 20
1.8507285306
 10
7.2118815464
 20
1.8601665036
  0
LINE
  5
351
100
AcDbEntity
  8
0
100
AcDbLine
 62
7
  6
CONTINUOUS
 10
7.2878744384
 20
1.7800393024
 11
7.1433786702
 21
1.9323987719
  0
LINE
  5
352
100
AcDbEntity
  8
0
100
AcDbLine
 62
7
  6
CONTINUOUS
 10
7.1727922184
 20
1.9013816281
 11
7.1661417294
 21
1.9083942152
  0
LWPOLYLINE
  5
353
100
AcDbEntity
  8
0
100
AcDbPolyline
 62
7
  6
CONTINUOUS
 90
6
 70
0
 10
7.2878744384
 20
1.7800393024
 10
7.2782745607
 20
1.7902126488
 10
7.268619819
 20
1.8003830474
 10
7.2589380473
 20
1.8105504981
 10
7.2492046595
 20
1.8207991498
 10
7.2395049182
 20
1.8310448537
  0
LINE
  5
354
100
AcDbEntity
  8
ALL_ASSEMBLY_MEMBERS
100
AcDbLine
 62
7
  6
CONTINUOUS
 10
2.2252605522
 20
2.2831697666
 11
2.2249786706
 21
2.2830106836
  0
LINE
  5
355
100
AcDbEntity
  8
ALL_ASSEMBLY_MEMBERS
100
AcDbLine
 62
7
  6
CONTINUOUS
 10
2.2252605522
 20
2.2831697666
 11
2.2249786702
 21
2.2830106852
  0
LINE
  5
356
100
AcDbEntity
  8
ALL_ASSEMBLY_MEMBERS
100
AcDbLine
 62
7
  6
CONTINUOUS
 10
2.2232529302
 20
2.2823655333
 11
2.2229467749
 21
2.282202041
  0
LINE
  5
357
100
AcDbEntity
  8
ALL_ASSEMBLY_MEMBERS
100
AcDbLine
 62
7
  6
CONTINUOUS
 10
2.224480924
 20
2.2830106852
 11
2.2239453408
 21
2.2827312863
  0
LINE
  5
358
100
AcDbEntity
  8
ALL_ASSEMBLY_MEMBERS
100
AcDbLine
 62
7
  6
CONTINUOUS
 10
2.2247887661
 20
2.2831697666
 11
2.2244809243
 21
2.2830106836
  0
LINE
  5
359
100
AcDbEntity
  8
ALL_ASSEMBLY_MEMBERS
100
AcDbLine
 62
7
  6
CONTINUOUS
 10
2.2228813284
 20
2.282202041
 11
2.2231982429
 21
2.2823654731
  0
LINE
  5
35A
100
AcDbEntity
  8
ALL_ASSEMBLY_MEMBERS
100
AcDbLine
 62
7
  6
CONTINUOUS
 10
2.2228813284
 20
2.282202041
 11
2.2231982435
 21
2.2823654709
  0
LINE
  5
35B
100
AcDbEntity
  8
0
100
AcDbLine
 62
7
  6
CONTINUOUS
 10
7.0863440228
 20
7.5787147046
 11
7.0846281276
 21
7.5750072119
  0
LINE
  5
35C
100
AcDbEntity
  8
ALL_FEATURES
100
AcDbLine
 62
7
  6
CONTINUOUS
 10
7.0460201929
 20
7.5275154737
 11
7.0961922077
 21
7.6351097066
  0
LINE
  5
35D
100
AcDbEntity
  8
ALL_FEATURES
100
AcDbLine
 62
7
  6
CONTINUOUS
 10
7.0527543335
 20
7.5243752924
 11
7.1029263483
 21
7.6319695252
  0
LINE
  5
35E
100
AcDbEntity
  8
ALL_FEATURES
100
AcDbLine
 62
7
  6
CONTINUOUS
 10
7.1053960954
 20
7.6276126075
 11
7.1051077754
 21
7.6269943032
  0
LINE
  5
35F
100
AcDbEntity
  8
ALL_FEATURES
100
AcDbLine
 62
7
  6
CONTINUOUS
 10
7.0579677691
 20
7.5259022334
 11
7.057679449
 21
7.5252839291
  0
LINE
  5
360
100
AcDbEntity
  8
ALL_FEATURES
100
AcDbLine
 62
7
  6
CONTINUOUS
 10
6.9401660864
 20
7.2518320212
 11
7.2393362765
 21
7.8934045642
  0
LINE
  5
361
100
AcDbEntity
  8
ALL_FEATURES
100
AcDbLine
 62
7
  6
CONTINUOUS
 10
6.9517761051
 20
7.2166707706
 11
7.2737341332
 21
7.9071119901
  0
LINE
  5
362
100
AcDbEntity
  8
ALL_FEATURES
100
AcDbLine
 62
7
  6
CONTINUOUS
 10
6.9788502835
 20
7.1965156312
 11
6.9787651516
 21
7.1963330653
  0
LINE
  5
363
100
AcDbEntity
  8
0
100
AcDbLine
 62
7
  6
CONTINUOUS
 10
6.9822891202
 20
7.2038902404
 11
7.0761511716
 21
7.4051780592
  0
LINE
  5
364
100
AcDbEntity
  8
0
100
AcDbLine
 62
7
  6
CONTINUOUS
 10
7.0177707797
 20
7.1882999021
 11
7.0126235796
 21
7.1772616958
  0
LINE
  5
365
100
AcDbEntity
  8
0
100
AcDbLine
 62
7
  6
CONTINUOUS
 10
7.0157759752
 20
7.1692239615
 11
7.0222545491
 21
7.183117308
  0
LINE
  5
366
100
AcDbEntity
  8
0
100
AcDbLine
 62
7
  6
CONTINUOUS
 10
7.127469317
 20
7.4087511058
 11
7.3514881573
 21
7.8891610592
  0
LINE
  5
367
100
AcDbEntity
  8
0
100
AcDbLine
 62
7
  6
CONTINUOUS
 10
7.3533624382
 20
7.8328423272
 11
7.0598540554
 21
7.2034115691
  0
LINE
  5
368
100
AcDbEntity
  8
0
100
AcDbLine
 62
7
  6
CONTINUOUS
 10
7.3703006941
 20
7.8555608751
 11
7.0533383397
 21
7.1758329124
  0
LWPOLYLINE
  5
369
100
AcDbEntity
  8
0
100
AcDbPolyline
 62
7
  6
CONTINUOUS
 90
34
 70
0
 10
7.0846281229
 20
7.5750072141
 10
7.0829029253
 20
7.571335072
 10
7.0816446977
 20
7.5686919059
 10
7.0803928911
 20
7.5660908369
 10
7.0791502354
 20
7.5635361906
 10
7.0779185654
 20
7.5610309415
 10
7.0766999175
 20
7.5585787971
 10
7.0754963997
 20
7.5561832922
 10
7.074309569
 20
7.5538465719
 10
7.0731414442
 20
7.5515714649
 10
7.0719939075
 20
7.5493608439
 10
7.0708681985
 20
7.5472166398
 10
7.0697658615
 20
7.5451411342
 10
7.0686885635
 20
7.5431365842
 10
7.0676378021
 20
7.5412046949
 10
7.0666150438
 20
7.5393470284
 10
7.0656215799
 20
7.537565215
 10
7.0646587722
 20
7.5358609776
 10
7.0637277138
 20
7.5342353556
 10
7.06282961
 20
7.5326893988
 10
7.061966224
 20
7.5312249156
 10
7.061138463
 20
7.5298421736
 10
7.0603474755
 20
7.5285420479
 10
7.0595957653
 20
7.5273274635
 10
7.0588839215
 20
7.526197977
 10
7.0582134057
 20
7.5251543544
 10
7.0575886308
 20
7.5242015817
 10
7.0570091645
 20
7.5233368976
 10
7.0564779233
 20
7.5225625575
 10
7.0560049332
 20
7.5218903829
 10
7.0555905336
 20
7.5213173573
 10
7.0552368534
 20
7.5208426299
 10
7.054957294
 20
7.5204792721
 10
7.0547520452
 20
7.5202215497
  0
LINE
  5
36A
100
AcDbEntity
  8
ALL_ASSEMBLY_MEMBERS
100
AcDbLine
 62
7
  6
CONTINUOUS
 10
2.2231982435
 20
2.2823654709
 11
2.2235155546
 21
2.2825280456
  0
LINE
  5
36B
100
AcDbEntity
  8
ALL_ASSEMBLY_MEMBERS
100
AcDbLine
 62
7
  6
CONTINUOUS
 10
2.2241513662
 20
2.2828506243
 11
2.2247887661
 21
2.2831697666
  0
LINE
  5
36C
100
AcDbEntity
  8
ALL_ASSEMBLY_MEMBERS
100
AcDbLine
 62
7
  6
CONTINUOUS
 10
2.2244698674
 20
2.2830106257
 11
2.2247887661
 21
2.2831697666
  0
LINE
  5
36D
100
AcDbEntity
  8
ALL_ASSEMBLY_MEMBERS
100
AcDbLine
 62
7
  6
CONTINUOUS
 10
2.224918814
 20
2.2830107837
 11
2.2252605522
 21
2.2831697666
  0
LINE
  5
36E
100
AcDbEntity
  8
0
100
AcDbLine
 62
7
  6
CONTINUOUS
 10
7.0803744384
 20
2.0441001915
 11
7.1041244384
 21
2.0029639848
  0
LINE
  5
36F
100
AcDbEntity
  8
0
100
AcDbLine
 62
7
  6
CONTINUOUS
 10
7.4716244384
 20
1.5851755091
 11
7.4953744384
 21
1.5440393024
  0
LINE
  5
370
100
AcDbEntity
  8
0
100
AcDbLine
 62
7
  6
CONTINUOUS
 10
7.1641186824
 20
6.9319864824
 11
7.1760893875
 21
6.9648757242
  0
LINE
  5
371
100
AcDbEntity
  8
0
100
AcDbLine
 62
7
  6
CONTINUOUS
 10
7.1809243604
 20
6.8867908156
 11
7.1857886236
 21
6.900155269
  0
LWPOLYLINE
  5
372
100
AcDbEntity
  8
DEFAULT_SURFACES
100
AcDbPolyline
 62
7
  6
CONTINUOUS
 90
49
 70
0
 10
7.6091163385
 20
6.9650509523
 10
7.6319859395
 20
7.0159100497
 10
7.6429751384
 20
7.0405283791
 10
7.6536413369
 20
7.0647815201
 10
7.6639163694
 20
7.0886664272
 10
7.6737261452
 20
7.1121456981
 10
7.6830827185
 20
7.135375925
 10
7.6919398181
 20
7.1583710702
 10
7.7002341611
 20
7.1810887711
 10
7.7079491223
 20
7.2036050563
 10
7.7150477782
 20
7.2259429731
 10
7.7214740249
 20
7.2480570065
 10
7.7271840876
 20
7.2699218532
 10
7.7321435318
 20
7.2915302722
 10
7.7363204903
 20
7.3128708813
 10
7.7396842719
 20
7.3339131903
 10
7.742211912
 20
7.3546347118
 10
7.743888368
 20
7.3750434309
 10
7.7446998787
 20
7.3951554698
 10
7.7446329674
 20
7.4149526459
 10
7.7436776992
 20
7.4344420174
 10
7.7418191692
 20
7.453677723
 10
7.7390430291
 20
7.4726582144
 10
7.7353379255
 20
7.4913755539
 10
7.7306809199
 20
7.5098737654
 10
7.7250451524
 20
7.5281823513
 10
7.7184242949
 20
7.5462628157
 10
7.7108303132
 20
7.5640578157
 10
7.7022629764
 20
7.581562701
 10
7.6927222692
 20
7.5987768853
 10
7.6822415576
 20
7.6156512674
 10
7.6708318027
 20
7.6321885609
 10
7.6585107345
 20
7.648384574
 10
7.6453452534
 20
7.664182381
 10
7.6313823744
 20
7.6795664344
 10
7.6166413703
 20
7.6945556541
 10
7.6011630186
 20
7.7091466475
 10
7.5850019366
 20
7.7233274971
 10
7.5681820969
 20
7.7371158259
 10
7.5506935951
 20
7.7505522722
 10
7.5325664424
 20
7.7636418371
 10
7.5138383403
 20
7.7763848681
 10
7.4944979156
 20
7.788813772
 10
7.4745790454
 20
7.800928747
 10
7.4541090441
 20
7.8127348137
 10
7.4330532884
 20
7.8242702286
 10
7.4114130115
 20
7.8355487592
 10
7.3892342979
 20
7.8465607073
 10
7.3703013648
 20
7.8555623133
  0
LWPOLYLINE
  5
373
100
AcDbEntity
  8
0
100
AcDbPolyline
 62
7
  6
CONTINUOUS
 90
33
 70
0
 10
7.1074347518
 20
7.6333418009
 10
7.1074317197
 20
7.633324532
 10
7.1073976892
 20
7.6331366899
 10
7.1073238549
 20
7.6327717876
 10
7.1072108643
 20
7.632262754
 10
7.1070554644
 20
7.6316141827
 10
7.1068529309
 20
7.6308222167
 10
7.1066066599
 20
7.6299116029
 10
7.1063159739
 20
7.6288872576
 10
7.1059782839
 20
7.6277464734
 10
7.1055958819
 20
7.6265024502
 10
7.105168577
 20
7.6251585963
 10
7.1046950502
 20
7.6237142141
 10
7.1041763659
 20
7.6221753704
 10
7.1036123911
 20
7.6205438377
 10
7.1030028004
 20
7.6188208546
 10
7.1023484823
 20
7.6170112243
 10
7.101649573
 20
7.6151172033
 10
7.1009061821
 20
7.6131406255
 10
7.1001193274
 20
7.6110853562
 10
7.0992896454
 20
7.6089540144
 10
7.0984175757
 20
7.6067492723
 10
7.0975040695
 20
7.6044750256
 10
7.0965500721
 20
7.6021347446
 10
7.0955565785
 20
7.5997316269
 10
7.0945248451
 20
7.5972691889
 10
7.0934561114
 20
7.5947514218
 10
7.0923515214
 20
7.5921822856
 10
7.0912122879
 20
7.5895655371
 10
7.0900400981
 20
7.58690563
 10
7.0888368224
 20
7.5842071274
 10
7.087604118
 20
7.5814748667
 10
7.0863440228
 20
7.5787147046
  0
LINE
  5
374
100
AcDbEntity
  8
0
100
AcDbLine
 62
7
  6
CONTINUOUS
 10
7.4759904294
 20
6.7837893024
 11
7.4794425676
 21
6.7932739742
  0
LINE
  5
375
100
AcDbEntity
  8
0
100
AcDbLine
 62
7
  6
CONTINUOUS
 10
7.5165034152
 20
6.8037289287
 11
7.5284741203
 21
6.8366181704
  0
LWPOLYLINE
  5
376
100
AcDbEntity
  8
DEFAULT_SURFACES
100
AcDbPolyline
 62
7
  6
CONTINUOUS
 90
6
 70
0
 10
7.5519664358
 20
6.8280676668
 10
7.5623384574
 20
6.855473959
 10
7.5738685454
 20
6.8840285677
 10
7.5856614676
 20
6.9118857247
 10
7.597454091
 20
6.938872548
 10
7.6091163385
 20
6.9650509523
  0
LINE
  5
377
100
AcDbEntity
  8
ALL_FEATURES
100
AcDbLine
 62
7
  6
CONTINUOUS
 10
6.7342745833
 20
1.9798931323
 11
6.7342745833
 21
1.5799588491
  0
LINE
  5
378
100
AcDbEntity
  8
ALL_FEATURES
100
AcDbLine
 62
7
  6
CONTINUOUS
 10
6.7450295062
 20
1.5385744496
 11
6.7450295062
 21
2.0215041551
  0
LINE
  5
379
100
AcDbEntity
  8
ALL_FEATURES
100
AcDbLine
 62
7
  6
CONTINUOUS
 10
6.7723254904
 20
2.0262893024
 11
6.7723254904
 21
1.9683593223
  0
LINE
  5
37A
100
AcDbEntity
  8
ALL_FEATURES
100
AcDbLine
 62
7
  6
CONTINUOUS
 10
6.7723254904
 20
1.5337893024
 11
6.7723254904
 21
1.5917192824
  0
LINE
  5
37B
100
AcDbEntity
  8
ALL_FEATURES
100
AcDbLine
 62
7
  6
CONTINUOUS
 10
6.7723254904
 20
1.7221093223
 11
6.7723254904
 21
1.8379692824
  0
LINE
  5
37C
100
AcDbEntity
  8
ALL_FEATURES
100
AcDbLine
 62
7
  6
CONTINUOUS
 10
6.8106817428
 20
2.0262893024
 11
6.8106817428
 21
1.9683593223
  0
LINE
  5
37D
100
AcDbEntity
  8
ALL_FEATURES
100
AcDbLine
 62
7
  6
CONTINUOUS
 10
6.8106817428
 20
1.5337893024
 11
6.8106817428
 21
1.5917192824
  0
LINE
  5
37E
100
AcDbEntity
  8
ALL_FEATURES
100
AcDbLine
 62
7
  6
CONTINUOUS
 10
6.8106817428
 20
1.7221093223
 11
6.8106817428
 21
1.8379692824
  0
LINE
  5
37F
100
AcDbEntity
  8
ALL_FEATURES
100
AcDbLine
 62
7
  6
CONTINUOUS
 10
6.8373744384
 20
1.5375393024
 11
6.8373744384
 21
2.0225393024
  0
LINE
  5
380
100
AcDbEntity
  8
ALL_FEATURES
100
AcDbLine
 62
7
  6
CONTINUOUS
 10
6.8673744384
 20
1.5375393024
 11
6.8673744384
 21
2.0225393024
  0
LINE
  5
381
100
AcDbEntity
  8
0
100
AcDbLine
 62
7
  6
CONTINUOUS
 10
6.8698744384
 20
1.9875393024
 11
6.8698744384
 21
1.5725393024
  0
LINE
  5
382
100
AcDbEntity
  8
ALL_FEATURES
100
AcDbLine
 62
7
  6
CONTINUOUS
 10
6.9128744384
 20
0.7890393024
 11
6.9128744384
 21
1.1015393024
  0
LINE
  5
383
100
AcDbEntity
  8
0
100
AcDbLine
 62
7
  6
CONTINUOUS
 10
7.0603747616
 20
6.3362893024
 11
7.5153741152
 21
6.3362893024
  0
LINE
  5
384
100
AcDbEntity
  8
0
100
AcDbLine
 62
7
  6
CONTINUOUS
 10
7.0528744384
 20
6.3437893024
 11
7.5228744384
 21
6.3437893024
  0
LINE
  5
385
100
AcDbEntity
  8
0
100
AcDbLine
 62
7
  6
CONTINUOUS
 10
7.3386701418
 20
1.6799508816
 11
7.3380262124
 21
1.6875572935
  0
LINE
  5
386
100
AcDbEntity
  8
ALL_FEATURES
100
AcDbLine
 62
7
  6
CONTINUOUS
 10
7.0416244384
 20
2.8100998307
 11
7.0416244384
 21
2.7237204941
  0
LINE
  5
387
100
AcDbEntity
  8
ALL_FEATURES
100
AcDbLine
 62
7
  6
CONTINUOUS
 10
7.0416244384
 20
1.371978774
 11
7.0416244384
 21
1.4583581107
  0
LINE
  5
388
100
AcDbEntity
  8
ALL_FEATURES
100
AcDbLine
 62
7
  6
CONTINUOUS
 10
7.0453744384
 20
2.7210393024
 11
7.0453744384
 21
2.6910393024
  0
LINE
  5
389
100
AcDbEntity
  8
ALL_FEATURES
100
AcDbLine
 62
7
  6
CONTINUOUS
 10
7.0453744384
 20
1.4610393024
 11
7.0453744384
 21
1.4910393024
  0
LINE
  5
38A
100
AcDbEntity
  8
0
100
AcDbLine
 62
7
  6
CONTINUOUS
 10
7.0528744384
 20
6.3437893024
 11
7.0528744384
 21
6.7762893024
  0
LINE
  5
38B
100
AcDbEntity
  8
0
100
AcDbLine
 62
7
  6
CONTINUOUS
 10
7.0803744384
 20
2.6882893024
 11
7.0803744384
 21
2.0441001915
  0
LINE
  5
38C
100
AcDbEntity
  8
0
100
AcDbLine
 62
7
  6
CONTINUOUS
 10
7.0803744384
 20
1.5440393024
 11
7.0803744384
 21
1.4910393024
  0
LINE
  5
38D
100
AcDbEntity
  8
ALL_FEATURES
100
AcDbLine
 62
7
  6
CONTINUOUS
 10
7.0995544184
 20
2.7860882503
 11
7.0995544184
 21
2.747731998
  0
LINE
  5
38E
100
AcDbEntity
  8
ALL_FEATURES
100
AcDbLine
 62
7
  6
CONTINUOUS
 10
7.0995544184
 20
1.3959903544
 11
7.0995544184
 21
1.4343466067
  0
LINE
  5
38F
100
AcDbEntity
  8
0
100
AcDbLine
 62
7
  6
CONTINUOUS
 10
7.1003744384
 20
1.2265393024
 11
7.1003744384
 21
1.3579394473
  0
LINE
  5
390
100
AcDbEntity
  8
0
100
AcDbLine
 62
7
  6
CONTINUOUS
 10
7.1003744384
 20
2.8241391575
 11
7.1003744384
 21
6.3362893024
  0
LINE
  5
391
100
AcDbEntity
  8
0
100
AcDbLine
 62
7
  6
CONTINUOUS
 10
7.1041244384
 20
2.0029639848
 11
7.1041244384
 21
1.9975393024
  0
LINE
  5
392
100
AcDbEntity
  8
0
100
AcDbLine
 62
7
  6
CONTINUOUS
 10
7.1258744523
 20
1.9610805491
 11
7.125874446
 21
1.5981449694
  0
LINE
  5
393
100
AcDbEntity
  8
0
100
AcDbLine
 62
7
  6
CONTINUOUS
 10
7.1496243807
 20
1.9111538696
 11
7.1496243796
 21
1.6489247342
  0
LINE
  5
394
100
AcDbEntity
  8
ALL_FEATURES
100
AcDbLine
 62
7
  6
CONTINUOUS
 10
7.2299444583
 20
2.7860882503
 11
7.2299444583
 21
2.747731998
  0
LINE
  5
395
100
AcDbEntity
  8
ALL_FEATURES
100
AcDbLine
 62
7
  6
CONTINUOUS
 10
7.2299444583
 20
1.3959903544
 11
7.2299444583
 21
1.4343466067
  0
LINE
  5
396
100
AcDbEntity
  8
0
100
AcDbLine
 62
7
  6
CONTINUOUS
 10
7.2948829624
 20
1.890596175
 11
7.2948829624
 21
1.8859276917
  0
LINE
  5
397
100
AcDbEntity
  8
0
100
AcDbLine
 62
7
  6
CONTINUOUS
 10
7.2951244384
 20
1.8479358805
 11
7.2951244384
 21
1.8420197797
  0
LINE
  5
398
100
AcDbEntity
  8
0
100
AcDbLine
 62
7
  6
CONTINUOUS
 10
7.2959293488
 20
1.716292627
 11
7.2959293488
 21
1.6869536098
  0
LINE
  5
399
100
AcDbEntity
  8
0
100
AcDbLine
 62
7
  6
CONTINUOUS
 10
7.0528747127
 20
6.6712893024
 11
7.5228744384
 21
6.6712893024
  0
LINE
  5
39A
100
AcDbEntity
  8
0
100
AcDbLine
 62
7
  6
CONTINUOUS
 10
7.0528744384
 20
6.7762893024
 11
7.5228744384
 21
6.7762893024
  0
LINE
  5
39B
100
AcDbEntity
  8
0
100
AcDbLine
 62
7
  6
CONTINUOUS
 10
7.0603762918
 20
6.7837893024
 11
7.5153725849
 21
6.7837893024
  0
LWPOLYLINE
  5
39C
100
AcDbEntity
  8
ALL_FEATURES
100
AcDbPolyline
 62
7
  6
CONTINUOUS
 90
4
 70
0
 10
7.175666153
 20
7.5067778192
 10
7.1762493083
 20
7.50038601
 10
7.1763545467
 20
7.4992222462
 10
7.1763818203
 20
7.4989202381
  0
LWPOLYLINE
  5
39D
100
AcDbEntity
  8
ALL_FEATURES
100
AcDbPolyline
 62
7
  6
CONTINUOUS
 90
4
 70
0
 10
7.1869950003
 20
7.5014950909
 10
7.1875781556
 20
7.4951032817
 10
7.187683394
 20
7.4939395179
 10
7.1877106676
 20
7.4936375098
  0
LINE
  5
39E
100
AcDbEntity
  8
ALL_FEATURES
100
AcDbLine
 62
7
  6
CONTINUOUS
 10
7.198767805
 20
7.5475606701
 11
7.1981913603
 21
7.5538783594
  0
LINE
  5
39F
100
AcDbEntity
  8
ALL_FEATURES
100
AcDbLine
 62
7
  6
CONTINUOUS
 10
7.2100966523
 20
7.5422779418
 11
7.2095202076
 21
7.5485956311
  0
LINE
  5
3A0
100
AcDbEntity
  8
ALL_FEATURES
100
AcDbLine
 62
7
  6
CONTINUOUS
 10
7.1981913603
 20
7.5538783594
 11
7.1980521376
 21
7.5554182514
  0
LINE
  5
3A1
100
AcDbEntity
  8
ALL_FEATURES
100
AcDbLine
 62
7
  6
CONTINUOUS
 10
7.2095202076
 20
7.5485956311
 11
7.209380985
 21
7.5501355231
  0
LINE
  5
3A2
100
AcDbEntity
  8
0
100
AcDbLine
 62
7
  6
CONTINUOUS
 10
7.3028515876
 20
1.716292627
 11
7.3028515876
 21
1.6927489726
  0
LINE
  5
3A3
100
AcDbEntity
  8
0
100
AcDbLine
 62
7
  6
CONTINUOUS
 10
7.3333577256
 20
1.855904495
 11
7.3333577256
 21
1.8479358805
  0
LINE
  5
3A4
100
AcDbEntity
  8
0
100
AcDbLine
 62
7
  6
CONTINUOUS
 10
7.3333577256
 20
1.8406916726
 11
7.3333577256
 21
1.8222189637
  0
LINE
  5
3A5
100
AcDbEntity
  8
0
100
AcDbLine
 62
7
  6
CONTINUOUS
 10
7.3399982445
 20
1.855904495
 11
7.3399982445
 21
1.8479358805
  0
LINE
  5
3A6
100
AcDbEntity
  8
0
100
AcDbLine
 62
7
  6
CONTINUOUS
 10
7.3399982445
 20
1.8406916726
 11
7.3399982445
 21
1.8150954903
  0
LINE
  5
3A7
100
AcDbEntity
  8
ALL_FEATURES
100
AcDbLine
 62
7
  6
CONTINUOUS
 10
7.3458044184
 20
2.7860882503
 11
7.3458044184
 21
2.747731998
  0
LINE
  5
3A8
100
AcDbEntity
  8
ALL_FEATURES
100
AcDbLine
 62
7
  6
CONTINUOUS
 10
7.3458044184
 20
1.3959903544
 11
7.3458044184
 21
1.4343466067
  0
LINE
  5
3A9
100
AcDbEntity
  8
0
100
AcDbLine
 62
7
  6
CONTINUOUS
 10
7.3471619552
 20
1.8097025862
 11
7.3471619552
 21
1.7807660277
  0
LINE
  5
3AA
100
AcDbEntity
  8
0
100
AcDbLine
 62
7
  6
CONTINUOUS
 10
7.3541244384
 20
1.890596175
 11
7.3541244384
 21
1.8833519671
  0
LINE
  5
3AB
100
AcDbEntity
  8
0
100
AcDbLine
 62
7
  6
CONTINUOUS
 10
7.3541244384
 20
1.8479358805
 11
7.3541244384
 21
1.8406916726
  0
LINE
  5
3AC
100
AcDbEntity
  8
0
100
AcDbLine
 62
7
  6
CONTINUOUS
 10
7.3541244384
 20
1.8097025862
 11
7.3541244384
 21
1.7707046334
  0
LINE
  5
3AD
100
AcDbEntity
  8
0
100
AcDbLine
 62
7
  6
CONTINUOUS
 10
7.4716244384
 20
2.0029639848
 11
7.4716244384
 21
1.5851755091
  0
LINE
  5
3AE
100
AcDbEntity
  8
0
100
AcDbLine
 62
7
  6
CONTINUOUS
 10
7.4753744384
 20
1.2265393024
 11
7.4753744384
 21
1.3579394473
  0
LINE
  5
3AF
100
AcDbEntity
  8
0
100
AcDbLine
 62
7
  6
CONTINUOUS
 10
7.4753744384
 20
2.8241391575
 11
7.4753744384
 21
6.3362893024
  0
LINE
  5
3B0
100
AcDbEntity
  8
ALL_FEATURES
100
AcDbLine
 62
7
  6
CONTINUOUS
 10
7.4761944583
 20
2.7860882503
 11
7.4761944583
 21
2.747731998
  0
LINE
  5
3B1
100
AcDbEntity
  8
ALL_FEATURES
100
AcDbLine
 62
7
  6
CONTINUOUS
 10
7.4761944583
 20
1.3959903544
 11
7.4761944583
 21
1.4343466067
  0
LINE
  5
3B2
100
AcDbEntity
  8
0
100
AcDbLine
 62
7
  6
CONTINUOUS
 10
7.4953744384
 20
2.6882893024
 11
7.4953744384
 21
2.0441001915
  0
LINE
  5
3B3
100
AcDbEntity
  8
0
100
AcDbLine
 62
7
  6
CONTINUOUS
 10
7.4953744384
 20
1.5440393024
 11
7.4953744384
 21
1.4910393024
  0
LINE
  5
3B4
100
AcDbEntity
  8
0
100
AcDbLine
 62
7
  6
CONTINUOUS
 10
7.5228744384
 20
6.3437893024
 11
7.5228744384
 21
6.7762893024
  0
LINE
  5
3B5
100
AcDbEntity
  8
ALL_FEATURES
100
AcDbLine
 62
7
  6
CONTINUOUS
 10
7.5303744384
 20
2.7210393024
 11
7.5303744384
 21
2.6910393024
  0
LINE
  5
3B6
100
AcDbEntity
  8
ALL_FEATURES
100
AcDbLine
 62
7
  6
CONTINUOUS
 10
7.5303744384
 20
1.4610393024
 11
7.5303744384
 21
1.4910393024
  0
LINE
  5
3B7
100
AcDbEntity
  8
ALL_FEATURES
100
AcDbLine
 62
7
  6
CONTINUOUS
 10
7.5341244384
 20
1.371978774
 11
7.5341244384
 21
1.4583581107
  0
LINE
  5
3B8
100
AcDbEntity
  8
ALL_FEATURES
100
AcDbLine
 62
7
  6
CONTINUOUS
 10
7.5341244384
 20
2.7237204941
 11
7.5341244384
 21
2.8100998307
  0
LINE
  5
3B9
100
AcDbEntity
  8
0
100
AcDbLine
 62
7
  6
CONTINUOUS
 10
7.3127117508
 20
1.7795184103
 11
7.3119470852
 21
1.7720729853
  0
LINE
  5
3BA
100
AcDbEntity
  8
ALL_FEATURES
100
AcDbLine
 62
7
  6
CONTINUOUS
 10
7.6628744384
 20
0.7890393024
 11
7.6628744384
 21
1.1015393024
  0
LINE
  5
3BB
100
AcDbEntity
  8
0
100
AcDbLine
 62
7
  6
CONTINUOUS
 10
7.3271196628
 20
1.6880402401
 11
7.326234261
 21
1.6812387398
  0
LINE
  5
3BC
100
AcDbEntity
  8
0
100
AcDbLine
 62
7
  6
CONTINUOUS
 10
7.088168667
 20
1.5575393024
 11
7.0803744384
 21
1.5440393024
  0
LINE
  5
3BD
100
AcDbEntity
  8
0
100
AcDbLine
 62
7
  6
CONTINUOUS
 10
7.1178828795
 20
7.402990993
 11
7.0761511716
 21
7.4051780592
  0
LINE
  5
3BE
100
AcDbEntity
  8
0
100
AcDbLine
 62
7
  6
CONTINUOUS
 10
7.4532657891
 20
6.7837893024
 11
7.1785770052
 21
6.8837678434
  0
LINE
  5
3BF
100
AcDbEntity
  8
0
100
AcDbLine
 62
7
  6
CONTINUOUS
 10
7.4639186922
 20
6.7837893024
 11
7.1809243604
 21
6.8867908156
  0
LINE
  5
3C0
100
AcDbEntity
  8
0
100
AcDbLine
 62
7
  6
CONTINUOUS
 10
7.4794425676
 20
6.7932739742
 11
7.1857886236
 21
6.900155269
  0
LINE
  5
3C1
100
AcDbEntity
  8
0
100
AcDbLine
 62
7
  6
CONTINUOUS
 10
7.1686032086
 20
6.9223729151
 11
7.5068885869
 21
6.7992471067
  0
LINE
  5
3C2
100
AcDbEntity
  8
0
100
AcDbLine
 62
7
  6
CONTINUOUS
 10
7.1641186824
 20
6.9319864824
 11
7.5165034152
 21
6.8037289287
  0
LINE
  5
3C3
100
AcDbEntity
  8
0
100
AcDbLine
 62
7
  6
CONTINUOUS
 10
7.1525970719
 20
6.9734262277
 11
7.5519664358
 21
6.8280676668
  0
LINE
  5
3C4
100
AcDbEntity
  8
0
100
AcDbLine
 62
7
  6
CONTINUOUS
 10
7.4953744384
 20
2.0441001915
 11
7.4716244384
 21
2.0029639848
  0
LWPOLYLINE
  5
3C5
100
AcDbEntity
  8
0
100
AcDbPolyline
 62
7
  6
CONTINUOUS
 90
6
 70
0
 10
7.2396288404
 20
1.7291644266
 10
7.2493377281
 20
1.7394199153
 10
7.259064797
 20
1.7496617567
 10
7.2687202566
 20
1.7598012525
 10
7.2783326911
 20
1.769927101
 10
7.2878744384
 20
1.7800393024
  0
LINE
  5
3C6
100
AcDbEntity
  8
0
100
AcDbLine
 62
7
  6
CONTINUOUS
 10
7.1485047294
 20
1.6330792371
 11
7.1661671281
 21
1.6517111846
  0
LINE
  5
3C7
100
AcDbEntity
  8
0
100
AcDbLine
 62
7
  6
CONTINUOUS
 10
7.1798775576
 20
1.66616475
 11
7.1951579576
 21
1.6822836385
  0
LWPOLYLINE
  5
3C8
100
AcDbEntity
  8
0
100
AcDbPolyline
 62
7
  6
CONTINUOUS
 90
4
 70
0
 10
7.2033677203
 20
1.6909330507
 10
7.211966733
 20
1.7000020475
 10
7.2209210089
 20
1.7094554927
 10
7.2301386794
 20
1.7191613862
  0
LINE
  5
3C9
100
AcDbEntity
  8
0
100
AcDbLine
 62
7
  6
CONTINUOUS
 10
7.1433786196
 20
1.6276797751
 11
7.2878744384
 21
1.7800393024
  0
LINE
  5
3CA
100
AcDbEntity
  8
0
100
AcDbLine
 62
7
  6
CONTINUOUS
 10
7.1496243796
 20
1.6489247342
 11
7.2878744384
 21
1.7800393024
  0
LWPOLYLINE
  5
3CB
100
AcDbEntity
  8
0
100
AcDbPolyline
 62
7
  6
CONTINUOUS
 90
3
 70
0
 10
7.2052526443
 20
1.7016802898
 10
7.2149305311
 20
1.7108469184
 10
7.2248998998
 20
1.720315172
  0
LWPOLYLINE
  5
3CC
100
AcDbEntity
  8
0
100
AcDbPolyline
 62
7
  6
CONTINUOUS
 90
6
 70
0
 10
7.2352197961
 20
1.7301050791
 10
7.2458311742
 20
1.7401500053
 10
7.2564324826
 20
1.7502201918
 10
7.2669232042
 20
1.7602131466
 10
7.2774038561
 20
1.7701630921
 10
7.2878744384
 20
1.7800393024
  0
LWPOLYLINE
  5
3CD
100
AcDbEntity
  8
DEFAULT_SURFACES
100
AcDbPolyline
 62
7
  6
CONTINUOUS
 90
34
 70
0
 10
7.0533376685
 20
7.175831473
 10
7.0575207799
 20
7.1738572874
 10
7.0657503754
 20
7.1698273575
 10
7.0738499684
 20
7.1656515301
 10
7.0817840476
 20
7.1613315698
 10
7.0895283679
 20
7.1568634839
 10
7.0970672563
 20
7.1522374312
 10
7.1043747812
 20
7.1474485317
 10
7.1114143227
 20
7.142499174
 10
7.1181534894
 20
7.137390348
 10
7.1245774063
 20
7.1321097653
 10
7.1306445171
 20
7.1266672078
 10
7.1362953595
 20
7.1210971744
 10
7.1415240839
 20
7.1153903548
 10
7.1463100592
 20
7.1095543825
 10
7.1506012311
 20
7.1036502168
 10
7.1543870929
 20
7.0977086439
 10
7.1576998444
 20
7.0916988586
 10
7.160562158
 20
7.0855897906
 10
7.162965559
 20
7.0794144531
 10
7.16493141
 20
7.0731393029
 10
7.1664927867
 20
7.0666318806
 10
7.167635439
 20
7.0598516478
 10
7.1683332507
 20
7.0528357283
 10
7.1685751329
 20
7.0455667676
 10
7.1683495913
 20
7.038006236
 10
7.1676508187
 20
7.030189193
 10
7.1664978576
 20
7.0222095387
 10
7.1649179532
 20
7.0140844889
 10
7.1629365215
 20
7.0057959718
 10
7.160598258
 20
6.9973863937
 10
7.1579486316
 20
6.9888701267
 10
7.1550279353
 20
6.9802330663
 10
7.1525970719
 20
6.9734262277
  0
LINE
  5
3CE
100
AcDbEntity
  8
ALL_FEATURES
100
AcDbLine
 62
7
  6
CONTINUOUS
 10
6.9787651516
 20
7.1963330653
 11
6.9517761051
 21
7.2166707706
  0
LINE
  5
3CF
100
AcDbEntity
  8
ALL_FEATURES
100
AcDbLine
 62
7
  6
CONTINUOUS
 10
7.1057161589
 20
7.6268937331
 11
7.1053960954
 21
7.6276126075
  0
LINE
  5
3D0
100
AcDbEntity
  8
ALL_FEATURES
100
AcDbLine
 62
7
  6
CONTINUOUS
 10
7.0460201929
 20
7.5275154737
 11
7.0527543335
 21
7.5243752924
  0
LINE
  5
3D1
100
AcDbEntity
  8
ALL_FEATURES
100
AcDbLine
 62
7
  6
CONTINUOUS
 10
7.1892494923
 20
7.4927063641
 11
7.1878325246
 21
7.493367107
  0
LINE
  5
3D2
100
AcDbEntity
  8
ALL_FEATURES
100
AcDbLine
 62
7
  6
CONTINUOUS
 10
7.1779206449
 20
7.4979890923
 11
7.1765036772
 21
7.4986498352
  0
LINE
  5
3D3
100
AcDbEntity
  8
ALL_FEATURES
100
AcDbLine
 62
7
  6
CONTINUOUS
 10
7.1735193811
 20
7.507505787
 11
7.175692396
 21
7.5064924935
  0
LINE
  5
3D4
100
AcDbEntity
  8
ALL_FEATURES
100
AcDbLine
 62
7
  6
CONTINUOUS
 10
7.1843194914
 20
7.5024696129
 11
7.1870212434
 21
7.5012097652
  0
LINE
  5
3D5
100
AcDbEntity
  8
ALL_FEATURES
100
AcDbLine
 62
7
  6
CONTINUOUS
 10
7.1956483387
 20
7.4971868846
 11
7.1966302297
 21
7.4967290213
  0
LINE
  5
3D6
100
AcDbEntity
  8
ALL_FEATURES
100
AcDbLine
 62
7
  6
CONTINUOUS
 10
7.2127721612
 20
7.5413034204
 11
7.2100704197
 21
7.5425632631
  0
LINE
  5
3D7
100
AcDbEntity
  8
ALL_FEATURES
100
AcDbLine
 62
7
  6
CONTINUOUS
 10
7.2014433139
 20
7.5465861486
 11
7.1987415724
 21
7.5478459914
  0
LINE
  5
3D8
100
AcDbEntity
  8
ALL_FEATURES
100
AcDbLine
 62
7
  6
CONTINUOUS
 10
7.2194452765
 20
7.5456560472
 11
7.2191710076
 21
7.5457839409
  0
LINE
  5
3D9
100
AcDbEntity
  8
ALL_FEATURES
100
AcDbLine
 62
7
  6
CONTINUOUS
 10
7.209259128
 20
7.5504059263
 11
7.2078421603
 21
7.5510666692
  0
LINE
  5
3DA
100
AcDbEntity
  8
ALL_FEATURES
100
AcDbLine
 62
7
  6
CONTINUOUS
 10
7.1979302807
 20
7.5556886545
 11
7.196513313
 21
7.5563493974
  0
LINE
  5
3DB
100
AcDbEntity
  8
ALL_FEATURES
100
AcDbLine
 62
7
  6
CONTINUOUS
 10
7.0961922077
 20
7.6351097066
 11
7.1029263483
 21
7.6319695252
  0
LINE
  5
3DC
100
AcDbEntity
  8
0
100
AcDbLine
 62
7
  6
CONTINUOUS
 10
7.3661590285
 20
7.4185952448
 11
7.3663122781
 21
7.4184588251
  0
LINE
  5
3DD
100
AcDbEntity
  8
0
100
AcDbLine
 62
7
  6
CONTINUOUS
 10
7.3680866881
 20
7.4168792813
 11
7.3683950314
 21
7.4166048003
  0
LINE
  5
3DE
100
AcDbEntity
  8
0
100
AcDbLine
 62
7
  6
CONTINUOUS
 10
7.3695325071
 20
7.4155922424
 11
7.3697857841
 21
7.4153667804
  0
LINE
  5
3DF
100
AcDbEntity
  8
0
100
AcDbLine
 62
7
  6
CONTINUOUS
 10
7.3662136874
 20
7.4186478288
 11
7.3663661984
 21
7.4185106348
  0
LINE
  5
3E0
100
AcDbEntity
  8
0
100
AcDbLine
 62
7
  6
CONTINUOUS
 10
7.3681262768
 20
7.4169167797
 11
7.3684310292
 21
7.4166388122
  0
LINE
  5
3E1
100
AcDbEntity
  8
0
100
AcDbLine
 62
7
  6
CONTINUOUS
 10
7.3695523833
 20
7.4156108487
 11
7.3698014483
 21
7.4153814133
  0
LINE
  5
3E2
100
AcDbEntity
  8
0
100
AcDbLine
 62
7
  6
CONTINUOUS
 10
7.3809937891
 20
7.4045439733
 11
7.3811916081
 21
7.4043517397
  0
LINE
  5
3E3
100
AcDbEntity
  8
0
100
AcDbLine
 62
7
  6
CONTINUOUS
 10
7.3810349647
 20
7.4045788746
 11
7.3812292737
 21
7.4043836076
  0
LINE
  5
3E4
100
AcDbEntity
  8
ALL_FEATURES
100
AcDbLine
 62
7
  6
CONTINUOUS
 10
7.3514881573
 20
7.8891610592
 11
7.2737341332
 21
7.9071119901
  0
ARC
  5
3E5
100
AcDbEntity
  8
0
100
AcDbCircle
 62
7
  6
CONTINUOUS
 10
2.0695063281
 20
1.5815014183
 40
0.01375
100
AcDbArc
 50
180.0000000358
 51
270.0
  0
ARC
  5
3E6
100
AcDbEntity
  8
0
100
AcDbCircle
 62
7
  6
CONTINUOUS
 10
2.0307563295
 20
2.0475393024
 40
0.025
100
AcDbArc
 50
0.0
 51
90.0
  0
ARC
  5
3E7
100
AcDbEntity
  8
ALL_ASSEMBLY_MEMBERS
100
AcDbCircle
 62
7
  6
CONTINUOUS
 10
2.0781000781
 20
2.1033565693
 40
0.01953125
100
AcDbArc
 50
79.239279359
 51
88.7169772457
  0
ARC
  5
3E8
100
AcDbEntity
  8
ALL_ASSEMBLY_MEMBERS
100
AcDbCircle
 62
7
  6
CONTINUOUS
 10
1.9939750781
 20
2.1364985296
 40
0.01171875
100
AcDbArc
 50
185.3698321256
 51
268.7169772457
  0
ARC
  5
3E9
100
AcDbEntity
  8
ALL_ASSEMBLY_MEMBERS
100
AcDbCircle
 62
7
  6
CONTINUOUS
 10
1.9939750781
 20
2.1343051521
 40
0.01171875
100
AcDbArc
 50
90.0
 51
174.6301678744
  0
ARC
  5
3EA
100
AcDbEntity
  8
ALL_ASSEMBLY_MEMBERS
100
AcDbCircle
 62
7
  6
CONTINUOUS
 10
2.1643018231
 20
2.2566419464
 40
0.102531759
100
AcDbArc
 50
14.4354745854
 51
14.9945898526
  0
ARC
  5
3EB
100
AcDbEntity
  8
ALL_ASSEMBLY_MEMBERS
100
AcDbCircle
 62
7
  6
CONTINUOUS
 10
2.2305119817
 20
2.1612462431
 40
0.0795220813
100
AcDbArc
 50
78.6853401192
 51
79.0113794307
  0
ARC
  5
3EC
100
AcDbEntity
  8
ALL_ASSEMBLY_MEMBERS
100
AcDbCircle
 62
7
  6
CONTINUOUS
 10
2.2307896179
 20
2.1627049225
 40
0.0780372255
100
AcDbArc
 50
79.0073420121
 51
80.634967537
  0
ARC
  5
3ED
100
AcDbEntity
  8
ALL_ASSEMBLY_MEMBERS
100
AcDbCircle
 62
7
  6
CONTINUOUS
 10
2.2260207044
 20
2.1635923038
 40
0.0771724459
100
AcDbArc
 50
78.5271502644
 51
79.1848921198
  0
ARC
  5
3EE
100
AcDbEntity
  8
ALL_ASSEMBLY_MEMBERS
100
AcDbCircle
 62
7
  6
CONTINUOUS
 10
2.2262922549
 20
2.165028349
 40
0.0757109542
100
AcDbArc
 50
79.1828240251
 51
80.5048979735
  0
ARC
  5
3EF
100
AcDbEntity
  8
ALL_ASSEMBLY_MEMBERS
100
AcDbCircle
 62
7
  6
CONTINUOUS
 10
2.2221196532
 20
2.166546722
 40
0.0742197433
100
AcDbArc
 50
78.2938525297
 51
78.9642858755
  0
ARC
  5
3F0
100
AcDbEntity
  8
ALL_ASSEMBLY_MEMBERS
100
AcDbCircle
 62
7
  6
CONTINUOUS
 10
2.2223915174
 20
2.1679549664
 40
0.0727854996
100
AcDbArc
 50
78.9621365811
 51
80.3100743144
  0
ARC
  5
3F1
100
AcDbEntity
  8
ALL_ASSEMBLY_MEMBERS
100
AcDbCircle
 62
7
  6
CONTINUOUS
 10
2.2189286887
 20
2.170512642
 40
0.0702512796
100
AcDbArc
 50
77.9765242848
 51
79.0088644269
  0
ARC
  5
3F2
100
AcDbEntity
  8
ALL_ASSEMBLY_MEMBERS
100
AcDbCircle
 62
7
  6
CONTINUOUS
 10
2.2073247745
 20
2.252770715
 40
0.0696282791
100
AcDbArc
 50
25.0046703321
 51
25.8865489452
  0
ARC
  5
3F3
100
AcDbEntity
  8
ALL_ASSEMBLY_MEMBERS
100
AcDbCircle
 62
7
  6
CONTINUOUS
 10
2.2191947377
 20
2.1718822283
 40
0.0688560919
100
AcDbArc
 50
79.0089038023
 51
80.0470684334
  0
ARC
  5
3F4
100
AcDbEntity
  8
ALL_ASSEMBLY_MEMBERS
100
AcDbCircle
 62
7
  6
CONTINUOUS
 10
2.2163724158
 20
2.1749342547
 40
0.0658325583
100
AcDbArc
 50
77.5663353794
 51
78.6398271772
  0
ARC
  5
3F5
100
AcDbEntity
  8
ALL_ASSEMBLY_MEMBERS
100
AcDbCircle
 62
7
  6
CONTINUOUS
 10
2.2166392601
 20
2.1762618439
 40
0.0644784169
100
AcDbArc
 50
78.6399279112
 51
79.7042123795
  0
ARC
  5
3F6
100
AcDbEntity
  8
ALL_ASSEMBLY_MEMBERS
100
AcDbCircle
 62
7
  6
CONTINUOUS
 10
2.2249371637
 20
2.2467634434
 40
0.0635009569
100
AcDbArc
 50
33.9231027719
 51
34.9820153534
  0
ARC
  5
3F7
100
AcDbEntity
  8
ALL_ASSEMBLY_MEMBERS
100
AcDbCircle
 62
7
  6
CONTINUOUS
 10
2.2145271857
 20
2.179996614
 40
0.0607723359
100
AcDbArc
 50
77.0479216428
 51
78.5226043779
  0
ARC
  5
3F8
100
AcDbEntity
  8
ALL_ASSEMBLY_MEMBERS
100
AcDbCircle
 62
7
  6
CONTINUOUS
 10
2.2148200155
 20
2.1814153256
 40
0.0593237264
100
AcDbArc
 50
78.5271215462
 51
79.2712339062
  0
ARC
  5
3F9
100
AcDbEntity
  8
ALL_ASSEMBLY_MEMBERS
100
AcDbCircle
 62
7
  6
CONTINUOUS
 10
2.2134134224
 20
2.185616284
 40
0.0551530523
100
AcDbArc
 50
76.3994364985
 51
78.3301207608
  0
ARC
  5
3FA
100
AcDbEntity
  8
ALL_ASSEMBLY_MEMBERS
100
AcDbCircle
 62
7
  6
CONTINUOUS
 10
2.2137089916
 20
2.1870052473
 40
0.0537330149
100
AcDbArc
 50
78.3391954993
 51
78.7294868712
  0
ARC
  5
3FB
100
AcDbEntity
  8
ALL_ASSEMBLY_MEMBERS
100
AcDbCircle
 62
7
  6
CONTINUOUS
 10
2.2128640316
 20
2.1909493439
 40
0.0498397192
100
AcDbArc
 50
75.5977609024
 51
76.4116925482
  0
ARC
  5
3FC
100
AcDbEntity
  8
ALL_ASSEMBLY_MEMBERS
100
AcDbCircle
 62
7
  6
CONTINUOUS
 10
2.2130795271
 20
2.1918413075
 40
0.0489220933
100
AcDbArc
 50
76.4115781026
 51
77.6389100817
  0
ARC
  5
3FD
100
AcDbEntity
  8
ALL_ASSEMBLY_MEMBERS
100
AcDbCircle
 62
7
  6
CONTINUOUS
 10
2.2132716406
 20
2.1927042622
 40
0.0480380176
100
AcDbArc
 50
77.6423993926
 51
78.0546616088
  0
ARC
  5
3FE
100
AcDbEntity
  8
ALL_ASSEMBLY_MEMBERS
100
AcDbCircle
 62
7
  6
CONTINUOUS
 10
2.2131416908
 20
2.1969425844
 40
0.0438550856
100
AcDbArc
 50
74.6703712323
 51
75.4646426393
  0
ARC
  5
3FF
100
AcDbEntity
  8
ALL_ASSEMBLY_MEMBERS
100
AcDbCircle
 62
7
  6
CONTINUOUS
 10
2.2133297893
 20
2.1976685957
 40
0.0431051033
100
AcDbArc
 50
75.4644639766
 51
76.3358629779
  0
ARC
  5
400
100
AcDbEntity
  8
ALL_ASSEMBLY_MEMBERS
100
AcDbCircle
 62
7
  6
CONTINUOUS
 10
2.2134993044
 20
2.1983650299
 40
0.0423883356
100
AcDbArc
 50
76.336131519
 51
77.1263728075
  0
ARC
  5
401
100
AcDbEntity
  8
ALL_ASSEMBLY_MEMBERS
100
AcDbCircle
 62
7
  6
CONTINUOUS
 10
2.2134898941
 20
2.1996142758
 40
0.0411885587
100
AcDbArc
 50
74.1609689923
 51
74.9712072234
  0
ARC
  5
402
100
AcDbEntity
  8
ALL_ASSEMBLY_MEMBERS
100
AcDbCircle
 62
7
  6
CONTINUOUS
 10
2.213631436
 20
2.2001392123
 40
0.0406448749
100
AcDbArc
 50
74.9720279198
 51
75.4204788129
  0
ARC
  5
403
100
AcDbEntity
  8
ALL_ASSEMBLY_MEMBERS
100
AcDbCircle
 62
7
  6
CONTINUOUS
 10
2.2138384307
 20
2.2009468891
 40
0.0398111007
100
AcDbArc
 50
75.4161872953
 51
76.774210983
  0
ARC
  5
404
100
AcDbEntity
  8
ALL_ASSEMBLY_MEMBERS
100
AcDbCircle
 62
7
  6
CONTINUOUS
 10
2.2142498879
 20
2.2016691836
 40
0.039
100
AcDbArc
 50
297.9119320453
 51
74.3237697393
  0
ARC
  5
405
100
AcDbEntity
  8
ALL_ASSEMBLY_MEMBERS
100
AcDbCircle
 62
7
  6
CONTINUOUS
 10
2.2142498879
 20
2.2016691836
 40
0.039
100
AcDbArc
 50
77.120359933
 51
77.2134851788
  0
ARC
  5
406
100
AcDbEntity
  8
ALL_ASSEMBLY_MEMBERS
100
AcDbCircle
 62
7
  6
CONTINUOUS
 10
2.2147125159
 20
2.2053610919
 40
0.0354665261
100
AcDbArc
 50
72.6979989961
 51
73.1773860592
  0
ARC
  5
407
100
AcDbEntity
  8
ALL_ASSEMBLY_MEMBERS
100
AcDbCircle
 62
7
  6
CONTINUOUS
 10
2.214808056
 20
2.2056766863
 40
0.0351367872
100
AcDbArc
 50
73.1775742789
 51
73.5399620619
  0
ARC
  5
408
100
AcDbEntity
  8
ALL_ASSEMBLY_MEMBERS
100
AcDbCircle
 62
7
  6
CONTINUOUS
 10
2.2150922052
 20
2.206661581
 40
0.0341117437
100
AcDbArc
 50
73.5289395141
 51
75.6026978996
  0
ARC
  5
409
100
AcDbEntity
  8
ALL_ASSEMBLY_MEMBERS
100
AcDbCircle
 62
7
  6
CONTINUOUS
 10
2.217014427
 20
2.2121459752
 40
0.0286516755
100
AcDbArc
 50
70.9148408513
 51
74.1041313856
  0
ARC
  5
40A
100
AcDbEntity
  8
ALL_ASSEMBLY_MEMBERS
100
AcDbCircle
 62
7
  6
CONTINUOUS
 10
2.2196767589
 20
2.2175629554
 40
0.023257629
100
AcDbArc
 50
68.6382885019
 51
72.158250051
  0
ARC
  5
40B
100
AcDbEntity
  8
ALL_ASSEMBLY_MEMBERS
100
AcDbCircle
 62
7
  6
CONTINUOUS
 10
2.2229829995
 20
2.22252706
 40
0.0183291406
100
AcDbArc
 50
65.6277357955
 51
69.5588563108
  0
ARC
  5
40C
100
AcDbEntity
  8
ALL_ASSEMBLY_MEMBERS
100
AcDbCircle
 62
7
  6
CONTINUOUS
 10
2.2268896366
 20
2.2269160564
 40
0.013999563
100
AcDbArc
 50
61.5314112923
 51
65.9672926555
  0
ARC
  5
40D
100
AcDbEntity
  8
ALL_ASSEMBLY_MEMBERS
100
AcDbCircle
 62
7
  6
CONTINUOUS
 10
2.3262154807
 20
2.0743913324
 40
0.2217857061
100
AcDbArc
 50
109.720126751
 51
110.4481484177
  0
ARC
  5
40E
100
AcDbEntity
  8
ALL_ASSEMBLY_MEMBERS
100
AcDbCircle
 62
7
  6
CONTINUOUS
 10
2.3261470013
 20
2.0743913324
 40
0.2217857061
100
AcDbArc
 50
69.5518515823
 51
70.279873249
  0
ARC
  5
40F
100
AcDbEntity
  8
ALL_ASSEMBLY_MEMBERS
100
AcDbCircle
 62
7
  6
CONTINUOUS
 10
2.3205025535
 20
2.0772760331
 40
0.2189198245
100
AcDbArc
 50
109.8645832727
 51
110.5970104561
  0
ARC
  5
410
100
AcDbEntity
  8
ALL_ASSEMBLY_MEMBERS
100
AcDbCircle
 62
7
  6
CONTINUOUS
 10
2.3201503386
 20
2.0772760331
 40
0.2189198245
100
AcDbArc
 50
69.4029895439
 51
70.1354167273
  0
ARC
  5
411
100
AcDbEntity
  8
ALL_ASSEMBLY_MEMBERS
100
AcDbCircle
 62
7
  6
CONTINUOUS
 10
2.3149668672
 20
2.0823432659
 40
0.2138871128
100
AcDbArc
 50
110.1262192578
 51
110.866575913
  0
ARC
  5
412
100
AcDbEntity
  8
ALL_ASSEMBLY_MEMBERS
100
AcDbCircle
 62
7
  6
CONTINUOUS
 10
2.3141050425
 20
2.0823432659
 40
0.2138871128
100
AcDbArc
 50
69.133424087
 51
69.8737807422
  0
ARC
  5
413
100
AcDbEntity
  8
ALL_ASSEMBLY_MEMBERS
100
AcDbCircle
 62
7
  6
CONTINUOUS
 10
2.3096475376
 20
2.0894682611
 40
0.2068140897
100
AcDbArc
 50
110.5122586667
 51
111.2641969651
  0
ARC
  5
414
100
AcDbEntity
  8
ALL_ASSEMBLY_MEMBERS
100
AcDbCircle
 62
7
  6
CONTINUOUS
 10
2.3080433976
 20
2.0894682611
 40
0.2068140897
100
AcDbArc
 50
68.7358030349
 51
69.4877413333
  0
ARC
  5
415
100
AcDbEntity
  8
ALL_ASSEMBLY_MEMBERS
100
AcDbCircle
 62
7
  6
CONTINUOUS
 10
2.3045850141
 20
2.0984755815
 40
0.197878958
100
AcDbArc
 50
111.0336962648
 51
111.8010513055
  0
ARC
  5
416
100
AcDbEntity
  8
ALL_ASSEMBLY_MEMBERS
100
AcDbCircle
 62
7
  6
CONTINUOUS
 10
2.301995122
 20
2.0984755815
 40
0.197878958
100
AcDbArc
 50
68.1989486945
 51
68.9663037352
  0
ARC
  5
417
100
AcDbEntity
  8
ALL_ASSEMBLY_MEMBERS
100
AcDbCircle
 62
7
  6
CONTINUOUS
 10
2.2998773774
 20
2.1090070771
 40
0.1874550043
100
AcDbArc
 50
112.1471219193
 51
112.4927129617
  0
ARC
  5
418
100
AcDbEntity
  8
ALL_ASSEMBLY_MEMBERS
100
AcDbCircle
 62
7
  6
CONTINUOUS
 10
2.2960041254
 20
2.1091866389
 40
0.187260988
100
AcDbArc
 50
67.5070434121
 51
68.2940794544
  0
ARC
  5
419
100
AcDbEntity
  8
ALL_ASSEMBLY_MEMBERS
100
AcDbCircle
 62
7
  6
CONTINUOUS
 10
2.2997772582
 20
2.1092532401
 40
0.1871892599
100
AcDbArc
 50
111.7058867003
 51
112.1471426569
  0
ARC
  5
41A
100
AcDbEntity
  8
ALL_ASSEMBLY_MEMBERS
100
AcDbCircle
 62
7
  6
CONTINUOUS
 10
2.2954927075
 20
2.1209956296
 40
0.1756009782
100
AcDbArc
 50
113.0787394225
 51
113.360696744
  0
ARC
  5
41B
100
AcDbEntity
  8
ALL_ASSEMBLY_MEMBERS
100
AcDbCircle
 62
7
  6
CONTINUOUS
 10
2.2900639403
 20
2.1212663593
 40
0.1753065781
100
AcDbArc
 50
66.6389219983
 51
67.4498754435
  0
ARC
  5
41C
100
AcDbEntity
  8
ALL_ASSEMBLY_MEMBERS
100
AcDbCircle
 62
7
  6
CONTINUOUS
 10
2.29535242
 20
2.1213255041
 40
0.1752425124
100
AcDbArc
 50
112.5501051677
 51
113.0788210023
  0
ARC
  5
41D
100
AcDbEntity
  8
ALL_ASSEMBLY_MEMBERS
100
AcDbCircle
 62
7
  6
CONTINUOUS
 10
2.29149822
 20
2.1340966109
 40
0.1626740161
100
AcDbArc
 50
114.1531606925
 51
114.4333478946
  0
ARC
  5
41E
100
AcDbEntity
  8
ALL_ASSEMBLY_MEMBERS
100
AcDbCircle
 62
7
  6
CONTINUOUS
 10
2.2842027171
 20
2.1344481137
 40
0.1622886481
100
AcDbArc
 50
65.5660997203
 51
66.4056306858
  0
ARC
  5
41F
100
AcDbEntity
  8
ALL_ASSEMBLY_MEMBERS
100
AcDbCircle
 62
7
  6
CONTINUOUS
 10
2.291329785
 20
2.1344725155
 40
0.1622621003
100
AcDbArc
 50
113.5944340677
 51
114.1532039003
  0
ARC
  5
420
100
AcDbEntity
  8
ALL_ASSEMBLY_MEMBERS
100
AcDbCircle
 62
7
  6
CONTINUOUS
 10
2.2879531849
 20
2.1479745693
 40
0.1490238737
100
AcDbArc
 50
115.4580127042
 51
115.7482909374
  0
ARC
  5
421
100
AcDbEntity
  8
ALL_ASSEMBLY_MEMBERS
100
AcDbCircle
 62
7
  6
CONTINUOUS
 10
2.2877473216
 20
2.1484074458
 40
0.148544539
100
AcDbArc
 50
115.0216528609
 51
115.4580889677
  0
ARC
  5
422
100
AcDbEntity
  8
ALL_ASSEMBLY_MEMBERS
100
AcDbCircle
 62
7
  6
CONTINUOUS
 10
2.2784282584
 20
2.1484073231
 40
0.1485443909
100
AcDbArc
 50
64.2509292083
 51
65.1239605052
  0
ARC
  5
423
100
AcDbEntity
  8
ALL_ASSEMBLY_MEMBERS
100
AcDbCircle
 62
7
  6
CONTINUOUS
 10
2.3307563281
 20
2.0737061253
 40
0.23475
100
AcDbArc
 50
62.643125207
 51
116.8348293694
  0
ARC
  5
424
100
AcDbEntity
  8
ALL_ASSEMBLY_MEMBERS
100
AcDbCircle
 62
7
  6
CONTINUOUS
 10
2.3307563281
 20
2.0737061253
 40
0.23475
100
AcDbArc
 50
117.3425720675
 51
117.356874793
  0
ARC
  5
425
100
AcDbEntity
  8
ALL_ASSEMBLY_MEMBERS
100
AcDbCircle
 62
7
  6
CONTINUOUS
 10
2.3320677411
 20
2.0737601935
 40
0.2224128046
100
AcDbArc
 50
109.6889399472
 51
110.4160079575
  0
ARC
  5
426
100
AcDbEntity
  8
ALL_ASSEMBLY_MEMBERS
100
AcDbCircle
 62
7
  6
CONTINUOUS
 10
2.3320607445
 20
2.0737601935
 40
0.2224128046
100
AcDbArc
 50
69.5839920425
 51
70.3110600528
  0
ARC
  5
427
100
AcDbEntity
  8
ALL_ASSEMBLY_MEMBERS
100
AcDbCircle
 62
7
  6
CONTINUOUS
 10
2.3380226803
 20
2.0753981568
 40
0.2207853839
100
AcDbArc
 50
109.7701861403
 51
110.4997366766
  0
ARC
  5
428
100
AcDbEntity
  8
ALL_ASSEMBLY_MEMBERS
100
AcDbCircle
 62
7
  6
CONTINUOUS
 10
2.3378556816
 20
2.0753981568
 40
0.2207853839
100
AcDbArc
 50
69.5002633234
 51
70.2298138597
  0
ARC
  5
429
100
AcDbEntity
  8
ALL_ASSEMBLY_MEMBERS
100
AcDbCircle
 62
7
  6
CONTINUOUS
 10
2.3440450827
 20
2.0792648909
 40
0.2169442876
100
AcDbArc
 50
109.9660505723
 51
110.7015605775
  0
ARC
  5
42A
100
AcDbEntity
  8
ALL_ASSEMBLY_MEMBERS
100
AcDbCircle
 62
7
  6
CONTINUOUS
 10
2.3434945861
 20
2.0792648909
 40
0.2169442876
100
AcDbArc
 50
69.2984394225
 51
70.0339494277
  0
ARC
  5
42B
100
AcDbEntity
  8
ALL_ASSEMBLY_MEMBERS
100
AcDbCircle
 62
7
  6
CONTINUOUS
 10
2.3501014933
 20
2.0852651858
 40
0.2109859991
100
AcDbArc
 50
110.2818742192
 51
111.0269177481
  0
ARC
  5
42C
100
AcDbEntity
  8
ALL_ASSEMBLY_MEMBERS
100
AcDbCircle
 62
7
  6
CONTINUOUS
 10
2.3489390172
 20
2.0852651858
 40
0.2109859991
100
AcDbArc
 50
68.9730822519
 51
69.7181257808
  0
ARC
  5
42D
100
AcDbEntity
  8
ALL_ASSEMBLY_MEMBERS
100
AcDbCircle
 62
7
  6
CONTINUOUS
 10
2.3561606871
 20
2.0932512973
 40
0.2030604331
100
AcDbArc
 50
110.7264863094
 51
111.4847902418
  0
ARC
  5
42E
100
AcDbEntity
  8
ALL_ASSEMBLY_MEMBERS
100
AcDbCircle
 62
7
  6
CONTINUOUS
 10
2.3541492934
 20
2.0932512973
 40
0.2030604331
100
AcDbArc
 50
68.5152097582
 51
69.2735136906
  0
ARC
  5
42F
100
AcDbEntity
  8
ALL_ASSEMBLY_MEMBERS
100
AcDbCircle
 62
7
  6
CONTINUOUS
 10
2.362206978
 20
2.1029947831
 40
0.1934017684
100
AcDbArc
 50
111.3128393445
 51
112.0881994354
  0
ARC
  5
430
100
AcDbEntity
  8
ALL_ASSEMBLY_MEMBERS
100
AcDbCircle
 62
7
  6
CONTINUOUS
 10
2.3590986408
 20
2.1030626795
 40
0.1933286947
100
AcDbArc
 50
67.9116540285
 51
68.6873071916
  0
ARC
  5
431
100
AcDbEntity
  8
ALL_ASSEMBLY_MEMBERS
100
AcDbCircle
 62
7
  6
CONTINUOUS
 10
2.3636230282
 20
2.1141640314
 40
0.182354812
100
AcDbArc
 50
67.1447890316
 51
67.4110624977
  0
ARC
  5
432
100
AcDbEntity
  8
ALL_ASSEMBLY_MEMBERS
100
AcDbCircle
 62
7
  6
CONTINUOUS
 10
2.3681963945
 20
2.1143054743
 40
0.1822014348
100
AcDbArc
 50
112.0586338666
 51
112.8552979155
  0
ARC
  5
433
100
AcDbEntity
  8
ALL_ASSEMBLY_MEMBERS
100
AcDbCircle
 62
7
  6
CONTINUOUS
 10
2.3637401602
 20
2.1144461691
 40
0.1820493262
100
AcDbArc
 50
67.4109908424
 51
67.9416002522
  0
ARC
  5
434
100
AcDbEntity
  8
ALL_ASSEMBLY_MEMBERS
100
AcDbCircle
 62
7
  6
CONTINUOUS
 10
2.3678414893
 20
2.1266882926
 40
0.1699811721
100
AcDbArc
 50
66.1898381715
 51
66.4405351177
  0
ARC
  5
435
100
AcDbEntity
  8
ALL_ASSEMBLY_MEMBERS
100
AcDbCircle
 62
7
  6
CONTINUOUS
 10
2.3741174835
 20
2.1268843416
 40
0.1697670586
100
AcDbArc
 50
112.9878840752
 51
113.8102949219
  0
ARC
  5
436
100
AcDbEntity
  8
ALL_ASSEMBLY_MEMBERS
100
AcDbCircle
 62
7
  6
CONTINUOUS
 10
2.3680210489
 20
2.127101596
 40
0.1695305491
100
AcDbArc
 50
66.4403306123
 51
67.0125254843
  0
ARC
  5
437
100
AcDbEntity
  8
ALL_ASSEMBLY_MEMBERS
100
AcDbCircle
 62
7
  6
CONTINUOUS
 10
2.3799578359
 20
2.140421652
 40
0.1564187645
100
AcDbArc
 50
114.1325243806
 51
114.9853961032
  0
ARC
  5
438
100
AcDbEntity
  8
ALL_ASSEMBLY_MEMBERS
100
AcDbCircle
 62
7
  6
CONTINUOUS
 10
2.3718203535
 20
2.1405610836
 40
0.1562656254
100
AcDbArc
 50
65.1569920138
 51
65.7410636329
  0
ARC
  5
439
100
AcDbEntity
  8
ALL_ASSEMBLY_MEMBERS
100
AcDbCircle
 62
7
  6
CONTINUOUS
 10
2.2847110757
 20
2.1626978699
 40
0.1345517106
100
AcDbArc
 50
116.7491389519
 51
117.0527375256
  0
ARC
  5
43A
100
AcDbEntity
  8
ALL_ASSEMBLY_MEMBERS
100
AcDbCircle
 62
7
  6
CONTINUOUS
 10
2.2727365542
 20
2.1628002654
 40
0.1344364802
100
AcDbArc
 50
62.6435589009
 51
63.5551428527
  0
ARC
  5
43B
100
AcDbEntity
  8
ALL_ASSEMBLY_MEMBERS
100
AcDbCircle
 62
7
  6
CONTINUOUS
 10
2.283627063
 20
2.1689411088
 40
0.1284917725
100
AcDbArc
 50
117.6765165847
 51
118.0257084
  0
ARC
  5
43C
100
AcDbEntity
  8
ALL_ASSEMBLY_MEMBERS
100
AcDbCircle
 62
7
  6
CONTINUOUS
 10
2.2671060301
 20
2.1772725355
 40
0.1203486304
100
AcDbArc
 50
60.6777913124
 51
61.6327789046
  0
ARC
  5
43D
100
AcDbEntity
  8
ALL_ASSEMBLY_MEMBERS
100
AcDbCircle
 62
7
  6
CONTINUOUS
 10
2.2813321991
 20
2.1834889332
 40
0.1143691363
100
AcDbArc
 50
119.5204193364
 51
120.3324494325
  0
ARC
  5
43E
100
AcDbEntity
  8
ALL_ASSEMBLY_MEMBERS
100
AcDbCircle
 62
7
  6
CONTINUOUS
 10
2.2614877342
 20
2.1914677844
 40
0.1066842154
100
AcDbArc
 50
58.2654111841
 51
59.2677388944
  0
ARC
  5
43F
100
AcDbEntity
  8
ALL_ASSEMBLY_MEMBERS
100
AcDbCircle
 62
7
  6
CONTINUOUS
 10
2.2797628569
 20
2.1975959783
 40
0.100857863
100
AcDbArc
 50
121.9555161397
 51
122.9796117347
  0
ARC
  5
440
100
AcDbEntity
  8
ALL_ASSEMBLY_MEMBERS
100
AcDbCircle
 62
7
  6
CONTINUOUS
 10
2.2557874901
 20
2.2050364748
 40
0.0938717628
100
AcDbArc
 50
55.2886965204
 51
56.3399440211
  0
ARC
  5
441
100
AcDbEntity
  8
ALL_ASSEMBLY_MEMBERS
100
AcDbCircle
 62
7
  6
CONTINUOUS
 10
2.2416262705
 20
2.1610097767
 40
0.0797355507
100
AcDbArc
 50
78.7851970141
 51
80.721279776
  0
ARC
  5
442
100
AcDbEntity
  8
ALL_ASSEMBLY_MEMBERS
100
AcDbCircle
 62
7
  6
CONTINUOUS
 10
2.2358966627
 20
2.1612698431
 40
0.0794755872
100
AcDbArc
 50
78.7664305985
 51
80.7056242799
  0
ARC
  5
443
100
AcDbEntity
  8
ALL_ASSEMBLY_MEMBERS
100
AcDbCircle
 62
7
  6
CONTINUOUS
 10
2.2478998455
 20
2.161684714
 40
0.0790608819
100
AcDbArc
 50
78.7362974541
 51
80.6804849746
  0
ARC
  5
444
100
AcDbEntity
  8
ALL_ASSEMBLY_MEMBERS
100
AcDbCircle
 62
7
  6
CONTINUOUS
 10
2.2546786341
 20
2.1632780364
 40
0.0774682127
100
AcDbArc
 50
78.6182746413
 51
80.5820054934
  0
ARC
  5
445
100
AcDbEntity
  8
ALL_ASSEMBLY_MEMBERS
100
AcDbCircle
 62
7
  6
CONTINUOUS
 10
2.2619206589
 20
2.1657505124
 40
0.074996808
100
AcDbArc
 50
78.4275515452
 51
80.422809401
  0
ARC
  5
446
100
AcDbEntity
  8
ALL_ASSEMBLY_MEMBERS
100
AcDbCircle
 62
7
  6
CONTINUOUS
 10
2.2695372864
 20
2.1688127721
 40
0.0719401947
100
AcDbArc
 50
78.1614652301
 51
80.194540585
  0
ARC
  5
447
100
AcDbEntity
  8
ALL_ASSEMBLY_MEMBERS
100
AcDbCircle
 62
7
  6
CONTINUOUS
 10
2.2775681331
 20
2.1728473445
 40
0.0679078605
100
AcDbArc
 50
77.804814372
 51
79.8961128981
  0
ARC
  5
448
100
AcDbEntity
  8
ALL_ASSEMBLY_MEMBERS
100
AcDbCircle
 62
7
  6
CONTINUOUS
 10
2.2859193623
 20
2.1775210198
 40
0.0632371559
100
AcDbArc
 50
77.3484019687
 51
79.5138172946
  0
ARC
  5
449
100
AcDbEntity
  8
ALL_ASSEMBLY_MEMBERS
100
AcDbCircle
 62
7
  6
CONTINUOUS
 10
2.2945385729
 20
2.1827187167
 40
0.0580433608
100
AcDbArc
 50
76.7752275317
 51
79.0330735153
  0
ARC
  5
44A
100
AcDbEntity
  8
ALL_ASSEMBLY_MEMBERS
100
AcDbCircle
 62
7
  6
CONTINUOUS
 10
2.3033713709
 20
2.1883124505
 40
0.0524547517
100
AcDbArc
 50
76.0619927028
 51
78.4338045211
  0
ARC
  5
44B
100
AcDbEntity
  8
ALL_ASSEMBLY_MEMBERS
100
AcDbCircle
 62
7
  6
CONTINUOUS
 10
2.3123615626
 20
2.194164485
 40
0.0466095023
100
AcDbArc
 50
75.1765841061
 51
77.688165272
  0
ARC
  5
44C
100
AcDbEntity
  8
ALL_ASSEMBLY_MEMBERS
100
AcDbCircle
 62
7
  6
CONTINUOUS
 10
2.3440161748
 20
2.1978468388
 40
0.0429203913
100
AcDbArc
 50
102.7914990186
 51
105.41717513
  0
ARC
  5
44D
100
AcDbEntity
  8
ALL_ASSEMBLY_MEMBERS
100
AcDbCircle
 62
7
  6
CONTINUOUS
 10
2.3214527413
 20
2.2001363776
 40
0.0406465423
100
AcDbArc
 50
74.0739640821
 51
76.7571495846
  0
ARC
  5
44E
100
AcDbEntity
  8
ALL_ASSEMBLY_MEMBERS
100
AcDbCircle
 62
7
  6
CONTINUOUS
 10
2.334893963
 20
2.2037941517
 40
0.0369825941
100
AcDbArc
 50
103.8465278876
 51
106.6683771628
  0
ARC
  5
44F
100
AcDbEntity
  8
ALL_ASSEMBLY_MEMBERS
100
AcDbCircle
 62
7
  6
CONTINUOUS
 10
2.3305809021
 20
2.2060642578
 40
0.0347313776
100
AcDbArc
 50
72.6908856105
 51
75.5837944977
  0
ARC
  5
450
100
AcDbEntity
  8
ALL_ASSEMBLY_MEMBERS
100
AcDbCircle
 62
7
  6
CONTINUOUS
 10
2.3118844496
 20
2.2562188749
 40
0.1041972985
100
AcDbArc
 50
14.4399432031
 51
14.9901212349
  0
ARC
  5
451
100
AcDbEntity
  8
ALL_ASSEMBLY_MEMBERS
100
AcDbCircle
 62
7
  6
CONTINUOUS
 10
2.2791820674
 20
2.2107777327
 40
0.0885722086
100
AcDbArc
 50
125.1823711806
 51
126.2546725417
  0
ARC
  5
452
100
AcDbEntity
  8
ALL_ASSEMBLY_MEMBERS
100
AcDbCircle
 62
7
  6
CONTINUOUS
 10
2.2498310253
 20
2.2176445004
 40
0.0823858661
100
AcDbArc
 50
51.5913532221
 51
52.6879451193
  0
ARC
  5
453
100
AcDbEntity
  8
ALL_ASSEMBLY_MEMBERS
100
AcDbCircle
 62
7
  6
CONTINUOUS
 10
2.3191543176
 20
2.2547618859
 40
0.0783702672
100
AcDbArc
 50
158.7472429036
 51
159.5044418093
  0
ARC
  5
454
100
AcDbEntity
  8
ALL_ASSEMBLY_MEMBERS
100
AcDbCircle
 62
7
  6
CONTINUOUS
 10
2.2797738648
 20
2.2228574535
 40
0.0778516681
100
AcDbArc
 50
129.2214301729
 51
130.3345949321
  0
ARC
  5
455
100
AcDbEntity
  8
ALL_ASSEMBLY_MEMBERS
100
AcDbCircle
 62
7
  6
CONTINUOUS
 10
2.2432891985
 20
2.2289814098
 40
0.0728056912
100
AcDbArc
 50
46.9699137046
 51
48.0979262436
  0
ARC
  5
456
100
AcDbEntity
  8
ALL_ASSEMBLY_MEMBERS
100
AcDbCircle
 62
7
  6
CONTINUOUS
 10
2.2820174622
 20
2.2335376979
 40
0.0693627161
100
AcDbArc
 50
134.3122081246
 51
135.4451105739
  0
ARC
  5
457
100
AcDbEntity
  8
ALL_ASSEMBLY_MEMBERS
100
AcDbCircle
 62
7
  6
CONTINUOUS
 10
2.2354971779
 20
2.2387680507
 40
0.065976133
100
AcDbArc
 50
41.172543923
 51
42.2987704034
  0
ARC
  5
458
100
AcDbEntity
  8
ALL_ASSEMBLY_MEMBERS
100
AcDbCircle
 62
7
  6
CONTINUOUS
 10
2.2967221325
 20
2.2496887604
 40
0.0646898157
100
AcDbArc
 50
148.8311268137
 51
149.8276521876
  0
ARC
  5
459
100
AcDbEntity
  8
ALL_ASSEMBLY_MEMBERS
100
AcDbCircle
 62
7
  6
CONTINUOUS
 10
2.2868833231
 20
2.2425554828
 40
0.0641880999
100
AcDbArc
 50
140.7475436393
 51
141.8543891805
  0
ARC
  5
45A
100
AcDbEntity
  8
ALL_ASSEMBLY_MEMBERS
100
AcDbCircle
 62
7
  6
CONTINUOUS
 10
2.325764452
 20
2.2096276227
 40
0.0311624042
100
AcDbArc
 50
105.1846751802
 51
108.2485817631
  0
ARC
  5
45B
100
AcDbEntity
  8
ALL_ASSEMBLY_MEMBERS
100
AcDbCircle
 62
7
  6
CONTINUOUS
 10
2.339688837
 20
2.2118189843
 40
0.0289943858
100
AcDbArc
 50
70.9336941608
 51
74.0852780762
  0
ARC
  5
45C
100
AcDbEntity
  8
ALL_ASSEMBLY_MEMBERS
100
AcDbCircle
 62
7
  6
CONTINUOUS
 10
2.3166900979
 20
2.2152036124
 40
0.025605612
100
AcDbArc
 50
106.9105321625
 51
110.274574308
  0
ARC
  5
45D
100
AcDbEntity
  8
ALL_ASSEMBLY_MEMBERS
100
AcDbCircle
 62
7
  6
CONTINUOUS
 10
2.2817831119
 20
2.2370845354
 40
0.0247418192
100
AcDbArc
 50
173.9271565223
 51
175.0422009486
  0
ARC
  5
45E
100
AcDbEntity
  8
ALL_ASSEMBLY_MEMBERS
100
AcDbCircle
 62
7
  6
CONTINUOUS
 10
2.3487105234
 20
2.2172532026
 40
0.0235862842
100
AcDbArc
 50
68.6628199172
 51
72.1337186357
  0
ARC
  5
45F
100
AcDbEntity
  8
ALL_ASSEMBLY_MEMBERS
100
AcDbCircle
 62
7
  6
CONTINUOUS
 10
2.3077368778
 20
2.2203848214
 40
0.0204534702
100
AcDbArc
 50
109.1876822104
 51
112.9250923502
  0
ARC
  5
460
100
AcDbEntity
  8
ALL_ASSEMBLY_MEMBERS
100
AcDbCircle
 62
7
  6
CONTINUOUS
 10
2.2989775153
 20
2.2250436712
 40
0.0158414606
100
AcDbArc
 50
112.2838234111
 51
116.4835102399
  0
ARC
  5
461
100
AcDbEntity
  8
ALL_ASSEMBLY_MEMBERS
100
AcDbCircle
 62
7
  6
CONTINUOUS
 10
2.3857148274
 20
2.154584072
 40
0.1425052976
100
AcDbArc
 50
115.5349900191
 51
116.4232314092
  0
ARC
  5
462
100
AcDbEntity
  8
ALL_ASSEMBLY_MEMBERS
100
AcDbCircle
 62
7
  6
CONTINUOUS
 10
2.3751728572
 20
2.1547062338
 40
0.1423695712
100
AcDbArc
 50
63.6587801793
 51
64.3172679701
  0
ARC
  5
463
100
AcDbEntity
  8
ALL_ASSEMBLY_MEMBERS
100
AcDbCircle
 62
7
  6
CONTINUOUS
 10
2.3911948546
 20
2.1694134774
 40
0.1279575998
100
AcDbArc
 50
117.250205771
 51
118.1819064279
  0
ARC
  5
464
100
AcDbEntity
  8
ALL_ASSEMBLY_MEMBERS
100
AcDbCircle
 62
7
  6
CONTINUOUS
 10
2.3790404444
 20
2.1766931214
 40
0.1210113816
100
AcDbArc
 50
60.679313975
 51
61.0916639116
  0
ARC
  5
465
100
AcDbEntity
  8
ALL_ASSEMBLY_MEMBERS
100
AcDbCircle
 62
7
  6
CONTINUOUS
 10
2.3794007893
 20
2.1773450771
 40
0.1202664692
100
AcDbArc
 50
61.0917982884
 51
61.473429999
  0
ARC
  5
466
100
AcDbEntity
  8
ALL_ASSEMBLY_MEMBERS
100
AcDbCircle
 62
7
  6
CONTINUOUS
 10
2.3953849195
 20
2.1674824283
 40
0.0732656875
100
AcDbArc
 50
99.6936373151
 51
101.7119042064
  0
ARC
  5
467
100
AcDbEntity
  8
ALL_ASSEMBLY_MEMBERS
100
AcDbCircle
 62
7
  6
CONTINUOUS
 10
2.3874676844
 20
2.1714255737
 40
0.0693200961
100
AcDbArc
 50
99.9546836276
 51
102.0321075724
  0
ARC
  5
468
100
AcDbEntity
  8
ALL_ASSEMBLY_MEMBERS
100
AcDbCircle
 62
7
  6
CONTINUOUS
 10
2.3792521928
 20
2.1758145701
 40
0.0649334018
100
AcDbArc
 50
100.2976880193
 51
102.4428727948
  0
ARC
  5
469
100
AcDbEntity
  8
ALL_ASSEMBLY_MEMBERS
100
AcDbCircle
 62
7
  6
CONTINUOUS
 10
2.3970467509
 20
2.1833825351
 40
0.114491618
100
AcDbArc
 50
119.3586333758
 51
120.3317726624
  0
ARC
  5
46A
100
AcDbEntity
  8
ALL_ASSEMBLY_MEMBERS
100
AcDbCircle
 62
7
  6
CONTINUOUS
 10
2.3809552683
 20
2.1910819698
 40
0.1071358625
100
AcDbArc
 50
58.2671311445
 51
59.0991580035
  0
ARC
  5
46B
100
AcDbEntity
  8
ALL_ASSEMBLY_MEMBERS
100
AcDbCircle
 62
7
  6
CONTINUOUS
 10
2.3819917289
 20
2.2047327503
 40
0.0942389098
100
AcDbArc
 50
55.2907443646
 51
56.337896177
  0
ARC
  5
46C
100
AcDbEntity
  8
ALL_ASSEMBLY_MEMBERS
100
AcDbCircle
 62
7
  6
CONTINUOUS
 10
2.3707449578
 20
2.1807786747
 40
0.0599723303
100
AcDbArc
 50
100.7319219691
 51
102.9623423095
  0
ARC
  5
46D
100
AcDbEntity
  8
ALL_ASSEMBLY_MEMBERS
100
AcDbCircle
 62
7
  6
CONTINUOUS
 10
2.3619994141
 20
2.1861956549
 40
0.0545593298
100
AcDbArc
 50
101.2747422495
 51
103.6108186298
  0
ARC
  5
46E
100
AcDbEntity
  8
ALL_ASSEMBLY_MEMBERS
100
AcDbCircle
 62
7
  6
CONTINUOUS
 10
2.3530708382
 20
2.1919321265
 40
0.0488281043
100
AcDbArc
 50
101.9501115955
 51
104.4161936955
  0
ARC
  5
46F
100
AcDbEntity
  8
ALL_ASSEMBLY_MEMBERS
100
AcDbCircle
 62
7
  6
CONTINUOUS
 10
2.4282130668
 20
2.160465086
 40
0.0803028321
100
AcDbArc
 50
100.9350781851
 51
101.2578582462
  0
ARC
  5
470
100
AcDbEntity
  8
ALL_ASSEMBLY_MEMBERS
100
AcDbCircle
 62
7
  6
CONTINUOUS
 10
2.4225022152
 20
2.1610097767
 40
0.0797355507
100
AcDbArc
 50
99.278720224
 51
101.2148029859
  0
ARC
  5
471
100
AcDbEntity
  8
ALL_ASSEMBLY_MEMBERS
100
AcDbCircle
 62
7
  6
CONTINUOUS
 10
2.4164658192
 20
2.1612698431
 40
0.0794755872
100
AcDbArc
 50
99.2943757201
 51
101.2335694015
  0
ARC
  5
472
100
AcDbEntity
  8
ALL_ASSEMBLY_MEMBERS
100
AcDbCircle
 62
7
  6
CONTINUOUS
 10
2.4279354512
 20
2.1619310566
 40
0.0788108169
100
AcDbArc
 50
99.3176218334
 51
100.9390874182
  0
ARC
  5
473
100
AcDbEntity
  8
ALL_ASSEMBLY_MEMBERS
100
AcDbCircle
 62
7
  6
CONTINUOUS
 10
2.433085288
 20
2.1621231209
 40
0.0786446715
100
AcDbArc
 50
100.9804657521
 51
101.3758436484
  0
ARC
  5
474
100
AcDbEntity
  8
ALL_ASSEMBLY_MEMBERS
100
AcDbCircle
 62
7
  6
CONTINUOUS
 10
2.4099065737
 20
2.1624585097
 40
0.0782874
100
AcDbArc
 50
99.3669537334
 51
101.3205593487
  0
ARC
  5
475
100
AcDbEntity
  8
ALL_ASSEMBLY_MEMBERS
100
AcDbCircle
 62
7
  6
CONTINUOUS
 10
2.4328088909
 20
2.163573491
 40
0.0771682081
100
AcDbArc
 50
99.4156972326
 51
100.9841197502
  0
ARC
  5
476
100
AcDbEntity
  8
ALL_ASSEMBLY_MEMBERS
100
AcDbCircle
 62
7
  6
CONTINUOUS
 10
2.4028650528
 20
2.1645465086
 40
0.076200281
100
AcDbArc
 50
99.4986677192
 51
101.4783851841
  0
ARC
  5
477
100
AcDbEntity
  8
ALL_ASSEMBLY_MEMBERS
100
AcDbCircle
 62
7
  6
CONTINUOUS
 10
2.4373210161
 20
2.1647295707
 40
0.0760373511
100
AcDbArc
 50
101.0063006048
 51
101.5666216583
  0
ARC
  5
478
100
AcDbEntity
  8
ALL_ASSEMBLY_MEMBERS
100
AcDbCircle
 62
7
  6
CONTINUOUS
 10
2.4370474004
 20
2.1661551777
 40
0.0745857286
100
AcDbArc
 50
99.5740296649
 51
101.0090581122
  0
ARC
  5
479
100
AcDbEntity
  8
ALL_ASSEMBLY_MEMBERS
100
AcDbCircle
 62
7
  6
CONTINUOUS
 10
2.440915523
 20
2.1681154018
 40
0.0726520337
100
AcDbArc
 50
101.1584385583
 51
101.8359498704
  0
ARC
  5
47A
100
AcDbEntity
  8
ALL_ASSEMBLY_MEMBERS
100
AcDbCircle
 62
7
  6
CONTINUOUS
 10
2.4406434379
 20
2.1695088854
 40
0.0712322381
100
AcDbArc
 50
99.7983670024
 51
101.1606337996
  0
ARC
  5
47B
100
AcDbEntity
  8
ALL_ASSEMBLY_MEMBERS
100
AcDbCircle
 62
7
  6
CONTINUOUS
 10
2.4438537568
 20
2.1721687743
 40
0.0686013871
100
AcDbArc
 50
101.4956509088
 51
102.1924416174
  0
ARC
  5
47C
100
AcDbEntity
  8
ALL_ASSEMBLY_MEMBERS
100
AcDbCircle
 62
7
  6
CONTINUOUS
 10
2.4435809004
 20
2.1735241185
 40
0.0672188529
100
AcDbArc
 50
100.0963631402
 51
101.497976664
  0
ARC
  5
47D
100
AcDbEntity
  8
ALL_ASSEMBLY_MEMBERS
100
AcDbCircle
 62
7
  6
CONTINUOUS
 10
2.4460550694
 20
2.1770851052
 40
0.063683445
100
AcDbArc
 50
101.5665823081
 51
102.6497025671
  0
ARC
  5
47E
100
AcDbEntity
  8
ALL_ASSEMBLY_MEMBERS
100
AcDbCircle
 62
7
  6
CONTINUOUS
 10
2.445787475
 20
2.1783923214
 40
0.0623491209
100
AcDbArc
 50
100.4765738411
 51
101.5665320313
  0
ARC
  5
47F
100
AcDbEntity
  8
ALL_ASSEMBLY_MEMBERS
100
AcDbCircle
 62
7
  6
CONTINUOUS
 10
2.4027226107
 20
2.1973094613
 40
0.1011974471
100
AcDbArc
 50
121.9572344432
 51
122.9778934312
  0
ARC
  5
480
100
AcDbEntity
  8
ALL_ASSEMBLY_MEMBERS
100
AcDbCircle
 62
7
  6
CONTINUOUS
 10
2.4476029338
 20
2.1822990047
 40
0.0584740084
100
AcDbArc
 50
102.0935474292
 51
103.2226943948
  0
ARC
  5
481
100
AcDbEntity
  8
ALL_ASSEMBLY_MEMBERS
100
AcDbCircle
 62
7
  6
CONTINUOUS
 10
2.4473333844
 20
2.1835567422
 40
0.0571877112
100
AcDbArc
 50
100.956401738
 51
102.0934866444
  0
ARC
  5
482
100
AcDbEntity
  8
ALL_ASSEMBLY_MEMBERS
100
AcDbCircle
 62
7
  6
CONTINUOUS
 10
2.4483543807
 20
2.188277288
 40
0.0524914974
100
AcDbArc
 50
102.3519632432
 51
103.8755785191
  0
ARC
  5
483
100
AcDbEntity
  8
ALL_ASSEMBLY_MEMBERS
100
AcDbCircle
 62
7
  6
CONTINUOUS
 10
2.4481269582
 20
2.1893119968
 40
0.0514320907
100
AcDbArc
 50
101.553140995
 51
102.3510531782
  0
ARC
  5
484
100
AcDbEntity
  8
ALL_ASSEMBLY_MEMBERS
100
AcDbCircle
 62
7
  6
CONTINUOUS
 10
2.4486682266
 20
2.1933877173
 40
0.0474119091
100
AcDbArc
 50
104.4012335803
 51
104.8183804461
  0
ARC
  5
485
100
AcDbEntity
  8
ALL_ASSEMBLY_MEMBERS
100
AcDbCircle
 62
7
  6
CONTINUOUS
 10
2.4485666001
 20
2.1937834802
 40
0.0470033064
100
AcDbArc
 50
103.9827632506
 51
104.4012303506
  0
ARC
  5
486
100
AcDbEntity
  8
ALL_ASSEMBLY_MEMBERS
100
AcDbCircle
 62
7
  6
CONTINUOUS
 10
2.4483542314
 20
2.1946486514
 40
0.0461124569
100
AcDbArc
 50
102.720659059
 51
103.9864602446
  0
ARC
  5
487
100
AcDbEntity
  8
ALL_ASSEMBLY_MEMBERS
100
AcDbCircle
 62
7
  6
CONTINUOUS
 10
2.4482057728
 20
2.195302549
 40
0.0454419188
100
AcDbArc
 50
102.2960557166
 51
102.7196153871
  0
ARC
  5
488
100
AcDbEntity
  8
ALL_ASSEMBLY_MEMBERS
100
AcDbCircle
 62
7
  6
CONTINUOUS
 10
2.4472627684
 20
2.2016691836
 40
0.039
100
AcDbArc
 50
104.6746083606
 51
242.0880679547
  0
ARC
  5
489
100
AcDbEntity
  8
ALL_ASSEMBLY_MEMBERS
100
AcDbCircle
 62
7
  6
CONTINUOUS
 10
2.4473761577
 20
2.2029955431
 40
0.0378124781
100
AcDbArc
 50
105.2572678835
 51
106.6493725475
  0
ARC
  5
48A
100
AcDbEntity
  8
ALL_ASSEMBLY_MEMBERS
100
AcDbCircle
 62
7
  6
CONTINUOUS
 10
2.4470831032
 20
2.2040612837
 40
0.0367071824
100
AcDbArc
 50
103.844725803
 51
105.2537215381
  0
ARC
  5
48B
100
AcDbEntity
  8
ALL_ASSEMBLY_MEMBERS
100
AcDbCircle
 62
7
  6
CONTINUOUS
 10
2.4009649025
 20
2.2576499419
 40
0.1517469466
100
AcDbArc
 50
170.3183569199
 51
170.6888229458
  0
ARC
  5
48C
100
AcDbEntity
  8
ALL_ASSEMBLY_MEMBERS
100
AcDbCircle
 62
7
  6
CONTINUOUS
 10
2.4085540851
 20
2.2104607305
 40
0.0889626389
100
AcDbArc
 50
125.1847242534
 51
126.2523194689
  0
ARC
  5
48D
100
AcDbEntity
  8
ALL_ASSEMBLY_MEMBERS
100
AcDbCircle
 62
7
  6
CONTINUOUS
 10
2.3819116091
 20
2.2173116175
 40
0.0828074796
100
AcDbArc
 50
51.5941449506
 51
52.6851533908
  0
ARC
  5
48E
100
AcDbEntity
  8
ALL_ASSEMBLY_MEMBERS
100
AcDbCircle
 62
7
  6
CONTINUOUS
 10
2.4686772664
 20
2.2543431624
 40
0.0795453864
100
AcDbArc
 50
158.7528360102
 51
159.4988487027
  0
ARC
  5
48F
100
AcDbEntity
  8
ALL_ASSEMBLY_MEMBERS
100
AcDbCircle
 62
7
  6
CONTINUOUS
 10
2.4147755123
 20
2.2225125147
 40
0.0783004768
100
AcDbArc
 50
129.2246205341
 51
130.3314045708
  0
ARC
  5
490
100
AcDbEntity
  8
ALL_ASSEMBLY_MEMBERS
100
AcDbCircle
 62
7
  6
CONTINUOUS
 10
2.380412791
 20
2.2286223083
 40
0.0732924681
100
AcDbArc
 50
46.9736597103
 51
48.0941802378
  0
ARC
  5
491
100
AcDbEntity
  8
ALL_ASSEMBLY_MEMBERS
100
AcDbCircle
 62
7
  6
CONTINUOUS
 10
2.3540609544
 20
2.2523565964
 40
0.0705920927
100
AcDbArc
 50
25.0106907165
 51
25.8805285609
  0
ARC
  5
492
100
AcDbEntity
  8
ALL_ASSEMBLY_MEMBERS
100
AcDbCircle
 62
7
  6
CONTINUOUS
 10
2.4218398652
 20
2.2331680591
 40
0.0698843353
100
AcDbArc
 50
134.3164362735
 51
135.440882425
  0
ARC
  5
493
100
AcDbEntity
  8
ALL_ASSEMBLY_MEMBERS
100
AcDbCircle
 62
7
  6
CONTINUOUS
 10
2.3767869844
 20
2.2383863158
 40
0.0665495438
100
AcDbArc
 50
41.1773960289
 51
42.2939182975
  0
ARC
  5
494
100
AcDbEntity
  8
ALL_ASSEMBLY_MEMBERS
100
AcDbCircle
 62
7
  6
CONTINUOUS
 10
2.4437391368
 20
2.2492817695
 40
0.0654876481
100
AcDbArc
 50
148.8371972712
 51
149.8215817301
  0
ARC
  5
495
100
AcDbEntity
  8
ALL_ASSEMBLY_MEMBERS
100
AcDbCircle
 62
7
  6
CONTINUOUS
 10
2.4307051475
 20
2.2421649888
 40
0.0648126321
100
AcDbArc
 50
140.7528765648
 51
141.849056255
  0
ARC
  5
496
100
AcDbEntity
  8
ALL_ASSEMBLY_MEMBERS
100
AcDbCircle
 62
7
  6
CONTINUOUS
 10
2.3694632429
 20
2.2463632178
 40
0.0642083849
100
AcDbArc
 50
33.9289363197
 51
34.9761818056
  0
ARC
  5
497
100
AcDbEntity
  8
ALL_ASSEMBLY_MEMBERS
100
AcDbCircle
 62
7
  6
CONTINUOUS
 10
2.4457877231
 20
2.2086094109
 40
0.0322299007
100
AcDbArc
 50
107.7219781011
 51
108.2235689867
  0
ARC
  5
498
100
AcDbEntity
  8
ALL_ASSEMBLY_MEMBERS
100
AcDbCircle
 62
7
  6
CONTINUOUS
 10
2.4455088804
 20
2.2094916625
 40
0.0313046374
100
AcDbArc
 50
105.1938062925
 51
107.7273697416
  0
ARC
  5
499
100
AcDbEntity
  8
ALL_ASSEMBLY_MEMBERS
100
AcDbCircle
 62
7
  6
CONTINUOUS
 10
2.4432073609
 20
2.2148863516
 40
0.0259402
100
AcDbArc
 50
106.9322337191
 51
110.2528727514
  0
ARC
  5
49A
100
AcDbEntity
  8
ALL_ASSEMBLY_MEMBERS
100
AcDbCircle
 62
7
  6
CONTINUOUS
 10
2.4401920297
 20
2.2200840485
 40
0.0207755948
100
AcDbArc
 50
109.2166664297
 51
112.8961081309
  0
ARC
  5
49B
100
AcDbEntity
  8
ALL_ASSEMBLY_MEMBERS
100
AcDbCircle
 62
7
  6
CONTINUOUS
 10
2.357576279
 20
2.2222331042
 40
0.0186469181
100
AcDbArc
 50
65.6612453473
 51
69.5253467591
  0
ARC
  5
49C
100
AcDbEntity
  8
ALL_ASSEMBLY_MEMBERS
100
AcDbCircle
 62
7
  6
CONTINUOUS
 10
2.436559386
 20
2.2247577238
 40
0.0161552053
100
AcDbArc
 50
112.3246214866
 51
116.4427121644
  0
ARC
  5
49D
100
AcDbEntity
  8
ALL_ASSEMBLY_MEMBERS
100
AcDbCircle
 62
7
  6
CONTINUOUS
 10
2.3662058839
 20
2.2266360674
 40
0.0143115196
100
AcDbArc
 50
61.5797804289
 51
65.9189235188
  0
ARC
  5
49E
100
AcDbEntity
  8
0
100
AcDbCircle
 62
7
  6
CONTINUOUS
 10
3.0938307322
 20
1.5966229167
 40
0.6229560106
100
AcDbArc
 50
147.9566058769
 51
148.1886620386
  0
ARC
  5
49F
100
AcDbEntity
  8
0
100
AcDbCircle
 62
7
  6
CONTINUOUS
 10
2.5920023795
 20
1.5819470029
 40
0.0139866917
100
AcDbArc
 50
270.0161754128
 51
280.0975885379
  0
ARC
  5
4A0
100
AcDbEntity
  8
0
100
AcDbCircle
 62
7
  6
CONTINUOUS
 10
2.5920063281
 20
1.5815014183
 40
0.01375
100
AcDbArc
 50
270.0
 51
331.967516678
  0
ARC
  5
4A1
100
AcDbEntity
  8
ALL_ASSEMBLY_MEMBERS
100
AcDbCircle
 62
7
  6
CONTINUOUS
 10
2.5531120156
 20
2.2572245393
 40
0.154325353
100
AcDbArc
 50
170.3214517296
 51
170.6857281361
  0
ARC
  5
4A2
100
AcDbEntity
  8
0
100
AcDbCircle
 62
7
  6
CONTINUOUS
 10
2.6307563268
 20
2.0475393024
 40
0.025
100
AcDbArc
 50
90.0
 51
180.0
  0
ARC
  5
4A3
100
AcDbEntity
  8
ALL_ASSEMBLY_MEMBERS
100
AcDbCircle
 62
7
  6
CONTINUOUS
 10
2.5834125781
 20
2.1033565693
 40
0.01953125
100
AcDbArc
 50
91.2830227543
 51
100.7607206317
  0
ARC
  5
4A4
100
AcDbEntity
  8
ALL_ASSEMBLY_MEMBERS
100
AcDbCircle
 62
7
  6
CONTINUOUS
 10
2.6675375781
 20
2.1364985296
 40
0.01171875
100
AcDbArc
 50
271.2830227543
 51
354.6301678744
  0
ARC
  5
4A5
100
AcDbEntity
  8
ALL_ASSEMBLY_MEMBERS
100
AcDbCircle
 62
7
  6
CONTINUOUS
 10
2.6675375781
 20
2.1343051521
 40
0.01171875
100
AcDbArc
 50
5.3698321256
 51
90.0
  0
ARC
  5
4A6
100
AcDbEntity
  8
0
100
AcDbCircle
 62
7
  6
CONTINUOUS
 10
8.1984258718
 20
3.277818067
 40
1.6982827321
100
AcDbArc
 50
230.3032304693
 51
230.8353866975
  0
ARC
  5
4A7
100
AcDbEntity
  8
0
100
AcDbCircle
 62
7
  6
CONTINUOUS
 10
7.4797097013
 20
0.9071048927
 40
0.7763605964
100
AcDbArc
 50
117.1139399773
 51
118.0986710447
  0
ARC
  5
4A8
100
AcDbEntity
  8
ALL_FEATURES
100
AcDbCircle
 62
7
  6
CONTINUOUS
 10
7.5378744384
 20
1.1015393024
 40
0.125
100
AcDbArc
 50
0.0
 51
90.0
  0
ARC
  5
4A9
100
AcDbEntity
  8
ALL_FEATURES
100
AcDbCircle
 62
7
  6
CONTINUOUS
 10
7.0378744384
 20
1.1015393024
 40
0.125
100
AcDbArc
 50
90.0
 51
180.0
  0
ARC
  5
4AA
100
AcDbEntity
  8
ALL_FEATURES
100
AcDbCircle
 62
7
  6
CONTINUOUS
 10
6.8192745833
 20
1.5799588491
 40
0.085
100
AcDbArc
 50
180.0
 51
209.1354094311
  0
ARC
  5
4AB
100
AcDbEntity
  8
ALL_FEATURES
100
AcDbCircle
 62
7
  6
CONTINUOUS
 10
6.8192745833
 20
1.9801197556
 40
0.085
100
AcDbArc
 50
150.8645905689
 51
180.0
  0
ARC
  5
4AC
100
AcDbEntity
  8
ALL_FEATURES
100
AcDbCircle
 62
7
  6
CONTINUOUS
 10
7.0877939851
 20
1.4429394473
 40
0.085
100
AcDbArc
 50
240.8645905689
 51
270.0
  0
ARC
  5
4AD
100
AcDbEntity
  8
ALL_FEATURES
100
AcDbCircle
 62
7
  6
CONTINUOUS
 10
7.4879548916
 20
1.4429394473
 40
0.085
100
AcDbArc
 50
270.0
 51
299.1354094311
  0
ARC
  5
4AE
100
AcDbEntity
  8
ALL_FEATURES
100
AcDbCircle
 62
7
  6
CONTINUOUS
 10
7.4879548916
 20
2.7391391575
 40
0.085
100
AcDbArc
 50
60.8645905689
 51
90.0
  0
ARC
  5
4AF
100
AcDbEntity
  8
ALL_FEATURES
100
AcDbCircle
 62
7
  6
CONTINUOUS
 10
7.0877939851
 20
2.7391391575
 40
0.085
100
AcDbArc
 50
90.0
 51
119.1354094311
  0
ARC
  5
4B0
100
AcDbEntity
  8
ALL_FEATURES
100
AcDbCircle
 62
7
  6
CONTINUOUS
 10
6.7723254904
 20
1.5537893024
 40
0.03125
100
AcDbArc
 50
209.1354094311
 51
219.7918194996
  0
ARC
  5
4B1
100
AcDbEntity
  8
ALL_FEATURES
100
AcDbCircle
 62
7
  6
CONTINUOUS
 10
6.8106817428
 20
1.5537893024
 40
0.03125
100
AcDbArc
 50
320.2081805004
 51
328.6677485024
  0
ARC
  5
4B2
100
AcDbEntity
  8
ALL_FEATURES
100
AcDbCircle
 62
7
  6
CONTINUOUS
 10
6.7723254904
 20
2.0062893024
 40
0.03125
100
AcDbArc
 50
140.2081805004
 51
150.8645905689
  0
ARC
  5
4B3
100
AcDbEntity
  8
ALL_FEATURES
100
AcDbCircle
 62
7
  6
CONTINUOUS
 10
6.8106817428
 20
2.0062893024
 40
0.03125
100
AcDbArc
 50
31.3322514976
 51
39.7918194996
  0
ARC
  5
4B4
100
AcDbEntity
  8
ALL_FEATURES
100
AcDbCircle
 62
7
  6
CONTINUOUS
 10
7.0616244384
 20
1.3959903544
 40
0.03125
100
AcDbArc
 50
230.2081805004
 51
240.8645905689
  0
ARC
  5
4B5
100
AcDbEntity
  8
ALL_FEATURES
100
AcDbCircle
 62
7
  6
CONTINUOUS
 10
7.0616244384
 20
1.4343466067
 40
0.03125
100
AcDbArc
 50
121.3322514976
 51
129.7918194996
  0
ARC
  5
4B6
100
AcDbEntity
  8
ALL_FEATURES
100
AcDbCircle
 62
7
  6
CONTINUOUS
 10
7.5141244384
 20
1.3959903544
 40
0.03125
100
AcDbArc
 50
299.1354094311
 51
309.7918194996
  0
ARC
  5
4B7
100
AcDbEntity
  8
ALL_FEATURES
100
AcDbCircle
 62
7
  6
CONTINUOUS
 10
7.5141244384
 20
1.4343466067
 40
0.03125
100
AcDbArc
 50
50.2081805004
 51
58.6677485024
  0
ARC
  5
4B8
100
AcDbEntity
  8
ALL_FEATURES
100
AcDbCircle
 62
7
  6
CONTINUOUS
 10
7.5141244384
 20
2.7860882503
 40
0.03125
100
AcDbArc
 50
50.2081805004
 51
60.8645905689
  0
ARC
  5
4B9
100
AcDbEntity
  8
ALL_FEATURES
100
AcDbCircle
 62
7
  6
CONTINUOUS
 10
7.5141244384
 20
2.747731998
 40
0.03125
100
AcDbArc
 50
301.3322514976
 51
309.7918194996
  0
ARC
  5
4BA
100
AcDbEntity
  8
ALL_FEATURES
100
AcDbCircle
 62
7
  6
CONTINUOUS
 10
7.0616244384
 20
2.7860882503
 40
0.03125
100
AcDbArc
 50
119.1354094311
 51
129.7918194996
  0
ARC
  5
4BB
100
AcDbEntity
  8
ALL_FEATURES
100
AcDbCircle
 62
7
  6
CONTINUOUS
 10
7.0616244384
 20
2.747731998
 40
0.03125
100
AcDbArc
 50
230.2081805004
 51
238.6677485024
  0
ARC
  5
4BC
100
AcDbEntity
  8
0
100
AcDbCircle
 62
7
  6
CONTINUOUS
 10
7.5053744384
 20
2.6882893024
 40
0.01
100
AcDbArc
 50
164.0202414191
 51
180.0
  0
ARC
  5
4BD
100
AcDbEntity
  8
0
100
AcDbCircle
 62
7
  6
CONTINUOUS
 10
7.0703744384
 20
2.6882893024
 40
0.01
100
AcDbArc
 50
0.0
 51
15.9797585809
  0
ARC
  5
4BE
100
AcDbEntity
  8
0
100
AcDbCircle
 62
7
  6
CONTINUOUS
 10
6.8698744384
 20
1.5625393024
 40
0.01
100
AcDbArc
 50
90.0
 51
104.4844378758
  0
ARC
  5
4BF
100
AcDbEntity
  8
0
100
AcDbCircle
 62
7
  6
CONTINUOUS
 10
6.8698744384
 20
1.9975393024
 40
0.01
100
AcDbArc
 50
255.5155621242
 51
270.0
  0
ARC
  5
4C0
100
AcDbEntity
  8
0
100
AcDbCircle
 62
7
  6
CONTINUOUS
 10
7.0795086893
 20
1.5625394986
 40
0.009999991
100
AcDbArc
 50
329.9982348584
 51
90.0015832787
  0
ARC
  5
4C1
100
AcDbEntity
  8
0
100
AcDbCircle
 62
7
  6
CONTINUOUS
 10
7.0941247088
 20
1.9975390436
 40
0.009999986
100
AcDbArc
 50
269.9984503941
 51
0.001482745
  0
ARC
  5
4C2
100
AcDbEntity
  8
ALL_FEATURES
100
AcDbCircle
 62
7
  6
CONTINUOUS
 10
9.7717504867
 20
6.4155389901
 40
2.9525
100
AcDbArc
 50
157.5217529493
 51
163.545781462
  0
ARC
  5
4C3
100
AcDbEntity
  8
ALL_FEATURES
100
AcDbCircle
 62
7
  6
CONTINUOUS
 10
9.700081274
 20
6.2618438675
 40
2.9525
100
AcDbArc
 50
146.454218538
 51
152.4782453833
  0
ARC
  5
4C4
100
AcDbEntity
  8
0
100
AcDbCircle
 62
7
  6
CONTINUOUS
 10
7.105414346
 20
7.1285753457
 40
0.3900747891
100
AcDbArc
 50
47.6629088487
 51
48.011685658
  0
ARC
  5
4C5
100
AcDbEntity
  8
0
100
AcDbCircle
 62
7
  6
CONTINUOUS
 10
7.1091749697
 20
7.1327037306
 40
0.3844903575
100
AcDbArc
 50
47.3746631848
 51
47.6013533383
  0
ARC
  5
4C6
100
AcDbEntity
  8
0
100
AcDbCircle
 62
7
  6
CONTINUOUS
 10
7.1116016013
 20
7.1353389861
 40
0.3809080231
100
AcDbArc
 50
47.1544631549
 51
47.32386306
  0
ARC
  5
4C7
100
AcDbEntity
  8
0
100
AcDbCircle
 62
7
  6
CONTINUOUS
 10
7.1210944525
 20
7.1455026995
 40
0.3670007281
100
AcDbArc
 50
44.9045833605
 51
47.1620331537
  0
ARC
  5
4C8
100
AcDbEntity
  8
0
100
AcDbCircle
 62
7
  6
CONTINUOUS
 10
7.1342570872
 20
7.1588151724
 40
0.348280228
100
AcDbArc
 50
44.5941741592
 51
44.8367062366
  0
ARC
  5
4C9
100
AcDbEntity
  8
0
100
AcDbCircle
 62
7
  6
CONTINUOUS
 10
7.1358833546
 20
7.160419427
 40
0.3459958511
100
AcDbArc
 50
44.4433681115
 51
44.5940723669
  0
ARC
  5
4CA
100
AcDbEntity
  8
0
100
AcDbCircle
 62
7
  6
CONTINUOUS
 10
6.8550649292
 20
7.6491464972
 40
0.2386191125
100
AcDbArc
 50
328.5581192332
 51
328.7187675322
  0
ARC
  5
4CB
100
AcDbEntity
  8
0
100
AcDbCircle
 62
7
  6
CONTINUOUS
 10
6.8631032916
 20
7.6442288481
 40
0.229195815
100
AcDbArc
 50
328.3863595073
 51
328.5587469667
  0
ARC
  5
4CC
100
AcDbEntity
  8
0
100
AcDbCircle
 62
7
  6
CONTINUOUS
 10
6.9091786216
 20
7.6935584709
 40
0.2081464739
100
AcDbArc
 50
341.429962839
 51
342.645229215
  0
ARC
  5
4CD
100
AcDbEntity
  8
0
100
AcDbCircle
 62
7
  6
CONTINUOUS
 10
6.8899627636
 20
7.6275881635
 40
0.1975993937
100
AcDbArc
 50
327.4412001456
 51
328.4129813388
  0
ARC
  5
4CE
100
AcDbEntity
  8
0
100
AcDbCircle
 62
7
  6
CONTINUOUS
 10
7.2878744384
 20
6.7237893024
 40
0.19375
100
AcDbArc
 50
124.3409123039
 51
161.9552280696
  0
ARC
  5
4CF
100
AcDbEntity
  8
0
100
AcDbCircle
 62
7
  6
CONTINUOUS
 10
7.2275041597
 20
7.4714853843
 40
0.188579492
100
AcDbArc
 50
162.9038033805
 51
163.059160229
  0
ARC
  5
4D0
100
AcDbEntity
  8
0
100
AcDbCircle
 62
7
  6
CONTINUOUS
 10
7.2529761729
 20
7.5339133489
 40
0.1852494853
100
AcDbArc
 50
146.8499943956
 51
147.0961895178
  0
ARC
  5
4D1
100
AcDbEntity
  8
0
100
AcDbCircle
 62
7
  6
CONTINUOUS
 10
6.9589054629
 20
7.6779152885
 40
0.156017259
100
AcDbArc
 50
342.6812746625
 51
343.791866943
  0
ARC
  5
4D2
100
AcDbEntity
  8
0
100
AcDbCircle
 62
7
  6
CONTINUOUS
 10
6.9268392222
 20
7.6039560263
 40
0.1538004855
100
AcDbArc
 50
326.318388404
 51
327.4682039087
  0
ARC
  5
4D3
100
AcDbEntity
  8
ALL_FEATURES
100
AcDbCircle
 62
7
  6
CONTINUOUS
 10
7.1393148936
 20
7.5495063541
 40
0.0958514476
100
AcDbArc
 50
116.7366790452
 51
193.2633209548
  0
ARC
  5
4D4
100
AcDbEntity
  8
ALL_FEATURES
100
AcDbCircle
 62
7
  6
CONTINUOUS
 10
7.2664232239
 20
7.875444963
 40
0.0325
100
AcDbArc
 50
77.0
 51
146.454218538
  0
ARC
  5
4D5
100
AcDbEntity
  8
ALL_FEATURES
100
AcDbCircle
 62
7
  6
CONTINUOUS
 10
6.9713350933
 20
7.2426264247
 40
0.0325
100
AcDbArc
 50
163.545781462
 51
233.0
  0
ARC
  5
4D6
100
AcDbEntity
  8
0
100
AcDbCircle
 62
7
  6
CONTINUOUS
 10
7.1716932343
 20
6.9052855711
 40
0.015
100
AcDbArc
 50
340.0
 51
70.0
  0
ARC
  5
4D7
100
AcDbEntity
  8
0
100
AcDbCircle
 62
7
  6
CONTINUOUS
 10
7.4935379569
 20
6.788143672
 40
0.015
100
AcDbArc
 50
70.0
 51
160.0
  0
ARC
  5
4D8
100
AcDbEntity
  8
0
100
AcDbCircle
 62
7
  6
CONTINUOUS
 10
7.0715227682
 20
7.197970359
 40
0.012875
100
AcDbArc
 50
155.0
 51
211.3503169251
  0
ARC
  5
4D9
100
AcDbEntity
  8
0
100
AcDbCircle
 62
7
  6
CONTINUOUS
 10
7.365031151
 20
7.8274011171
 40
0.012875
100
AcDbArc
 50
98.6496830749
 51
155.0
  0
ARC
  5
4DA
100
AcDbEntity
  8
0
100
AcDbCircle
 62
7
  6
CONTINUOUS
 10
7.1184062391
 20
7.4129772884
 40
0.01
100
AcDbArc
 50
267.0
 51
335.0
  0
ARC
  5
4DB
100
AcDbEntity
  8
0
100
AcDbCircle
 62
7
  6
CONTINUOUS
 10
7.0603744384
 20
6.7762893024
 40
0.0075
100
AcDbArc
 50
90.0
 51
180.0
  0
ARC
  5
4DC
100
AcDbEntity
  8
0
100
AcDbCircle
 62
7
  6
CONTINUOUS
 10
7.5153744384
 20
6.7762893024
 40
0.0075
100
AcDbArc
 50
0.0
 51
90.0
  0
ARC
  5
4DD
100
AcDbEntity
  8
0
100
AcDbCircle
 62
7
  6
CONTINUOUS
 10
7.0603744384
 20
6.3437893024
 40
0.0075
100
AcDbArc
 50
180.0
 51
270.0
  0
ARC
  5
4DE
100
AcDbEntity
  8
0
100
AcDbCircle
 62
7
  6
CONTINUOUS
 10
7.5153744384
 20
6.3437893024
 40
0.0075
100
AcDbArc
 50
270.0
 51
360.0
  0
ARC
  5
4DF
100
AcDbEntity
  8
0
100
AcDbCircle
 62
7
  6
CONTINUOUS
 10
7.5094557206
 20
6.8062940798
 40
0.0075
100
AcDbArc
 50
250.0
 51
340.0
  0
ARC
  5
4E0
100
AcDbEntity
  8
0
100
AcDbCircle
 62
7
  6
CONTINUOUS
 10
7.1711663771
 20
6.9294213314
 40
0.0075
100
AcDbArc
 50
160.0
 51
250.0
  0
ARC
  5
4E1
100
AcDbEntity
  8
0
100
AcDbCircle
 62
7
  6
CONTINUOUS
 10
7.1750512815
 20
6.8889284415
 40
0.00625
100
AcDbArc
 50
304.3409123039
 51
340.0
  0
LINE
  5
4E2
100
AcDbEntity
  8
ALL_ASSEMBLY_MEMBERS
100
AcDbLine
 62
7
  6
CONTINUOUS
 10
2.2364030044
 20
2.239702041
 11
2.2371782719
 21
2.2392227723
  0
LINE
  5
4E3
100
AcDbEntity
  8
ALL_ASSEMBLY_MEMBERS
100
AcDbLine
 62
7
  6
CONTINUOUS
 10
2.2407966567
 20
2.239702041
 11
2.2413705789
 21
2.2392227723
  0
LINE
  5
4E4
100
AcDbEntity
  8
ALL_ASSEMBLY_MEMBERS
100
AcDbLine
 62
7
  6
CONTINUOUS
 10
2.2457449403
 20
2.239702041
 11
2.2461139788
 21
2.2392227723
  0
LINE
  5
4E5
100
AcDbEntity
  8
ALL_ASSEMBLY_MEMBERS
100
AcDbLine
 62
7
  6
CONTINUOUS
 10
2.2512173474
 20
2.239702041
 11
2.2513792268
 21
2.2392227723
  0
LINE
  5
4E6
100
AcDbEntity
  8
ALL_ASSEMBLY_MEMBERS
100
AcDbLine
 62
7
  6
CONTINUOUS
 10
2.4260138502
 20
2.2392227723
 11
2.4268771431
 21
2.239702041
  0
LINE
  5
4E7
100
AcDbEntity
  8
ALL_ASSEMBLY_MEMBERS
100
AcDbLine
 62
7
  6
CONTINUOUS
 10
2.4220749779
 20
2.2392227723
 11
2.4227388982
 21
2.239702041
  0
LINE
  5
4E8
100
AcDbEntity
  8
ALL_ASSEMBLY_MEMBERS
100
AcDbLine
 62
7
  6
CONTINUOUS
 10
2.4175730958
 20
2.2392227723
 11
2.4180335501
 21
2.239702041
  0
LINE
  5
4E9
100
AcDbEntity
  8
ALL_ASSEMBLY_MEMBERS
100
AcDbLine
 62
7
  6
CONTINUOUS
 10
2.4125359595
 20
2.2392227723
 11
2.4127901089
 21
2.239702041
  0
LINE
  5
4EA
100
AcDbEntity
  8
ALL_ASSEMBLY_MEMBERS
100
AcDbLine
 62
7
  6
CONTINUOUS
 10
2.4069946245
 20
2.2392227723
 11
2.4070409022
 21
2.239702041
  0
LINE
  5
4EB
100
AcDbEntity
  8
ALL_ASSEMBLY_MEMBERS
100
AcDbLine
 62
7
  6
CONTINUOUS
 10
2.4070409022
 20
2.282202041
 11
2.4069946245
 21
2.2831697666
  0
LINE
  5
4EC
100
AcDbEntity
  8
ALL_ASSEMBLY_MEMBERS
100
AcDbLine
 62
7
  6
CONTINUOUS
 10
2.2635965518
 20
2.239702041
 11
2.2633424024
 21
2.2392227723
  0
LINE
  5
4ED
100
AcDbEntity
  8
ALL_ASSEMBLY_MEMBERS
100
AcDbLine
 62
7
  6
CONTINUOUS
 10
2.2704270272
 20
2.239702041
 11
2.269966573
 21
2.2392227723
  0
LINE
  5
4EE
100
AcDbEntity
  8
ALL_ASSEMBLY_MEMBERS
100
AcDbLine
 62
7
  6
CONTINUOUS
 10
2.2776294528
 20
2.239702041
 11
2.2769655326
 21
2.2392227723
  0
LINE
  5
4EF
100
AcDbEntity
  8
ALL_ASSEMBLY_MEMBERS
100
AcDbLine
 62
7
  6
CONTINUOUS
 10
2.2851594233
 20
2.239702041
 11
2.2842961303
 21
2.2392227723
  0
LINE
  5
4F0
100
AcDbEntity
  8
ALL_ASSEMBLY_MEMBERS
100
AcDbLine
 62
7
  6
CONTINUOUS
 10
2.4009832551
 20
2.2392227723
 11
2.4008213757
 21
2.239702041
  0
LINE
  5
4F1
100
AcDbEntity
  8
ALL_ASSEMBLY_MEMBERS
100
AcDbLine
 62
7
  6
CONTINUOUS
 10
2.3945389133
 20
2.2392227723
 11
2.3941698749
 21
2.239702041
  0
LINE
  5
4F2
100
AcDbEntity
  8
ALL_ASSEMBLY_MEMBERS
100
AcDbLine
 62
7
  6
CONTINUOUS
 10
2.3877013307
 20
2.2392227723
 11
2.3871274085
 21
2.239702041
  0
LINE
  5
4F3
100
AcDbEntity
  8
ALL_ASSEMBLY_MEMBERS
100
AcDbLine
 62
7
  6
CONTINUOUS
 10
2.3805126632
 20
2.2392227723
 11
2.3797373957
 21
2.239702041
  0
LINE
  5
4F4
100
AcDbEntity
  8
ALL_ASSEMBLY_MEMBERS
100
AcDbLine
 62
7
  6
CONTINUOUS
 10
2.2571338611
 20
2.2831697666
 11
2.2571801388
 21
2.282202041
  0
SPLINE
  5
4F5
100
AcDbEntity
  8
ALL_FEATURES
100
AcDbSpline
 62
7
  6
CONTINUOUS
 70
0
 71
3
 72
9
 73
5
 74
0
 42
0.0000001
 43
0.0000001
 44
0.0000000001
 40
0.0
 40
0.0
 40
0.0
 40
0.0
 40
0.5060162122
 40
1.0
 40
1.0
 40
1.0
 40
1.0
 10
6.8106817428
 20
1.9683593223
 30
0.0
 10
6.8118067249
 20
1.9683593223
 30
0.0
 10
6.8140427795
 20
1.9679916508
 30
0.0
 10
6.8160646862
 20
1.9670082156
 30
0.0
 10
6.8169948419
 20
1.9664243298
 30
0.0
  0
SPLINE
  5
4F6
100
AcDbEntity
  8
ALL_FEATURES
100
AcDbSpline
 62
7
  6
CONTINUOUS
 70
0
 71
3
 72
41
 73
37
 74
0
 42
0.0000001
 43
0.0000001
 44
0.0000000001
 40
0.0
 40
0.0
 40
0.0
 40
0.0
 40
0.0331170217
 40
0.0493133944
 40
0.0653283383
 40
0.0812038675
 40
0.0969712874
 40
0.1282632041
 40
0.1593404417
 40
0.1902756153
 40
0.2211137384
 40
0.2518843156
 40
0.3132889808
 40
0.3745965061
 40
0.4358569186
 40
0.4971010566
 40
0.5583533943
 40
0.6196415384
 40
0.6810073983
 40
0.7117453516
 40
0.7425372392
 40
0.7734054305
 40
0.8043839978
 40
0.8355260241
 40
0.8669182492
 40
0.8987099895
 40
0.9148477949
 40
0.9312061131
 40
0.9394941299
 40
0.947860644
 40
0.9563246605
 40
0.9648915601
 40
0.9735496946
 40
0.9823104557
 40
0.9911507325
 40
1.0
 40
1.0
 40
1.0
 40
1.0
 10
6.8169948419
 20
1.9664243298
 30
0.0
 10
6.8183235959
 20
1.9655902321
 30
0.0
 10
6.8201123795
 20
1.9640354935
 30
0.0
 10
6.8221129147
 20
1.9616739282
 30
0.0
 10
6.8234393133
 20
1.9598183334
 30
0.0
 10
6.8246235354
 20
1.9578946198
 30
0.0
 10
6.8260383316
 20
1.9552687282
 30
0.0
 10
6.8275504574
 20
1.9518844166
 30
0.0
 10
6.8290468353
 20
1.9477221414
 30
0.0
 10
6.8302857569
 20
1.9434993601
 30
0.0
 10
6.8313137193
 20
1.9392360123
 30
0.0
 10
6.8324470812
 20
1.9335184704
 30
0.0
 10
6.8334883634
 20
1.926317327
 30
0.0
 10
6.8342747199
 20
1.9176344651
 30
0.0
 10
6.8346758595
 20
1.908933417
 30
0.0
 10
6.8347308095
 20
1.9002263086
 30
0.0
 10
6.8344448019
 20
1.8915221719
 30
0.0
 10
6.8337901904
 20
1.8828318359
 30
0.0
 10
6.8328842404
 20
1.8756175435
 30
0.0
 10
6.8318854074
 20
1.8698808738
 30
0.0
 10
6.8309760059
 20
1.8655980119
 30
0.0
 10
6.8298786203
 20
1.8613471608
 30
0.0
 10
6.8285556511
 20
1.8571428584
 30
0.0
 10
6.8269549821
 20
1.853007887
 30
0.0
 10
6.825002767
 20
1.8489819739
 30
0.0
 10
6.8229972728
 20
1.8457897354
 30
0.0
 10
6.8210895978
 20
1.8434114709
 30
0.0
 10
6.8197390423
 20
1.8420241065
 30
0.0
 10
6.8185538552
 20
1.8410023229
 30
0.0
 10
6.8176015121
 20
1.8402871642
 30
0.0
 10
6.816587119
 20
1.839637899
 30
0.0
 10
6.8155099221
 20
1.8390682853
 30
0.0
 10
6.8143708953
 20
1.8385960088
 30
0.0
 10
6.8131756554
 20
1.838242256
 30
0.0
 10
6.811939709
 20
1.8380214306
 30
0.0
 10
6.8111009597
 20
1.8379692824
 30
0.0
 10
6.8106817428
 20
1.8379692824
 30
0.0
  0
SPLINE
  5
4F7
100
AcDbEntity
  8
ALL_FEATURES
100
AcDbSpline
 62
7
  6
CONTINUOUS
 70
0
 71
3
 72
42
 73
38
 74
0
 42
0.0000001
 43
0.0000001
 44
0.0000000001
 40
0.0
 40
0.0
 40
0.0
 40
0.0
 40
0.0088492327
 40
0.0176895387
 40
0.0264503869
 40
0.0351085192
 40
0.0436754524
 40
0.0521396049
 40
0.0605061165
 40
0.0687940916
 40
0.085152459
 40
0.1012902075
 40
0.1330818628
 40
0.1644739579
 40
0.1956158116
 40
0.2265941674
 40
0.2574621073
 40
0.288253698
 40
0.3189913848
 40
0.3803566222
 40
0.4416442324
 40
0.5028961458
 40
0.5641399742
 40
0.6254001713
 40
0.6867075357
 40
0.7173962104
 40
0.7481191727
 40
0.7788896902
 40
0.809727678
 40
0.8406627116
 40
0.8717397614
 40
0.903031394
 40
0.9187986113
 40
0.9346738805
 40
0.9506884715
 40
0.9668843945
 40
1.0
 40
1.0
 40
1.0
 40
1.0
 10
6.8106817428
 20
1.7221093223
 30
0.0
 10
6.8111009477
 20
1.7221093223
 30
0.0
 10
6.811939676
 20
1.7220571731
 30
0.0
 10
6.8131755948
 20
1.7218363515
 30
0.0
 10
6.8143708163
 20
1.7214826268
 30
0.0
 10
6.8155098256
 20
1.7210103716
 30
0.0
 10
6.8165870049
 20
1.7204407718
 30
0.0
 10
6.8176013825
 20
1.7197915237
 30
0.0
 10
6.8185537197
 20
1.719076399
 30
0.0
 10
6.8197388898
 20
1.7180546539
 30
0.0
 10
6.8210894148
 20
1.7166673302
 30
0.0
 10
6.8229970762
 20
1.7142891575
 30
0.0
 10
6.8250025429
 20
1.7110970257
 30
0.0
 10
6.8269547483
 20
1.7070712518
 30
0.0
 10
6.8285554144
 20
1.7029364226
 30
0.0
 10
6.8298783831
 20
1.6987322656
 30
0.0
 10
6.8309757643
 20
1.6944815628
 30
0.0
 10
6.831885199
 20
1.6901988578
 30
0.0
 10
6.83288402
 20
1.6844623887
 30
0.0
 10
6.8337900493
 20
1.6772483574
 30
0.0
 10
6.8344447223
 20
1.6685583115
 30
0.0
 10
6.8347308023
 20
1.6598544692
 30
0.0
 10
6.834675977
 20
1.6511475605
 30
0.0
 10
6.8342748346
 20
1.642446978
 30
0.0
 10
6.833620268
 20
1.6352132964
 30
0.0
 10
6.8328641564
 20
1.6294485343
 30
0.0
 10
6.8321651253
 20
1.6251372151
 30
0.0
 10
6.8313143945
 20
1.6208457795
 30
0.0
 10
6.830286629
 20
1.6165825358
 30
0.0
 10
6.8290479162
 20
1.6123598237
 30
0.0
 10
6.8275518159
 20
1.6081975989
 30
0.0
 10
6.8260399844
 20
1.6048132932
 30
0.0
 10
6.8246254785
 20
1.6021873704
 30
0.0
 10
6.8234415202
 20
1.6002636059
 30
0.0
 10
6.8221154255
 20
1.5984079282
 30
0.0
 10
6.820115404
 20
1.5960461642
 30
0.0
 10
6.8183270997
 20
1.59449115
 30
0.0
 10
6.8169986946
 20
1.5936566959
 30
0.0
  0
SPLINE
  5
4F8
100
AcDbEntity
  8
ALL_FEATURES
100
AcDbSpline
 62
7
  6
CONTINUOUS
 70
0
 71
3
 72
9
 73
5
 74
0
 42
0.0000001
 43
0.0000001
 44
0.0000000001
 40
0.0
 40
0.0
 40
0.0
 40
0.0
 40
0.4939718886
 40
1.0
 40
1.0
 40
1.0
 40
1.0
 10
6.8169986946
 20
1.5936566959
 30
0.0
 10
6.8160681139
 20
1.5930721401
 30
0.0
 10
6.8140450895
 20
1.5920874833
 30
0.0
 10
6.8118075121
 20
1.5917192824
 30
0.0
 10
6.8106817428
 20
1.5917192824
 30
0.0
  0
SPLINE
  5
4F9
100
AcDbEntity
  8
ALL_FEATURES
100
AcDbSpline
 62
7
  6
CONTINUOUS
 70
0
 71
3
 72
42
 73
38
 74
0
 42
0.0000001
 43
0.0000001
 44
0.0000000001
 40
0.0
 40
0.0
 40
0.0
 40
0.0
 40
0.0175562641
 40
0.0348197167
 40
0.0516871089
 40
0.0681966871
 40
0.0844255735
 40
0.1004423321
 40
0.116298897
 40
0.132033067
 40
0.1632293795
 40
0.1941903987
 40
0.2249989814
 40
0.2557053615
 40
0.2863416359
 40
0.3169290552
 40
0.3474821502
 40
0.3780111656
 40
0.4390205071
 40
0.5000023512
 40
0.5609842495
 40
0.6219937094
 40
0.6830701762
 40
0.7136577017
 40
0.7442940814
 40
0.7750005573
 40
0.8058092046
 40
0.8367702487
 40
0.8679665663
 40
0.8837007317
 40
0.8995572879
 40
0.9155740366
 40
0.931802915
 40
0.9483125072
 40
0.9651799517
 40
0.9824435684
 40
1.0
 40
1.0
 40
1.0
 40
1.0
 10
6.7723254904
 20
1.5917192824
 30
0.0
 10
6.7714547139
 20
1.5917192824
 30
0.0
 10
6.7697207103
 20
1.59193783
 30
0.0
 10
6.7673025296
 20
1.592842869
 30
0.0
 10
6.7651496651
 20
1.5941602646
 30
0.0
 10
6.7632622812
 20
1.5957497979
 30
0.0
 10
6.7616068746
 20
1.5975187066
 30
0.0
 10
6.7601473383
 20
1.5994096346
 30
0.0
 10
6.758852402
 20
1.601386532
 30
0.0
 10
6.7573165974
 20
1.6040975996
 30
0.0
 10
6.755688799
 20
1.6076084253
 30
0.0
 10
6.7540931298
 20
1.6119383149
 30
0.0
 10
6.7527829974
 20
1.6163366053
 30
0.0
 10
6.7517046437
 20
1.6207798692
 30
0.0
 10
6.7508191534
 20
1.625253909
 30
0.0
 10
6.7500975815
 20
1.6297492657
 30
0.0
 10
6.7495179581
 20
1.6342595763
 30
0.0
 10
6.7489126593
 20
1.6402854995
 30
0.0
 10
6.7484366001
 20
1.6478383375
 30
0.0
 10
6.7482523928
 20
1.6569141761
 30
0.0
 10
6.7484364869
 20
1.6659902567
 30
0.0
 10
6.7490082743
 20
1.6750551157
 30
0.0
 10
6.7498577235
 20
1.6825842077
 30
0.0
 10
6.750819104
 20
1.6885745885
 30
0.0
 10
6.751704633
 20
1.693048656
 30
0.0
 10
6.7527829739
 20
1.6974919308
 30
0.0
 10
6.7540931091
 20
1.7018902318
 30
0.0
 10
6.7556887783
 20
1.7062201257
 30
0.0
 10
6.7573165708
 20
1.7097309556
 30
0.0
 10
6.7588523727
 20
1.7124420243
 30
0.0
 10
6.7601473056
 20
1.7144189225
 30
0.0
 10
6.7616068373
 20
1.7163098524
 30
0.0
 10
6.7632622388
 20
1.7180787655
 30
0.0
 10
6.7651496203
 20
1.7196683059
 30
0.0
 10
6.7673024891
 20
1.7209857167
 30
0.0
 10
6.7697206857
 20
1.7218907679
 30
0.0
 10
6.7714547056
 20
1.7221093223
 30
0.0
 10
6.7723254904
 20
1.7221093223
 30
0.0
  0
SPLINE
  5
4FA
100
AcDbEntity
  8
ALL_FEATURES
100
AcDbSpline
 62
7
  6
CONTINUOUS
 70
0
 71
3
 72
42
 73
38
 74
0
 42
0.0000001
 43
0.0000001
 44
0.0000000001
 40
0.0
 40
0.0
 40
0.0
 40
0.0
 40
0.017556354
 40
0.0348198778
 40
0.0516872971
 40
0.0681968933
 40
0.0844257844
 40
0.1004425393
 40
0.1162990949
 40
0.1320332582
 40
0.1632295791
 40
0.1941906055
 40
0.2249991952
 40
0.2557055793
 40
0.286341849
 40
0.3169292568
 40
0.3474823409
 40
0.3780113436
 40
0.4390206338
 40
0.5000024333
 40
0.5609842883
 40
0.6219936986
 40
0.683070093
 40
0.7136575831
 40
0.7442939304
 40
0.7750003815
 40
0.8058090129
 40
0.8367700501
 40
0.8679663713
 40
0.8837005309
 40
0.8995570795
 40
0.9155738255
 40
0.9318027079
 40
0.9483123165
 40
0.9651797877
 40
0.9824434781
 40
1.0
 40
1.0
 40
1.0
 40
1.0
 10
6.7723254904
 20
1.8379692824
 30
0.0
 10
6.7714547095
 20
1.8379692824
 30
0.0
 10
6.769720698
 20
1.8381878337
 30
0.0
 10
6.7673025095
 20
1.8390928785
 30
0.0
 10
6.7651496427
 20
1.8404102817
 30
0.0
 10
6.7632622593
 20
1.8419998192
 30
0.0
 10
6.7616068548
 20
1.8437687311
 30
0.0
 10
6.7601473211
 20
1.8456596606
 30
0.0
 10
6.7588523865
 20
1.8476365579
 30
0.0
 10
6.7573165821
 20
1.8503476252
 30
0.0
 10
6.7556887894
 20
1.853858454
 30
0.0
 10
6.7540931181
 20
1.8581883438
 30
0.0
 10
6.7527829874
 20
1.8625866357
 30
0.0
 10
6.751704637
 20
1.8670299008
 30
0.0
 10
6.7508191477
 20
1.87150394
 30
0.0
 10
6.7500975742
 20
1.8759992951
 30
0.0
 10
6.7495179508
 20
1.880509604
 30
0.0
 10
6.7489126639
 20
1.8865355246
 30
0.0
 10
6.7484365918
 20
1.8940883562
 30
0.0
 10
6.7482523976
 20
1.9031641884
 30
0.0
 10
6.7484364888
 20
1.9122402618
 30
0.0
 10
6.7490082716
 20
1.921305113
 30
0.0
 10
6.749857724
 20
1.9288341968
 30
0.0
 10
6.7508191003
 20
1.9348245711
 30
0.0
 10
6.751704628
 20
1.9392986341
 30
0.0
 10
6.7527829662
 20
1.9437419058
 30
0.0
 10
6.7540930989
 20
1.9481402051
 30
0.0
 10
6.755688769
 20
1.9524700976
 30
0.0
 10
6.7573165553
 20
1.9559809298
 30
0.0
 10
6.7588523569
 20
1.9586919981
 30
0.0
 10
6.7601472882
 20
1.9606688963
 30
0.0
 10
6.7616068173
 20
1.9625598278
 30
0.0
 10
6.7632622168
 20
1.9643287441
 30
0.0
 10
6.7651495977
 20
1.9659182886
 30
0.0
 10
6.7673024686
 20
1.9672357071
 30
0.0
 10
6.7697206733
 20
1.9681407641
 30
0.0
 10
6.7714547011
 20
1.9683593223
 30
0.0
 10
6.7723254904
 20
1.9683593223
 30
0.0
  0
SPLINE
  5
4FB
100
AcDbEntity
  8
ALL_FEATURES
100
AcDbSpline
 62
7
  6
CONTINUOUS
 70
0
 71
3
 72
47
 73
43
 74
0
 42
0.0000001
 43
0.0000001
 44
0.0000000001
 40
0.0
 40
0.0
 40
0.0
 40
0.0
 40
0.0088073459
 40
0.0176023783
 40
0.0263101254
 40
0.034913708
 40
0.0434219949
 40
0.0518215951
 40
0.0683423867
 40
0.0845753985
 40
0.1005943845
 40
0.1321635261
 40
0.1633510884
 40
0.1943022165
 40
0.2251002291
 40
0.2557955675
 40
0.2864205504
 40
0.3169966646
 40
0.3475382078
 40
0.3780555211
 40
0.4390413355
 40
0.4999995137
 40
0.5609577493
 40
0.6219437228
 40
0.6524612286
 40
0.6830028498
 40
0.7135791447
 40
0.744204289
 40
0.7748997426
 40
0.8056978729
 40
0.8366490949
 40
0.8678367216
 40
0.899405896
 40
0.9154248769
 40
0.9316578263
 40
0.9481785665
 40
0.9565780681
 40
0.9650862277
 40
0.9736897481
 40
0.9823975527
 40
0.9911926401
 40
1.0
 40
1.0
 40
1.0
 40
1.0
 10
7.0995544184
 20
1.4343466067
 30
0.0
 10
7.0995544184
 20
1.4347834946
 30
0.0
 10
7.0996110466
 20
1.4356574859
 30
0.0
 10
7.0998501681
 20
1.4369433624
 30
0.0
 10
7.1002329544
 20
1.4381834395
 30
0.0
 10
7.1007415931
 20
1.4393612927
 30
0.0
 10
7.1013525034
 20
1.4404715113
 30
0.0
 10
7.1022722647
 20
1.4418532453
 30
0.0
 10
7.1035935768
 20
1.4434184319
 30
0.0
 10
7.1053633523
 20
1.4450741573
 30
0.0
 10
7.1078741016
 20
1.4470086566
 30
0.0
 10
7.1112320613
 20
1.4490311689
 30
0.0
 10
7.1154549375
 20
1.4509880217
 30
0.0
 10
7.1197847603
 20
1.4525826817
 30
0.0
 10
7.1241821147
 20
1.4538918521
 30
0.0
 10
7.1286244428
 20
1.4549695235
 30
0.0
 10
7.1330974053
 20
1.4558545305
 30
0.0
 10
7.1375916684
 20
1.4565755736
 30
0.0
 10
7.1421008286
 20
1.4571548068
 30
0.0
 10
7.1481251511
 20
1.4577598546
 30
0.0
 10
7.1556759448
 20
1.4582356212
 30
0.0
 10
7.1647493685
 20
1.4584197754
 30
0.0
 10
7.1738228028
 20
1.4582356387
 30
0.0
 10
7.1813736099
 20
1.457759808
 30
0.0
 10
7.1873979669
 20
1.4571548805
 30
0.0
 10
7.1919071361
 20
1.4565755402
 30
0.0
 10
7.1964014295
 20
1.4558545614
 30
0.0
 10
7.2008744141
 20
1.454969543
 30
0.0
 10
7.2053167564
 20
1.4538918489
 30
0.0
 10
7.2097141274
 20
1.4525826782
 30
0.0
 10
7.2140439632
 20
1.4509880131
 30
0.0
 10
7.2182668469
 20
1.4490311544
 30
0.0
 10
7.2216248099
 20
1.4470086378
 30
0.0
 10
7.2241355524
 20
1.4450741326
 30
0.0
 10
7.2259053203
 20
1.4434184074
 30
0.0
 10
7.2272266187
 20
1.4418532236
 30
0.0
 10
7.2281463788
 20
1.4404715056
 30
0.0
 10
7.2287572851
 20
1.439361301
 30
0.0
 10
7.2292659211
 20
1.4381834534
 30
0.0
 10
7.2296486993
 20
1.4369433714
 30
0.0
 10
7.2298878266
 20
1.43565749
 30
0.0
 10
7.2299444583
 20
1.4347834953
 30
0.0
 10
7.2299444583
 20
1.4343466067
 30
0.0
  0
SPLINE
  5
4FC
100
AcDbEntity
  8
ALL_FEATURES
100
AcDbSpline
 62
7
  6
CONTINUOUS
 70
0
 71
3
 72
42
 73
38
 74
0
 42
0.0000001
 43
0.0000001
 44
0.0000000001
 40
0.0
 40
0.0
 40
0.0
 40
0.0
 40
0.017556354
 40
0.0348198778
 40
0.0516872971
 40
0.0681968933
 40
0.0844257844
 40
0.1004425393
 40
0.1162990949
 40
0.1320332582
 40
0.1632295791
 40
0.1941906055
 40
0.2249991952
 40
0.2557055793
 40
0.286341849
 40
0.3169292568
 40
0.3474823409
 40
0.3780113436
 40
0.4390206338
 40
0.5000024333
 40
0.5609842883
 40
0.6219936986
 40
0.683070093
 40
0.7136575831
 40
0.7442939304
 40
0.7750003815
 40
0.8058090129
 40
0.8367700501
 40
0.8679663713
 40
0.8837005309
 40
0.8995570795
 40
0.9155738255
 40
0.9318027079
 40
0.9483123165
 40
0.9651797877
 40
0.9824434781
 40
1.0
 40
1.0
 40
1.0
 40
1.0
 10
7.2299444583
 20
1.3959903544
 30
0.0
 10
7.2299444583
 20
1.3951195735
 30
0.0
 10
7.2297259071
 20
1.393385562
 30
0.0
 10
7.2288208622
 20
1.3909673735
 30
0.0
 10
7.2275034591
 20
1.3888145067
 30
0.0
 10
7.2259139215
 20
1.3869271233
 30
0.0
 10
7.2241450096
 20
1.3852717188
 30
0.0
 10
7.2222540801
 20
1.3838121851
 30
0.0
 10
7.2202771829
 20
1.3825172505
 30
0.0
 10
7.2175661155
 20
1.3809814461
 30
0.0
 10
7.2140552868
 20
1.3793536534
 30
0.0
 10
7.2097253969
 20
1.3777579821
 30
0.0
 10
7.205327105
 20
1.3764478514
 30
0.0
 10
7.20088384
 20
1.375369501
 30
0.0
 10
7.1964098007
 20
1.3744840117
 30
0.0
 10
7.1919144457
 20
1.3737624382
 30
0.0
 10
7.1874041368
 20
1.3731828148
 30
0.0
 10
7.1813782162
 20
1.3725775279
 30
0.0
 10
7.1738253845
 20
1.3721014558
 30
0.0
 10
7.1647495524
 20
1.3719172616
 30
0.0
 10
7.1556734789
 20
1.3721013528
 30
0.0
 10
7.1466086277
 20
1.3726731356
 30
0.0
 10
7.139079544
 20
1.373522588
 30
0.0
 10
7.1330891697
 20
1.3744839643
 30
0.0
 10
7.1286151066
 20
1.375369492
 30
0.0
 10
7.1241718349
 20
1.3764478302
 30
0.0
 10
7.1197735356
 20
1.3777579629
 30
0.0
 10
7.1154436432
 20
1.379353633
 30
0.0
 10
7.111932811
 20
1.3809814193
 30
0.0
 10
7.1092217426
 20
1.3825172209
 30
0.0
 10
7.1072448444
 20
1.3838121522
 30
0.0
 10
7.105353913
 20
1.3852716813
 30
0.0
 10
7.1035849967
 20
1.3869270808
 30
0.0
 10
7.1019954521
 20
1.3888144617
 30
0.0
 10
7.1006780336
 20
1.3909673326
 30
0.0
 10
7.0997729766
 20
1.3933855373
 30
0.0
 10
7.0995544184
 20
1.3951195651
 30
0.0
 10
7.0995544184
 20
1.3959903544
 30
0.0
  0
SPLINE
  5
4FD
100
AcDbEntity
  8
ALL_FEATURES
100
AcDbSpline
 62
7
  6
CONTINUOUS
 70
0
 71
3
 72
42
 73
38
 74
0
 42
0.0000001
 43
0.0000001
 44
0.0000000001
 40
0.0
 40
0.0
 40
0.0
 40
0.0
 40
0.0175562641
 40
0.0348197167
 40
0.0516871089
 40
0.0681966871
 40
0.0844255735
 40
0.1004423321
 40
0.116298897
 40
0.132033067
 40
0.1632293795
 40
0.1941903987
 40
0.2249989814
 40
0.2557053615
 40
0.2863416359
 40
0.3169290552
 40
0.3474821502
 40
0.3780111656
 40
0.4390205071
 40
0.5000023512
 40
0.5609842495
 40
0.6219937094
 40
0.6830701762
 40
0.7136577017
 40
0.7442940814
 40
0.7750005573
 40
0.8058092046
 40
0.8367702487
 40
0.8679665663
 40
0.8837007317
 40
0.8995572879
 40
0.9155740366
 40
0.931802915
 40
0.9483125072
 40
0.9651799517
 40
0.9824435684
 40
1.0
 40
1.0
 40
1.0
 40
1.0
 10
7.4761944583
 20
1.3959903544
 30
0.0
 10
7.4761944583
 20
1.3951195779
 30
0.0
 10
7.4759759108
 20
1.3933855743
 30
0.0
 10
7.4750708717
 20
1.3909673936
 30
0.0
 10
7.4737534761
 20
1.3888145291
 30
0.0
 10
7.4721639429
 20
1.3869271452
 30
0.0
 10
7.4703950342
 20
1.3852717386
 30
0.0
 10
7.4685041061
 20
1.3838122023
 30
0.0
 10
7.4665272087
 20
1.382517266
 30
0.0
 10
7.4638161411
 20
1.3809814614
 30
0.0
 10
7.4603053155
 20
1.379353663
 30
0.0
 10
7.4559754259
 20
1.3777579938
 30
0.0
 10
7.4515771355
 20
1.3764478614
 30
0.0
 10
7.4471338715
 20
1.3753695077
 30
0.0
 10
7.4426598318
 20
1.3744840174
 30
0.0
 10
7.4381644751
 20
1.3737624455
 30
0.0
 10
7.4336541645
 20
1.3731828221
 30
0.0
 10
7.4276282412
 20
1.3725775233
 30
0.0
 10
7.4200754032
 20
1.372101464
 30
0.0
 10
7.4109995646
 20
1.3719172568
 30
0.0
 10
7.4019234841
 20
1.3721013509
 30
0.0
 10
7.3928586251
 20
1.3726731383
 30
0.0
 10
7.385329533
 20
1.3735225875
 30
0.0
 10
7.3793391523
 20
1.374483968
 30
0.0
 10
7.3748650848
 20
1.375369497
 30
0.0
 10
7.3704218099
 20
1.3764478379
 30
0.0
 10
7.366023509
 20
1.3777579731
 30
0.0
 10
7.361693615
 20
1.3793536423
 30
0.0
 10
7.3581827852
 20
1.3809814348
 30
0.0
 10
7.3554717165
 20
1.3825172367
 30
0.0
 10
7.3534948183
 20
1.3838121696
 30
0.0
 10
7.3516038883
 20
1.3852717012
 30
0.0
 10
7.3498349752
 20
1.3869271028
 30
0.0
 10
7.3482454349
 20
1.3888144843
 30
0.0
 10
7.346928024
 20
1.390967353
 30
0.0
 10
7.3460229729
 20
1.3933855497
 30
0.0
 10
7.3458044184
 20
1.3951195696
 30
0.0
 10
7.3458044184
 20
1.3959903544
 30
0.0
  0
SPLINE
  5
4FE
100
AcDbEntity
  8
ALL_FEATURES
100
AcDbSpline
 62
7
  6
CONTINUOUS
 70
0
 71
3
 72
47
 73
43
 74
0
 42
0.0000001
 43
0.0000001
 44
0.0000000001
 40
0.0
 40
0.0
 40
0.0
 40
0.0
 40
0.0088073671
 40
0.0176025274
 40
0.026310444
 40
0.0349139879
 40
0.0434222324
 40
0.0518218706
 40
0.0683426043
 40
0.0845756227
 40
0.1005946197
 40
0.1321637862
 40
0.1633513773
 40
0.1943025269
 40
0.2251005434
 40
0.2557958722
 40
0.2864208558
 40
0.3169969614
 40
0.3475384671
 40
0.3780557651
 40
0.4390415048
 40
0.4999996116
 40
0.5609577763
 40
0.6219436696
 40
0.6524611217
 40
0.6830026905
 40
0.7135789288
 40
0.7442040319
 40
0.774899445
 40
0.8056975455
 40
0.8366487635
 40
0.8678364034
 40
0.8994055953
 40
0.9154245887
 40
0.9316575588
 40
0.9481782529
 40
0.9565778149
 40
0.9650859612
 40
0.9736894575
 40
0.9823974192
 40
0.9911926221
 40
1.0
 40
1.0
 40
1.0
 40
1.0
 10
7.3458044184
 20
1.4343466067
 30
0.0
 10
7.3458044184
 20
1.4347834956
 30
0.0
 10
7.3458610548
 20
1.4356574944
 30
0.0
 10
7.3461001904
 20
1.4369433833
 30
0.0
 10
7.3464829594
 20
1.4381834788
 30
0.0
 10
7.3469916014
 20
1.4393613365
 30
0.0
 10
7.3476025253
 20
1.4404715451
 30
0.0
 10
7.3485222936
 20
1.4418532701
 30
0.0
 10
7.3498435991
 20
1.443418461
 30
0.0
 10
7.3516133778
 20
1.4450741808
 30
0.0
 10
7.3541241334
 20
1.4470086748
 30
0.0
 10
7.3574820969
 20
1.4490311866
 30
0.0
 10
7.3617049785
 20
1.4509880366
 30
0.0
 10
7.3660348053
 20
1.4525826934
 30
0.0
 10
7.3704321607
 20
1.4538918621
 30
0.0
 10
7.3748744867
 20
1.4549695407
 30
0.0
 10
7.3793474497
 20
1.4558545418
 30
0.0
 10
7.3838417128
 20
1.456575568
 30
0.0
 10
7.3883508669
 20
1.4571548244
 30
0.0
 10
7.394375186
 20
1.4577598439
 30
0.0
 10
7.40192597
 20
1.4582356247
 30
0.0
 10
7.4109993832
 20
1.458419775
 30
0.0
 10
7.4200728061
 20
1.4582356385
 30
0.0
 10
7.4276236032
 20
1.4577598107
 30
0.0
 10
7.4336479503
 20
1.4571548786
 30
0.0
 10
7.4381571119
 20
1.4565755438
 30
0.0
 10
7.4426513973
 20
1.4558545632
 30
0.0
 10
7.4471243768
 20
1.454969555
 30
0.0
 10
7.4515667133
 20
1.45389186
 30
0.0
 10
7.4559640805
 20
1.4525826903
 30
0.0
 10
7.4602939168
 20
1.4509880299
 30
0.0
 10
7.464516804
 20
1.4490311755
 30
0.0
 10
7.4678747699
 20
1.4470086603
 30
0.0
 10
7.4703855204
 20
1.4450741619
 30
0.0
 10
7.4721552932
 20
1.4434184421
 30
0.0
 10
7.4734765882
 20
1.4418532535
 30
0.0
 10
7.4743963556
 20
1.4404715409
 30
0.0
 10
7.4750072764
 20
1.4393613431
 30
0.0
 10
7.4755159164
 20
1.4381834897
 30
0.0
 10
7.4758986791
 20
1.4369433902
 30
0.0
 10
7.4761378192
 20
1.4356574976
 30
0.0
 10
7.4761944583
 20
1.4347834962
 30
0.0
 10
7.4761944583
 20
1.4343466067
 30
0.0
  0
SPLINE
  5
4FF
100
AcDbEntity
  8
ALL_FEATURES
100
AcDbSpline
 62
7
  6
CONTINUOUS
 70
0
 71
3
 72
9
 73
5
 74
0
 42
0.0000001
 43
0.0000001
 44
0.0000000001
 40
0.0
 40
0.0
 40
0.0
 40
0.0
 40
0.5060162122
 40
1.0
 40
1.0
 40
1.0
 40
1.0
 10
7.4761944583
 20
2.747731998
 30
0.0
 10
7.4761944583
 20
2.7466070159
 30
0.0
 10
7.4758267868
 20
2.7443709613
 30
0.0
 10
7.4748433516
 20
2.7423490546
 30
0.0
 10
7.4742594658
 20
2.7414188989
 30
0.0
  0
SPLINE
  5
500
100
AcDbEntity
  8
ALL_FEATURES
100
AcDbSpline
 62
7
  6
CONTINUOUS
 70
0
 71
3
 72
41
 73
37
 74
0
 42
0.0000001
 43
0.0000001
 44
0.0000000001
 40
0.0
 40
0.0
 40
0.0
 40
0.0
 40
0.0331170217
 40
0.0493133944
 40
0.0653283383
 40
0.0812038675
 40
0.0969712874
 40
0.1282632041
 40
0.1593404417
 40
0.1902756153
 40
0.2211137384
 40
0.2518843156
 40
0.3132889808
 40
0.3745965061
 40
0.4358569186
 40
0.4971010566
 40
0.5583533943
 40
0.6196415384
 40
0.6810073983
 40
0.7117453516
 40
0.7425372392
 40
0.7734054305
 40
0.8043839978
 40
0.8355260241
 40
0.8669182492
 40
0.8987099895
 40
0.9148477949
 40
0.9312061131
 40
0.9394941299
 40
0.947860644
 40
0.9563246605
 40
0.9648915601
 40
0.9735496946
 40
0.9823104557
 40
0.9911507325
 40
1.0
 40
1.0
 40
1.0
 40
1.0
 10
7.4742594658
 20
2.7414188989
 30
0.0
 10
7.4734253681
 20
2.7400901449
 30
0.0
 10
7.4718706295
 20
2.7383013613
 30
0.0
 10
7.4695090642
 20
2.7363008261
 30
0.0
 10
7.4676534694
 20
2.7349744274
 30
0.0
 10
7.4657297558
 20
2.7337902054
 30
0.0
 10
7.4631038642
 20
2.7323754092
 30
0.0
 10
7.4597195527
 20
2.7308632834
 30
0.0
 10
7.4555572774
 20
2.7293669055
 30
0.0
 10
7.4513344961
 20
2.7281279839
 30
0.0
 10
7.4470711483
 20
2.7271000215
 30
0.0
 10
7.4413536064
 20
2.7259666596
 30
0.0
 10
7.434152463
 20
2.7249253774
 30
0.0
 10
7.4254696011
 20
2.7241390209
 30
0.0
 10
7.416768553
 20
2.7237378813
 30
0.0
 10
7.4080614446
 20
2.7236829313
 30
0.0
 10
7.3993573079
 20
2.7239689389
 30
0.0
 10
7.3906669719
 20
2.7246235504
 30
0.0
 10
7.3834526795
 20
2.7255295003
 30
0.0
 10
7.3777160098
 20
2.7265283334
 30
0.0
 10
7.3734331479
 20
2.7274377349
 30
0.0
 10
7.3691822968
 20
2.7285351205
 30
0.0
 10
7.3649779944
 20
2.7298580896
 30
0.0
 10
7.360843023
 20
2.7314587587
 30
0.0
 10
7.35681711
 20
2.7334109738
 30
0.0
 10
7.3536248714
 20
2.7354164679
 30
0.0
 10
7.3512466069
 20
2.737324143
 30
0.0
 10
7.3498592425
 20
2.7386746985
 30
0.0
 10
7.3488374589
 20
2.7398598855
 30
0.0
 10
7.3481223002
 20
2.7408122287
 30
0.0
 10
7.347473035
 20
2.7418266218
 30
0.0
 10
7.3469034213
 20
2.7429038186
 30
0.0
 10
7.3464311448
 20
2.7440428455
 30
0.0
 10
7.346077392
 20
2.7452380854
 30
0.0
 10
7.3458565666
 20
2.7464740318
 30
0.0
 10
7.3458044184
 20
2.747312781
 30
0.0
 10
7.3458044184
 20
2.747731998
 30
0.0
  0
SPLINE
  5
501
100
AcDbEntity
  8
ALL_FEATURES
100
AcDbSpline
 62
7
  6
CONTINUOUS
 70
0
 71
3
 72
42
 73
38
 74
0
 42
0.0000001
 43
0.0000001
 44
0.0000000001
 40
0.0
 40
0.0
 40
0.0
 40
0.0
 40
0.017556354
 40
0.0348198778
 40
0.0516872971
 40
0.0681968933
 40
0.0844257844
 40
0.1004425393
 40
0.1162990949
 40
0.1320332582
 40
0.1632295791
 40
0.1941906055
 40
0.2249991952
 40
0.2557055793
 40
0.286341849
 40
0.3169292568
 40
0.3474823409
 40
0.3780113436
 40
0.4390206338
 40
0.5000024333
 40
0.5609842883
 40
0.6219936986
 40
0.683070093
 40
0.7136575831
 40
0.7442939304
 40
0.7750003815
 40
0.8058090129
 40
0.8367700501
 40
0.8679663713
 40
0.8837005309
 40
0.8995570795
 40
0.9155738255
 40
0.9318027079
 40
0.9483123165
 40
0.9651797877
 40
0.9824434781
 40
1.0
 40
1.0
 40
1.0
 40
1.0
 10
7.3458044184
 20
2.7860882503
 30
0.0
 10
7.3458044184
 20
2.7869590313
 30
0.0
 10
7.3460229697
 20
2.7886930428
 30
0.0
 10
7.3469280145
 20
2.7911112313
 30
0.0
 10
7.3482454177
 20
2.793264098
 30
0.0
 10
7.3498349553
 20
2.7951514814
 30
0.0
 10
7.3516038671
 20
2.7968068859
 30
0.0
 10
7.3534947966
 20
2.7982664197
 30
0.0
 10
7.3554716939
 20
2.7995613542
 30
0.0
 10
7.3581827612
 20
2.8010971586
 30
0.0
 10
7.36169359
 20
2.8027249513
 30
0.0
 10
7.3660234798
 20
2.8043206226
 30
0.0
 10
7.3704217717
 20
2.8056307534
 30
0.0
 10
7.3748650368
 20
2.8067091038
 30
0.0
 10
7.3793390761
 20
2.8075945931
 30
0.0
 10
7.3838344311
 20
2.8083161665
 30
0.0
 10
7.38834474
 20
2.80889579
 30
0.0
 10
7.3943706606
 20
2.8095010769
 30
0.0
 10
7.4019234922
 20
2.8099771489
 30
0.0
 10
7.4109993244
 20
2.8101613432
 30
0.0
 10
7.4200753979
 20
2.8099772519
 30
0.0
 10
7.429140249
 20
2.8094054692
 30
0.0
 10
7.4366693328
 20
2.8085560168
 30
0.0
 10
7.4426597071
 20
2.8075946404
 30
0.0
 10
7.4471337702
 20
2.8067091127
 30
0.0
 10
7.4515770418
 20
2.8056307745
 30
0.0
 10
7.4559753411
 20
2.8043206419
 30
0.0
 10
7.4603052336
 20
2.8027249718
 30
0.0
 10
7.4638160658
 20
2.8010971854
 30
0.0
 10
7.4665271341
 20
2.7995613838
 30
0.0
 10
7.4685040323
 20
2.7982664525
 30
0.0
 10
7.4703949638
 20
2.7968069234
 30
0.0
 10
7.4721638801
 20
2.795151524
 30
0.0
 10
7.4737534247
 20
2.7932641431
 30
0.0
 10
7.4750708431
 20
2.7911112721
 30
0.0
 10
7.4759759001
 20
2.7886930675
 30
0.0
 10
7.4761944583
 20
2.7869590396
 30
0.0
 10
7.4761944583
 20
2.7860882503
 30
0.0
  0
SPLINE
  5
502
100
AcDbEntity
  8
ALL_FEATURES
100
AcDbSpline
 62
7
  6
CONTINUOUS
 70
0
 71
3
 72
42
 73
38
 74
0
 42
0.0000001
 43
0.0000001
 44
0.0000000001
 40
0.0
 40
0.0
 40
0.0
 40
0.0
 40
0.0175562641
 40
0.0348197167
 40
0.0516871089
 40
0.0681966871
 40
0.0844255735
 40
0.1004423321
 40
0.116298897
 40
0.132033067
 40
0.1632293795
 40
0.1941903987
 40
0.2249989814
 40
0.2557053615
 40
0.2863416359
 40
0.3169290552
 40
0.3474821502
 40
0.3780111656
 40
0.4390205071
 40
0.5000023512
 40
0.5609842495
 40
0.6219937094
 40
0.6830701762
 40
0.7136577017
 40
0.7442940814
 40
0.7750005573
 40
0.8058092046
 40
0.8367702487
 40
0.8679665663
 40
0.8837007317
 40
0.8995572879
 40
0.9155740366
 40
0.931802915
 40
0.9483125072
 40
0.9651799517
 40
0.9824435684
 40
1.0
 40
1.0
 40
1.0
 40
1.0
 10
7.0995544184
 20
2.7860882503
 30
0.0
 10
7.0995544184
 20
2.7869590268
 30
0.0
 10
7.099772966
 20
2.7886930305
 30
0.0
 10
7.100678005
 20
2.7911112111
 30
0.0
 10
7.1019954006
 20
2.7932640757
 30
0.0
 10
7.1035849339
 20
2.7951514595
 30
0.0
 10
7.1053538426
 20
2.7968068661
 30
0.0
 10
7.1072447706
 20
2.7982664025
 30
0.0
 10
7.109221668
 20
2.7995613387
 30
0.0
 10
7.1119327356
 20
2.8010971434
 30
0.0
 10
7.1154435613
 20
2.8027249418
 30
0.0
 10
7.1197734509
 20
2.804320611
 30
0.0
 10
7.1241717413
 20
2.8056307433
 30
0.0
 10
7.1286150052
 20
2.8067090971
 30
0.0
 10
7.133089045
 20
2.8075945874
 30
0.0
 10
7.1375844017
 20
2.8083161593
 30
0.0
 10
7.1420947123
 20
2.8088957826
 30
0.0
 10
7.1481206356
 20
2.8095010814
 30
0.0
 10
7.1556734735
 20
2.8099771407
 30
0.0
 10
7.1647493122
 20
2.810161348
 30
0.0
 10
7.1738253927
 20
2.8099772539
 30
0.0
 10
7.1828902517
 20
2.8094054664
 30
0.0
 10
7.1904193438
 20
2.8085560173
 30
0.0
 10
7.1964097245
 20
2.8075946367
 30
0.0
 10
7.200883792
 20
2.8067091078
 30
0.0
 10
7.2053270668
 20
2.8056307669
 30
0.0
 10
7.2097253678
 20
2.8043206317
 30
0.0
 10
7.2140552617
 20
2.8027249625
 30
0.0
 10
7.2175660916
 20
2.80109717
 30
0.0
 10
7.2202771603
 20
2.7995613681
 30
0.0
 10
7.2222540585
 20
2.7982664352
 30
0.0
 10
7.2241449884
 20
2.7968069035
 30
0.0
 10
7.2259139015
 20
2.7951515019
 30
0.0
 10
7.2275034419
 20
2.7932641205
 30
0.0
 10
7.2288208527
 20
2.7911112517
 30
0.0
 10
7.2297259039
 20
2.788693055
 30
0.0
 10
7.2299444583
 20
2.7869590351
 30
0.0
 10
7.2299444583
 20
2.7860882503
 30
0.0
  0
SPLINE
  5
503
100
AcDbEntity
  8
ALL_FEATURES
100
AcDbSpline
 62
7
  6
CONTINUOUS
 70
0
 71
3
 72
42
 73
38
 74
0
 42
0.0000001
 43
0.0000001
 44
0.0000000001
 40
0.0
 40
0.0
 40
0.0
 40
0.0
 40
0.0088492327
 40
0.0176895387
 40
0.0264503869
 40
0.0351085192
 40
0.0436754524
 40
0.0521396049
 40
0.0605061165
 40
0.0687940916
 40
0.085152459
 40
0.1012902075
 40
0.1330818628
 40
0.1644739579
 40
0.1956158116
 40
0.2265941674
 40
0.2574621073
 40
0.288253698
 40
0.3189913848
 40
0.3803566222
 40
0.4416442324
 40
0.5028961458
 40
0.5641399742
 40
0.6254001713
 40
0.6867075357
 40
0.7173962104
 40
0.7481191727
 40
0.7788896902
 40
0.809727678
 40
0.8406627116
 40
0.8717397614
 40
0.903031394
 40
0.9187986113
 40
0.9346738805
 40
0.9506884715
 40
0.9668843945
 40
1.0
 40
1.0
 40
1.0
 40
1.0
 10
7.2299444583
 20
2.747731998
 30
0.0
 10
7.2299444583
 20
2.747312793
 30
0.0
 10
7.2298923091
 20
2.7464740648
 30
0.0
 10
7.2296714875
 20
2.7452381459
 30
0.0
 10
7.2293177628
 20
2.7440429245
 30
0.0
 10
7.2288455076
 20
2.7429039152
 30
0.0
 10
7.2282759078
 20
2.7418267359
 30
0.0
 10
7.2276266597
 20
2.7408123582
 30
0.0
 10
7.226911535
 20
2.7398600211
 30
0.0
 10
7.2258897899
 20
2.7386748509
 30
0.0
 10
7.2245024662
 20
2.737324326
 30
0.0
 10
7.2221242935
 20
2.7354166646
 30
0.0
 10
7.2189321617
 20
2.7334111979
 30
0.0
 10
7.2149063878
 20
2.7314589925
 30
0.0
 10
7.2107715586
 20
2.7298583264
 30
0.0
 10
7.2065674016
 20
2.7285353576
 30
0.0
 10
7.2023166988
 20
2.7274379764
 30
0.0
 10
7.1980339938
 20
2.7265285418
 30
0.0
 10
7.1922975247
 20
2.7255297207
 30
0.0
 10
7.1850834934
 20
2.7246236914
 30
0.0
 10
7.1763934475
 20
2.7239690185
 30
0.0
 10
7.1676896052
 20
2.7236829384
 30
0.0
 10
7.1589826965
 20
2.7237377637
 30
0.0
 10
7.150282114
 20
2.7241389061
 30
0.0
 10
7.1430484324
 20
2.7247934727
 30
0.0
 10
7.1372836703
 20
2.7255495844
 30
0.0
 10
7.1329723511
 20
2.7262486155
 30
0.0
 10
7.1286809155
 20
2.7270993462
 30
0.0
 10
7.1244176719
 20
2.7281271118
 30
0.0
 10
7.1201949597
 20
2.7293658246
 30
0.0
 10
7.1160327349
 20
2.7308619249
 30
0.0
 10
7.1126484292
 20
2.7323737563
 30
0.0
 10
7.1100225064
 20
2.7337882623
 30
0.0
 10
7.1080987419
 20
2.7349722205
 30
0.0
 10
7.1062430643
 20
2.7362983153
 30
0.0
 10
7.1038813002
 20
2.7382983368
 30
0.0
 10
7.102326286
 20
2.740086641
 30
0.0
 10
7.1014918319
 20
2.7414150462
 30
0.0
  0
SPLINE
  5
504
100
AcDbEntity
  8
ALL_FEATURES
100
AcDbSpline
 62
7
  6
CONTINUOUS
 70
0
 71
3
 72
9
 73
5
 74
0
 42
0.0000001
 43
0.0000001
 44
0.0000000001
 40
0.0
 40
0.0
 40
0.0
 40
0.0
 40
0.4939718886
 40
1.0
 40
1.0
 40
1.0
 40
1.0
 10
7.1014918319
 20
2.7414150462
 30
0.0
 10
7.1009072761
 20
2.7423456269
 30
0.0
 10
7.0999226193
 20
2.7443686513
 30
0.0
 10
7.0995544184
 20
2.7466062287
 30
0.0
 10
7.0995544184
 20
2.747731998
 30
0.0
  0
LINE
  5
505
100
AcDbEntity
  8
ALL_FEATURES
100
AcDbLine
 62
7
  6
CONTINUOUS
 10
7.1782062526
 20
7.4980698572
 11
7.1779206449
 21
7.4979890923
  0
LINE
  5
506
100
AcDbEntity
  8
ALL_FEATURES
100
AcDbLine
 62
7
  6
CONTINUOUS
 10
7.1980519941
 20
7.5554179474
 11
7.1979302807
 21
7.5556886545
  0
LINE
  5
507
100
AcDbEntity
  8
ALL_FEATURES
100
AcDbLine
 62
7
  6
CONTINUOUS
 10
7.1763819647
 20
7.498920544
 11
7.1765036772
 21
7.4986498352
  0
LINE
  5
508
100
AcDbEntity
  8
ALL_FEATURES
100
AcDbLine
 62
7
  6
CONTINUOUS
 10
7.1877108109
 20
7.4936378134
 11
7.1878325246
 21
7.493367107
  0
LINE
  5
509
100
AcDbEntity
  8
ALL_FEATURES
100
AcDbLine
 62
7
  6
CONTINUOUS
 10
7.1029263483
 20
7.6319695252
 11
7.1051077754
 21
7.6269943032
  0
LINE
  5
50A
100
AcDbEntity
  8
ALL_FEATURES
100
AcDbLine
 62
7
  6
CONTINUOUS
 10
7.2075565522
 20
7.5509859029
 11
7.2078421603
 21
7.5510666692
  0
LINE
  5
50B
100
AcDbEntity
  8
ALL_FEATURES
100
AcDbLine
 62
7
  6
CONTINUOUS
 10
7.0579677691
 20
7.5259022334
 11
7.0527543335
 21
7.5243752924
  0
LINE
  5
50C
100
AcDbEntity
  8
ALL_FEATURES
100
AcDbLine
 62
7
  6
CONTINUOUS
 10
7.1895351005
 20
7.4927871303
 11
7.1892494923
 21
7.4927063641
  0
LINE
  5
50D
100
AcDbEntity
  8
ALL_FEATURES
100
AcDbLine
 62
7
  6
CONTINUOUS
 10
7.2093808421
 20
7.5501352204
 11
7.209259128
 21
7.5504059263
  0
LINE
  5
50E
100
AcDbEntity
  8
ALL_FEATURES
100
AcDbLine
 62
7
  6
CONTINUOUS
 10
7.2188855397
 20
7.5457034787
 11
7.2191710076
 21
7.5457839409
  0
LINE
  5
50F
100
AcDbEntity
  8
ALL_FEATURES
100
AcDbLine
 62
7
  6
CONTINUOUS
 10
7.2191710076
 20
7.5457839409
 11
7.2192969406
 21
7.5453379701
  0
SPLINE
  5
510
100
AcDbEntity
  8
ALL_FEATURES
100
AcDbSpline
 62
7
  6
CONTINUOUS
 70
0
 71
3
 72
39
 73
35
 74
0
 42
0.0000001
 43
0.0000001
 44
0.0000000001
 40
0.0
 40
0.0
 40
0.0
 40
0.0
 40
0.0038047451
 40
0.0052748141
 40
0.0069862247
 40
0.0111629568
 40
0.0163741495
 40
0.0226296328
 40
0.0299253659
 40
0.0382524404
 40
0.0475993647
 40
0.0579509379
 40
0.081573754
 40
0.1089211692
 40
0.1397623072
 40
0.2108108215
 40
0.2922224801
 40
0.3811099933
 40
0.4743089936
 40
0.5685043193
 40
0.6603541794
 40
0.7465880146
 40
0.7866302355
 40
0.8241456637
 40
0.8587980881
 40
0.8902860615
 40
0.918331759
 40
0.9426935098
 40
0.9631676388
 40
0.9795882264
 40
0.9862483704
 40
0.991864929
 40
0.9964405754
 40
1.0
 40
1.0
 40
1.0
 40
1.0
 10
7.1892494923
 20
7.4927063641
 30
0.0
 10
7.1891793418
 20
7.4927390758
 30
0.0
 10
7.1891390307
 20
7.4928649327
 30
0.0
 10
7.1891245435
 20
7.4930025323
 30
0.0
 10
7.1891204065
 20
7.4931533755
 30
0.0
 10
7.1891363378
 20
7.4933783725
 30
0.0
 10
7.1891811701
 20
7.4936938384
 30
0.0
 10
7.1892535757
 20
7.4940686372
 30
0.0
 10
7.1893530902
 20
7.4945025453
 30
0.0
 10
7.1894795184
 20
7.4949945737
 30
0.0
 10
7.1896324586
 20
7.4955438548
 30
0.0
 10
7.1898824199
 20
7.4963890086
 30
0.0
 10
7.1902597915
 20
7.4975781886
 30
0.0
 10
7.1907902381
 20
7.4991557903
 30
0.0
 10
7.191659433
 20
7.5016371716
 30
0.0
 10
7.1929419403
 20
7.5051388704
 30
0.0
 10
7.1946776307
 20
7.5097317793
 30
0.0
 10
7.19660318
 20
7.5147345491
 30
0.0
 10
7.1986382403
 20
7.5199737826
 30
0.0
 10
7.2006987333
 20
7.5252677879
 30
0.0
 10
7.2026994722
 20
7.5304329935
 30
0.0
 10
7.2042851127
 20
7.5345775433
 30
0.0
 10
7.2054572835
 20
7.5376966978
 30
0.0
 10
7.2062493474
 20
7.5398376593
 30
0.0
 10
7.2069677827
 20
7.5418202641
 30
0.0
 10
7.2076047719
 20
7.543627413
 30
0.0
 10
7.2081531994
 20
7.5452436879
 30
0.0
 10
7.2086070181
 20
7.5466553253
 30
0.0
 10
7.2089608785
 20
7.5478503043
 30
0.0
 10
7.2091833026
 20
7.5487084283
 30
0.0
 10
7.2093025747
 20
7.5492800267
 30
0.0
 10
7.209358205
 20
7.5496185161
 30
0.0
 10
7.2093863582
 20
7.5498969853
 30
0.0
 10
7.2093873563
 20
7.5500631022
 30
0.0
 10
7.2093808421
 20
7.5501352204
 30
0.0
  0
SPLINE
  5
511
100
AcDbEntity
  8
ALL_FEATURES
100
AcDbSpline
 62
7
  6
CONTINUOUS
 70
0
 71
3
 72
39
 73
35
 74
0
 42
0.0000001
 43
0.0000001
 44
0.0000000001
 40
0.0
 40
0.0
 40
0.0
 40
0.0
 40
0.0038047673
 40
0.0052748498
 40
0.0069862757
 40
0.0111630409
 40
0.0163742738
 40
0.0226298307
 40
0.0299256497
 40
0.0382527953
 40
0.0475997487
 40
0.0579513481
 40
0.0815743257
 40
0.1089220445
 40
0.1397635585
 40
0.2108098558
 40
0.2922176277
 40
0.3811025014
 40
0.4743002082
 40
0.5684962237
 40
0.6603486035
 40
0.7465863419
 40
0.7866292445
 40
0.8241446372
 40
0.8587970396
 40
0.8902852971
 40
0.9183312215
 40
0.9426931821
 40
0.963167424
 40
0.9795881191
 40
0.9862483122
 40
0.9918648993
 40
0.9964405611
 40
1.0
 40
1.0
 40
1.0
 40
1.0
 10
7.2078421603
 20
7.5510666692
 30
0.0
 10
7.2079123112
 20
7.5510339572
 30
0.0
 10
7.2079526215
 20
7.5509080988
 30
0.0
 10
7.2079671084
 20
7.5507704982
 30
0.0
 10
7.2079712452
 20
7.5506196538
 30
0.0
 10
7.2079553137
 20
7.550394655
 30
0.0
 10
7.2079104812
 20
7.5500791861
 30
0.0
 10
7.2078380742
 20
7.5497043835
 30
0.0
 10
7.207738558
 20
7.549270471
 30
0.0
 10
7.2076121284
 20
7.548778439
 30
0.0
 10
7.2074591875
 20
7.5482291555
 30
0.0
 10
7.2072092248
 20
7.5473839975
 30
0.0
 10
7.2068318491
 20
7.5461948083
 30
0.0
 10
7.2063013966
 20
7.5446171906
 30
0.0
 10
7.2054322101
 20
7.5421358396
 30
0.0
 10
7.2041497459
 20
7.5386342492
 30
0.0
 10
7.2024141173
 20
7.5340415071
 30
0.0
 10
7.2004886277
 20
7.5290388849
 30
0.0
 10
7.198453592
 20
7.5237997128
 30
0.0
 10
7.196393085
 20
7.5185056712
 30
0.0
 10
7.1943922926
 20
7.5133403312
 30
0.0
 10
7.1928065994
 20
7.509195647
 30
0.0
 10
7.1916343952
 20
7.5060764062
 30
0.0
 10
7.1908423264
 20
7.503935433
 30
0.0
 10
7.19012389
 20
7.5019528237
 30
0.0
 10
7.1894868963
 20
7.5001456659
 30
0.0
 10
7.1889384641
 20
7.4985293772
 30
0.0
 10
7.1884846409
 20
7.4971177295
 30
0.0
 10
7.1881307778
 20
7.4959227422
 30
0.0
 10
7.1879083519
 20
7.495064613
 30
0.0
 10
7.1877890786
 20
7.494493011
 30
0.0
 10
7.1877334481
 20
7.4941545198
 30
0.0
 10
7.1877052949
 20
7.4938760493
 30
0.0
 10
7.1877042968
 20
7.4937099319
 30
0.0
 10
7.1877108109
 20
7.4936378134
 30
0.0
  0
SPLINE
  5
512
100
AcDbEntity
  8
ALL_FEATURES
100
AcDbSpline
 62
7
  6
CONTINUOUS
 70
0
 71
3
 72
39
 73
35
 74
0
 42
0.0000001
 43
0.0000001
 44
0.0000000001
 40
0.0
 40
0.0
 40
0.0
 40
0.0
 40
0.0038047477
 40
0.0052748104
 40
0.006986208
 40
0.0111628867
 40
0.0163739672
 40
0.0226292332
 40
0.0299246507
 40
0.0382513246
 40
0.0475977745
 40
0.0579485988
 40
0.0815693563
 40
0.1089152111
 40
0.1397546257
 40
0.2108026603
 40
0.2922152955
 40
0.3811036427
 40
0.4743035792
 40
0.5684992471
 40
0.6603476361
 40
0.7465815367
 40
0.7866249699
 40
0.824142137
 40
0.858795563
 40
0.890284159
 40
0.9183301804
 40
0.9426925055
 40
0.9631670077
 40
0.9795879178
 40
0.9862482003
 40
0.9918648347
 40
0.9964405259
 40
1.0
 40
1.0
 40
1.0
 40
1.0
 10
7.196513313
 20
7.5563493974
 30
0.0
 10
7.1965834635
 20
7.5563166857
 30
0.0
 10
7.1966237745
 20
7.5561908288
 30
0.0
 10
7.1966382619
 20
7.5560532296
 30
0.0
 10
7.1966423991
 20
7.5559023879
 30
0.0
 10
7.1966264684
 20
7.5556773945
 30
0.0
 10
7.1965816373
 20
7.5553619363
 30
0.0
 10
7.1965092353
 20
7.5549871503
 30
0.0
 10
7.196409726
 20
7.5545532605
 30
0.0
 10
7.196283305
 20
7.5540612552
 30
0.0
 10
7.1961303741
 20
7.5535120059
 30
0.0
 10
7.1958804354
 20
7.5526669151
 30
0.0
 10
7.1955030979
 20
7.5514778176
 30
0.0
 10
7.1949726841
 20
7.5499003196
 30
0.0
 10
7.1941035251
 20
7.547419007
 30
0.0
 10
7.1928210277
 20
7.5439173313
 30
0.0
 10
7.1910853328
 20
7.5393243953
 30
0.0
 10
7.1891597646
 20
7.5343215732
 30
0.0
 10
7.1871246899
 20
7.5290822995
 30
0.0
 10
7.1850641981
 20
7.5237882982
 30
0.0
 10
7.1830634668
 20
7.5186231132
 30
0.0
 10
7.1814778245
 20
7.5144785685
 30
0.0
 10
7.1803056324
 20
7.5113593566
 30
0.0
 10
7.1795135373
 20
7.509218321
 30
0.0
 10
7.1787950783
 20
7.5072356522
 30
0.0
 10
7.1781580731
 20
7.505428467
 30
0.0
 10
7.1776096368
 20
7.5038121625
 30
0.0
 10
7.177155807
 20
7.5024005016
 30
0.0
 10
7.1768019381
 20
7.5012054982
 30
0.0
 10
7.1765795084
 20
7.5003473582
 30
0.0
 10
7.1764602328
 20
7.4997757494
 30
0.0
 10
7.1764046018
 20
7.4994372548
 30
0.0
 10
7.176376449
 20
7.499158782
 30
0.0
 10
7.1763754507
 20
7.4989926633
 30
0.0
 10
7.1763819647
 20
7.498920544
 30
0.0
  0
SPLINE
  5
513
100
AcDbEntity
  8
ALL_FEATURES
100
AcDbSpline
 62
7
  6
CONTINUOUS
 70
0
 71
3
 72
28
 73
24
 74
0
 42
0.0000001
 43
0.0000001
 44
0.0000000001
 40
0.0
 40
0.0
 40
0.0
 40
0.0
 40
0.1579783879
 40
0.3284247692
 40
0.4995799207
 40
0.5817139766
 40
0.659636025
 40
0.7320085591
 40
0.7975783876
 40
0.8552325052
 40
0.8807790477
 40
0.9040000275
 40
0.9247967154
 40
0.9430876301
 40
0.9588194169
 40
0.9719511084
 40
0.9824664319
 40
0.986759105
 40
0.9904286444
 40
0.9935058596
 40
0.996046104
 40
0.9981510877
 40
1.0
 40
1.0
 40
1.0
 40
1.0
 10
7.2014391435
 20
7.5070418031
 30
0.0
 10
7.2020724284
 20
7.5088427654
 30
0.0
 10
7.2034184177
 20
7.5125764468
 30
0.0
 10
7.2055003464
 20
7.5182431689
 30
0.0
 10
7.207268057
 20
7.5230489385
 30
0.0
 10
7.2086338362
 20
7.5268111759
 30
0.0
 10
7.209579855
 20
7.5294558228
 30
0.0
 10
7.2104413637
 20
7.5319180656
 30
0.0
 10
7.2111993014
 20
7.5341569459
 30
0.0
 10
7.2117510259
 20
7.5358681089
 30
0.0
 10
7.2121243814
 20
7.5370987887
 30
0.0
 10
7.2123570221
 20
7.5379066282
 30
0.0
 10
7.2125523256
 20
7.5386338727
 30
0.0
 10
7.2127089458
 20
7.5392776196
 30
0.0
 10
7.2128260553
 20
7.5398354463
 30
0.0
 10
7.2129027884
 20
7.540305232
 30
0.0
 10
7.2129350951
 20
7.5406418666
 30
0.0
 10
7.2129363477
 20
7.5408653154
 30
0.0
 10
7.21292661
 20
7.5409985455
 30
0.0
 10
7.2129062892
 20
7.5411092311
 30
0.0
 10
7.2128750062
 20
7.5411977365
 30
0.0
 10
7.2128317391
 20
7.5412644683
 30
0.0
 10
7.2127923945
 20
7.5412939467
 30
0.0
 10
7.2127721216
 20
7.5413033388
 30
0.0
  0
SPLINE
  5
514
100
AcDbEntity
  8
ALL_FEATURES
100
AcDbSpline
 62
7
  6
CONTINUOUS
 70
0
 71
3
 72
39
 73
35
 74
0
 42
0.0000001
 43
0.0000001
 44
0.0000000001
 40
0.0
 40
0.0
 40
0.0
 40
0.0
 40
0.0038047613
 40
0.0052748406
 40
0.0069862634
 40
0.0111630239
 40
0.0163742548
 40
0.0226298061
 40
0.029925617
 40
0.0382527543
 40
0.0475997012
 40
0.057951292
 40
0.0815742661
 40
0.1089220678
 40
0.1397636875
 40
0.2108091793
 40
0.2922146664
 40
0.3810972444
 40
0.4742938891
 40
0.5684901507
 40
0.6603440808
 40
0.7465844682
 40
0.7866284005
 40
0.8241445138
 40
0.8587971704
 40
0.8902853511
 40
0.9183311732
 40
0.9426931274
 40
0.963167386
 40
0.9795880983
 40
0.9862482985
 40
0.9918648891
 40
0.9964405547
 40
1.0
 40
1.0
 40
1.0
 40
1.0
 10
7.1779206449
 20
7.4979890923
 30
0.0
 10
7.1778504941
 20
7.4980218042
 30
0.0
 10
7.1778101836
 20
7.4981476622
 30
0.0
 10
7.1777956966
 20
7.4982852625
 30
0.0
 10
7.1777915598
 20
7.4984361067
 30
0.0
 10
7.1778074913
 20
7.4986611054
 30
0.0
 10
7.1778523239
 20
7.498976574
 30
0.0
 10
7.1779247308
 20
7.4993513763
 30
0.0
 10
7.1780242468
 20
7.4997852884
 30
0.0
 10
7.1781506762
 20
7.50027732
 30
0.0
 10
7.1783036169
 20
7.500826603
 30
0.0
 10
7.1785535793
 20
7.5016717607
 30
0.0
 10
7.1789309553
 20
7.5028609512
 30
0.0
 10
7.1794614092
 20
7.5044385724
 30
0.0
 10
7.1803305919
 20
7.5069199115
 30
0.0
 10
7.1816130341
 20
7.5104214453
 30
0.0
 10
7.1833486234
 20
7.515014085
 30
0.0
 10
7.1852740709
 20
7.5200166004
 30
0.0
 10
7.1873090828
 20
7.5252557137
 30
0.0
 10
7.1893695954
 20
7.5305497692
 30
0.0
 10
7.1913704211
 20
7.5357151931
 30
0.0
 10
7.1929561538
 20
7.5398599761
 30
0.0
 10
7.1941283893
 20
7.5429793007
 30
0.0
 10
7.1949204727
 20
7.5451203119
 30
0.0
 10
7.1956389157
 20
7.5471029383
 30
0.0
 10
7.1962759098
 20
7.5489100975
 30
0.0
 10
7.1968243405
 20
7.5505263827
 30
0.0
 10
7.1972781633
 20
7.5519380285
 30
0.0
 10
7.1976320266
 20
7.5531330163
 30
0.0
 10
7.1978544529
 20
7.5539911463
 30
0.0
 10
7.1979737264
 20
7.5545627488
 30
0.0
 10
7.198029357
 20
7.5549012404
 30
0.0
 10
7.1980575101
 20
7.5551797111
 30
0.0
 10
7.1980585083
 20
7.5553458288
 30
0.0
 10
7.1980519941
 20
7.5554179474
 30
0.0
  0
LINE
  5
515
100
AcDbEntity
  8
ALL_FEATURES
100
AcDbLine
 62
7
  6
CONTINUOUS
 10
7.1756662269
 20
7.5067779773
 11
7.1756853517
 21
7.5073346239
  0
SPLINE
  5
516
100
AcDbEntity
  8
ALL_FEATURES
100
AcDbSpline
 62
7
  6
CONTINUOUS
 70
0
 71
3
 72
16
 73
12
 74
0
 42
0.0000001
 43
0.0000001
 44
0.0000000001
 40
0.0
 40
0.0
 40
0.0
 40
0.0
 40
0.0275266289
 40
0.0605215458
 40
0.0989061945
 40
0.1425778527
 40
0.2451428937
 40
0.3666596724
 40
0.5052405748
 40
0.6586697249
 40
1.0
 40
1.0
 40
1.0
 40
1.0
 10
7.1756853517
 20
7.5073346239
 30
0.0
 10
7.1757021279
 20
7.5074820484
 30
0.0
 10
7.1757517412
 20
7.507804721
 30
0.0
 10
7.1758571155
 20
7.5083274318
 30
0.0
 10
7.1759997285
 20
7.5089310648
 30
0.0
 10
7.1762524209
 20
7.5098936786
 30
0.0
 10
7.1766591939
 20
7.5112786996
 30
0.0
 10
7.1772521205
 20
7.5131415401
 30
0.0
 10
7.177960948
 20
7.515254929
 30
0.0
 10
7.1790811015
 20
7.5184798409
 30
0.0
 10
7.1799847387
 20
7.5209890488
 30
0.0
 10
7.180613099
 20
7.5227182845
 30
0.0
  0
SPLINE
  5
517
100
AcDbEntity
  8
ALL_FEATURES
100
AcDbSpline
 62
7
  6
CONTINUOUS
 70
0
 71
3
 72
36
 73
32
 74
0
 42
0.0000001
 43
0.0000001
 44
0.0000000001
 40
0.0
 40
0.0
 40
0.0
 40
0.0
 40
0.0019562529
 40
0.0043673679
 40
0.0074945833
 40
0.011453449
 40
0.016295272
 40
0.0220435892
 40
0.0287087455
 40
0.0362914594
 40
0.0541684839
 40
0.075572699
 40
0.1003695896
 40
0.1283695956
 40
0.1593662971
 40
0.1931259753
 40
0.2293816685
 40
0.2678593365
 40
0.3502559201
 40
0.4377508939
 40
0.5276105461
 40
0.6170273202
 40
0.703209667
 40
0.7834675805
 40
0.8553015994
 40
0.8873561221
 40
0.9164950189
 40
0.9425068791
 40
0.9651916783
 40
0.9843938611
 40
1.0
 40
1.0
 40
1.0
 40
1.0
 10
7.1843195461
 20
7.5024697279
 30
0.0
 10
7.18429194
 20
7.5024825666
 30
0.0
 10
7.1842386782
 20
7.5025298234
 30
0.0
 10
7.1841904394
 20
7.5026380234
 30
0.0
 10
7.1841622369
 20
7.5027837747
 30
0.0
 10
7.1841530867
 20
7.502969599
 30
0.0
 10
7.1841625752
 20
7.5031960202
 30
0.0
 10
7.1841908077
 20
7.5034632117
 30
0.0
 10
7.1842377126
 20
7.5037709412
 30
0.0
 10
7.1843302856
 20
7.5042623393
 30
0.0
 10
7.184494975
 20
7.5049731286
 30
0.0
 10
7.1847523161
 20
7.505936712
 30
0.0
 10
7.1850766795
 20
7.5070451181
 30
0.0
 10
7.1854642381
 20
7.5082903387
 30
0.0
 10
7.1859109674
 20
7.5096630956
 30
0.0
 10
7.1864121869
 20
7.5111531433
 30
0.0
 10
7.1869626958
 20
7.5127493912
 30
0.0
 10
7.1877738565
 20
7.5150563944
 30
0.0
 10
7.1888709186
 20
7.5181081152
 30
0.0
 10
7.1902579981
 20
7.5219052607
 30
0.0
 10
7.1916911712
 20
7.5258018717
 30
0.0
 10
7.1931157108
 20
7.5296798901
 30
0.0
 10
7.1944772794
 20
7.5334218409
 30
0.0
 10
7.1957234591
 20
7.5369145165
 30
0.0
 10
7.1966583123
 20
7.53962378
 30
0.0
 10
7.1973069018
 20
7.5415899293
 30
0.0
 10
7.1977169582
 20
7.5428837372
 30
0.0
 10
7.1980652572
 20
7.5440440107
 30
0.0
 10
7.1983479726
 20
7.5450623453
 30
0.0
 10
7.1985618632
 20
7.5459312947
 30
0.0
 10
7.1986687122
 20
7.5464627715
 30
0.0
 10
7.198706957
 20
7.5467026228
 30
0.0
  0
LINE
  5
518
100
AcDbEntity
  8
ALL_FEATURES
100
AcDbLine
 62
7
  6
CONTINUOUS
 10
7.198706957
 20
7.5467026228
 11
7.1987677477
 21
7.5475605451
  0
LINE
  5
519
100
AcDbEntity
  8
ALL_FEATURES
100
AcDbLine
 62
7
  6
CONTINUOUS
 10
7.186995056
 20
7.5014952126
 11
7.1870580992
 21
7.5023671802
  0
SPLINE
  5
51A
100
AcDbEntity
  8
ALL_FEATURES
100
AcDbSpline
 62
7
  6
CONTINUOUS
 70
0
 71
3
 72
36
 73
32
 74
0
 42
0.0000001
 43
0.0000001
 44
0.0000000001
 40
0.0
 40
0.0
 40
0.0
 40
0.0
 40
0.0156791118
 40
0.0349484255
 40
0.0576937036
 40
0.0837589778
 40
0.1129439493
 40
0.1450370515
 40
0.216925994
 40
0.2972102403
 40
0.3833928144
 40
0.4727874028
 40
0.5626069868
 40
0.6500490638
 40
0.7323853634
 40
0.7708319019
 40
0.8070565577
 40
0.8407859996
 40
0.8717540259
 40
0.899727142
 40
0.9244997764
 40
0.9458826839
 40
0.9637416035
 40
0.9713167417
 40
0.977975341
 40
0.9837179724
 40
0.9885550712
 40
0.9925102696
 40
0.9956349466
 40
0.9980445842
 40
1.0
 40
1.0
 40
1.0
 40
1.0
 10
7.1870580992
 20
7.5023671802
 30
0.0
 10
7.187096912
 20
7.5026080154
 30
0.0
 10
7.1872047657
 20
7.5031413375
 30
0.0
 10
7.1874199757
 20
7.5040128944
 30
0.0
 10
7.1877038586
 20
7.5050334919
 30
0.0
 10
7.1880531683
 20
7.506195675
 30
0.0
 10
7.1884640723
 20
7.5074910337
 30
0.0
 10
7.1891135058
 20
7.5094585274
 30
0.0
 10
7.1900489858
 20
7.5121686229
 30
0.0
 10
7.1912954337
 20
7.51566135
 30
0.0
 10
7.1926567306
 20
7.519402182
 30
0.0
 10
7.1940805447
 20
7.523278099
 30
0.0
 10
7.1955126413
 20
7.5271718504
 30
0.0
 10
7.196898408
 20
7.530965627
 30
0.0
 10
7.1979942799
 20
7.5340143409
 30
0.0
 10
7.1988044657
 20
7.5363188782
 30
0.0
 10
7.1993542597
 20
7.5379133082
 30
0.0
 10
7.1998547946
 20
7.5394016049
 30
0.0
 10
7.200300885
 20
7.5407727036
 30
0.0
 10
7.200687859
 20
7.5420163899
 30
0.0
 10
7.2010117067
 20
7.5431234061
 30
0.0
 10
7.2012686106
 20
7.5440857667
 30
0.0
 10
7.201432989
 20
7.5447956497
 30
0.0
 10
7.2015253634
 20
7.54528642
 30
0.0
 10
7.2015721541
 20
7.5455937591
 30
0.0
 10
7.2016002944
 20
7.5458606127
 30
0.0
 10
7.2016097145
 20
7.5460867485
 30
0.0
 10
7.2016005207
 20
7.5462723438
 30
0.0
 10
7.2015722998
 20
7.5464179232
 30
0.0
 10
7.2015240728
 20
7.5465260049
 30
0.0
 10
7.2014708471
 20
7.5465732087
 30
0.0
 10
7.2014432608
 20
7.5465860372
 30
0.0
  0
SPLINE
  5
51B
100
AcDbEntity
  8
ALL_FEATURES
100
AcDbSpline
 62
7
  6
CONTINUOUS
 70
0
 71
3
 72
36
 73
32
 74
0
 42
0.0000001
 43
0.0000001
 44
0.0000000001
 40
0.0
 40
0.0
 40
0.0
 40
0.0
 40
0.0019776433
 40
0.0044265023
 40
0.0076151208
 40
0.0116635344
 40
0.0166217276
 40
0.0225109449
 40
0.0293390791
 40
0.0371070628
 40
0.055428215
 40
0.0773581432
 40
0.1027498647
 40
0.1314104927
 40
0.1631122538
 40
0.1976132655
 40
0.2346309528
 40
0.2738717947
 40
0.3577450313
 40
0.4465324694
 40
0.5373677925
 40
0.6273195746
 40
0.7134859555
 40
0.7930881525
 40
0.8635681115
 40
0.8946749259
 40
0.9226844048
 40
0.9473892072
 40
0.9685968072
 40
0.9861635916
 40
1.0
 40
1.0
 40
1.0
 40
1.0
 10
7.1956484136
 20
7.4971870452
 30
0.0
 10
7.1956203306
 20
7.4972001423
 30
0.0
 10
7.1955662269
 20
7.4972487439
 30
0.0
 10
7.195517792
 20
7.4973598198
 30
0.0
 10
7.1954899449
 20
7.4975096789
 30
0.0
 10
7.1954818662
 20
7.4977010109
 30
0.0
 10
7.1954930181
 20
7.4979343305
 30
0.0
 10
7.1955235126
 20
7.4982097299
 30
0.0
 10
7.1955732239
 20
7.4985269123
 30
0.0
 10
7.1956705754
 20
7.4990334859
 30
0.0
 10
7.1958428007
 20
7.4997661737
 30
0.0
 10
7.1961107515
 20
7.5007592826
 30
0.0
 10
7.1964475663
 20
7.5019012679
 30
0.0
 10
7.1968492543
 20
7.5031835076
 30
0.0
 10
7.1973114092
 20
7.5045962389
 30
0.0
 10
7.1978291213
 20
7.5061284749
 30
0.0
 10
7.1983968395
 20
7.5077684448
 30
0.0
 10
7.1992313993
 20
7.5101346272
 30
0.0
 10
7.2003569229
 20
7.5132582598
 30
0.0
 10
7.2017752084
 20
7.5171356125
 30
0.0
 10
7.2032336758
 20
7.5210996702
 30
0.0
 10
7.2046748085
 20
7.5250263446
 30
0.0
 10
7.2060417964
 20
7.5287927395
 30
0.0
 10
7.207280163
 20
7.532281162
 30
0.0
 10
7.2081986485
 20
7.5349675996
 30
0.0
 10
7.2088257649
 20
7.5368989674
 30
0.0
 10
7.2092145575
 20
7.5381535165
 30
0.0
 10
7.2095376587
 20
7.5392658559
 30
0.0
 10
7.2097914311
 20
7.5402277616
 30
0.0
 10
7.2099727659
 20
7.54103203
 30
0.0
 10
7.2100547825
 20
7.541517827
 30
0.0
 10
7.2100788221
 20
7.5417332867
 30
0.0
  0
LINE
  5
51C
100
AcDbEntity
  8
ALL_FEATURES
100
AcDbLine
 62
7
  6
CONTINUOUS
 10
7.2100788221
 20
7.5417332867
 11
7.2100966516
 21
7.5422779341
  0
SPLINE
  5
51D
100
AcDbEntity
  8
0
100
AcDbSpline
 62
7
  6
CONTINUOUS
 70
0
 71
3
 72
17
 73
13
 74
0
 42
0.0000001
 43
0.0000001
 44
0.0000000001
 40
0.0
 40
0.0
 40
0.0
 40
0.0
 40
0.3805122673
 40
0.5449121233
 40
0.6875291187
 40
0.8056527584
 40
0.8548383429
 40
0.8971391928
 40
0.9324425283
 40
0.9608774854
 40
0.9829468908
 40
1.0
 40
1.0
 40
1.0
 40
1.0
 10
7.0177707797
 20
7.1882999021
 30
0.0
 10
7.0184392624
 20
7.1877215061
 30
0.0
 10
7.0193777619
 20
7.1868705127
 30
0.0
 10
7.0205048817
 20
7.1857383603
 30
0.0
 10
7.0211723428
 20
7.1850100059
 30
0.0
 10
7.0216296941
 20
7.18445303
 30
0.0
 10
7.0219128066
 20
7.1840566038
 30
0.0
 10
7.0220699904
 20
7.1838072419
 30
0.0
 10
7.0221845744
 20
7.1835887786
 30
0.0
 10
7.0222559148
 20
7.1834018585
 30
0.0
 10
7.0222850415
 20
7.1832465343
 30
0.0
 10
7.0222712917
 20
7.1831532126
 30
0.0
 10
7.0222545491
 20
7.183117308
 30
0.0
  0
SPLINE
  5
51E
100
AcDbEntity
  8
0
100
AcDbSpline
 62
7
  6
CONTINUOUS
 70
0
 71
3
 72
22
 73
18
 74
0
 42
0.0000001
 43
0.0000001
 44
0.0000000001
 40
0.0
 40
0.0
 40
0.0
 40
0.0
 40
0.1931689734
 40
0.379719432
 40
0.5521033649
 40
0.7038319707
 40
0.8288112196
 40
0.8795209752
 40
0.9216743272
 40
0.9393990626
 40
0.9548163529
 40
0.9678920874
 40
0.9786259707
 40
0.9870367527
 40
0.9931846287
 40
0.9972626383
 40
1.0
 40
1.0
 40
1.0
 40
1.0
 10
7.0074253934
 20
7.1749780967
 30
0.0
 10
7.0079491018
 20
7.1745833706
 30
0.0
 10
7.0089807957
 20
7.1738103824
 30
0.0
 10
7.0104878199
 20
7.1726958362
 30
0.0
 10
7.0118896589
 20
7.1716757208
 30
0.0
 10
7.0131323216
 20
7.1707923033
 30
0.0
 10
7.0140486731
 20
7.1701628702
 30
0.0
 10
7.0146682481
 20
7.1697589662
 30
0.0
 10
7.0149872334
 20
7.1695608533
 30
0.0
 10
7.0152080192
 20
7.1694319757
 30
0.0
 10
7.0153453636
 20
7.1693560864
 30
0.0
 10
7.0154639438
 20
7.1692953368
 30
0.0
 10
7.0155634527
 20
7.1692499857
 30
0.0
 10
7.0156439381
 20
7.1692192348
 30
0.0
 10
7.0157052702
 20
7.169204358
 30
0.0
 10
7.0157502465
 20
7.1692010255
 30
0.0
 10
7.0157720477
 20
7.1692155389
 30
0.0
 10
7.0157759752
 20
7.1692239615
 30
0.0
  0
LINE
  5
51F
100
AcDbEntity
  8
0
100
AcDbLine
 62
7
  6
CONTINUOUS
 10
6.9788502835
 20
7.1965156312
 11
7.0074253934
 21
7.1749780967
  0
SPLINE
  5
520
100
AcDbEntity
  8
0
100
AcDbSpline
 62
7
  6
CONTINUOUS
 70
0
 71
3
 72
17
 73
13
 74
0
 42
0.0000001
 43
0.0000001
 44
0.0000000001
 40
0.0
 40
0.0
 40
0.0
 40
0.0
 40
0.0166362855
 40
0.0383689336
 40
0.0665505379
 40
0.1016725789
 40
0.1438547525
 40
0.1929762009
 40
0.3111139114
 40
0.4539062543
 40
0.6186107427
 40
1.0
 40
1.0
 40
1.0
 40
1.0
 10
7.0171268427
 20
7.172120906
 30
0.0
 10
7.0171431213
 20
7.1721558156
 30
0.0
 10
7.0171556875
 20
7.1722473233
 30
0.0
 10
7.0171249948
 20
7.1723993753
 30
0.0
 10
7.0170522624
 20
7.1725831051
 30
0.0
 10
7.0169362857
 20
7.1727984232
 30
0.0
 10
7.0167777207
 20
7.1730447236
 30
0.0
 10
7.0164924883
 20
7.1734371169
 30
0.0
 10
7.0160327116
 20
7.1739892859
 30
0.0
 10
7.0153627805
 20
7.174712394
 30
0.0
 10
7.0142323675
 20
7.1758380965
 30
0.0
 10
7.0132925979
 20
7.1766853491
 30
0.0
 10
7.0126235796
 20
7.1772616958
 30
0.0
  0
SPLINE
  5
521
100
AcDbEntity
  8
0
100
AcDbSpline
 62
7
  6
CONTINUOUS
 70
0
 71
3
 72
30
 73
26
 74
0
 42
0.0000001
 43
0.0000001
 44
0.0000000001
 40
0.0
 40
0.0
 40
0.0
 40
0.0
 40
0.1124687699
 40
0.2128971023
 40
0.300756826
 40
0.3756370267
 40
0.4372857032
 40
0.4631579256
 40
0.4857671817
 40
0.5051952116
 40
0.5216110085
 40
0.5353185729
 40
0.5468508298
 40
0.5571003957
 40
0.5673161849
 40
0.5787605632
 40
0.5923473948
 40
0.608624068
 40
0.6279021361
 40
0.650359125
 40
0.6760832775
 40
0.7374516645
 40
0.8120791643
 40
0.8997359983
 40
1.0
 40
1.0
 40
1.0
 40
1.0
 10
7.0471078613
 20
7.5264344546
 30
0.0
 10
7.0467363777
 20
7.5252148321
 30
0.0
 10
7.0460566625
 20
7.5228988525
 30
0.0
 10
7.0451825357
 20
7.5196029941
 30
0.0
 10
7.0445132978
 20
7.5166949474
 30
0.0
 10
7.044052086
 20
7.5141926064
 30
0.0
 10
7.0438287061
 20
7.512363004
 30
0.0
 10
7.0437705901
 20
7.5111153208
 30
0.0
 10
7.0437829157
 20
7.5103449514
 30
0.0
 10
7.0438482615
 20
7.5096845604
 30
0.0
 10
7.0439667818
 20
7.509133804
 30
0.0
 10
7.0441396427
 20
7.5086913796
 30
0.0
 10
7.0443715373
 20
7.5083562449
 30
0.0
 10
7.0446704759
 20
7.5081364329
 30
0.0
 10
7.0450297885
 20
7.5080474377
 30
0.0
 10
7.0454329759
 20
7.5080854456
 30
0.0
 10
7.0458784925
 20
7.5082386658
 30
0.0
 10
7.0463702864
 20
7.5085039078
 30
0.0
 10
7.0469102462
 20
7.5088810582
 30
0.0
 10
7.0474987902
 20
7.5093703637
 30
0.0
 10
7.048401969
 20
7.5102235851
 30
0.0
 10
7.0496371118
 20
7.5115813245
 30
0.0
 10
7.0512261104
 20
7.513557971
 30
0.0
 10
7.0529874631
 20
7.5159580193
 30
0.0
 10
7.0541910049
 20
7.517716107
 30
0.0
 10
7.0548215509
 20
7.5186617541
 30
0.0
  0
SPLINE
  5
522
100
AcDbEntity
  8
0
100
AcDbSpline
 62
7
  6
CONTINUOUS
 70
0
 71
3
 72
13
 73
9
 74
0
 42
0.0000001
 43
0.0000001
 44
0.0000000001
 40
0.0
 40
0.0
 40
0.0
 40
0.0
 40
0.1016163782
 40
0.2122746769
 40
0.3309139789
 40
0.4563527454
 40
0.7225202158
 40
1.0
 40
1.0
 40
1.0
 40
1.0
 10
7.0589957321
 20
7.5252460997
 30
0.0
 10
7.0599808715
 20
7.5268675165
 30
0.0
 10
7.0619997876
 20
7.530278402
 30
0.0
 10
7.0650502352
 20
7.53565147
 30
0.0
 10
7.0682302049
 20
7.5414615278
 30
0.0
 10
7.0726889621
 20
7.5498805224
 30
0.0
 10
7.0783270692
 20
7.5610293609
 30
0.0
 10
7.0827123171
 20
7.5701843018
 30
0.0
 10
7.0849016976
 20
7.5748796441
 30
0.0
  0
SPLINE
  5
523
100
AcDbEntity
  8
0
100
AcDbSpline
 62
7
  6
CONTINUOUS
 70
0
 71
3
 72
13
 73
9
 74
0
 42
0.0000001
 43
0.0000001
 44
0.0000000001
 40
0.0
 40
0.0
 40
0.0
 40
0.0
 40
0.2784545784
 40
0.5451573872
 40
0.6705910026
 40
0.7889985391
 40
0.8991640855
 40
1.0
 40
1.0
 40
1.0
 40
1.0
 10
7.0849016976
 20
7.5748796441
 30
0.0
 10
7.0871255514
 20
7.579648462
 30
0.0
 10
7.0913809509
 20
7.5890310833
 30
0.0
 10
7.0963621375
 20
7.6006842933
 30
0.0
 10
7.0999827404
 20
7.6096269894
 30
0.0
 10
7.1024057892
 20
7.6158625558
 30
0.0
 10
7.1045672593
 20
7.6217002497
 30
0.0
 10
7.1058816028
 20
7.6254649828
 30
0.0
 10
7.106487966
 20
7.6272713892
 30
0.0
  0
SPLINE
  5
524
100
AcDbEntity
  8
0
100
AcDbSpline
 62
7
  6
CONTINUOUS
 70
0
 71
3
 72
30
 73
26
 74
0
 42
0.0000001
 43
0.0000001
 44
0.0000000001
 40
0.0
 40
0.0
 40
0.0
 40
0.0
 40
0.1000164403
 40
0.1874155903
 40
0.2617913128
 40
0.3229297144
 40
0.348552598
 40
0.3709212076
 40
0.3901277515
 40
0.4063548395
 40
0.4199212443
 40
0.4313834682
 40
0.4416611663
 40
0.4520084918
 40
0.4636544754
 40
0.4774761038
 40
0.4939990926
 40
0.5135249967
 40
0.5362222791
 40
0.562173342
 40
0.6239562998
 40
0.6989468531
 40
0.786903049
 40
0.8874259268
 40
1.0
 40
1.0
 40
1.0
 40
1.0
 10
7.1087216713
 20
7.6343665942
 30
0.0
 10
7.1090317406
 20
7.6354359908
 30
0.0
 10
7.1095880894
 20
7.6374471973
 30
0.0
 10
7.1102716778
 20
7.6402811031
 30
0.0
 10
7.1107457711
 20
7.642717842
 30
0.0
 10
7.1109791852
 20
7.6444987327
 30
0.0
 10
7.1110443021
 20
7.6457125031
 30
0.0
 10
7.1110363194
 20
7.6464612145
 30
0.0
 10
7.110974738
 20
7.647102775
 30
0.0
 10
7.110859438
 20
7.6476376868
 30
0.0
 10
7.1106890625
 20
7.6480672896
 30
0.0
 10
7.1104586091
 20
7.648392314
 30
0.0
 10
7.1101606343
 20
7.648603876
 30
0.0
 10
7.1098030829
 20
7.6486878487
 30
0.0
 10
7.1094011806
 20
7.6486493002
 30
0.0
 10
7.1089557136
 20
7.6484988882
 30
0.0
 10
7.1084630827
 20
7.6482393902
 30
0.0
 10
7.1079216205
 20
7.647870872
 30
0.0
 10
7.1073309796
 20
7.6473932493
 30
0.0
 10
7.1064247427
 20
7.6465616326
 30
0.0
 10
7.1051840315
 20
7.6452386621
 30
0.0
 10
7.1035864137
 20
7.6433123081
 30
0.0
 10
7.1018148238
 20
7.6409736908
 30
0.0
 10
7.0998805522
 20
7.6382361665
 30
0.0
 10
7.0985628875
 20
7.6362631174
 30
0.0
 10
7.097877564
 20
7.6352138589
 30
0.0
  0
SPLINE
  5
525
100
AcDbEntity
  8
0
100
AcDbSpline
 62
7
  6
CONTINUOUS
 70
0
 71
3
 72
31
 73
27
 74
0
 42
0.0000001
 43
0.0000001
 44
0.0000000001
 40
0.0
 40
0.0
 40
0.0
 40
0.0
 40
0.0041346345
 40
0.008346687
 40
0.0172606298
 40
0.0272297871
 40
0.0385984297
 40
0.0515856339
 40
0.0663257248
 40
0.0829002009
 40
0.1013522105
 40
0.1216990644
 40
0.1439395237
 40
0.1680575513
 40
0.1940260998
 40
0.221808156
 40
0.2513585947
 40
0.3155458136
 40
0.3860952486
 40
0.4624194408
 40
0.5438519472
 40
0.6296569757
 40
0.7190376072
 40
0.811148463
 40
0.9051060727
 40
1.0
 40
1.0
 40
1.0
 40
1.0
 10
2.0695009768
 20
1.5679603117
 30
0.0
 10
2.0695009757
 20
1.5683351462
 30
0.0
 10
2.0695547244
 20
1.5690928874
 30
0.0
 10
2.0698790608
 20
1.5706279243
 30
0.0
 10
2.0707139188
 20
1.5725719151
 30
0.0
 10
2.0723128784
 20
1.5748186501
 30
0.0
 10
2.0745162723
 20
1.5770312881
 30
0.0
 10
2.0773170991
 20
1.5792145408
 30
0.0
 10
2.0807120475
 20
1.5813694624
 30
0.0
 10
2.0846965915
 20
1.5834930376
 30
0.0
 10
2.0892642536
 20
1.5855815386
 30
0.0
 10
2.0944066727
 20
1.5876303486
 30
0.0
 10
2.100113731
 20
1.5896346146
 30
0.0
 10
2.106373688
 20
1.5915895521
 30
0.0
 10
2.1131733055
 20
1.5934902546
 30
0.0
 10
2.1204978823
 20
1.5953321371
 30
0.0
 10
2.131242036
 20
1.5977708631
 30
0.0
 10
2.1458669085
 20
1.6006089323
 30
0.0
 10
2.1647643024
 20
1.6036273601
 30
0.0
 10
2.1852894131
 20
1.6063128701
 30
0.0
 10
2.2072493709
 20
1.6086369675
 30
0.0
 10
2.2304345842
 20
1.6105743713
 30
0.0
 10
2.2546201537
 20
1.612103992
 30
0.0
 10
2.2795685799
 20
1.6132089524
 30
0.0
 10
2.3050323666
 20
1.6138769632
 30
0.0
 10
2.3221535068
 20
1.6140257264
 30
0.0
 10
2.3307563281
 20
1.6140257354
 30
0.0
  0
SPLINE
  5
526
100
AcDbEntity
  8
0
100
AcDbSpline
 62
7
  6
CONTINUOUS
 70
0
 71
3
 72
21
 73
17
 74
0
 42
0.0000001
 43
0.0000001
 44
0.0000000001
 40
0.0
 40
0.0
 40
0.0
 40
0.0
 40
0.0230717065
 40
0.0515123639
 40
0.0848279166
 40
0.1225163258
 40
0.164319887
 40
0.210263047
 40
0.3161179234
 40
0.3771847096
 40
0.4443516984
 40
0.5180846715
 40
0.5988094891
 40
0.6869423992
 40
0.7829085807
 40
1.0
 40
1.0
 40
1.0
 40
1.0
 10
2.6040912532
 20
1.5750424709
 30
0.0
 10
2.6038860118
 20
1.5750549731
 30
0.0
 10
2.6034328344
 20
1.5751564199
 30
0.0
 10
2.6027357095
 20
1.5754550533
 30
0.0
 10
2.6019781985
 20
1.5759210353
 30
0.0
 10
2.6011963659
 20
1.5765572162
 30
0.0
 10
2.6004196425
 20
1.5773649065
 30
0.0
 10
2.5993714573
 20
1.578739718
 30
0.0
 10
2.5984582396
 20
1.5804125385
 30
0.0
 10
2.5975846662
 20
1.5823062093
 30
0.0
 10
2.5968675234
 20
1.5839574922
 30
0.0
 10
2.5960806883
 20
1.5857691092
 30
0.0
 10
2.5951861835
 20
1.5877376507
 30
0.0
 10
2.5941468485
 20
1.5898572678
 30
0.0
 10
2.592450369
 20
1.5930053724
 30
0.0
 10
2.5909534585
 20
1.5953671643
 30
0.0
 10
2.5898368427
 20
1.5969472132
 30
0.0
  0
SPLINE
  5
527
100
AcDbEntity
  8
0
100
AcDbSpline
 62
7
  6
CONTINUOUS
 70
0
 71
3
 72
11
 73
7
 74
0
 42
0.0000001
 43
0.0000001
 44
0.0000000001
 40
0.0
 40
0.0
 40
0.0
 40
0.0
 40
0.2487419495
 40
0.4984656823
 40
0.7488171331
 40
1.0
 40
1.0
 40
1.0
 40
1.0
 10
2.6040912626
 20
1.5750424694
 30
0.0
 10
2.6036025242
 20
1.5741561543
 30
0.0
 10
2.6024183545
 20
1.5724847324
 30
0.0
 10
2.6001297564
 20
1.5704361791
 30
0.0
 10
2.5974373178
 20
1.568938041
 30
0.0
 10
2.5954608449
 20
1.5683561094
 30
0.0
 10
2.5944546003
 20
1.5681769572
 30
0.0
  0
SPLINE
  5
528
100
AcDbEntity
  8
0
100
AcDbSpline
 62
7
  6
CONTINUOUS
 70
0
 71
3
 72
31
 73
27
 74
0
 42
0.0000001
 43
0.0000001
 44
0.0000000001
 40
0.0
 40
0.0
 40
0.0
 40
0.0
 40
0.0948823946
 40
0.1888320725
 40
0.280941766
 40
0.3703236051
 40
0.4561312905
 40
0.5375680804
 40
0.6138965787
 40
0.6844491314
 40
0.7486381813
 40
0.7781892049
 40
0.8059715123
 40
0.8319402138
 40
0.8560582848
 40
0.878298745
 40
0.898645872
 40
0.9170981786
 40
0.9336731292
 40
0.9484140125
 40
0.9614014343
 40
0.9727704419
 40
0.9827412602
 40
0.9916540406
 40
0.9958653997
 40
1.0
 40
1.0
 40
1.0
 40
1.0
 10
2.3307563281
 20
1.6140257354
 30
0.0
 10
2.339358086
 20
1.6140257297
 30
0.0
 10
2.3564774262
 20
1.6138770116
 30
0.0
 10
2.3819392915
 20
1.6132090989
 30
0.0
 10
2.4068869564
 20
1.6121042905
 30
0.0
 10
2.4310727275
 20
1.6105747726
 30
0.0
 10
2.4542586364
 20
1.6086374044
 30
0.0
 10
2.4762195736
 20
1.606313309
 30
0.0
 10
2.4967457057
 20
1.6036277556
 30
0.0
 10
2.5156439004
 20
1.6006092712
 30
0.0
 10
2.5302692416
 20
1.5977711479
 30
0.0
 10
2.5410136204
 20
1.5953324245
 30
0.0
 10
2.5483382733
 20
1.5934905415
 30
0.0
 10
2.5551379254
 20
1.5915898672
 30
0.0
 10
2.5613978989
 20
1.5896349676
 30
0.0
 10
2.5671049799
 20
1.5876307186
 30
0.0
 10
2.5722474626
 20
1.5855819598
 30
0.0
 10
2.5768152192
 20
1.5834934626
 30
0.0
 10
2.5807998973
 20
1.581369855
 30
0.0
 10
2.5841950145
 20
1.5792149841
 30
0.0
 10
2.5869959888
 20
1.5770316705
 30
0.0
 10
2.5891992777
 20
1.5748187478
 30
0.0
 10
2.5907992772
 20
1.5725726469
 30
0.0
 10
2.5916333253
 20
1.5706280937
 30
0.0
 10
2.5919556407
 20
1.5690928045
 30
0.0
 10
2.5920088852
 20
1.5683351424
 30
0.0
 10
2.5920088947
 20
1.5679603117
 30
0.0
  0
SPLINE
  5
529
100
AcDbEntity
  8
0
100
AcDbSpline
 62
7
  6
CONTINUOUS
 70
0
 71
3
 72
15
 73
11
 74
0
 42
0.0000001
 43
0.0000001
 44
0.0000000001
 40
0.0
 40
0.0
 40
0.0
 40
0.0
 40
0.1258356903
 40
0.251759964
 40
0.3772747758
 40
0.502455398
 40
0.6272632218
 40
0.7517137135
 40
0.8760420777
 40
1.0
 40
1.0
 40
1.0
 40
1.0
 10
2.0695063281
 20
1.5679603117
 30
0.0
 10
2.0686087069
 20
1.5679603289
 30
0.0
 10
2.0668081995
 20
1.5681359697
 30
0.0
 10
2.0642136246
 20
1.5689088283
 30
0.0
 10
2.0618207052
 20
1.5701678773
 30
0.0
 10
2.0597246146
 20
1.5718627537
 30
0.0
 10
2.0580020012
 20
1.5739264368
 30
0.0
 10
2.0567215064
 20
1.5762839033
 30
0.0
 10
2.0559351217
 20
1.5788412548
 30
0.0
 10
2.0557563281
 20
1.5806171917
 30
0.0
 10
2.0557563281
 20
1.5815014183
 30
0.0
  0
SPLINE
  5
52A
100
AcDbEntity
  8
0
100
AcDbSpline
 62
7
  6
CONTINUOUS
 70
0
 71
3
 72
23
 73
19
 74
0
 42
0.0000001
 43
0.0000001
 44
0.0000000001
 40
0.0
 40
0.0
 40
0.0
 40
0.0
 40
0.1613309375
 40
0.3188267067
 40
0.3949758647
 40
0.4687983491
 40
0.5398727902
 40
0.6077999682
 40
0.6722060005
 40
0.7327456284
 40
0.7891053669
 40
0.8410068546
 40
0.8882109891
 40
0.9305239419
 40
0.9498016285
 40
0.9678102705
 40
0.9845439175
 40
1.0
 40
1.0
 40
1.0
 40
1.0
 10
2.3307563281
 20
1.627566842
 30
0.0
 10
2.344854052
 20
1.6275668338
 30
0.0
 10
2.3727156127
 20
1.6272098537
 30
0.0
 10
2.4072084094
 20
1.6258644883
 30
0.0
 10
2.4340280514
 20
1.6242442777
 30
0.0
 10
2.4532900118
 20
1.6227917863
 30
0.0
 10
2.4718109751
 20
1.6210981482
 30
0.0
 10
2.4894820741
 20
1.6191742895
 30
0.0
 10
2.506200557
 20
1.6170326594
 30
0.0
 10
2.521870481
 20
1.6146870097
 30
0.0
 10
2.5364031791
 20
1.6121522922
 30
0.0
 10
2.5497179846
 20
1.6094447066
 30
0.0
 10
2.5617418833
 20
1.6065811524
 30
0.0
 10
2.5708975197
 20
1.6040066997
 30
0.0
 10
2.5775147286
 20
1.6018606588
 30
0.0
 10
2.5819610262
 20
1.6002729076
 30
0.0
 10
2.5860408029
 20
1.5986590029
 30
0.0
 10
2.5886148777
 20
1.5975222767
 30
0.0
 10
2.5898369017
 20
1.5969471144
 30
0.0
  0
SPLINE
  5
52B
100
AcDbEntity
  8
0
100
AcDbSpline
 62
7
  6
CONTINUOUS
 70
0
 71
3
 72
33
 73
29
 74
0
 42
0.0000001
 43
0.0000001
 44
0.0000000001
 40
0.0
 40
0.0
 40
0.0
 40
0.0
 40
0.0039441022
 40
0.0079687737
 40
0.0165346129
 40
0.0212156275
 40
0.0262226971
 40
0.0373513355
 40
0.0501464636
 40
0.0647378844
 40
0.0727334416
 40
0.0812026885
 40
0.0995743667
 40
0.1198684516
 40
0.1420801227
 40
0.166190348
 40
0.1921695322
 40
0.2199784249
 40
0.2495699083
 40
0.3138751758
 40
0.3845802426
 40
0.4610875934
 40
0.5427226242
 40
0.6287431011
 40
0.7183472599
 40
0.8106863129
 40
0.9048745186
 40
1.0
 40
1.0
 40
1.0
 40
1.0
 10
2.0557563282
 20
1.5815013845
 30
0.0
 10
2.0557563343
 20
1.5818765702
 30
0.0
 10
2.05581222
 20
1.5826357736
 30
0.0
 10
2.056151656
 20
1.5841761169
 30
0.0
 10
2.056836773
 20
1.5856913454
 30
0.0
 10
2.0577967706
 20
1.5871399705
 30
0.0
 10
2.0590454175
 20
1.5886807403
 30
0.0
 10
2.0610464626
 20
1.5905859385
 30
0.0
 10
2.0639971544
 20
1.5927683435
 30
0.0
 10
2.0668838701
 20
1.594507228
 30
0.0
 10
2.0694931648
 20
1.5958932951
 30
0.0
 10
2.0724704979
 20
1.5973496448
 30
0.0
 10
2.0765858734
 20
1.599135466
 30
0.0
 10
2.0820040486
 20
1.6011845748
 30
0.0
 10
2.0880170655
 20
1.6031890744
 30
0.0
 10
2.0946121593
 20
1.6051441675
 30
0.0
 10
2.101775289
 20
1.6070448996
 30
0.0
 10
2.1094907882
 20
1.6088866725
 30
0.0
 10
2.1208091458
 20
1.6113254286
 30
0.0
 10
2.1362115864
 20
1.6141626793
 30
0.0
 10
2.1561075739
 20
1.6171793849
 30
0.0
 10
2.1777131761
 20
1.619862872
 30
0.0
 10
2.2008248736
 20
1.6221848045
 30
0.0
 10
2.2252218931
 20
1.6241200774
 30
0.0
 10
2.2506677703
 20
1.6256477912
 30
0.0
 10
2.2769131471
 20
1.6267512462
 30
0.0
 10
2.3036984774
 20
1.6274182893
 30
0.0
 10
2.3217074455
 20
1.6275668338
 30
0.0
 10
2.3307563281
 20
1.627566842
 30
0.0
  0
SPLINE
  5
52C
100
AcDbEntity
  8
0
100
AcDbSpline
 62
7
  6
CONTINUOUS
 70
0
 71
3
 72
11
 73
7
 74
0
 42
0.0000001
 43
0.0000001
 44
0.0000000001
 40
0.0
 40
0.0
 40
0.0
 40
0.0
 40
0.0719712793
 40
0.2783056263
 40
0.5961553191
 40
1.0
 40
1.0
 40
1.0
 40
1.0
 10
2.6057563281
 20
1.9850393024
 30
0.0
 10
2.6047472356
 20
1.9836857549
 30
0.0
 10
2.6008562495
 20
1.9784434229
 30
0.0
 10
2.5926175952
 20
1.9671426462
 30
0.0
 10
2.580112122
 20
1.949321195
 30
0.0
 10
2.5708104397
 20
1.9351694571
 30
0.0
 10
2.5657842453
 20
1.927139329
 30
0.0
  0
SPLINE
  5
52D
100
AcDbEntity
  8
0
100
AcDbSpline
 62
7
  6
CONTINUOUS
 70
0
 71
3
 72
34
 73
30
 74
0
 42
0.0000001
 43
0.0000001
 44
0.0000000001
 40
0.0
 40
0.0
 40
0.0
 40
0.0
 40
0.0279630453
 40
0.0570239976
 40
0.1180673655
 40
0.1824862677
 40
0.2157930231
 40
0.2497415014
 40
0.2842582916
 40
0.3192767052
 40
0.354693839
 40
0.3904141391
 40
0.4263041461
 40
0.4622328607
 40
0.4980592768
 40
0.5336497369
 40
0.5688933496
 40
0.6036815951
 40
0.6379430751
 40
0.6715938723
 40
0.7045751938
 40
0.7368196037
 40
0.768256466
 40
0.7988164328
 40
0.8569703184
 40
0.8843767108
 40
0.9105280451
 40
0.9585727229
 40
1.0
 40
1.0
 40
1.0
 40
1.0
 10
2.5644499408
 20
1.9249979597
 30
0.0
 10
2.5626969831
 20
1.9221718981
 30
0.0
 10
2.5591692068
 20
1.9163794755
 30
0.0
 10
2.5520810404
 20
1.9042576443
 30
0.0
 10
2.5433116604
 20
1.8881002558
 30
0.0
 10
2.535219225
 20
1.8710243854
 30
0.0
 10
2.5292885284
 20
1.8565272376
 30
0.0
 10
2.525173719
 20
1.8451403391
 30
0.0
 10
2.5215462349
 20
1.8333744982
 30
0.0
 10
2.5185111109
 20
1.8212606296
 30
0.0
 10
2.5161699433
 20
1.8088463885
 30
0.0
 10
2.5146275867
 20
1.7962022108
 30
0.0
 10
2.5139394975
 20
1.7834210134
 30
0.0
 10
2.5141564581
 20
1.770610357
 30
0.0
 10
2.5152497097
 20
1.7578809162
 30
0.0
 10
2.5171845676
 20
1.7453354517
 30
0.0
 10
2.5198624944
 20
1.7330552762
 30
0.0
 10
2.5231930197
 20
1.7211011651
 30
0.0
 10
2.5270635486
 20
1.7095119138
 30
0.0
 10
2.5313695998
 20
1.6983083646
 30
0.0
 10
2.5360191224
 20
1.687504579
 30
0.0
 10
2.5409210251
 20
1.677104111
 30
0.0
 10
2.5459981904
 20
1.6671104842
 30
0.0
 10
2.552801145
 20
1.6545432062
 30
0.0
 10
2.5597708619
 20
1.6426161932
 30
0.0
 10
2.5667715826
 20
1.6313243787
 30
0.0
 10
2.5732876339
 20
1.6211480444
 30
0.0
 10
2.5809199623
 20
1.6097083436
 30
0.0
 10
2.5869934795
 20
1.6009706457
 30
0.0
 10
2.5898369017
 20
1.5969471144
 30
0.0
  0
SPLINE
  5
52E
100
AcDbEntity
  8
0
100
AcDbSpline
 62
7
  6
CONTINUOUS
 70
0
 71
3
 72
14
 73
10
 74
0
 42
0.0000001
 43
0.0000001
 44
0.0000000001
 40
0.0
 40
0.0
 40
0.0
 40
0.0
 40
0.1475934745
 40
0.2880867314
 40
0.4217912129
 40
0.5490275303
 40
0.6701260573
 40
0.7854274149
 40
1.0
 40
1.0
 40
1.0
 40
1.0
 10
7.2118195166
 20
7.5156968932
 30
0.0
 10
7.2199789261
 20
7.511892098
 30
0.0
 10
7.2358066253
 20
7.5042512188
 30
0.0
 10
7.2586390151
 20
7.4923839441
 30
0.0
 10
7.280000437
 20
7.4804043983
 30
0.0
 10
7.2999292501
 20
7.4683165357
 30
0.0
 10
7.3184655935
 20
7.456123139
 30
0.0
 10
7.3408393944
 20
7.440112884
 30
0.0
 10
7.3564807002
 20
7.4273987124
 30
0.0
 10
7.3662136874
 20
7.4186478288
 30
0.0
  0
SPLINE
  5
52F
100
AcDbEntity
  8
0
100
AcDbSpline
 62
7
  6
CONTINUOUS
 70
0
 71
3
 72
28
 73
24
 74
0
 42
0.0000001
 43
0.0000001
 44
0.0000000001
 40
0.0
 40
0.0
 40
0.0
 40
0.0
 40
0.073490496
 40
0.1078126833
 40
0.1408028719
 40
0.1726806148
 40
0.2036591556
 40
0.2339414925
 40
0.263716557
 40
0.293155868
 40
0.3224109589
 40
0.3516117533
 40
0.3808659228
 40
0.4398366634
 40
0.4997908193
 40
0.5608859793
 40
0.6230570559
 40
0.6860742934
 40
0.7495932941
 40
0.8131969927
 40
0.8764318331
 40
0.938841259
 40
1.0
 40
1.0
 40
1.0
 40
1.0
 10
7.3829046319
 20
7.4026870838
 30
0.0
 10
7.3921876584
 20
7.3932218909
 30
0.0
 10
7.4050317562
 20
7.3785210457
 30
0.0
 10
7.4196777855
 20
7.3577486268
 30
0.0
 10
7.4289416682
 20
7.3424206743
 30
0.0
 10
7.4367952519
 20
7.326999424
 30
0.0
 10
7.4433026924
 20
7.3114919856
 30
0.0
 10
7.4485275823
 20
7.2959069128
 30
0.0
 10
7.4525344321
 20
7.2802524773
 30
0.0
 10
7.4553882382
 20
7.2645367689
 30
0.0
 10
7.4571544729
 20
7.2487675809
 30
0.0
 10
7.4578986796
 20
7.2329517361
 30
0.0
 10
7.457615664
 20
7.2117593797
 30
0.0
 10
7.4550078294
 20
7.1851025597
 30
0.0
 10
7.4488458497
 20
7.1531807476
 30
0.0
 10
7.4401740927
 20
7.1212608052
 30
0.0
 10
7.4295101569
 20
7.0893782149
 30
0.0
 10
7.4173654054
 20
7.0575684893
 30
0.0
 10
7.4042477501
 20
7.0258722709
 30
0.0
 10
7.3906636886
 20
6.9943327489
 30
0.0
 10
7.3771189189
 20
6.9629942897
 30
0.0
 10
7.3641192527
 20
6.9319021197
 30
0.0
 10
7.3560552557
 20
6.9111145585
 30
0.0
 10
7.3522817539
 20
6.9007469473
 30
0.0
  0
SPLINE
  5
530
100
AcDbEntity
  8
0
100
AcDbSpline
 62
7
  6
CONTINUOUS
 70
0
 71
3
 72
8
 73
4
 74
0
 42
0.0000001
 43
0.0000001
 44
0.0000000001
 40
0.0
 40
0.0
 40
0.0
 40
0.0
 40
1.0
 40
1.0
 40
1.0
 40
1.0
 10
7.3051136097
 20
1.7369907178
 30
0.0
 10
7.30872744
 20
1.7344836222
 30
0.0
 10
7.315367958
 20
1.7332360118
 30
0.0
 10
7.3250268936
 20
1.7332360118
 30
0.0
  0
SPLINE
  5
531
100
AcDbEntity
  8
0
100
AcDbSpline
 62
7
  6
CONTINUOUS
 70
0
 71
3
 72
8
 73
4
 74
0
 42
0.0000001
 43
0.0000001
 44
0.0000000001
 40
0.0
 40
0.0
 40
0.0
 40
0.0
 40
1.0
 40
1.0
 40
1.0
 40
1.0
 10
7.3008795528
 20
1.7449474718
 30
0.0
 10
7.3008795528
 20
1.7416070886
 30
0.0
 10
7.3022881496
 20
1.7389508814
 30
0.0
 10
7.3051136097
 20
1.7369907178
 30
0.0
  0
SPLINE
  5
532
100
AcDbEntity
  8
0
100
AcDbSpline
 62
7
  6
CONTINUOUS
 70
0
 71
3
 72
8
 73
4
 74
0
 42
0.0000001
 43
0.0000001
 44
0.0000000001
 40
0.0
 40
0.0
 40
0.0
 40
0.0
 40
1.0
 40
1.0
 40
1.0
 40
1.0
 10
7.3056754368
 20
1.7533895548
 30
0.0
 10
7.3024893772
 20
1.7511452862
 30
0.0
 10
7.3008795528
 20
1.7483280998
 30
0.0
 10
7.3008795528
 20
1.7449474718
 30
0.0
  0
SPLINE
  5
533
100
AcDbEntity
  8
0
100
AcDbSpline
 62
7
  6
CONTINUOUS
 70
0
 71
3
 72
8
 73
4
 74
0
 42
0.0000001
 43
0.0000001
 44
0.0000000001
 40
0.0
 40
0.0
 40
0.0
 40
0.0
 40
1.0
 40
1.0
 40
1.0
 40
1.0
 10
7.3250268936
 20
1.7568199111
 30
0.0
 10
7.3153277132
 20
1.7568199111
 30
0.0
 10
7.3088884228
 20
1.7556527902
 30
0.0
 10
7.3056754368
 20
1.7533895548
 30
0.0
  0
SPLINE
  5
534
100
AcDbEntity
  8
0
100
AcDbSpline
 62
7
  6
CONTINUOUS
 70
0
 71
3
 72
8
 73
4
 74
0
 42
0.0000001
 43
0.0000001
 44
0.0000000001
 40
0.0
 40
0.0
 40
0.0
 40
0.0
 40
1.0
 40
1.0
 40
1.0
 40
1.0
 10
7.3443447657
 20
1.7533990382
 30
0.0
 10
7.3411251205
 20
1.7556527902
 30
0.0
 10
7.3346858292
 20
1.7568199111
 30
0.0
 10
7.3250268936
 20
1.7568199111
 30
0.0
  0
SPLINE
  5
535
100
AcDbEntity
  8
0
100
AcDbSpline
 62
7
  6
CONTINUOUS
 70
0
 71
3
 72
8
 73
4
 74
0
 42
0.0000001
 43
0.0000001
 44
0.0000000001
 40
0.0
 40
0.0
 40
0.0
 40
0.0
 40
1.0
 40
1.0
 40
1.0
 40
1.0
 10
7.3491742339
 20
1.7450279614
 30
0.0
 10
7.3491742339
 20
1.7483280998
 30
0.0
 10
7.3475644109
 20
1.7511452862
 30
0.0
 10
7.3443447657
 20
1.7533990382
 30
0.0
  0
SPLINE
  5
536
100
AcDbEntity
  8
0
100
AcDbSpline
 62
7
  6
CONTINUOUS
 70
0
 71
3
 72
8
 73
4
 74
0
 42
0.0000001
 43
0.0000001
 44
0.0000000001
 40
0.0
 40
0.0
 40
0.0
 40
0.0
 40
1.0
 40
1.0
 40
1.0
 40
1.0
 10
7.3443850114
 20
1.7366166398
 30
0.0
 10
7.3476046566
 20
1.7388703918
 30
0.0
 10
7.3491742339
 20
1.7416875782
 30
0.0
 10
7.3491742339
 20
1.7450279614
 30
0.0
  0
SPLINE
  5
537
100
AcDbEntity
  8
0
100
AcDbSpline
 62
7
  6
CONTINUOUS
 70
0
 71
3
 72
8
 73
4
 74
0
 42
0.0000001
 43
0.0000001
 44
0.0000000001
 40
0.0
 40
0.0
 40
0.0
 40
0.0
 40
1.0
 40
1.0
 40
1.0
 40
1.0
 10
7.3250268936
 20
1.7332360118
 30
0.0
 10
7.3347260758
 20
1.7332360118
 30
0.0
 10
7.3411653662
 20
1.7343628878
 30
0.0
 10
7.3443850114
 20
1.7366166398
 30
0.0
  0
SPLINE
  5
538
100
AcDbEntity
  8
0
100
AcDbSpline
 62
7
  6
CONTINUOUS
 70
0
 71
3
 72
8
 73
4
 74
0
 42
0.0000001
 43
0.0000001
 44
0.0000000001
 40
0.0
 40
0.0
 40
0.0
 40
0.0
 40
1.0
 40
1.0
 40
1.0
 40
1.0
 10
7.3506343209
 20
1.6857362351
 30
0.0
 10
7.3476449023
 20
1.6823656158
 30
0.0
 10
7.3436605915
 20
1.6804338285
 30
0.0
 10
7.3386701418
 20
1.6799508816
 30
0.0
  0
SPLINE
  5
539
100
AcDbEntity
  8
0
100
AcDbSpline
 62
7
  6
CONTINUOUS
 70
0
 71
3
 72
8
 73
4
 74
0
 42
0.0000001
 43
0.0000001
 44
0.0000000001
 40
0.0
 40
0.0
 40
0.0
 40
0.0
 40
1.0
 40
1.0
 40
1.0
 40
1.0
 10
7.3551305775
 20
1.698906544
 30
0.0
 10
7.3551305775
 20
1.6935136382
 30
0.0
 10
7.3536414916
 20
1.6891268704
 30
0.0
 10
7.3506343209
 20
1.6857362351
 30
0.0
  0
SPLINE
  5
53A
100
AcDbEntity
  8
0
100
AcDbSpline
 62
7
  6
CONTINUOUS
 70
0
 71
3
 72
8
 73
4
 74
0
 42
0.0000001
 43
0.0000001
 44
0.0000000001
 40
0.0
 40
0.0
 40
0.0
 40
0.0
 40
1.0
 40
1.0
 40
1.0
 40
1.0
 10
7.3479795761
 20
1.7144169975
 30
0.0
 10
7.3527560891
 20
1.7106180022
 30
0.0
 10
7.3551305775
 20
1.7054263258
 30
0.0
 10
7.3551305775
 20
1.698906544
 30
0.0
  0
SPLINE
  5
53B
100
AcDbEntity
  8
0
100
AcDbSpline
 62
7
  6
CONTINUOUS
 70
0
 71
3
 72
8
 73
4
 74
0
 42
0.0000001
 43
0.0000001
 44
0.0000000001
 40
0.0
 40
0.0
 40
0.0
 40
0.0
 40
1.0
 40
1.0
 40
1.0
 40
1.0
 10
7.3341223912
 20
1.7190695722
 30
0.0
 10
7.3394750522
 20
1.7190695722
 30
0.0
 10
7.3441032924
 20
1.7174999962
 30
0.0
 10
7.3479795761
 20
1.7144169975
 30
0.0
  0
SPLINE
  5
53C
100
AcDbEntity
  8
0
100
AcDbSpline
 62
7
  6
CONTINUOUS
 70
0
 71
3
 72
8
 73
4
 74
0
 42
0.0000001
 43
0.0000001
 44
0.0000000001
 40
0.0
 40
0.0
 40
0.0
 40
0.0
 40
1.0
 40
1.0
 40
1.0
 40
1.0
 10
7.3203684262
 20
1.71374711
 30
0.0
 10
7.3239402624
 20
1.7172987686
 30
0.0
 10
7.3285282578
 20
1.7190695722
 30
0.0
 10
7.3341223912
 20
1.7190695722
 30
0.0
  0
SPLINE
  5
53D
100
AcDbEntity
  8
0
100
AcDbSpline
 62
7
  6
CONTINUOUS
 70
0
 71
3
 72
8
 73
4
 74
0
 42
0.0000001
 43
0.0000001
 44
0.0000000001
 40
0.0
 40
0.0
 40
0.0
 40
0.0
 40
1.0
 40
1.0
 40
1.0
 40
1.0
 10
7.3150057476
 20
1.7007175942
 30
0.0
 10
7.3150057476
 20
1.7058690258
 30
0.0
 10
7.3168167996
 20
1.710215547
 30
0.0
 10
7.3203684262
 20
1.71374711
 30
0.0
  0
SPLINE
  5
53E
100
AcDbEntity
  8
0
100
AcDbSpline
 62
7
  6
CONTINUOUS
 70
0
 71
3
 72
8
 73
4
 74
0
 42
0.0000001
 43
0.0000001
 44
0.0000000001
 40
0.0
 40
0.0
 40
0.0
 40
0.0
 40
1.0
 40
1.0
 40
1.0
 40
1.0
 10
7.3187083412
 20
1.6895695722
 30
0.0
 10
7.3162533616
 20
1.6931111812
 30
0.0
 10
7.3150057476
 20
1.6968137748
 30
0.0
 10
7.3150057476
 20
1.7007175942
 30
0.0
  0
SPLINE
  5
53F
100
AcDbEntity
  8
0
100
AcDbSpline
 62
7
  6
CONTINUOUS
 70
0
 71
3
 72
8
 73
4
 74
0
 42
0.0000001
 43
0.0000001
 44
0.0000000001
 40
0.0
 40
0.0
 40
0.0
 40
0.0
 40
1.0
 40
1.0
 40
1.0
 40
1.0
 10
7.3230060544
 20
1.6924624416
 30
0.0
 10
7.3240610004
 20
1.6905757111
 30
0.0
 10
7.3254293506
 20
1.6890866256
 30
0.0
 10
7.3271196628
 20
1.6880402401
 30
0.0
  0
SPLINE
  5
540
100
AcDbEntity
  8
0
100
AcDbSpline
 62
7
  6
CONTINUOUS
 70
0
 71
3
 72
8
 73
4
 74
0
 42
0.0000001
 43
0.0000001
 44
0.0000000001
 40
0.0
 40
0.0
 40
0.0
 40
0.0
 40
1.0
 40
1.0
 40
1.0
 40
1.0
 10
7.3214047932
 20
1.698785806
 30
0.0
 10
7.3214047932
 20
1.6964515644
 30
0.0
 10
7.3219682312
 20
1.6943185486
 30
0.0
 10
7.3230060544
 20
1.6924624416
 30
0.0
  0
SPLINE
  5
541
100
AcDbEntity
  8
0
100
AcDbSpline
 62
7
  6
CONTINUOUS
 70
0
 71
3
 72
8
 73
4
 74
0
 42
0.0000001
 43
0.0000001
 44
0.0000000001
 40
0.0
 40
0.0
 40
0.0
 40
0.0
 40
1.0
 40
1.0
 40
1.0
 40
1.0
 10
7.3249964321
 20
1.7078712269
 30
0.0
 10
7.3226121588
 20
1.705547062
 30
0.0
 10
7.3214047932
 20
1.7025286444
 30
0.0
 10
7.3214047932
 20
1.698785806
 30
0.0
  0
SPLINE
  5
542
100
AcDbEntity
  8
0
100
AcDbSpline
 62
7
  6
CONTINUOUS
 70
0
 71
3
 72
8
 73
4
 74
0
 42
0.0000001
 43
0.0000001
 44
0.0000000001
 40
0.0
 40
0.0
 40
0.0
 40
0.0
 40
1.0
 40
1.0
 40
1.0
 40
1.0
 10
7.3347663206
 20
1.7113826678
 30
0.0
 10
7.3306612736
 20
1.7113826678
 30
0.0
 10
7.3274013818
 20
1.710215547
 30
0.0
 10
7.3249964321
 20
1.7078712269
 30
0.0
  0
SPLINE
  5
543
100
AcDbEntity
  8
0
100
AcDbSpline
 62
7
  6
CONTINUOUS
 70
0
 71
3
 72
8
 73
4
 74
0
 42
0.0000001
 43
0.0000001
 44
0.0000000001
 40
0.0
 40
0.0
 40
0.0
 40
0.0
 40
1.0
 40
1.0
 40
1.0
 40
1.0
 10
7.3452393311
 20
1.7077706081
 30
0.0
 10
7.3426142069
 20
1.7101753022
 30
0.0
 10
7.3391128418
 20
1.7113826678
 30
0.0
 10
7.3347663206
 20
1.7113826678
 30
0.0
  0
SPLINE
  5
544
100
AcDbEntity
  8
0
100
AcDbSpline
 62
7
  6
CONTINUOUS
 70
0
 71
3
 72
8
 73
4
 74
0
 42
0.0000001
 43
0.0000001
 44
0.0000000001
 40
0.0
 40
0.0
 40
0.0
 40
0.0
 40
1.0
 40
1.0
 40
1.0
 40
1.0
 10
7.3491742339
 20
1.698906544
 30
0.0
 10
7.3491742339
 20
1.7023676616
 30
0.0
 10
7.3478863756
 20
1.7053458344
 30
0.0
 10
7.3452393311
 20
1.7077706081
 30
0.0
  0
SPLINE
  5
545
100
AcDbEntity
  8
0
100
AcDbSpline
 62
7
  6
CONTINUOUS
 70
0
 71
3
 72
8
 73
4
 74
0
 42
0.0000001
 43
0.0000001
 44
0.0000000001
 40
0.0
 40
0.0
 40
0.0
 40
0.0
 40
1.0
 40
1.0
 40
1.0
 40
1.0
 10
7.3463972897
 20
1.6914611141
 30
0.0
 10
7.3482485855
 20
1.6935136382
 30
0.0
 10
7.3491742339
 20
1.6960088626
 30
0.0
 10
7.3491742339
 20
1.698906544
 30
0.0
  0
SPLINE
  5
546
100
AcDbEntity
  8
0
100
AcDbSpline
 62
7
  6
CONTINUOUS
 70
0
 71
3
 72
8
 73
4
 74
0
 42
0.0000001
 43
0.0000001
 44
0.0000000001
 40
0.0
 40
0.0
 40
0.0
 40
0.0
 40
1.0
 40
1.0
 40
1.0
 40
1.0
 10
7.3380262124
 20
1.6875572935
 30
0.0
 10
7.3417288042
 20
1.6881207315
 30
0.0
 10
7.3445459933
 20
1.6894085894
 30
0.0
 10
7.3463972897
 20
1.6914611141
 30
0.0
  0
SPLINE
  5
547
100
AcDbEntity
  8
0
100
AcDbSpline
 62
7
  6
CONTINUOUS
 70
0
 71
3
 72
8
 73
4
 74
0
 42
0.0000001
 43
0.0000001
 44
0.0000000001
 40
0.0
 40
0.0
 40
0.0
 40
0.0
 40
1.0
 40
1.0
 40
1.0
 40
1.0
 10
7.3490249357
 20
1.7316113456
 30
0.0
 10
7.3441032924
 20
1.7277223698
 30
0.0
 10
7.3361346708
 20
1.7257905798
 30
0.0
 10
7.3250268936
 20
1.7257905798
 30
0.0
  0
SPLINE
  5
548
100
AcDbEntity
  8
0
100
AcDbSpline
 62
7
  6
CONTINUOUS
 70
0
 71
3
 72
8
 73
4
 74
0
 42
0.0000001
 43
0.0000001
 44
0.0000000001
 40
0.0
 40
0.0
 40
0.0
 40
0.0
 40
1.0
 40
1.0
 40
1.0
 40
1.0
 10
7.3551305775
 20
1.7450279614
 30
0.0
 10
7.3551305775
 20
1.7393130918
 30
0.0
 10
7.3531182993
 20
1.7348458326
 30
0.0
 10
7.3490249357
 20
1.7316113456
 30
0.0
  0
SPLINE
  5
549
100
AcDbEntity
  8
0
100
AcDbSpline
 62
7
  6
CONTINUOUS
 70
0
 71
3
 72
8
 73
4
 74
0
 42
0.0000001
 43
0.0000001
 44
0.0000000001
 40
0.0
 40
0.0
 40
0.0
 40
0.0
 40
1.0
 40
1.0
 40
1.0
 40
1.0
 10
7.3516694605
 20
1.7557332813
 30
0.0
 10
7.3540037017
 20
1.7529160934
 30
0.0
 10
7.3551305775
 20
1.7493342343
 30
0.0
 10
7.3551305775
 20
1.7450279614
 30
0.0
  0
SPLINE
  5
54A
100
AcDbEntity
  8
0
100
AcDbSpline
 62
7
  6
CONTINUOUS
 70
0
 71
3
 72
8
 73
4
 74
0
 42
0.0000001
 43
0.0000001
 44
0.0000000001
 40
0.0
 40
0.0
 40
0.0
 40
0.0
 40
1.0
 40
1.0
 40
1.0
 40
1.0
 10
7.3418032756
 20
1.7621142227
 30
0.0
 10
7.3460753254
 20
1.7606834909
 30
0.0
 10
7.3493352158
 20
1.7585504734
 30
0.0
 10
7.3516694605
 20
1.7557332813
 30
0.0
  0
SPLINE
  5
54B
100
AcDbEntity
  8
0
100
AcDbSpline
 62
7
  6
CONTINUOUS
 70
0
 71
3
 72
8
 73
4
 74
0
 42
0.0000001
 43
0.0000001
 44
0.0000000001
 40
0.0
 40
0.0
 40
0.0
 40
0.0
 40
1.0
 40
1.0
 40
1.0
 40
1.0
 10
7.3250268936
 20
1.764265343
 30
0.0
 10
7.3319491306
 20
1.764265343
 30
0.0
 10
7.3375432658
 20
1.7635409222
 30
0.0
 10
7.3418032756
 20
1.7621142227
 30
0.0
  0
SPLINE
  5
54C
100
AcDbEntity
  8
0
100
AcDbSpline
 62
7
  6
CONTINUOUS
 70
0
 71
3
 72
8
 73
4
 74
0
 42
0.0000001
 43
0.0000001
 44
0.0000000001
 40
0.0
 40
0.0
 40
0.0
 40
0.0
 40
1.0
 40
1.0
 40
1.0
 40
1.0
 10
7.3111019257
 20
1.7629372388
 30
0.0
 10
7.3145630476
 20
1.763822643
 30
0.0
 10
7.319191286
 20
1.764265343
 30
0.0
 10
7.3250268936
 20
1.764265343
 30
0.0
  0
SPLINE
  5
54D
100
AcDbEntity
  8
0
100
AcDbSpline
 62
7
  6
CONTINUOUS
 70
0
 71
3
 72
8
 73
4
 74
0
 42
0.0000001
 43
0.0000001
 44
0.0000000001
 40
0.0
 40
0.0
 40
0.0
 40
0.0
 40
1.0
 40
1.0
 40
1.0
 40
1.0
 10
7.3023375824
 20
1.7592606674
 30
0.0
 10
7.3047431292
 20
1.7608042254
 30
0.0
 10
7.3076408088
 20
1.7620518358
 30
0.0
 10
7.3111019257
 20
1.7629372388
 30
0.0
  0
SPLINE
  5
54E
100
AcDbEntity
  8
0
100
AcDbSpline
 62
7
  6
CONTINUOUS
 70
0
 71
3
 72
8
 73
4
 74
0
 42
0.0000001
 43
0.0000001
 44
0.0000000001
 40
0.0
 40
0.0
 40
0.0
 40
0.0
 40
1.0
 40
1.0
 40
1.0
 40
1.0
 10
7.2968231544
 20
1.7533542935
 30
0.0
 10
7.2981026112
 20
1.7557332799
 30
0.0
 10
7.2999136596
 20
1.7577053181
 30
0.0
 10
7.3023375824
 20
1.7592606674
 30
0.0
  0
SPLINE
  5
54F
100
AcDbEntity
  8
0
100
AcDbSpline
 62
7
  6
CONTINUOUS
 70
0
 71
3
 72
8
 73
4
 74
0
 42
0.0000001
 43
0.0000001
 44
0.0000000001
 40
0.0
 40
0.0
 40
0.0
 40
0.0
 40
1.0
 40
1.0
 40
1.0
 40
1.0
 10
7.2948829624
 20
1.7450279614
 30
0.0
 10
7.2948829624
 20
1.7481671135
 30
0.0
 10
7.2955268936
 20
1.7509440622
 30
0.0
 10
7.2968231544
 20
1.7533542935
 30
0.0
  0
SPLINE
  5
550
100
AcDbEntity
  8
0
100
AcDbSpline
 62
7
  6
CONTINUOUS
 70
0
 71
3
 72
8
 73
4
 74
0
 42
0.0000001
 43
0.0000001
 44
0.0000000001
 40
0.0
 40
0.0
 40
0.0
 40
0.0
 40
1.0
 40
1.0
 40
1.0
 40
1.0
 10
7.298356077
 20
1.7343325374
 30
0.0
 10
7.2960500868
 20
1.7371398294
 30
0.0
 10
7.2948829624
 20
1.7407216886
 30
0.0
 10
7.2948829624
 20
1.7450279614
 30
0.0
  0
SPLINE
  5
551
100
AcDbEntity
  8
0
100
AcDbSpline
 62
7
  6
CONTINUOUS
 70
0
 71
3
 72
8
 73
4
 74
0
 42
0.0000001
 43
0.0000001
 44
0.0000000001
 40
0.0
 40
0.0
 40
0.0
 40
0.0
 40
1.0
 40
1.0
 40
1.0
 40
1.0
 10
7.3082042464
 20
1.7279235963
 30
0.0
 10
7.3039382188
 20
1.7293724354
 30
0.0
 10
7.3006783252
 20
1.731505453
 30
0.0
 10
7.298356077
 20
1.7343325374
 30
0.0
  0
SPLINE
  5
552
100
AcDbEntity
  8
0
100
AcDbSpline
 62
7
  6
CONTINUOUS
 70
0
 71
3
 72
8
 73
4
 74
0
 42
0.0000001
 43
0.0000001
 44
0.0000000001
 40
0.0
 40
0.0
 40
0.0
 40
0.0
 40
1.0
 40
1.0
 40
1.0
 40
1.0
 10
7.3250268936
 20
1.7257905798
 30
0.0
 10
7.31806441
 20
1.7257905798
 30
0.0
 10
7.3124702784
 20
1.7264747558
 30
0.0
 10
7.3082042464
 20
1.7279235963
 30
0.0
  0
SPLINE
  5
553
100
AcDbEntity
  8
0
100
AcDbSpline
 62
7
  6
CONTINUOUS
 70
0
 71
3
 72
8
 73
4
 74
0
 42
0.0000001
 43
0.0000001
 44
0.0000000001
 40
0.0
 40
0.0
 40
0.0
 40
0.0
 40
1.0
 40
1.0
 40
1.0
 40
1.0
 10
7.3432481275
 20
1.783814103
 30
0.0
 10
7.3445459933
 20
1.7825770727
 30
0.0
 10
7.3458740969
 20
1.7815709382
 30
0.0
 10
7.3471619552
 20
1.7807660277
 30
0.0
  0
SPLINE
  5
554
100
AcDbEntity
  8
0
100
AcDbSpline
 62
7
  6
CONTINUOUS
 70
0
 71
3
 72
8
 73
4
 74
0
 42
0.0000001
 43
0.0000001
 44
0.0000000001
 40
0.0
 40
0.0
 40
0.0
 40
0.0
 40
1.0
 40
1.0
 40
1.0
 40
1.0
 10
7.3358094329
 20
1.7921930038
 30
0.0
 10
7.3394750522
 20
1.7878492423
 30
0.0
 10
7.3419702775
 20
1.7850320558
 30
0.0
 10
7.3432481275
 20
1.783814103
 30
0.0
  0
SPLINE
  5
555
100
AcDbEntity
  8
0
100
AcDbSpline
 62
7
  6
CONTINUOUS
 70
0
 71
3
 72
8
 73
4
 74
0
 42
0.0000001
 43
0.0000001
 44
0.0000000001
 40
0.0
 40
0.0
 40
0.0
 40
0.0
 40
1.0
 40
1.0
 40
1.0
 40
1.0
 10
7.3254383309
 20
1.803353775
 30
0.0
 10
7.3279648198
 20
1.8010900405
 30
0.0
 10
7.3314259392
 20
1.7973874469
 30
0.0
 10
7.3358094329
 20
1.7921930038
 30
0.0
  0
SPLINE
  5
556
100
AcDbEntity
  8
0
100
AcDbSpline
 62
7
  6
CONTINUOUS
 70
0
 71
3
 72
8
 73
4
 74
0
 42
0.0000001
 43
0.0000001
 44
0.0000000001
 40
0.0
 40
0.0
 40
0.0
 40
0.0
 40
1.0
 40
1.0
 40
1.0
 40
1.0
 10
7.3182284802
 20
1.8081804911
 30
0.0
 10
7.3205193896
 20
1.8072073653
 30
0.0
 10
7.3229341244
 20
1.8055975445
 30
0.0
 10
7.3254383309
 20
1.803353775
 30
0.0
  0
SPLINE
  5
557
100
AcDbEntity
  8
0
100
AcDbSpline
 62
7
  6
CONTINUOUS
 70
0
 71
3
 72
8
 73
4
 74
0
 42
0.0000001
 43
0.0000001
 44
0.0000000001
 40
0.0
 40
0.0
 40
0.0
 40
0.0
 40
1.0
 40
1.0
 40
1.0
 40
1.0
 10
7.3112629092
 20
1.8096220966
 30
0.0
 10
7.3136373992
 20
1.8096220966
 30
0.0
 10
7.3159716408
 20
1.8091391447
 30
0.0
 10
7.3182284802
 20
1.8081804911
 30
0.0
  0
SPLINE
  5
558
100
AcDbEntity
  8
0
100
AcDbSpline
 62
7
  6
CONTINUOUS
 70
0
 71
3
 72
8
 73
4
 74
0
 42
0.0000001
 43
0.0000001
 44
0.0000000001
 40
0.0
 40
0.0
 40
0.0
 40
0.0
 40
1.0
 40
1.0
 40
1.0
 40
1.0
 10
7.2995916931
 20
1.8046718898
 30
0.0
 10
7.3027308496
 20
1.8079720309
 30
0.0
 10
7.3066346708
 20
1.8096220966
 30
0.0
 10
7.3112629092
 20
1.8096220966
 30
0.0
  0
SPLINE
  5
559
100
AcDbEntity
  8
0
100
AcDbSpline
 62
7
  6
CONTINUOUS
 70
0
 71
3
 72
8
 73
4
 74
0
 42
0.0000001
 43
0.0000001
 44
0.0000000001
 40
0.0
 40
0.0
 40
0.0
 40
0.0
 40
1.0
 40
1.0
 40
1.0
 40
1.0
 10
7.2948829624
 20
1.7912298702
 30
0.0
 10
7.2948829624
 20
1.7968642502
 30
0.0
 10
7.296452542
 20
1.8013717542
 30
0.0
 10
7.2995916931
 20
1.8046718898
 30
0.0
  0
SPLINE
  5
55A
100
AcDbEntity
  8
0
100
AcDbSpline
 62
7
  6
CONTINUOUS
 70
0
 71
3
 72
8
 73
4
 74
0
 42
0.0000001
 43
0.0000001
 44
0.0000000001
 40
0.0
 40
0.0
 40
0.0
 40
0.0
 40
1.0
 40
1.0
 40
1.0
 40
1.0
 10
7.2992597503
 20
1.7778194147
 30
0.0
 10
7.2963720523
 20
1.7811282381
 30
0.0
 10
7.2948829624
 20
1.7855954903
 30
0.0
 10
7.2948829624
 20
1.7912298702
 30
0.0
  0
SPLINE
  5
55B
100
AcDbEntity
  8
0
100
AcDbSpline
 62
7
  6
CONTINUOUS
 70
0
 71
3
 72
8
 73
4
 74
0
 42
0.0000001
 43
0.0000001
 44
0.0000000001
 40
0.0
 40
0.0
 40
0.0
 40
0.0
 40
1.0
 40
1.0
 40
1.0
 40
1.0
 10
7.3119470852
 20
1.7720729853
 30
0.0
 10
7.3063931983
 20
1.7725559302
 30
0.0
 10
7.3021674116
 20
1.7744877166
 30
0.0
 10
7.2992597503
 20
1.7778194147
 30
0.0
  0
SPLINE
  5
55C
100
AcDbEntity
  8
0
100
AcDbSpline
 62
7
  6
CONTINUOUS
 70
0
 71
3
 72
8
 73
4
 74
0
 42
0.0000001
 43
0.0000001
 44
0.0000000001
 40
0.0
 40
0.0
 40
0.0
 40
0.0
 40
1.0
 40
1.0
 40
1.0
 40
1.0
 10
7.3040187066
 20
1.7826978124
 30
0.0
 10
7.3061114776
 20
1.7806050414
 30
0.0
 10
7.3090091572
 20
1.7795184103
 30
0.0
 10
7.3127117508
 20
1.7795184103
 30
0.0
  0
SPLINE
  5
55D
100
AcDbEntity
  8
0
100
AcDbSpline
 62
7
  6
CONTINUOUS
 70
0
 71
3
 72
8
 73
4
 74
0
 42
0.0000001
 43
0.0000001
 44
0.0000000001
 40
0.0
 40
0.0
 40
0.0
 40
0.0
 40
1.0
 40
1.0
 40
1.0
 40
1.0
 10
7.3008795528
 20
1.791068891
 30
0.0
 10
7.3008795528
 20
1.7875675285
 30
0.0
 10
7.3019259392
 20
1.7847905798
 30
0.0
 10
7.3040187066
 20
1.7826978124
 30
0.0
  0
SPLINE
  5
55E
100
AcDbEntity
  8
0
100
AcDbSpline
 62
7
  6
CONTINUOUS
 70
0
 71
3
 72
8
 73
4
 74
0
 42
0.0000001
 43
0.0000001
 44
0.0000000001
 40
0.0
 40
0.0
 40
0.0
 40
0.0
 40
1.0
 40
1.0
 40
1.0
 40
1.0
 10
7.3038577265
 20
1.7990777565
 30
0.0
 10
7.3018856944
 20
1.7970252295
 30
0.0
 10
7.3008795528
 20
1.7943690293
 30
0.0
 10
7.3008795528
 20
1.791068891
 30
0.0
  0
SPLINE
  5
55F
100
AcDbEntity
  8
0
100
AcDbSpline
 62
7
  6
CONTINUOUS
 70
0
 71
3
 72
8
 73
4
 74
0
 42
0.0000001
 43
0.0000001
 44
0.0000000001
 40
0.0
 40
0.0
 40
0.0
 40
0.0
 40
1.0
 40
1.0
 40
1.0
 40
1.0
 10
7.3111019264
 20
1.8021766646
 30
0.0
 10
7.3082444916
 20
1.8021766646
 30
0.0
 10
7.3058297604
 20
1.8011302853
 30
0.0
 10
7.3038577265
 20
1.7990777565
 30
0.0
  0
SPLINE
  5
560
100
AcDbEntity
  8
0
100
AcDbSpline
 62
7
  6
CONTINUOUS
 70
0
 71
3
 72
8
 73
4
 74
0
 42
0.0000001
 43
0.0000001
 44
0.0000000001
 40
0.0
 40
0.0
 40
0.0
 40
0.0
 40
1.0
 40
1.0
 40
1.0
 40
1.0
 10
7.3198352165
 20
1.7987960428
 30
0.0
 10
7.3167765512
 20
1.8010497957
 30
0.0
 10
7.3138386268
 20
1.8021766646
 30
0.0
 10
7.3111019264
 20
1.8021766646
 30
0.0
  0
SPLINE
  5
561
100
AcDbEntity
  8
0
100
AcDbSpline
 62
7
  6
CONTINUOUS
 70
0
 71
3
 72
8
 73
4
 74
0
 42
0.0000001
 43
0.0000001
 44
0.0000000001
 40
0.0
 40
0.0
 40
0.0
 40
0.0
 40
1.0
 40
1.0
 40
1.0
 40
1.0
 10
7.3323082076
 20
1.7857941641
 30
0.0
 10
7.327079418
 20
1.792195767
 30
0.0
 10
7.3228938796
 20
1.7965422917
 30
0.0
 10
7.3198352165
 20
1.7987960428
 30
0.0
  0
SPLINE
  5
562
100
AcDbEntity
  8
0
100
AcDbSpline
 62
7
  6
CONTINUOUS
 70
0
 71
3
 72
8
 73
4
 74
0
 42
0.0000001
 43
0.0000001
 44
0.0000000001
 40
0.0
 40
0.0
 40
0.0
 40
0.0
 40
1.0
 40
1.0
 40
1.0
 40
1.0
 10
7.3412458576
 20
1.7762987686
 30
0.0
 10
7.3386701418
 20
1.7784720309
 30
0.0
 10
7.335691969
 20
1.7816514278
 30
0.0
 10
7.3323082076
 20
1.7857941641
 30
0.0
  0
SPLINE
  5
563
100
AcDbEntity
  8
0
100
AcDbSpline
 62
7
  6
CONTINUOUS
 70
0
 71
3
 72
8
 73
4
 74
0
 42
0.0000001
 43
0.0000001
 44
0.0000000001
 40
0.0
 40
0.0
 40
0.0
 40
0.0
 40
1.0
 40
1.0
 40
1.0
 40
1.0
 10
7.3490813904
 20
1.7715180053
 30
0.0
 10
7.3464375349
 20
1.7725156854
 30
0.0
 10
7.3438215734
 20
1.7741255062
 30
0.0
 10
7.3412458576
 20
1.7762987686
 30
0.0
  0
SPLINE
  5
564
100
AcDbEntity
  8
0
100
AcDbSpline
 62
7
  6
CONTINUOUS
 70
0
 71
3
 72
8
 73
4
 74
0
 42
0.0000001
 43
0.0000001
 44
0.0000000001
 40
0.0
 40
0.0
 40
0.0
 40
0.0
 40
1.0
 40
1.0
 40
1.0
 40
1.0
 10
7.3541244384
 20
1.7707046334
 30
0.0
 10
7.352393879
 20
1.7706241438
 30
0.0
 10
7.3507035654
 20
1.7709058645
 30
0.0
 10
7.3490813904
 20
1.7715180053
 30
0.0
  0
SPLINE
  5
565
100
AcDbEntity
  8
0
100
AcDbSpline
 62
7
  6
CONTINUOUS
 70
0
 71
3
 72
8
 73
4
 74
0
 42
0.0000001
 43
0.0000001
 44
0.0000000001
 40
0.0
 40
0.0
 40
0.0
 40
0.0
 40
1.0
 40
1.0
 40
1.0
 40
1.0
 10
7.3027722802
 20
1.8794894548
 30
0.0
 10
7.3000746424
 20
1.8825068119
 30
0.0
 10
7.29745868
 20
1.8846398294
 30
0.0
 10
7.2948829624
 20
1.8859276917
 30
0.0
  0
SPLINE
  5
566
100
AcDbEntity
  8
0
100
AcDbSpline
 62
7
  6
CONTINUOUS
 70
0
 71
3
 72
8
 73
4
 74
0
 42
0.0000001
 43
0.0000001
 44
0.0000000001
 40
0.0
 40
0.0
 40
0.0
 40
0.0
 40
1.0
 40
1.0
 40
1.0
 40
1.0
 10
7.3096933332
 20
1.8688635655
 30
0.0
 10
7.3078017916
 20
1.8728881317
 30
0.0
 10
7.3055077948
 20
1.8764297319
 30
0.0
 10
7.3027722802
 20
1.8794894548
 30
0.0
  0
SPLINE
  5
567
100
AcDbEntity
  8
0
100
AcDbSpline
 62
7
  6
CONTINUOUS
 70
0
 71
3
 72
8
 73
4
 74
0
 42
0.0000001
 43
0.0000001
 44
0.0000000001
 40
0.0
 40
0.0
 40
0.0
 40
0.0
 40
1.0
 40
1.0
 40
1.0
 40
1.0
 10
7.3129681402
 20
1.876478767
 30
0.0
 10
7.3146435372
 20
1.8736527973
 30
0.0
 10
7.3158911512
 20
1.8711173175
 30
0.0
 10
7.3166960616
 20
1.8688635655
 30
0.0
  0
SPLINE
  5
568
100
AcDbEntity
  8
0
100
AcDbSpline
 62
7
  6
CONTINUOUS
 70
0
 71
3
 72
8
 73
4
 74
0
 42
0.0000001
 43
0.0000001
 44
0.0000000001
 40
0.0
 40
0.0
 40
0.0
 40
0.0
 40
1.0
 40
1.0
 40
1.0
 40
1.0
 10
7.3079627744
 20
1.8833519671
 30
0.0
 10
7.3096530884
 20
1.881581167
 30
0.0
 10
7.3113031575
 20
1.8792871702
 30
0.0
 10
7.3129681402
 20
1.876478767
 30
0.0
  0
LINE
  5
569
100
AcDbEntity
  8
0
100
AcDbLine
 62
7
  6
CONTINUOUS
 10
7.1136911916
 20
1.9710989266
 11
7.0941244384
 21
1.9875393024
  0
SPLINE
  5
56A
100
AcDbEntity
  8
0
100
AcDbSpline
 62
7
  6
CONTINUOUS
 70
0
 71
3
 72
28
 73
24
 74
0
 42
0.0000001
 43
0.0000001
 44
0.0000000001
 40
0.0
 40
0.0
 40
0.0
 40
0.0
 40
0.0002932991
 40
0.001158153
 40
0.0025925781
 40
0.0045945891
 40
0.0071622007
 40
0.0102934277
 40
0.0182387869
 40
0.028414786
 40
0.0408055458
 40
0.0553945026
 40
0.0721508777
 40
0.1119886626
 40
0.1599619278
 40
0.2157127629
 40
0.2788546922
 40
0.3489590668
 40
0.4255941425
 40
0.5083308021
 40
0.5967692443
 40
0.7892347163
 40
1.0
 40
1.0
 40
1.0
 40
1.0
 10
7.079508413
 20
1.5725393024
 30
0.0
 10
7.0795120853
 20
1.5725405378
 30
0.0
 10
7.079524518
 20
1.5725499713
 30
0.0
 10
7.0795547693
 20
1.572565717
 30
0.0
 10
7.0796033269
 20
1.5725954518
 30
0.0
 10
7.0796718649
 20
1.5726352779
 30
0.0
 10
7.0797594729
 20
1.5726870249
 30
0.0
 10
7.0799148647
 20
1.5727783391
 30
0.0
 10
7.080156871
 20
1.5729206726
 30
0.0
 10
7.080504436
 20
1.5731247956
 30
0.0
 10
7.0809277674
 20
1.5733732198
 30
0.0
 10
7.0814262001
 20
1.5736654196
 30
0.0
 10
7.0822376779
 20
1.5741405689
 30
0.0
 10
7.083430487
 20
1.5748372696
 30
0.0
 10
7.0850697318
 20
1.5757909954
 30
0.0
 10
7.0869771745
 20
1.5768959173
 30
0.0
 10
7.0891403224
 20
1.5781426681
 30
0.0
 10
7.0915460849
 20
1.5795209465
 30
0.0
 10
7.0941808251
 20
1.5810202443
 30
0.0
 10
7.0970312273
 20
1.5826302328
 30
0.0
 10
7.1012222874
 20
1.5849779377
 30
0.0
 10
7.1069079674
 20
1.5881180859
 30
0.0
 10
7.1115943034
 20
1.5906507295
 30
0.0
 10
7.1140505212
 20
1.591961914
 30
0.0
  0
SPLINE
  5
56B
100
AcDbEntity
  8
0
100
AcDbSpline
 62
7
  6
CONTINUOUS
 70
0
 71
3
 72
13
 73
9
 74
0
 42
0.0000001
 43
0.0000001
 44
0.0000000001
 40
0.0
 40
0.0
 40
0.0
 40
0.0
 40
0.2651477918
 40
0.5229680162
 40
0.6485031418
 40
0.7708900305
 40
0.8888640805
 40
1.0
 40
1.0
 40
1.0
 40
1.0
 10
7.1433783929
 20
1.6276793779
 30
0.0
 10
7.1441941926
 20
1.6294704454
 30
0.0
 10
7.1457079146
 20
1.6330472628
 30
0.0
 10
7.1473250196
 20
1.6375852443
 30
0.0
 10
7.1483818416
 20
1.6411883486
 30
0.0
 10
7.1490230077
 20
1.6438291215
 30
0.0
 10
7.14947912
 20
1.6463993512
 30
0.0
 10
7.1496243553
 20
1.6480994661
 30
0.0
 10
7.149624409
 20
1.648924393
 30
0.0
  0
SPLINE
  5
56C
100
AcDbEntity
  8
0
100
AcDbSpline
 62
7
  6
CONTINUOUS
 70
0
 71
3
 72
9
 73
5
 74
0
 42
0.0000001
 43
0.0000001
 44
0.0000000001
 40
0.0
 40
0.0
 40
0.0
 40
0.0
 40
0.5238231811
 40
1.0
 40
1.0
 40
1.0
 40
1.0
 10
7.1433786196
 20
1.6276797751
 30
0.0
 10
7.1399542591
 20
1.620161923
 30
0.0
 10
7.1331833834
 20
1.6059157725
 30
0.0
 10
7.1260625358
 20
1.5918430381
 30
0.0
 10
7.1226073707
 20
1.5851755091
 30
0.0
  0
SPLINE
  5
56D
100
AcDbEntity
  8
0
100
AcDbSpline
 62
7
  6
CONTINUOUS
 70
0
 71
3
 72
9
 73
5
 74
0
 42
0.0000001
 43
0.0000001
 44
0.0000000001
 40
0.0
 40
0.0
 40
0.0
 40
0.0
 40
0.4631571818
 40
1.0
 40
1.0
 40
1.0
 40
1.0
 10
7.1170563657
 20
1.9854857919
 30
0.0
 10
7.1213451203
 20
1.9774042134
 30
0.0
 10
7.1304199393
 20
1.9598565776
 30
0.0
 10
7.138982832
 20
1.9420494021
 30
0.0
 10
7.1433786702
 20
1.9323987719
 30
0.0
  0
SPLINE
  5
56E
100
AcDbEntity
  8
0
100
AcDbSpline
 62
7
  6
CONTINUOUS
 70
0
 71
3
 72
13
 73
9
 74
0
 42
0.0000001
 43
0.0000001
 44
0.0000000001
 40
0.0
 40
0.0
 40
0.0
 40
0.0
 40
0.111135776
 40
0.2291102294
 40
0.3514973156
 40
0.4770330058
 40
0.7348528539
 40
1.0
 40
1.0
 40
1.0
 40
1.0
 10
7.1496244096
 20
1.9111542035
 30
0.0
 10
7.1496243563
 20
1.9119791317
 30
0.0
 10
7.149479127
 20
1.9136792537
 30
0.0
 10
7.1490230113
 20
1.9162494937
 30
0.0
 10
7.1483818415
 20
1.9188902824
 30
0.0
 10
7.1473250005
 20
1.9224933948
 30
0.0
 10
7.1457078979
 20
1.9270313872
 30
0.0
 10
7.1441941719
 20
1.9306082065
 30
0.0
 10
7.1433783722
 20
1.9323992747
 30
0.0
  0
SPLINE
  5
56F
100
AcDbEntity
  8
0
100
AcDbSpline
 62
7
  6
CONTINUOUS
 70
0
 71
3
 72
16
 73
12
 74
0
 42
0.0000001
 43
0.0000001
 44
0.0000000001
 40
0.0
 40
0.0
 40
0.0
 40
0.0
 40
0.2618357566
 40
0.3918769629
 40
0.5210655192
 40
0.648609617
 40
0.7730785965
 40
0.8334372425
 40
0.8919175788
 40
0.9478014754
 40
1.0
 40
1.0
 40
1.0
 40
1.0
 10
7.1170563657
 20
1.9854857919
 30
0.0
 10
7.1181246819
 20
1.9834726943
 30
0.0
 10
7.1196398328
 20
1.9804142476
 30
0.0
 10
7.121484122
 20
1.9762704064
 30
0.0
 10
7.1227584563
 20
1.9731537265
 30
0.0
 10
7.1239027691
 20
1.9700385494
 30
0.0
 10
7.1247228183
 20
1.9674445892
 30
0.0
 10
7.1252591148
 20
1.9653954349
 30
0.0
 10
7.1255810054
 20
1.9639083905
 30
0.0
 10
7.1258059283
 20
1.9624754528
 30
0.0
 10
7.125874444
 20
1.9615347922
 30
0.0
 10
7.1258744453
 20
1.961080459
 30
0.0
  0
LINE
  5
570
100
AcDbEntity
  8
0
100
AcDbLine
 62
7
  6
CONTINUOUS
 10
7.1170563657
 20
1.9854857919
 11
7.1041244384
 21
1.9975393024
  0
SPLINE
  5
571
100
AcDbEntity
  8
0
100
AcDbSpline
 62
7
  6
CONTINUOUS
 70
0
 71
3
 72
19
 73
15
 74
0
 42
0.0000001
 43
0.0000001
 44
0.0000000001
 40
0.0
 40
0.0
 40
0.0
 40
0.0
 40
0.0430327881
 40
0.0915980151
 40
0.1441876803
 40
0.1998226192
 40
0.2578351283
 40
0.3177858048
 40
0.4424065481
 40
0.572417298
 40
0.7076857538
 40
0.8492557836
 40
0.9232053978
 40
1.0
 40
1.0
 40
1.0
 40
1.0
 10
7.1258744422
 20
1.5981278397
 30
0.0
 10
7.1258742871
 20
1.5977086261
 30
0.0
 10
7.1257631281
 20
1.5968176676
 30
0.0
 10
7.125435491
 20
1.5954511696
 30
0.0
 10
7.1249689244
 20
1.5939953694
 30
0.0
 10
7.1243947485
 20
1.5924806883
 30
0.0
 10
7.1237325994
 20
1.5909241373
 30
0.0
 10
7.122738075
 20
1.5887800811
 30
0.0
 10
7.1213365497
 20
1.5860533255
 30
0.0
 10
7.1194611257
 20
1.5827493123
 30
0.0
 10
7.117377025
 20
1.5793770903
 30
0.0
 10
7.1154709621
 20
1.576539411
 30
0.0
 10
7.1138016824
 20
1.5742320615
 30
0.0
 10
7.1129069496
 20
1.5730671255
 30
0.0
 10
7.1124389292
 20
1.5724834918
 30
0.0
  0
SPLINE
  5
572
100
AcDbEntity
  8
0
100
AcDbSpline
 62
7
  6
CONTINUOUS
 70
0
 71
3
 72
28
 73
24
 74
0
 42
0.0000001
 43
0.0000001
 44
0.0000000001
 40
0.0
 40
0.0
 40
0.0
 40
0.0
 40
0.0002803449
 40
0.0011067972
 40
0.0024779939
 40
0.0043925675
 40
0.0068491502
 40
0.0098463741
 40
0.0174572739
 40
0.0272143232
 40
0.0391065787
 40
0.0531230972
 40
0.0692513073
 40
0.1077319513
 40
0.1542933791
 40
0.2086736829
 40
0.2706088013
 40
0.3398018533
 40
0.4159310116
 40
0.4986740062
 40
0.5877081996
 40
0.7833078871
 40
1.0
 40
1.0
 40
1.0
 40
1.0
 10
7.088168667
 20
1.5575393024
 30
0.0
 10
7.0881703487
 20
1.5575413624
 30
0.0
 10
7.0881804994
 20
1.55754557
 30
0.0
 10
7.0881990817
 20
1.5575595753
 30
0.0
 10
7.0882327157
 20
1.5575797054
 30
0.0
 10
7.0882783984
 20
1.5576092332
 30
0.0
 10
7.0883375497
 20
1.5576465252
 30
0.0
 10
7.0884421763
 20
1.5577129194
 30
0.0
 10
7.0886054291
 20
1.5578162184
 30
0.0
 10
7.0888399652
 20
1.5579646374
 30
0.0
 10
7.0891259238
 20
1.558145437
 30
0.0
 10
7.0894630132
 20
1.5583584526
 30
0.0
 10
7.0900133999
 20
1.5587060626
 30
0.0
 10
7.0908251063
 20
1.5592180406
 30
0.0
 10
7.0919445083
 20
1.5599223384
 30
0.0
 10
7.09325332
 20
1.5607433708
 30
0.0
 10
7.0947453643
 20
1.5616762916
 30
0.0
 10
7.0964141334
 20
1.5627157053
 30
0.0
 10
7.0982527363
 20
1.5638557793
 30
0.0
 10
7.1002540517
 20
1.5650905785
 30
0.0
 10
7.1032242543
 20
1.5669132705
 30
0.0
 10
7.1072876124
 20
1.5693838919
 30
0.0
 10
7.1106419981
 20
1.571394779
 30
0.0
 10
7.1124086041
 20
1.5724455788
 30
0.0
  0
LINE
  5
573
100
AcDbEntity
  8
0
100
AcDbLine
 62
7
  6
CONTINUOUS
 10
7.1124086041
 20
1.5724455788
 11
7.1226073707
 21
1.5851755091
  0
ELLIPSE
  5
574
100
AcDbEntity
  8
0
100
AcDbEllipse
 62
7
  6
CONTINUOUS
 10
8.0042650352
 20
7.1461734792
 30
0.0
 11
1.2965244199
 21
-0.604579266
 31
0.0
 40
0.3435940908
 41
-2.2976322238
 42
-2.2619465679
  0
ELLIPSE
  5
575
100
AcDbEntity
  8
0
100
AcDbEllipse
 62
7
  6
CONTINUOUS
 10
8.0238666715
 20
7.137033086
 30
0.0
 11
1.3337830917
 21
-0.62195327
 31
0.0
 40
0.3435940908
 41
-2.2924699612
 42
-2.2579171338
  0
ENDSEC
  0
SECTION
  2
OBJECTS
  0
DICTIONARY
  5
C
100
AcDbDictionary
280
0
281
1
  3
ACAD_GROUP
350
D
  3
ACAD_MLINESTYLE
350
17
  3
ACAD_LAYOUT
350
1A
  3
ACAD_PLOTSETTINGS
350
19
  3
ACAD_PLOTSTYLENAME
350
E
  0
DICTIONARY
  5
D
102
{ACAD_REACTORS
330
C
102
}
100
AcDbDictionary
280
0
281
1
  0
ACDBDICTIONARYWDFLT
  5
E
102
{ACAD_REACTORS
330
C
102
}
100
AcDbDictionary
281
1
  3
Normal
350
F
100
AcDbDictionaryWithDefault
340
F
  0
DICTIONARY
  5
17
102
{ACAD_REACTORS
330
C
102
}
100
AcDbDictionary
280
0
281
1
  3
Standard
350
18
  0
DICTIONARY
  5
19
102
{ACAD_REACTORS
330
C
102
}
100
AcDbDictionary
281
1
  0
DICTIONARY
  5
1A
102
{ACAD_REACTORS
330
C
102
}
100
AcDbDictionary
281
1
  3
Model
350
576
  3
Layout1
350
577
  0
ACDBPLACEHOLDER
  5
F
102
{ACAD_REACTORS
330
E
102
}
  0
MLINESTYLE
  5
18
102
{ACAD_REACTORS
330
17
102
}
100
AcDbMlineStyle
  2
STANDARD
 70
0
  3

 62
256
 51
90.0
 52
90.0
 71
2
 49
0.5
 62
256
  6
BYLAYER
 49
-0.5
 62
256
  6
BYLAYER
  0
LAYOUT
  5
576
102
{ACAD_REACTORS
330
1A
102
}
100
AcDbPlotSettings
  1

  2
none_device
  4
ANSI_A_(11.00_x_8.50_Inches)
  6

 40
0.0
 41
0.0
 42
0.0
 43
0.0
 44
279.4
 45
215.9
 46
0.0
 47
0.0
 48
0.0
 49
0.0
140
0.0
141
0.0
142
1.0
143
1.0
 70
1024
 72
0
 73
0
 74
0
  7

 75
0
147
1.0
148
0.0
149
0.0
100
AcDbLayout
  1
Model
 70
0
 71
0
 10
0.0
 20
0.0
 11
11.0
 21
8.5
 12
0.0
 22
0.0
 32
0.0
 14
0.0
 24
0.0
 34
0.0
 15
0.0
 25
0.0
 35
0.0
146
0.0
 13
0.0
 23
0.0
 33
0.0
 16
1.0
 26
0.0
 36
0.0
 17
0.0
 27
1.0
 37
0.0
 76
0
330
21C
345
0
346
0
  0
LAYOUT
  5
577
102
{ACAD_REACTORS
330
1A
102
}
100
AcDbPlotSettings
  1

  2
none_device
  4
ANSI_A_(11.00_x_8.50_Inches)
  6

 40
0.0
 41
0.0
 42
0.0
 43
0.0
 44
279.4
 45
215.9
 46
0.0
 47
0.0
 48
0.0
 49
0.0
140
0.0
141
0.0
142
1.0
143
1.0
 70
0
 72
0
 73
0
 74
0
  7

 75
0
147
1.0
148
0.0
149
0.0
100
AcDbLayout
  1
Layout1
 70
0
 71
1
 10
0.0
 20
0.0
 11
11.0
 21
8.5
 12
0.0
 22
0.0
 32
0.0
 14
0.0
 24
0.0
 34
0.0
 15
0.0
 25
0.0
 35
0.0
146
0.0
 13
0.0
 23
0.0
 33
0.0
 16
1.0
 26
0.0
 36
0.0
 17
0.0
 27
1.0
 37
0.0
 76
0
330
21D
345
0
346
0
  0
ENDSEC
  0
EOF
