999
DXF file: 111-2961_top.dxf
999
Pro/ENGINEER 2018400 by Parametric Technology Corporation
  0
SECTION
  2
HEADER
  9
$ACADVER
  1
AC1027
  9
$DWGCODEPAGE
  3
ANSI_1252
  9
$EXTMAX
 10
11.0
 20
8.5
 30
0.0
  9
$EXTMIN
 10
0.0
 20
0.0
 30
0.0
  9
$LIMMIN
 10
0.0
 20
0.0
  9
$LIMMAX
 10
11.0
 20
8.5
  9
$VIEWCTR
 10
5.5
 20
4.25
  9
$VIEWSIZE
 40
8.5
  9
$CLAYER
  8
0
  9
$LTSCALE
 40
0.605
  9
$CELTYPE
  6
BYLAYER
  9
$DIMSCALE
 40
1.0
  9
$DIMASZ
 40
0.1
  9
$DIMEXO
 40
0.0625
  9
$DIMDLI
 40
0.418
  9
$DIMEXE
 40
0.125
  9
$DIMCEN
 40
0.099
  9
$DIMLFAC
 40
1.0
  9
$DIMBLK
  1
_FILLED
  9
$DIMALT
 70
1
  9
$DIMALTD
 70
1
  9
$DIMALTTD
 70
2
  9
$DIMALTF
 40
25.4
  9
$DIMTXT
 40
0.08
  9
$DIMTOL
 70
1
  9
$DIMLIM
 70
0
  9
$DIMTFAC
 40
1.0
  9
$DIMTP
 40
0.01
  9
$DIMTM
 40
0.01
  9
$DIMGAP
 40
0.09
  9
$DIMDSEP
 70
46
  9
$AUNITS
 70
0
  9
$PDMODE
 70
3
  9
$PDSIZE
 40
0.3125
  9
$HANDSEED
  5
3D4
  9
$TILEMODE
 70
1
  9
$MEASUREMENT
 70
0
  9
$INSUNITS
 70
1
  0
ENDSEC
  0
SECTION
  2
CLASSES
  0
CLASS
  1
ACDBDICTIONARYWDFLT
  2
AcDbDictionaryWithDefault
  3
AutoCAD 2000
 90
0
 91
1
280
0
281
0
  0
CLASS
  1
ACDBPLACEHOLDER
  2
AcDbPlaceHolder
  3
AutoCAD 2000
 90
0
 91
1
280
0
281
0
  0
CLASS
  1
LAYOUT
  2
AcDbLayout
  3
AutoCAD 2000
 90
0
 91
0
280
0
281
0
  0
ENDSEC
  0
SECTION
  2
TABLES
  0
TABLE
  2
VPORT
  5
8
100
AcDbSymbolTable
 70
2
  0
VPORT
  5
1F4
100
AcDbSymbolTableRecord
100
AcDbViewportTableRecord
  2
*ACTIVE
 70
0
 10
0.0
 20
0.0
 11
1.0
 21
1.0
 12
5.5
 22
4.25
 13
0.0
 23
0.0
 14
1.0
 24
1.0
 15
0.0
 25
0.0
 16
0.0
 26
0.0
 36
1.0
 17
0.0
 27
0.0
 37
0.0
 40
8.5
 41
1.2941176471
 42
50.0
 43
0.0
 44
0.0
 50
0.0
 51
0.0
 71
0
 72
100
 73
1
 74
1
 75
0
 76
0
 77
0
 78
0
  0
ENDTAB
  0
TABLE
  2
LTYPE
  5
5
100
AcDbSymbolTable
 70
6
  0
LTYPE
  5
14
100
AcDbSymbolTableRecord
100
AcDbLinetypeTableRecord
  2
BYBLOCK
 70
0
  3

 72
65
 73
0
 40
0.0
  0
LTYPE
  5
15
100
AcDbSymbolTableRecord
100
AcDbLinetypeTableRecord
  2
BYLAYER
 70
0
  3

 72
65
 73
0
 40
0.0
  0
LTYPE
  5
16
100
AcDbSymbolTableRecord
100
AcDbLinetypeTableRecord
  2
CONTINUOUS
 70
64
  3
Solid line
 72
65
 73
0
 40
0.0
  0
LTYPE
  5
1F5
100
AcDbSymbolTableRecord
100
AcDbLinetypeTableRecord
  2
CENTER
 70
64
  3
____ _ ____ _ ____ _ ____ _ ____ _ ____ _ ____
 72
65
 73
4
 40
0.6
 49
0.375
 74
0
 49
-0.075
 74
0
 49
0.075
 74
0
 49
-0.075
 74
0
  0
LTYPE
  5
1F6
100
AcDbSymbolTableRecord
100
AcDbLinetypeTableRecord
  2
HIDDEN
 70
64
  3
- - - - - - - - - - - - - - - - - - - -
 72
65
 73
2
 40
0.2
 49
0.1
 74
0
 49
-0.1
 74
0
  0
LTYPE
  5
1F7
100
AcDbSymbolTableRecord
100
AcDbLinetypeTableRecord
  2
PHANTOM
 70
64
  3
_____ _ _ _____ _ _ _____ _ _ _____
 72
65
 73
6
 40
0.8
 49
0.45
 74
0
 49
-0.05
 74
0
 49
0.1
 74
0
 49
-0.05
 74
0
 49
0.1
 74
0
 49
-0.05
 74
0
  0
LTYPE
  5
1F8
100
AcDbSymbolTableRecord
100
AcDbLinetypeTableRecord
  2
DOT
 70
64
  3
. . . . . . . . . . . . . . . . . . . .
 72
65
 73
2
 40
0.2
 49
0.1
 74
0
 49
-0.1
 74
0
  0
LTYPE
  5
1F9
100
AcDbSymbolTableRecord
100
AcDbLinetypeTableRecord
  2
DASHED
 70
64
  3
- - - - - - - - - - - - - - - - - - - -
 72
65
 73
2
 40
0.2
 49
0.1
 74
0
 49
-0.1
 74
0
  0
ENDTAB
  0
TABLE
  2
LAYER
  5
2
100
AcDbSymbolTable
 70
36
  0
LAYER
  5
10
100
AcDbSymbolTableRecord
100
AcDbLayerTableRecord
  2
0
 70
0
 62
7
  6
CONTINUOUS
370
-3
390
F
  0
LAYER
  5
1FA
100
AcDbSymbolTableRecord
100
AcDbLayerTableRecord
  2
DEFAULT_1
 70
0
 62
7
  6
CENTER
370
-3
390
F
  0
LAYER
  5
1FB
100
AcDbSymbolTableRecord
100
AcDbLayerTableRecord
  2
DEFAULT_2
 70
0
 62
8
  6
HIDDEN
370
-3
390
F
  0
LAYER
  5
1FC
100
AcDbSymbolTableRecord
100
AcDbLayerTableRecord
  2
DEFAULT_3
 70
0
 62
7
  6
PHANTOM
370
-3
390
F
  0
LAYER
  5
1FD
100
AcDbSymbolTableRecord
100
AcDbLayerTableRecord
  2
ALL_ASSEMBLY_MEMBERS
 70
0
 62
7
  6
CONTINUOUS
370
-3
390
F
  0
LAYER
  5
1FE
100
AcDbSymbolTableRecord
100
AcDbLayerTableRecord
  2
ALL_FEATURES
 70
0
 62
7
  6
CONTINUOUS
370
-3
390
F
  0
LAYER
  5
1FF
100
AcDbSymbolTableRecord
100
AcDbLayerTableRecord
  2
AXES_FEATURES
 70
0
 62
7
  6
CONTINUOUS
370
-3
390
F
  0
LAYER
  5
200
100
AcDbSymbolTableRecord
100
AcDbLayerTableRecord
  2
CHAMFER_FEATURES
 70
0
 62
7
  6
CONTINUOUS
370
-3
390
F
  0
LAYER
  5
201
100
AcDbSymbolTableRecord
100
AcDbLayerTableRecord
  2
CUT_FEATURES
 70
0
 62
7
  6
CONTINUOUS
370
-3
390
F
  0
LAYER
  5
202
100
AcDbSymbolTableRecord
100
AcDbLayerTableRecord
  2
DATUM_CURVES
 70
0
 62
7
  6
CONTINUOUS
370
-3
390
F
  0
LAYER
  5
203
100
AcDbSymbolTableRecord
100
AcDbLayerTableRecord
  2
DATUM_PLANES
 70
0
 62
7
  6
CONTINUOUS
370
-3
390
F
  0
LAYER
  5
204
100
AcDbSymbolTableRecord
100
AcDbLayerTableRecord
  2
DATUM_POINTS
 70
0
 62
7
  6
CONTINUOUS
370
-3
390
F
  0
LAYER
  5
205
100
AcDbSymbolTableRecord
100
AcDbLayerTableRecord
  2
DEFAULT_COORDINATE_SYSTEM
 70
0
 62
7
  6
CONTINUOUS
370
-3
390
F
  0
LAYER
  5
206
100
AcDbSymbolTableRecord
100
AcDbLayerTableRecord
  2
DEFAULT_DATUM_AXES
 70
0
 62
7
  6
CONTINUOUS
370
-3
390
F
  0
LAYER
  5
207
100
AcDbSymbolTableRecord
100
AcDbLayerTableRecord
  2
DEFAULT_DATUM_CURVES
 70
0
 62
7
  6
CONTINUOUS
370
-3
390
F
  0
LAYER
  5
208
100
AcDbSymbolTableRecord
100
AcDbLayerTableRecord
  2
DEFAULT_DATUM_PLANES
 70
0
 62
7
  6
CONTINUOUS
370
-3
390
F
  0
LAYER
  5
209
100
AcDbSymbolTableRecord
100
AcDbLayerTableRecord
  2
DEFAULT_SURFACES
 70
0
 62
7
  6
CONTINUOUS
370
-3
390
F
  0
LAYER
  5
20A
100
AcDbSymbolTableRecord
100
AcDbLayerTableRecord
  2
DIMENSIONS
 70
0
 62
7
  6
CONTINUOUS
370
-3
390
F
  0
LAYER
  5
20B
100
AcDbSymbolTableRecord
100
AcDbLayerTableRecord
  2
HOLE_FEATURES
 70
0
 62
7
  6
CONTINUOUS
370
-3
390
F
  0
LAYER
  5
20C
100
AcDbSymbolTableRecord
100
AcDbLayerTableRecord
  2
NOTES
 70
0
 62
7
  6
CONTINUOUS
370
-3
390
F
  0
LAYER
  5
20D
100
AcDbSymbolTableRecord
100
AcDbLayerTableRecord
  2
PART_REFERENCE_DIMENSIONS
 70
0
 62
7
  6
CONTINUOUS
370
-3
390
F
  0
LAYER
  5
20E
100
AcDbSymbolTableRecord
100
AcDbLayerTableRecord
  2
PLATED_SURFACE_AREA
 70
0
 62
7
  6
CONTINUOUS
370
-3
390
F
  0
LAYER
  5
20F
100
AcDbSymbolTableRecord
100
AcDbLayerTableRecord
  2
PLATING_AREA
 70
0
 62
7
  6
CONTINUOUS
370
-3
390
F
  0
LAYER
  5
210
100
AcDbSymbolTableRecord
100
AcDbLayerTableRecord
  2
POINTS
 70
0
 62
7
  6
CONTINUOUS
370
-3
390
F
  0
LAYER
  5
211
100
AcDbSymbolTableRecord
100
AcDbLayerTableRecord
  2
PROTRUSION_FEATURES
 70
0
 62
7
  6
CONTINUOUS
370
-3
390
F
  0
LAYER
  5
212
100
AcDbSymbolTableRecord
100
AcDbLayerTableRecord
  2
QUILT
 70
0
 62
7
  6
CONTINUOUS
370
-3
390
F
  0
LAYER
  5
213
100
AcDbSymbolTableRecord
100
AcDbLayerTableRecord
  2
QUILT1
 70
0
 62
7
  6
CONTINUOUS
370
-3
390
F
  0
LAYER
  5
214
100
AcDbSymbolTableRecord
100
AcDbLayerTableRecord
  2
QUILTS
 70
0
 62
7
  6
CONTINUOUS
370
-3
390
F
  0
LAYER
  5
215
100
AcDbSymbolTableRecord
100
AcDbLayerTableRecord
  2
REFERENCE_DIMENSIONS
 70
0
 62
7
  6
CONTINUOUS
370
-3
390
F
  0
LAYER
  5
216
100
AcDbSymbolTableRecord
100
AcDbLayerTableRecord
  2
ROUND_FEATURES
 70
0
 62
7
  6
CONTINUOUS
370
-3
390
F
  0
LAYER
  5
217
100
AcDbSymbolTableRecord
100
AcDbLayerTableRecord
  2
SHELL_FEATURES
 70
0
 62
7
  6
CONTINUOUS
370
-3
390
F
  0
LAYER
  5
218
100
AcDbSymbolTableRecord
100
AcDbLayerTableRecord
  2
SIZE_REF
 70
0
 62
7
  6
CONTINUOUS
370
-3
390
F
  0
LAYER
  5
219
100
AcDbSymbolTableRecord
100
AcDbLayerTableRecord
  2
THREADS
 70
0
 62
7
  6
CONTINUOUS
370
-3
390
F
  0
ENDTAB
  0
TABLE
  2
STYLE
  5
3
100
AcDbSymbolTable
 70
1
  0
STYLE
  5
11
100
AcDbSymbolTableRecord
100
AcDbTextStyleTableRecord
  2
STANDARD
 70
0
 40
0.0
 41
0.8
 50
0.0
 71
0
 42
0.2
  3
txt
  4

  0
STYLE
  5
21A
100
AcDbSymbolTableRecord
100
AcDbTextStyleTableRecord
  2
TEXTSTYLE_1
 70
0
 40
0.0
 41
0.8
 50
0.0
 71
0
 42
0.2
  3
gdt
  4

  0
ENDTAB
  0
TABLE
  2
VIEW
  5
6
100
AcDbSymbolTable
 70
0
  0
ENDTAB
  0
TABLE
  2
UCS
  5
7
100
AcDbSymbolTable
 70
0
  0
ENDTAB
  0
TABLE
  2
APPID
  5
9
100
AcDbSymbolTable
 70
1
  0
APPID
  5
21B
100
AcDbSymbolTableRecord
100
AcDbRegAppTableRecord
  2
ACAD
 70
0
  0
ENDTAB
  0
TABLE
  2
BLOCK_RECORD
  5
1
100
AcDbSymbolTable
 70
0
  0
BLOCK_RECORD
  5
21C
100
AcDbSymbolTableRecord
100
AcDbBlockTableRecord
  2
*Model_Space
  0
BLOCK_RECORD
  5
21D
100
AcDbSymbolTableRecord
100
AcDbBlockTableRecord
  2
*Paper_Space
  0
BLOCK_RECORD
  5
21E
100
AcDbSymbolTableRecord
100
AcDbBlockTableRecord
  2
_FILLED
  0
ENDTAB
  0
TABLE
  2
DIMSTYLE
  5
A
100
AcDbSymbolTable
 70
1
100
AcDbDimStyleTable
 71
0
  0
DIMSTYLE
105
21F
100
AcDbSymbolTableRecord
100
AcDbDimStyleTableRecord
  2
STANDARD
 70
0
  3

  4

 40
1.0
 41
0.1
 42
0.0625
 43
0.38
 44
0.125
 45
0.0
 46
0.0
 47
0.01
 48
0.01
140
0.08
141
0.09
142
0.0
143
25.4
144
1.0
145
0.0
146
1.0
147
0.09
 71
1.0
 72
0.0
 73
1
 74
1
 75
0
 76
0
 77
0
 78
4
 79
1
170
1
171
1
172
0
173
0
174
0
175
0
176
0
177
0
178
0
270
2
179
2
271
2
272
2
273
2
274
2
275
0
280
0
281
0
282
0
283
1
284
4
285
0
286
0
287
3
288
0
340
11
278
46
341
21E
342
21E
343
21E
344
21E
  0
ENDTAB
  0
ENDSEC
  0
SECTION
  2
BLOCKS
  0
BLOCK
  5
20
100
AcDbEntity
  8
0
100
AcDbBlockBegin
  2
*Model_Space
 70
0
 10
0.0
 20
0.0
 30
0.0
  3
*Model_Space
  1

  0
ENDBLK
  5
21
100
AcDbEntity
  8
0
100
AcDbBlockEnd
  0
BLOCK
  5
1C
100
AcDbEntity
  8
0
100
AcDbBlockBegin
  2
*Paper_Space
 70
0
 10
0.0
 20
0.0
 30
0.0
  3
*Paper_Space
  1

  0
ENDBLK
  5
1D
100
AcDbEntity
  8
0
100
AcDbBlockEnd
  0
BLOCK
  5
220
100
AcDbEntity
  8
0
100
AcDbBlockBegin
  2
_FILLED
 70
64
 10
0.0
 20
0.0
  3
_FILLED
  1

  0
SOLID
  5
221
100
AcDbEntity
  8
0
  6
BYBLOCK
 62
0
100
AcDbTrace
 10
0.0
 20
0.0
 11
-1.0
 21
0.2
 12
-1.0
 22
-0.2
 13
-1.0
 23
-0.2
  0
ENDBLK
  5
222
100
AcDbEntity
  8
0
  6
BYBLOCK
 62
0
100
AcDbBlockEnd
  0
ENDSEC
  0
SECTION
  2
ENTITIES
  0
MTEXT
  5
223
100
AcDbEntity
  8
0
100
AcDbMText
 62
2
  6
CONTINUOUS
  7
STANDARD
 71
3
 72
1
 10
5.1987359551
 20
1.0972001275
 30
0.0
 11
1.0
 21
0.0
 31
0.0
 73
2
 44
0.9
  1
SCALE  .250
 40
0.08
 41
0.704
  0
LINE
  5
224
100
AcDbEntity
  8
0
100
AcDbLine
 62
7
  6
CONTINUOUS
 10
0.0
 20
0.0
 11
0.0
 21
8.5
  0
LINE
  5
225
100
AcDbEntity
  8
0
100
AcDbLine
 62
7
  6
CONTINUOUS
 10
0.0
 20
0.0
 11
11.0
 21
0.0
  0
LINE
  5
226
100
AcDbEntity
  8
0
100
AcDbLine
 62
7
  6
CONTINUOUS
 10
0.0
 20
8.5
 11
11.0
 21
8.5
  0
LINE
  5
227
100
AcDbEntity
  8
0
100
AcDbLine
 62
7
  6
CONTINUOUS
 10
11.0
 20
0.0
 11
11.0
 21
8.5
  0
LINE
  5
228
100
AcDbEntity
  8
ALL_ASSEMBLY_MEMBERS
100
AcDbLine
 62
7
  6
CONTINUOUS
 10
4.7715914535
 20
1.7593144885
 11
4.7741586426
 21
1.7599784087
  0
LINE
  5
229
100
AcDbEntity
  8
ALL_ASSEMBLY_MEMBERS
100
AcDbLine
 62
7
  6
CONTINUOUS
 10
4.919268088
 20
1.7975062629
 11
4.9218352771
 21
1.7981701832
  0
LINE
  5
22A
100
AcDbEntity
  8
ALL_ASSEMBLY_MEMBERS
100
AcDbLine
 62
7
  6
CONTINUOUS
 10
4.7645483171
 20
1.7640198365
 11
4.767159683
 21
1.7644802908
  0
LINE
  5
22B
100
AcDbEntity
  8
ALL_ASSEMBLY_MEMBERS
100
AcDbLine
 62
7
  6
CONTINUOUS
 10
4.9147662059
 20
1.7905073033
 11
4.9173775718
 21
1.7909677576
  0
LINE
  5
22C
100
AcDbEntity
  8
ALL_ASSEMBLY_MEMBERS
100
AcDbLine
 62
7
  6
CONTINUOUS
 10
4.7578960697
 20
1.7692632777
 11
4.7605355125
 21
1.7695174271
  0
LINE
  5
22D
100
AcDbEntity
  8
ALL_ASSEMBLY_MEMBERS
100
AcDbLine
 62
7
  6
CONTINUOUS
 10
4.9097290695
 20
1.7838831327
 11
4.9123685123
 21
1.7841372822
  0
LINE
  5
22E
100
AcDbEntity
  8
ALL_ASSEMBLY_MEMBERS
100
AcDbLine
 62
7
  6
CONTINUOUS
 10
4.7516757246
 20
1.7750124844
 11
4.7543269712
 21
1.7750587621
  0
LINE
  5
22F
100
AcDbEntity
  8
ALL_ASSEMBLY_MEMBERS
100
AcDbLine
 62
7
  6
CONTINUOUS
 10
4.9041877346
 20
1.7776745915
 11
4.9068389812
 21
1.7777208691
  0
LINE
  5
230
100
AcDbEntity
  8
ALL_ASSEMBLY_MEMBERS
100
AcDbLine
 62
7
  6
CONTINUOUS
 10
4.7459256323
 20
1.7812320109
 11
4.7485723369
 21
1.7810701315
  0
LINE
  5
231
100
AcDbEntity
  8
ALL_ASSEMBLY_MEMBERS
100
AcDbLine
 62
7
  6
CONTINUOUS
 10
4.8981763652
 20
1.7719199572
 11
4.9008230697
 21
1.7717580778
  0
LINE
  5
232
100
AcDbEntity
  8
ALL_ASSEMBLY_MEMBERS
100
AcDbLine
 62
7
  6
CONTINUOUS
 10
4.7406812441
 20
1.7878835117
 11
4.7433070888
 21
1.7875144733
  0
LINE
  5
233
100
AcDbEntity
  8
ALL_ASSEMBLY_MEMBERS
100
AcDbLine
 62
7
  6
CONTINUOUS
 10
4.8917320234
 20
1.7666547091
 11
4.8943578681
 21
1.7662856707
  0
LINE
  5
234
100
AcDbEntity
  8
ALL_ASSEMBLY_MEMBERS
100
AcDbLine
 62
7
  6
CONTINUOUS
 10
4.7359748932
 20
1.7949259781
 11
4.738563689
 21
1.7943520559
  0
LINE
  5
235
100
AcDbEntity
  8
ALL_ASSEMBLY_MEMBERS
100
AcDbLine
 62
7
  6
CONTINUOUS
 10
4.8848944408
 20
1.7619113092
 11
4.8874832365
 21
1.7613373871
  0
LINE
  5
236
100
AcDbEntity
  8
ALL_FEATURES
100
AcDbLine
 62
7
  6
CONTINUOUS
 10
4.6199905948
 20
6.731335444
 11
4.6195696754
 21
6.7312010107
  0
LINE
  5
237
100
AcDbEntity
  8
ALL_FEATURES
100
AcDbLine
 62
7
  6
CONTINUOUS
 10
4.6161487536
 20
6.7301084357
 11
4.6157380911
 21
6.7299772783
  0
LINE
  5
238
100
AcDbEntity
  8
ALL_FEATURES
100
AcDbLine
 62
7
  6
CONTINUOUS
 10
4.6161132498
 20
6.730128521
 11
4.6157010323
 21
6.7299981798
  0
LINE
  5
239
100
AcDbEntity
  8
ALL_FEATURES
100
AcDbLine
 62
7
  6
CONTINUOUS
 10
4.6199906632
 20
6.7313354043
 11
4.6195640291
 21
6.731204287
  0
LINE
  5
23A
100
AcDbEntity
  8
ALL_ASSEMBLY_MEMBERS
100
AcDbLine
 62
7
  6
CONTINUOUS
 10
4.8843074229
 20
1.9432796285
 11
4.8817402338
 21
1.9426157083
  0
LINE
  5
23B
100
AcDbEntity
  8
ALL_ASSEMBLY_MEMBERS
100
AcDbLine
 62
7
  6
CONTINUOUS
 10
4.7366307884
 20
1.905087854
 11
4.7340635993
 21
1.9044239338
  0
LINE
  5
23C
100
AcDbEntity
  8
ALL_ASSEMBLY_MEMBERS
100
AcDbLine
 62
7
  6
CONTINUOUS
 10
4.8913505593
 20
1.9385742804
 11
4.8887391934
 21
1.9381138262
  0
LINE
  5
23D
100
AcDbEntity
  8
ALL_ASSEMBLY_MEMBERS
100
AcDbLine
 62
7
  6
CONTINUOUS
 10
4.7411326705
 20
1.9120868137
 11
4.7385213046
 21
1.9116263594
  0
LINE
  5
23E
100
AcDbEntity
  8
ALL_ASSEMBLY_MEMBERS
100
AcDbLine
 62
7
  6
CONTINUOUS
 10
4.8980028067
 20
1.9333308393
 11
4.8953633639
 21
1.9330766898
  0
LINE
  5
23F
100
AcDbEntity
  8
ALL_ASSEMBLY_MEMBERS
100
AcDbLine
 62
7
  6
CONTINUOUS
 10
4.7461698069
 20
1.9187109842
 11
4.7435303641
 21
1.9184568348
  0
LINE
  5
240
100
AcDbEntity
  8
ALL_ASSEMBLY_MEMBERS
100
AcDbLine
 62
7
  6
CONTINUOUS
 10
4.9042231518
 20
1.9275816325
 11
4.9015719052
 21
1.9275353549
  0
LINE
  5
241
100
AcDbEntity
  8
ALL_ASSEMBLY_MEMBERS
100
AcDbLine
 62
7
  6
CONTINUOUS
 10
4.7517111418
 20
1.9249195255
 11
4.7490598953
 21
1.9248732478
  0
LINE
  5
242
100
AcDbEntity
  8
ALL_ASSEMBLY_MEMBERS
100
AcDbLine
 62
7
  6
CONTINUOUS
 10
4.9099732441
 20
1.9213621061
 11
4.9073265395
 21
1.9215239855
  0
LINE
  5
243
100
AcDbEntity
  8
ALL_ASSEMBLY_MEMBERS
100
AcDbLine
 62
7
  6
CONTINUOUS
 10
4.7577225112
 20
1.9306741598
 11
4.7550758067
 21
1.9308360392
  0
LINE
  5
244
100
AcDbEntity
  8
ALL_ASSEMBLY_MEMBERS
100
AcDbLine
 62
7
  6
CONTINUOUS
 10
4.9152176323
 20
1.9147106053
 11
4.9125917876
 21
1.9150796437
  0
LINE
  5
245
100
AcDbEntity
  8
ALL_ASSEMBLY_MEMBERS
100
AcDbLine
 62
7
  6
CONTINUOUS
 10
4.764166853
 20
1.9359394079
 11
4.7615410083
 21
1.9363084463
  0
LINE
  5
246
100
AcDbEntity
  8
ALL_ASSEMBLY_MEMBERS
100
AcDbLine
 62
7
  6
CONTINUOUS
 10
4.9199239832
 20
1.9076681389
 11
4.9173351874
 21
1.9082420611
  0
LINE
  5
247
100
AcDbEntity
  8
ALL_ASSEMBLY_MEMBERS
100
AcDbLine
 62
7
  6
CONTINUOUS
 10
4.7710044356
 20
1.9406828077
 11
4.7684156399
 21
1.9412567299
  0
LINE
  5
248
100
AcDbEntity
  8
ALL_ASSEMBLY_MEMBERS
100
AcDbLine
 62
7
  6
CONTINUOUS
 10
4.7318355961
 20
1.802315991
 11
4.734371382
 21
1.8015407234
  0
LINE
  5
249
100
AcDbEntity
  8
ALL_ASSEMBLY_MEMBERS
100
AcDbLine
 62
7
  6
CONTINUOUS
 10
4.8777057733
 20
1.7577190023
 11
4.8802415592
 21
1.7569437347
  0
LINE
  5
24A
100
AcDbEntity
  8
ALL_ASSEMBLY_MEMBERS
100
AcDbLine
 62
7
  6
CONTINUOUS
 10
4.9240632803
 20
1.900278126
 11
4.9215274944
 21
1.9010533936
  0
LINE
  5
24B
100
AcDbEntity
  8
ALL_ASSEMBLY_MEMBERS
100
AcDbLine
 62
7
  6
CONTINUOUS
 10
4.7781931031
 20
1.9448751147
 11
4.7756573172
 21
1.9456503823
  0
LINE
  5
24C
100
AcDbEntity
  8
ALL_ASSEMBLY_MEMBERS
100
AcDbLine
 62
7
  6
CONTINUOUS
 10
4.7282888727
 20
1.8100079884
 11
4.7307560148
 21
1.8090361552
  0
LINE
  5
24D
100
AcDbEntity
  8
ALL_ASSEMBLY_MEMBERS
100
AcDbLine
 62
7
  6
CONTINUOUS
 10
4.8702103414
 20
1.7541036351
 11
4.8726774836
 21
1.753131802
  0
LINE
  5
24E
100
AcDbEntity
  8
ALL_ASSEMBLY_MEMBERS
100
AcDbLine
 62
7
  6
CONTINUOUS
 10
4.7253565899
 20
1.8179545467
 11
4.7277398775
 21
1.8167921396
  0
LINE
  5
24F
100
AcDbEntity
  8
ALL_ASSEMBLY_MEMBERS
100
AcDbLine
 62
7
  6
CONTINUOUS
 10
4.8624543571
 20
1.7510874978
 11
4.8648376447
 21
1.7499250907
  0
LINE
  5
250
100
AcDbEntity
  8
0
100
AcDbLine
 62
7
  6
CONTINUOUS
 10
4.6229530213
 20
2.2062970585
 11
5.0329458551
 21
2.2062970585
  0
LINE
  5
251
100
AcDbEntity
  8
ALL_ASSEMBLY_MEMBERS
100
AcDbLine
 62
7
  6
CONTINUOUS
 10
4.9276100037
 20
1.8925861286
 11
4.9251428616
 21
1.8935579617
  0
LINE
  5
252
100
AcDbEntity
  8
ALL_ASSEMBLY_MEMBERS
100
AcDbLine
 62
7
  6
CONTINUOUS
 10
4.785688535
 20
1.9484904818
 11
4.7832213928
 21
1.949462315
  0
LINE
  5
253
100
AcDbEntity
  8
ALL_ASSEMBLY_MEMBERS
100
AcDbLine
 62
7
  6
CONTINUOUS
 10
4.9305422865
 20
1.8846395703
 11
4.9281589989
 21
1.8858019774
  0
LINE
  5
254
100
AcDbEntity
  8
ALL_ASSEMBLY_MEMBERS
100
AcDbLine
 62
7
  6
CONTINUOUS
 10
4.7934445193
 20
1.9515066192
 11
4.7910612317
 21
1.9526690262
  0
LINE
  5
255
100
AcDbEntity
  8
ALL_ASSEMBLY_MEMBERS
100
AcDbLine
 62
7
  6
CONTINUOUS
 10
4.7230568261
 20
1.8261066726
 11
4.7253415654
 21
1.8247608583
  0
LINE
  5
256
100
AcDbEntity
  8
ALL_ASSEMBLY_MEMBERS
100
AcDbLine
 62
7
  6
CONTINUOUS
 10
4.8544856384
 20
1.7486891857
 11
4.8567703777
 21
1.7473433713
  0
LINE
  5
257
100
AcDbEntity
  8
ALL_ASSEMBLY_MEMBERS
100
AcDbLine
 62
7
  6
CONTINUOUS
 10
4.7214037601
 20
1.8344141056
 11
4.7235758649
 21
1.8328931814
  0
LINE
  5
258
100
AcDbEntity
  8
ALL_ASSEMBLY_MEMBERS
100
AcDbLine
 62
7
  6
CONTINUOUS
 10
4.8463533152
 20
1.7469234852
 11
4.8485254201
 21
1.745402561
  0
LWPOLYLINE
  5
259
100
AcDbEntity
  8
0
100
AcDbPolyline
 62
7
  6
CONTINUOUS
 90
46
 70
0
 10
4.5432187329
 20
6.6222663719
 10
4.5431991603
 20
6.6222509911
 10
4.5431969416
 20
6.6222478599
 10
4.5433936392
 20
6.6223740696
 10
4.5438025614
 20
6.6226087322
 10
4.5444424706
 20
6.6229360687
 10
4.5453196985
 20
6.6233352665
 10
4.5464193628
 20
6.623779713
 10
4.5477422611
 20
6.6242534678
 10
4.5492917117
 20
6.6247430217
 10
4.5510523627
 20
6.625230944
 10
4.5530201007
 20
6.625705414
 10
4.5551926264
 20
6.6261560048
 10
4.5575577282
 20
6.6265713627
 10
4.5601085529
 20
6.6269425252
 10
4.5628377436
 20
6.6272611409
 10
4.5657327614
 20
6.6275190384
 10
4.5687864893
 20
6.6277093711
 10
4.571984991
 20
6.6278254862
 10
4.5753051761
 20
6.6278615362
 10
4.578738321
 20
6.627812877
 10
4.5822643071
 20
6.6276756101
 10
4.5858413432
 20
6.6274486329
 10
4.5894525096
 20
6.6271314012
 10
4.5930799517
 20
6.6267241029
 10
4.5966800388
 20
6.6262316598
 10
4.600235031
 20
6.6256577431
 10
4.6037285572
 20
6.6250064066
 10
4.6071212161
 20
6.6242876198
 10
4.6103934165
 20
6.6235097606
 10
4.6135380391
 20
6.6226789401
 10
4.6165372558
 20
6.6218045149
 10
4.6193792608
 20
6.6208954232
 10
4.6220574438
 20
6.619959745
 10
4.6245629224
 20
6.6190067814
 10
4.6268900625
 20
6.6180453217
 10
4.6290327573
 20
6.6170853216
 10
4.6309812272
 20
6.6161394908
 10
4.6327343617
 20
6.6152175193
 10
4.6342889312
 20
6.614331343
 10
4.6356327193
 20
6.613500243
 10
4.6367702917
 20
6.612735565
 10
4.6377036734
 20
6.6120517702
 10
4.6384221408
 20
6.6114765315
 10
4.6389323119
 20
6.6110289268
 10
4.6391866842
 20
6.6107862758
  0
LINE
  5
25A
100
AcDbEntity
  8
ALL_ASSEMBLY_MEMBERS
100
AcDbLine
 62
7
  6
CONTINUOUS
 10
4.9328420504
 20
1.8764874444
 11
4.930557311
 21
1.8778332587
  0
LINE
  5
25B
100
AcDbEntity
  8
ALL_ASSEMBLY_MEMBERS
100
AcDbLine
 62
7
  6
CONTINUOUS
 10
4.801413238
 20
1.9539049313
 11
4.7991284987
 21
1.9552507456
  0
LINE
  5
25C
100
AcDbEntity
  8
ALL_ASSEMBLY_MEMBERS
100
AcDbLine
 62
7
  6
CONTINUOUS
 10
4.9344951163
 20
1.8681800113
 11
4.9323230115
 21
1.8697009355
  0
LINE
  5
25D
100
AcDbEntity
  8
ALL_ASSEMBLY_MEMBERS
100
AcDbLine
 62
7
  6
CONTINUOUS
 10
4.8095455612
 20
1.9556706317
 11
4.8073734563
 21
1.9571915559
  0
LINE
  5
25E
100
AcDbEntity
  8
ALL_ASSEMBLY_MEMBERS
100
AcDbLine
 62
7
  6
CONTINUOUS
 10
4.7204075836
 20
1.8428256277
 11
4.7224536623
 21
1.8411389706
  0
LINE
  5
25F
100
AcDbEntity
  8
ALL_ASSEMBLY_MEMBERS
100
AcDbLine
 62
7
  6
CONTINUOUS
 10
4.8381075261
 20
1.7458012826
 11
4.8401536047
 21
1.7441146255
  0
LINE
  5
260
100
AcDbEntity
  8
ALL_FEATURES
100
AcDbLine
 62
7
  6
CONTINUOUS
 10
4.5305998787
 20
6.6086596984
 11
4.5464909633
 21
6.6238053545
  0
LINE
  5
261
100
AcDbEntity
  8
ALL_ASSEMBLY_MEMBERS
100
AcDbLine
 62
7
  6
CONTINUOUS
 10
4.9354912928
 20
1.8597684892
 11
4.9334452141
 21
1.8614551463
  0
LINE
  5
262
100
AcDbEntity
  8
ALL_ASSEMBLY_MEMBERS
100
AcDbLine
 62
7
  6
CONTINUOUS
 10
4.8177913504
 20
1.9567928344
 11
4.8157452717
 21
1.9584794915
  0
LINE
  5
263
100
AcDbEntity
  8
ALL_ASSEMBLY_MEMBERS
100
AcDbLine
 62
7
  6
CONTINUOUS
 10
4.7200744385
 20
1.851289379
 11
4.7219818762
 21
1.8494473878
  0
LINE
  5
264
100
AcDbEntity
  8
ALL_ASSEMBLY_MEMBERS
100
AcDbLine
 62
7
  6
CONTINUOUS
 10
4.8297991089
 20
1.7453294964
 11
4.8317065466
 21
1.7434875053
  0
LINE
  5
265
100
AcDbEntity
  8
ALL_ASSEMBLY_MEMBERS
100
AcDbLine
 62
7
  6
CONTINUOUS
 10
4.9358244379
 20
1.851304738
 11
4.9339170002
 21
1.8531467292
  0
LINE
  5
266
100
AcDbEntity
  8
ALL_ASSEMBLY_MEMBERS
100
AcDbLine
 62
7
  6
CONTINUOUS
 10
4.8260997675
 20
1.9572646205
 11
4.8241923298
 21
1.9591066117
  0
LINE
  5
267
100
AcDbEntity
  8
ALL_ASSEMBLY_MEMBERS
100
AcDbLine
 62
7
  6
CONTINUOUS
 10
4.7204063786
 20
1.8597531776
 11
4.7221634153
 21
1.8577672088
  0
LINE
  5
268
100
AcDbEntity
  8
ALL_ASSEMBLY_MEMBERS
100
AcDbLine
 62
7
  6
CONTINUOUS
 10
4.8214792879
 20
1.7455110356
 11
4.8232363246
 21
1.7435250668
  0
LWPOLYLINE
  5
269
100
AcDbEntity
  8
0
100
AcDbPolyline
 62
7
  6
CONTINUOUS
 90
43
 70
0
 10
5.0167121932
 20
6.6107862712
 10
5.0169663682
 20
6.6110287419
 10
5.0174762914
 20
6.6114761652
 10
5.0181944062
 20
6.6120511587
 10
5.0191272894
 20
6.6127346509
 10
5.0202641577
 20
6.6134989593
 10
5.0216070429
 20
6.6143296223
 10
5.0231604915
 20
6.6152153132
 10
5.0249122337
 20
6.6161367552
 10
5.0268590195
 20
6.6170820118
 10
5.0289997454
 20
6.6180414176
 10
5.0313246426
 20
6.6190022939
 10
5.0338275925
 20
6.619954698
 10
5.0365029861
 20
6.6208898607
 10
5.039342021
 20
6.6217985229
 10
5.0423380244
 20
6.6226725997
 10
5.0454792969
 20
6.6235031949
 10
5.0487483852
 20
6.6242810399
 10
5.0521382856
 20
6.6250000251
 10
5.0556294076
 20
6.6256517481
 10
5.0591825721
 20
6.6262262493
 10
5.0627814901
 20
6.6267194404
 10
5.0664083977
 20
6.6271275977
 10
5.0700197168
 20
6.6274457656
 10
5.0735976094
 20
6.6276737154
 10
5.0771250997
 20
6.6278119359
 10
5.080560308
 20
6.6278614749
 10
5.0838831799
 20
6.6278262045
 10
5.0870848298
 20
6.6277107304
 10
5.0901417874
 20
6.6275208806
 10
5.0930400598
 20
6.6272633034
 10
5.0957725576
 20
6.6269448511
 10
5.0983264787
 20
6.6265737211
 10
5.1006943841
 20
6.626158278
 10
5.1028694708
 20
6.6257074937
 10
5.1048394488
 20
6.6252327719
 10
5.106601939
 20
6.6247445788
 10
5.1081528284
 20
6.6242547495
 10
5.1094768321
 20
6.623780727
 10
5.1105772935
 20
6.6233360752
 10
5.111455058
 20
6.6229367357
 10
5.1120954249
 20
6.622609228
 10
5.1122646913
 20
6.622515299
  0
LINE
  5
26A
100
AcDbEntity
  8
ALL_FEATURES
100
AcDbLine
 62
7
  6
CONTINUOUS
 10
5.0172448892
 20
6.6102275438
 11
5.0214412777
 21
6.6142270855
  0
LINE
  5
26B
100
AcDbEntity
  8
ALL_ASSEMBLY_MEMBERS
100
AcDbLine
 62
7
  6
CONTINUOUS
 10
4.9354924978
 20
1.8428409394
 11
4.9337354611
 21
1.8448269081
  0
LINE
  5
26C
100
AcDbEntity
  8
ALL_ASSEMBLY_MEMBERS
100
AcDbLine
 62
7
  6
CONTINUOUS
 10
4.8344195885
 20
1.9570830814
 11
4.8326625518
 21
1.9590690501
  0
LINE
  5
26D
100
AcDbEntity
  8
ALL_ASSEMBLY_MEMBERS
100
AcDbLine
 62
7
  6
CONTINUOUS
 10
4.7214013574
 20
1.8681648414
 11
4.7229971605
 21
1.8660471392
  0
LINE
  5
26E
100
AcDbEntity
  8
ALL_ASSEMBLY_MEMBERS
100
AcDbLine
 62
7
  6
CONTINUOUS
 10
4.8131993575
 20
1.7463447807
 11
4.8147951605
 21
1.7442270785
  0
LINE
  5
26F
100
AcDbEntity
  8
0
100
AcDbLine
 62
7
  6
CONTINUOUS
 10
5.0167122621
 20
6.6107863854
 11
5.0167042744
 21
6.6107784486
  0
LINE
  5
270
100
AcDbEntity
  8
ALL_ASSEMBLY_MEMBERS
100
AcDbLine
 62
7
  6
CONTINUOUS
 10
4.934497519
 20
1.8344292756
 11
4.9329017159
 21
1.8365469778
  0
LINE
  5
271
100
AcDbEntity
  8
ALL_ASSEMBLY_MEMBERS
100
AcDbLine
 62
7
  6
CONTINUOUS
 10
4.8426995189
 20
1.9562493362
 11
4.8411037159
 21
1.9583670384
  0
LINE
  5
272
100
AcDbEntity
  8
ALL_ASSEMBLY_MEMBERS
100
AcDbLine
 62
7
  6
CONTINUOUS
 10
4.7230532406
 20
1.8764725097
 11
4.7244779713
 21
1.8742361304
  0
LINE
  5
273
100
AcDbEntity
  8
ALL_ASSEMBLY_MEMBERS
100
AcDbLine
 62
7
  6
CONTINUOUS
 10
4.8050103663
 20
1.7478255916
 11
4.806435097
 21
1.7455892123
  0
LINE
  5
274
100
AcDbEntity
  8
ALL_ASSEMBLY_MEMBERS
100
AcDbLine
 62
7
  6
CONTINUOUS
 10
4.9328456358
 20
1.8261216072
 11
4.9314209051
 21
1.8283579865
  0
LINE
  5
275
100
AcDbEntity
  8
ALL_ASSEMBLY_MEMBERS
100
AcDbLine
 62
7
  6
CONTINUOUS
 10
4.8508885102
 20
1.9547685254
 11
4.8494637794
 21
1.9570049047
  0
LINE
  5
276
100
AcDbEntity
  8
ALL_ASSEMBLY_MEMBERS
100
AcDbLine
 62
7
  6
CONTINUOUS
 10
4.7253518437
 20
1.884624963
 11
4.7265967181
 21
1.8822836947
  0
LINE
  5
277
100
AcDbEntity
  8
ALL_ASSEMBLY_MEMBERS
100
AcDbLine
 62
7
  6
CONTINUOUS
 10
4.796962802
 20
1.7499443384
 11
4.7982076765
 21
1.7476030701
  0
LINE
  5
278
100
AcDbEntity
  8
ALL_ASSEMBLY_MEMBERS
100
AcDbLine
 62
7
  6
CONTINUOUS
 10
4.9305470327
 20
1.8179691539
 11
4.9293021583
 21
1.8203104223
  0
LINE
  5
279
100
AcDbEntity
  8
ALL_ASSEMBLY_MEMBERS
100
AcDbLine
 62
7
  6
CONTINUOUS
 10
4.8589360744
 20
1.9526497785
 11
4.8576911999
 21
1.9549910469
  0
LINE
  5
27A
100
AcDbEntity
  8
ALL_ASSEMBLY_MEMBERS
100
AcDbLine
 62
7
  6
CONTINUOUS
 10
4.7282829951
 20
1.8925719387
 11
4.7293403382
 21
1.890140216
  0
LINE
  5
27B
100
AcDbEntity
  8
ALL_ASSEMBLY_MEMBERS
100
AcDbLine
 62
7
  6
CONTINUOUS
 10
4.7891062807
 20
1.7526879585
 11
4.7901636239
 21
1.7502562357
  0
LINE
  5
27C
100
AcDbEntity
  8
ALL_ASSEMBLY_MEMBERS
100
AcDbLine
 62
7
  6
CONTINUOUS
 10
4.9276158813
 20
1.8100221783
 11
4.9265585382
 21
1.812453901
  0
LINE
  5
27D
100
AcDbEntity
  8
ALL_ASSEMBLY_MEMBERS
100
AcDbLine
 62
7
  6
CONTINUOUS
 10
4.8667925957
 20
1.9499061585
 11
4.8657352525
 21
1.9523378812
  0
LINE
  5
27E
100
AcDbEntity
  8
ALL_ASSEMBLY_MEMBERS
100
AcDbLine
 62
7
  6
CONTINUOUS
 10
4.7318286232
 20
1.900264441
 11
4.7326919162
 21
1.8977572563
  0
LINE
  5
27F
100
AcDbEntity
  8
ALL_ASSEMBLY_MEMBERS
100
AcDbLine
 62
7
  6
CONTINUOUS
 10
4.7814892404
 20
1.7560395364
 11
4.7823525333
 21
1.7535323517
  0
LINE
  5
280
100
AcDbEntity
  8
ALL_ASSEMBLY_MEMBERS
100
AcDbLine
 62
7
  6
CONTINUOUS
 10
4.9240702532
 20
1.8023296759
 11
4.9232069602
 21
1.8048368607
  0
LINE
  5
281
100
AcDbEntity
  8
ALL_ASSEMBLY_MEMBERS
100
AcDbLine
 62
7
  6
CONTINUOUS
 10
4.874409636
 20
1.9465545805
 11
4.8735463431
 21
1.9490617653
  0
LINE
  5
282
100
AcDbEntity
  8
ALL_ASSEMBLY_MEMBERS
100
AcDbLine
 62
7
  6
CONTINUOUS
 10
4.7359668682
 20
1.9076550432
 11
4.7366307884
 21
1.905087854
  0
LINE
  5
283
100
AcDbEntity
  8
ALL_ASSEMBLY_MEMBERS
100
AcDbLine
 62
7
  6
CONTINUOUS
 10
4.7741586426
 20
1.7599784087
 11
4.7748225629
 21
1.7574112196
  0
LINE
  5
284
100
AcDbEntity
  8
ALL_ASSEMBLY_MEMBERS
100
AcDbLine
 62
7
  6
CONTINUOUS
 10
4.9199320082
 20
1.7949390738
 11
4.919268088
 21
1.7975062629
  0
LINE
  5
285
100
AcDbEntity
  8
ALL_ASSEMBLY_MEMBERS
100
AcDbLine
 62
7
  6
CONTINUOUS
 10
4.8817402338
 20
1.9426157083
 11
4.8810763135
 21
1.9451828974
  0
LINE
  5
286
100
AcDbEntity
  8
ALL_ASSEMBLY_MEMBERS
100
AcDbLine
 62
7
  6
CONTINUOUS
 10
4.7406722163
 20
1.9146981796
 11
4.7411326705
 21
1.9120868137
  0
LINE
  5
287
100
AcDbEntity
  8
ALL_ASSEMBLY_MEMBERS
100
AcDbLine
 62
7
  6
CONTINUOUS
 10
4.767159683
 20
1.7644802908
 11
4.7676201373
 21
1.7618689249
  0
LINE
  5
288
100
AcDbEntity
  8
ALL_ASSEMBLY_MEMBERS
100
AcDbLine
 62
7
  6
CONTINUOUS
 10
4.9152266602
 20
1.7878959374
 11
4.9147662059
 21
1.7905073033
  0
LINE
  5
289
100
AcDbEntity
  8
ALL_ASSEMBLY_MEMBERS
100
AcDbLine
 62
7
  6
CONTINUOUS
 10
4.8887391934
 20
1.9381138262
 11
4.8882787391
 21
1.9407251921
  0
LINE
  5
28A
100
AcDbEntity
  8
ALL_ASSEMBLY_MEMBERS
100
AcDbLine
 62
7
  6
CONTINUOUS
 10
4.7459156574
 20
1.921350427
 11
4.7461698069
 21
1.9187109842
  0
LINE
  5
28B
100
AcDbEntity
  8
ALL_ASSEMBLY_MEMBERS
100
AcDbLine
 62
7
  6
CONTINUOUS
 10
4.7605355125
 20
1.7695174271
 11
4.7607896619
 21
1.7668779844
  0
LINE
  5
28C
100
AcDbEntity
  8
ALL_FEATURES
100
AcDbLine
 62
7
  6
CONTINUOUS
 10
4.5254494382
 20
6.5916469306
 11
4.5254494382
 21
6.5983810712
  0
LINE
  5
28D
100
AcDbEntity
  8
ALL_FEATURES
100
AcDbLine
 62
7
  6
CONTINUOUS
 10
4.5704494382
 20
6.2928662208
 11
4.5704494382
 21
6.3312224731
  0
LINE
  5
28E
100
AcDbEntity
  8
ALL_FEATURES
100
AcDbLine
 62
7
  6
CONTINUOUS
 10
4.5766994382
 20
6.5640044641
 11
4.5766994382
 21
6.6256485057
  0
LINE
  5
28F
100
AcDbEntity
  8
ALL_FEATURES
100
AcDbLine
 62
7
  6
CONTINUOUS
 10
4.5770503202
 20
6.2928662208
 11
4.5770503202
 21
6.3312224731
  0
LINE
  5
290
100
AcDbEntity
  8
ALL_FEATURES
100
AcDbLine
 62
7
  6
CONTINUOUS
 10
4.5854494382
 20
6.3879151687
 11
4.5854494382
 21
6.3579151687
  0
LINE
  5
291
100
AcDbEntity
  8
ALL_FEATURES
100
AcDbLine
 62
7
  6
CONTINUOUS
 10
4.5941994382
 20
6.564004465
 11
4.5941994382
 21
6.6256485057
  0
LINE
  5
292
100
AcDbEntity
  8
0
100
AcDbLine
 62
7
  6
CONTINUOUS
 10
4.6204494382
 20
6.486853995
 11
4.6204494382
 21
6.3904151687
  0
LINE
  5
293
100
AcDbEntity
  8
0
100
AcDbLine
 62
7
  6
CONTINUOUS
 10
4.6229494382
 20
2.1329649667
 11
4.6229494382
 21
2.2062970585
  0
LINE
  5
294
100
AcDbEntity
  8
0
100
AcDbLine
 62
7
  6
CONTINUOUS
 10
4.6404494382
 20
6.2548153136
 11
4.6404494382
 21
2.2062970585
  0
LINE
  5
295
100
AcDbEntity
  8
ALL_FEATURES
100
AcDbLine
 62
7
  6
CONTINUOUS
 10
4.6454494382
 20
6.5916469306
 11
4.6454494382
 21
6.5983810712
  0
LINE
  5
296
100
AcDbEntity
  8
ALL_FEATURES
100
AcDbLine
 62
7
  6
CONTINUOUS
 10
4.6523310448
 20
6.2928662208
 11
4.6523310448
 21
6.3312224731
  0
LINE
  5
297
100
AcDbEntity
  8
ALL_ASSEMBLY_MEMBERS
100
AcDbLine
 62
7
  6
CONTINUOUS
 10
4.909983219
 20
1.78124369
 11
4.9097290695
 21
1.7838831327
  0
LINE
  5
298
100
AcDbEntity
  8
ALL_ASSEMBLY_MEMBERS
100
AcDbLine
 62
7
  6
CONTINUOUS
 10
4.8953633639
 20
1.9330766898
 11
4.8951092145
 21
1.9357161326
  0
LINE
  5
299
100
AcDbEntity
  8
ALL_ASSEMBLY_MEMBERS
100
AcDbLine
 62
7
  6
CONTINUOUS
 10
4.7516648641
 20
1.9275707721
 11
4.7517111418
 21
1.9249195255
  0
LINE
  5
29A
100
AcDbEntity
  8
ALL_ASSEMBLY_MEMBERS
100
AcDbLine
 62
7
  6
CONTINUOUS
 10
4.7543269712
 20
1.7750587621
 11
4.7543732489
 21
1.7724075155
  0
LINE
  5
29B
100
AcDbEntity
  8
ALL_FEATURES
100
AcDbLine
 62
7
  6
CONTINUOUS
 10
4.7526687136
 20
6.2928662208
 11
4.7526687136
 21
6.3312224731
  0
LINE
  5
29C
100
AcDbEntity
  8
ALL_FEATURES
100
AcDbLine
 62
7
  6
CONTINUOUS
 10
5.2069825692
 20
6.6173401324
 11
5.223492073
 21
6.6873874301
  0
LINE
  5
29D
100
AcDbEntity
  8
ALL_ASSEMBLY_MEMBERS
100
AcDbLine
 62
7
  6
CONTINUOUS
 10
4.9042340123
 20
1.7750233449
 11
4.9041877346
 21
1.7776745915
  0
LINE
  5
29E
100
AcDbEntity
  8
ALL_ASSEMBLY_MEMBERS
100
AcDbLine
 62
7
  6
CONTINUOUS
 10
4.9015719052
 20
1.9275353549
 11
4.9015256275
 21
1.9301866014
  0
LINE
  5
29F
100
AcDbEntity
  8
ALL_FEATURES
100
AcDbLine
 62
7
  6
CONTINUOUS
 10
4.9032301628
 20
6.2928662208
 11
4.9032301628
 21
6.3312224731
  0
LINE
  5
2A0
100
AcDbEntity
  8
ALL_FEATURES
100
AcDbLine
 62
7
  6
CONTINUOUS
 10
5.0035678316
 20
6.2928662208
 11
5.0035678316
 21
6.3312224731
  0
LINE
  5
2A1
100
AcDbEntity
  8
ALL_FEATURES
100
AcDbLine
 62
7
  6
CONTINUOUS
 10
5.0104494382
 20
6.5916469306
 11
5.0104494382
 21
6.5983810712
  0
LINE
  5
2A2
100
AcDbEntity
  8
0
100
AcDbLine
 62
7
  6
CONTINUOUS
 10
5.0154494382
 20
6.2548153136
 11
5.0154494382
 21
2.2062970585
  0
LINE
  5
2A3
100
AcDbEntity
  8
0
100
AcDbLine
 62
7
  6
CONTINUOUS
 10
5.0329494382
 20
2.1329649667
 11
5.0329494382
 21
2.2062970585
  0
LINE
  5
2A4
100
AcDbEntity
  8
0
100
AcDbLine
 62
7
  6
CONTINUOUS
 10
5.0354494382
 20
6.4868570541
 11
5.0354494382
 21
6.3904151687
  0
LINE
  5
2A5
100
AcDbEntity
  8
ALL_ASSEMBLY_MEMBERS
100
AcDbLine
 62
7
  6
CONTINUOUS
 10
4.7578843906
 20
1.9333208644
 11
4.7577225112
 21
1.9306741598
  0
LINE
  5
2A6
100
AcDbEntity
  8
ALL_ASSEMBLY_MEMBERS
100
AcDbLine
 62
7
  6
CONTINUOUS
 10
4.7485723369
 20
1.7810701315
 11
4.7484104575
 21
1.778423427
  0
LINE
  5
2A7
100
AcDbEntity
  8
ALL_FEATURES
100
AcDbLine
 62
7
  6
CONTINUOUS
 10
4.4489163072
 20
6.6173401324
 11
4.4324068034
 21
6.6873874301
  0
LINE
  5
2A8
100
AcDbEntity
  8
ALL_FEATURES
100
AcDbLine
 62
7
  6
CONTINUOUS
 10
5.0616994382
 20
6.5640044641
 11
5.0616994382
 21
6.6256485057
  0
LINE
  5
2A9
100
AcDbEntity
  8
ALL_FEATURES
100
AcDbLine
 62
7
  6
CONTINUOUS
 10
5.0704494382
 20
6.3879151687
 11
5.0704494382
 21
6.3579151687
  0
LINE
  5
2AA
100
AcDbEntity
  8
ALL_FEATURES
100
AcDbLine
 62
7
  6
CONTINUOUS
 10
5.0788485562
 20
6.2928662208
 11
5.0788485562
 21
6.3312224731
  0
LINE
  5
2AB
100
AcDbEntity
  8
ALL_FEATURES
100
AcDbLine
 62
7
  6
CONTINUOUS
 10
5.0791994382
 20
6.564004465
 11
5.0791994382
 21
6.6256485057
  0
LINE
  5
2AC
100
AcDbEntity
  8
ALL_FEATURES
100
AcDbLine
 62
7
  6
CONTINUOUS
 10
5.0854494382
 20
6.2928662208
 11
5.0854494382
 21
6.3312224731
  0
LINE
  5
2AD
100
AcDbEntity
  8
ALL_FEATURES
100
AcDbLine
 62
7
  6
CONTINUOUS
 10
5.1304494382
 20
6.5916469306
 11
5.1304494382
 21
6.5983810712
  0
LINE
  5
2AE
100
AcDbEntity
  8
ALL_ASSEMBLY_MEMBERS
100
AcDbLine
 62
7
  6
CONTINUOUS
 10
4.8980144858
 20
1.7692732526
 11
4.8981763652
 21
1.7719199572
  0
LINE
  5
2AF
100
AcDbEntity
  8
ALL_ASSEMBLY_MEMBERS
100
AcDbLine
 62
7
  6
CONTINUOUS
 10
4.9073265395
 20
1.9215239855
 11
4.9074884189
 21
1.92417069
  0
LINE
  5
2B0
100
AcDbEntity
  8
ALL_ASSEMBLY_MEMBERS
100
AcDbLine
 62
7
  6
CONTINUOUS
 10
4.7645358914
 20
1.9385652526
 11
4.764166853
 21
1.9359394079
  0
LINE
  5
2B1
100
AcDbEntity
  8
ALL_ASSEMBLY_MEMBERS
100
AcDbLine
 62
7
  6
CONTINUOUS
 10
4.7433070888
 20
1.7875144733
 11
4.7429380504
 21
1.7848886285
  0
LWPOLYLINE
  5
2B2
100
AcDbEntity
  8
DEFAULT_SURFACES
100
AcDbPolyline
 62
7
  6
CONTINUOUS
 90
83
 70
0
 10
5.2026455387
 20
6.7600662689
 10
5.2024559966
 20
6.769766645
 10
5.2017651531
 20
6.789456581
 10
5.2007473013
 20
6.8090405753
 10
5.199382062
 20
6.8284473167
 10
5.197659878
 20
6.8475264507
 10
5.1955556386
 20
6.8663422016
 10
5.1930512062
 20
6.8848617123
 10
5.1901615976
 20
6.9028708594
 10
5.1868604354
 20
6.9204736104
 10
5.1831380888
 20
6.9376543959
 10
5.1790631786
 20
6.9541112002
 10
5.1746750554
 20
6.9697814284
 10
5.1699337236
 20
6.9848829711
 10
5.1647988894
 20
6.9995692497
 10
5.1593073861
 20
7.0137603119
 10
5.1533980739
 20
7.0276313794
 10
5.1468352727
 20
7.0416621089
 10
5.1394981614
 20
7.0559558598
 10
5.1313889426
 20
7.070357065
 10
5.1224048774
 20
7.0849109832
 10
5.1124093082
 20
7.0996891153
 10
5.1014151291
 20
7.1145277603
 10
5.0895605554
 20
7.1291448811
 10
5.0767919634
 20
7.1435363236
 10
5.0631257361
 20
7.1576152588
 10
5.0488674477
 20
7.1710394142
 10
5.0340603152
 20
7.1837709658
 10
5.0187195261
 20
7.1957897834
 10
5.003162897
 20
7.2068624215
 10
4.9874217157
 20
7.2170004524
 10
4.9715486101
 20
7.2261921601
 10
4.9559181356
 20
7.2342656386
 10
4.9407030531
 20
7.2412137314
 10
4.9257948763
 20
7.247161305
 10
4.9111482026
 20
7.2521817438
 10
4.896793986
 20
7.2563153634
 10
4.8827199659
 20
7.2596142304
 10
4.8688115695
 20
7.2621401698
 10
4.855086923
 20
7.2639156066
 10
4.8415302109
 20
7.2649678142
 10
4.8279727489
 20
7.2653200988
 10
4.8144156481
 20
7.2649702455
 10
4.800859755
 20
7.263920543
 10
4.7871359905
 20
7.2621477277
 10
4.7732286741
 20
7.2596245699
 10
4.7591557802
 20
7.2563286363
 10
4.7448019319
 20
7.252197888
 10
4.7301542872
 20
7.2471799336
 10
4.7152443994
 20
7.2412344896
 10
4.7000278018
 20
7.2342885065
 10
4.6843963877
 20
7.2262173964
 10
4.6685225191
 20
7.2170281733
 10
4.6527805176
 20
7.2068925882
 10
4.6372231227
 20
7.1958224732
 10
4.6218814785
 20
7.1838061999
 10
4.6070728149
 20
7.1710766534
 10
4.5928125333
 20
7.1576540488
 10
4.5791437225
 20
7.1435759926
 10
4.5663709811
 20
7.1291833866
 10
4.5545091946
 20
7.1145605865
 10
4.5435068119
 20
7.0997134795
 10
4.5335060341
 20
7.0849296161
 10
4.5245214818
 20
7.0703766567
 10
4.5164138655
 20
7.0559803255
 10
4.5090777608
 20
7.0416910126
 10
4.5025150482
 20
7.0276632981
 10
4.4966054445
 20
7.0137946568
 10
4.4911124336
 20
6.9996030534
 10
4.4859742806
 20
6.9849104963
 10
4.4812289714
 20
6.9697987794
 10
4.4768377987
 20
6.9541191661
 10
4.4727610474
 20
6.9376555161
 10
4.4690374912
 20
6.9204689037
 10
4.4657356918
 20
6.9028617232
 10
4.4628459785
 20
6.8848502508
 10
4.4603417632
 20
6.866330237
 10
4.4582378194
 20
6.8475147519
 10
4.4565159576
 20
6.8284366164
 10
4.4551510436
 20
6.8090318497
 10
4.4541334384
 20
6.7894499996
 10
4.4534427559
 20
6.7697620755
 10
4.4532533283
 20
6.7600662577
  0
LINE
  5
2B3
100
AcDbEntity
  8
ALL_ASSEMBLY_MEMBERS
100
AcDbLine
 62
7
  6
CONTINUOUS
 10
4.891362985
 20
1.7640288643
 11
4.8917320234
 21
1.7666547091
  0
LINE
  5
2B4
100
AcDbEntity
  8
ALL_ASSEMBLY_MEMBERS
100
AcDbLine
 62
7
  6
CONTINUOUS
 10
4.9125917876
 20
1.9150796437
 11
4.912960826
 21
1.9177054884
  0
LINE
  5
2B5
100
AcDbEntity
  8
ALL_ASSEMBLY_MEMBERS
100
AcDbLine
 62
7
  6
CONTINUOUS
 10
4.7715783578
 20
1.9432716034
 11
4.7710044356
 21
1.9406828077
  0
LINE
  5
2B6
100
AcDbEntity
  8
ALL_ASSEMBLY_MEMBERS
100
AcDbLine
 62
7
  6
CONTINUOUS
 10
4.738563689
 20
1.7943520559
 11
4.7379897668
 21
1.7917632602
  0
LINE
  5
2B7
100
AcDbEntity
  8
ALL_ASSEMBLY_MEMBERS
100
AcDbLine
 62
7
  6
CONTINUOUS
 10
4.8843205186
 20
1.7593225135
 11
4.8848944408
 21
1.7619113092
  0
LINE
  5
2B8
100
AcDbEntity
  8
ALL_ASSEMBLY_MEMBERS
100
AcDbLine
 62
7
  6
CONTINUOUS
 10
4.9173351874
 20
1.9082420611
 11
4.9179091096
 21
1.9108308568
  0
LINE
  5
2B9
100
AcDbEntity
  8
ALL_ASSEMBLY_MEMBERS
100
AcDbLine
 62
7
  6
CONTINUOUS
 10
4.7789683707
 20
1.9474109006
 11
4.7781931031
 21
1.9448751147
  0
LINE
  5
2BA
100
AcDbEntity
  8
ALL_ASSEMBLY_MEMBERS
100
AcDbLine
 62
7
  6
CONTINUOUS
 10
4.734371382
 20
1.8015407234
 11
4.7335961144
 21
1.7990049375
  0
LINE
  5
2BB
100
AcDbEntity
  8
ALL_ASSEMBLY_MEMBERS
100
AcDbLine
 62
7
  6
CONTINUOUS
 10
4.8769305057
 20
1.7551832164
 11
4.8777057733
 21
1.7577190023
  0
LINE
  5
2BC
100
AcDbEntity
  8
ALL_ASSEMBLY_MEMBERS
100
AcDbLine
 62
7
  6
CONTINUOUS
 10
4.9215274944
 20
1.9010533936
 11
4.922302762
 21
1.9035891795
  0
LINE
  5
2BD
100
AcDbEntity
  8
ALL_ASSEMBLY_MEMBERS
100
AcDbLine
 62
7
  6
CONTINUOUS
 10
4.7866603681
 20
1.950957624
 11
4.785688535
 21
1.9484904818
  0
LINE
  5
2BE
100
AcDbEntity
  8
ALL_ASSEMBLY_MEMBERS
100
AcDbLine
 62
7
  6
CONTINUOUS
 10
4.7307560148
 20
1.8090361552
 11
4.7297841817
 21
1.8065690131
  0
LINE
  5
2BF
100
AcDbEntity
  8
ALL_ASSEMBLY_MEMBERS
100
AcDbLine
 62
7
  6
CONTINUOUS
 10
4.8692385083
 20
1.751636493
 11
4.8702103414
 21
1.7541036351
  0
LINE
  5
2C0
100
AcDbEntity
  8
ALL_ASSEMBLY_MEMBERS
100
AcDbLine
 62
7
  6
CONTINUOUS
 10
4.9251428616
 20
1.8935579617
 11
4.9261146947
 21
1.8960251039
  0
LINE
  5
2C1
100
AcDbEntity
  8
ALL_ASSEMBLY_MEMBERS
100
AcDbLine
 62
7
  6
CONTINUOUS
 10
4.7946069264
 20
1.9538899068
 11
4.7934445193
 21
1.9515066192
  0
LINE
  5
2C2
100
AcDbEntity
  8
ALL_ASSEMBLY_MEMBERS
100
AcDbLine
 62
7
  6
CONTINUOUS
 10
4.7277398775
 20
1.8167921396
 11
4.7265774704
 21
1.814408852
  0
LINE
  5
2C3
100
AcDbEntity
  8
ALL_ASSEMBLY_MEMBERS
100
AcDbLine
 62
7
  6
CONTINUOUS
 10
4.86129195
 20
1.7487042101
 11
4.8624543571
 21
1.7510874978
  0
LINE
  5
2C4
100
AcDbEntity
  8
ALL_ASSEMBLY_MEMBERS
100
AcDbLine
 62
7
  6
CONTINUOUS
 10
4.9281589989
 20
1.8858019774
 11
4.929321406
 21
1.888185265
  0
LINE
  5
2C5
100
AcDbEntity
  8
ALL_ASSEMBLY_MEMBERS
100
AcDbLine
 62
7
  6
CONTINUOUS
 10
4.8027590523
 20
1.9561896706
 11
4.801413238
 21
1.9539049313
  0
LINE
  5
2C6
100
AcDbEntity
  8
ALL_ASSEMBLY_MEMBERS
100
AcDbLine
 62
7
  6
CONTINUOUS
 10
4.7253415654
 20
1.8247608583
 11
4.7239957511
 21
1.8224761189
  0
LINE
  5
2C7
100
AcDbEntity
  8
ALL_ASSEMBLY_MEMBERS
100
AcDbLine
 62
7
  6
CONTINUOUS
 10
4.8531398241
 20
1.7464044463
 11
4.8544856384
 21
1.7486891857
  0
LINE
  5
2C8
100
AcDbEntity
  8
ALL_ASSEMBLY_MEMBERS
100
AcDbLine
 62
7
  6
CONTINUOUS
 10
4.930557311
 20
1.8778332587
 11
4.9319031253
 21
1.880117998
  0
LINE
  5
2C9
100
AcDbEntity
  8
ALL_ASSEMBLY_MEMBERS
100
AcDbLine
 62
7
  6
CONTINUOUS
 10
4.8110664854
 20
1.9578427366
 11
4.8095455612
 21
1.9556706317
  0
LINE
  5
2CA
100
AcDbEntity
  8
ALL_ASSEMBLY_MEMBERS
100
AcDbLine
 62
7
  6
CONTINUOUS
 10
4.7235758649
 20
1.8328931814
 11
4.7220549407
 21
1.8307210766
  0
LINE
  5
2CB
100
AcDbEntity
  8
ALL_ASSEMBLY_MEMBERS
100
AcDbLine
 62
7
  6
CONTINUOUS
 10
4.844832391
 20
1.7447513804
 11
4.8463533152
 21
1.7469234852
  0
LINE
  5
2CC
100
AcDbEntity
  8
ALL_ASSEMBLY_MEMBERS
100
AcDbLine
 62
7
  6
CONTINUOUS
 10
4.9323230115
 20
1.8697009355
 11
4.9338439357
 21
1.8718730404
  0
LINE
  5
2CD
100
AcDbEntity
  8
ALL_ASSEMBLY_MEMBERS
100
AcDbLine
 62
7
  6
CONTINUOUS
 10
4.8194780074
 20
1.9588389131
 11
4.8177913504
 21
1.9567928344
  0
LINE
  5
2CE
100
AcDbEntity
  8
ALL_ASSEMBLY_MEMBERS
100
AcDbLine
 62
7
  6
CONTINUOUS
 10
4.7224536623
 20
1.8411389706
 11
4.7207670052
 21
1.839092892
  0
LINE
  5
2CF
100
AcDbEntity
  8
ALL_FEATURES
100
AcDbLine
 62
7
  6
CONTINUOUS
 10
4.6386540785
 20
6.6102274568
 11
4.6344577758
 21
6.6142269168
  0
LINE
  5
2D0
100
AcDbEntity
  8
0
100
AcDbLine
 62
7
  6
CONTINUOUS
 10
4.6391946355
 20
6.6107784153
 11
4.6391866924
 21
6.6107863078
  0
LINE
  5
2D1
100
AcDbEntity
  8
ALL_ASSEMBLY_MEMBERS
100
AcDbLine
 62
7
  6
CONTINUOUS
 10
4.836420869
 20
1.7437552039
 11
4.8381075261
 21
1.7458012826
  0
LINE
  5
2D2
100
AcDbEntity
  8
ALL_ASSEMBLY_MEMBERS
100
AcDbLine
 62
7
  6
CONTINUOUS
 10
4.9334452141
 20
1.8614551463
 11
4.9351318712
 21
1.863501225
  0
LINE
  5
2D3
100
AcDbEntity
  8
ALL_ASSEMBLY_MEMBERS
100
AcDbLine
 62
7
  6
CONTINUOUS
 10
4.8279417587
 20
1.9591720582
 11
4.8260997675
 21
1.9572646205
  0
LINE
  5
2D4
100
AcDbEntity
  8
ALL_ASSEMBLY_MEMBERS
100
AcDbLine
 62
7
  6
CONTINUOUS
 10
4.7219818762
 20
1.8494473878
 11
4.720139885
 21
1.8475399501
  0
LINE
  5
2D5
100
AcDbEntity
  8
ALL_ASSEMBLY_MEMBERS
100
AcDbLine
 62
7
  6
CONTINUOUS
 10
4.8279571177
 20
1.7434220588
 11
4.8297991089
 21
1.7453294964
  0
LINE
  5
2D6
100
AcDbEntity
  8
ALL_ASSEMBLY_MEMBERS
100
AcDbLine
 62
7
  6
CONTINUOUS
 10
4.9339170002
 20
1.8531467292
 11
4.9357589914
 21
1.8550541668
  0
LINE
  5
2D7
100
AcDbEntity
  8
ALL_ASSEMBLY_MEMBERS
100
AcDbLine
 62
7
  6
CONTINUOUS
 10
4.8364055573
 20
1.9588401181
 11
4.8344195885
 21
1.9570830814
  0
LINE
  5
2D8
100
AcDbEntity
  8
ALL_ASSEMBLY_MEMBERS
100
AcDbLine
 62
7
  6
CONTINUOUS
 10
4.7221634153
 20
1.8577672088
 11
4.7201774465
 21
1.8560101721
  0
LINE
  5
2D9
100
AcDbEntity
  8
ALL_ASSEMBLY_MEMBERS
100
AcDbLine
 62
7
  6
CONTINUOUS
 10
4.8448172211
 20
1.9578451393
 11
4.8426995189
 21
1.9562493362
  0
LINE
  5
2DA
100
AcDbEntity
  8
ALL_ASSEMBLY_MEMBERS
100
AcDbLine
 62
7
  6
CONTINUOUS
 10
4.7229971605
 20
1.8660471392
 11
4.7208794583
 21
1.8644513361
  0
LINE
  5
2DB
100
AcDbEntity
  8
ALL_FEATURES
100
AcDbLine
 62
7
  6
CONTINUOUS
 10
4.627868985
 20
6.2548153136
 11
5.0280298914
 21
6.2548153136
  0
LINE
  5
2DC
100
AcDbEntity
  8
ALL_FEATURES
100
AcDbLine
 62
7
  6
CONTINUOUS
 10
4.5864845854
 20
6.2655702365
 11
5.069414291
 21
6.2655702365
  0
LINE
  5
2DD
100
AcDbEntity
  8
ALL_FEATURES
100
AcDbLine
 62
7
  6
CONTINUOUS
 10
5.1252989977
 20
6.6086596984
 11
5.109407834
 21
6.6238054299
  0
LINE
  5
2DE
100
AcDbEntity
  8
ALL_ASSEMBLY_MEMBERS
100
AcDbLine
 62
7
  6
CONTINUOUS
 10
4.8194933191
 20
1.7437539989
 11
4.8214792879
 21
1.7455110356
  0
LINE
  5
2DF
100
AcDbEntity
  8
ALL_ASSEMBLY_MEMBERS
100
AcDbLine
 62
7
  6
CONTINUOUS
 10
4.9337354611
 20
1.8448269081
 11
4.9357214299
 21
1.8465839449
  0
LINE
  5
2E0
100
AcDbEntity
  8
ALL_ASSEMBLY_MEMBERS
100
AcDbLine
 62
7
  6
CONTINUOUS
 10
4.8110816553
 20
1.7447489777
 11
4.8131993575
 21
1.7463447807
  0
LINE
  5
2E1
100
AcDbEntity
  8
ALL_ASSEMBLY_MEMBERS
100
AcDbLine
 62
7
  6
CONTINUOUS
 10
4.9329017159
 20
1.8365469778
 11
4.9350194181
 21
1.8381427808
  0
LINE
  5
2E2
100
AcDbEntity
  8
ALL_ASSEMBLY_MEMBERS
100
AcDbLine
 62
7
  6
CONTINUOUS
 10
4.8531248894
 20
1.9561932561
 11
4.8508885102
 21
1.9547685254
  0
LINE
  5
2E3
100
AcDbEntity
  8
ALL_ASSEMBLY_MEMBERS
100
AcDbLine
 62
7
  6
CONTINUOUS
 10
4.7244779713
 20
1.8742361304
 11
4.722241592
 21
1.8728113997
  0
LINE
  5
2E4
100
AcDbEntity
  8
ALL_ASSEMBLY_MEMBERS
100
AcDbLine
 62
7
  6
CONTINUOUS
 10
4.8612773427
 20
1.953894653
 11
4.8589360744
 21
1.9526497785
  0
LINE
  5
2E5
100
AcDbEntity
  8
ALL_ASSEMBLY_MEMBERS
100
AcDbLine
 62
7
  6
CONTINUOUS
 10
4.7265967181
 20
1.8822836947
 11
4.7242554498
 21
1.8810388202
  0
LINE
  5
2E6
100
AcDbEntity
  8
ALL_FEATURES
100
AcDbLine
 62
7
  6
CONTINUOUS
 10
4.5704494382
 20
6.2928662208
 11
4.5770503202
 21
6.2928662208
  0
LINE
  5
2E7
100
AcDbEntity
  8
ALL_FEATURES
100
AcDbLine
 62
7
  6
CONTINUOUS
 10
4.6523310448
 20
6.2928662208
 11
4.7526687136
 21
6.2928662208
  0
LINE
  5
2E8
100
AcDbEntity
  8
ALL_FEATURES
100
AcDbLine
 62
7
  6
CONTINUOUS
 10
4.9032301628
 20
6.2928662208
 11
5.0035678316
 21
6.2928662208
  0
LINE
  5
2E9
100
AcDbEntity
  8
ALL_FEATURES
100
AcDbLine
 62
7
  6
CONTINUOUS
 10
5.0788485562
 20
6.2928662208
 11
5.0854494382
 21
6.2928662208
  0
LINE
  5
2EA
100
AcDbEntity
  8
ALL_FEATURES
100
AcDbLine
 62
7
  6
CONTINUOUS
 10
4.5704494382
 20
6.3312224731
 11
4.5770503202
 21
6.3312224731
  0
LINE
  5
2EB
100
AcDbEntity
  8
ALL_FEATURES
100
AcDbLine
 62
7
  6
CONTINUOUS
 10
4.6523310448
 20
6.3312224731
 11
4.7526687136
 21
6.3312224731
  0
LINE
  5
2EC
100
AcDbEntity
  8
ALL_FEATURES
100
AcDbLine
 62
7
  6
CONTINUOUS
 10
4.9032301628
 20
6.3312224731
 11
5.0035678316
 21
6.3312224731
  0
LINE
  5
2ED
100
AcDbEntity
  8
ALL_FEATURES
100
AcDbLine
 62
7
  6
CONTINUOUS
 10
5.0788485562
 20
6.3312224731
 11
5.0854494382
 21
6.3312224731
  0
LINE
  5
2EE
100
AcDbEntity
  8
ALL_FEATURES
100
AcDbLine
 62
7
  6
CONTINUOUS
 10
4.5854494382
 20
6.3579151687
 11
5.0704494382
 21
6.3579151687
  0
LINE
  5
2EF
100
AcDbEntity
  8
ALL_FEATURES
100
AcDbLine
 62
7
  6
CONTINUOUS
 10
4.5854494382
 20
6.3879151687
 11
5.0704494382
 21
6.3879151687
  0
LINE
  5
2F0
100
AcDbEntity
  8
0
100
AcDbLine
 62
7
  6
CONTINUOUS
 10
4.6204494382
 20
6.3904151687
 11
5.0354494382
 21
6.3904151687
  0
LINE
  5
2F1
100
AcDbEntity
  8
ALL_ASSEMBLY_MEMBERS
100
AcDbLine
 62
7
  6
CONTINUOUS
 10
4.802773987
 20
1.7464008608
 11
4.8050103663
 21
1.7478255916
  0
LINE
  5
2F2
100
AcDbEntity
  8
ALL_ASSEMBLY_MEMBERS
100
AcDbLine
 62
7
  6
CONTINUOUS
 10
4.9314209051
 20
1.8283579865
 11
4.9336572844
 21
1.8297827173
  0
LINE
  5
2F3
100
AcDbEntity
  8
ALL_ASSEMBLY_MEMBERS
100
AcDbLine
 62
7
  6
CONTINUOUS
 10
4.7946215337
 20
1.7486994639
 11
4.796962802
 21
1.7499443384
  0
LINE
  5
2F4
100
AcDbEntity
  8
ALL_ASSEMBLY_MEMBERS
100
AcDbLine
 62
7
  6
CONTINUOUS
 10
4.9293021583
 20
1.8203104223
 11
4.9316434266
 21
1.8215552968
  0
LINE
  5
2F5
100
AcDbEntity
  8
ALL_ASSEMBLY_MEMBERS
100
AcDbLine
 62
7
  6
CONTINUOUS
 10
4.8692243184
 20
1.9509635016
 11
4.8667925957
 21
1.9499061585
  0
LINE
  5
2F6
100
AcDbEntity
  8
ALL_ASSEMBLY_MEMBERS
100
AcDbLine
 62
7
  6
CONTINUOUS
 10
4.7293403382
 20
1.890140216
 11
4.7269086155
 21
1.8890828728
  0
LINE
  5
2F7
100
AcDbEntity
  8
ALL_ASSEMBLY_MEMBERS
100
AcDbLine
 62
7
  6
CONTINUOUS
 10
4.8769168207
 20
1.9474178735
 11
4.874409636
 21
1.9465545805
  0
LINE
  5
2F8
100
AcDbEntity
  8
ALL_ASSEMBLY_MEMBERS
100
AcDbLine
 62
7
  6
CONTINUOUS
 10
4.7326919162
 20
1.8977572563
 11
4.7301847314
 21
1.8968939634
  0
LINE
  5
2F9
100
AcDbEntity
  8
ALL_FEATURES
100
AcDbLine
 62
7
  6
CONTINUOUS
 10
5.0911289384
 20
6.7103160006
 11
5.0908319459
 21
6.7104553952
  0
LINE
  5
2FA
100
AcDbEntity
  8
ALL_FEATURES
100
AcDbLine
 62
7
  6
CONTINUOUS
 10
5.1002324681
 20
6.705842787
 11
5.0996721098
 21
6.7061177412
  0
LINE
  5
2FB
100
AcDbEntity
  8
ALL_FEATURES
100
AcDbLine
 62
7
  6
CONTINUOUS
 10
5.0911216659
 20
6.7103132366
 11
5.0908319459
 21
6.7104553952
  0
LINE
  5
2FC
100
AcDbEntity
  8
ALL_FEATURES
100
AcDbLine
 62
7
  6
CONTINUOUS
 10
5.1002579111
 20
6.7058517152
 11
5.0997086061
 21
6.7061306115
  0
LINE
  5
2FD
100
AcDbEntity
  8
ALL_ASSEMBLY_MEMBERS
100
AcDbLine
 62
7
  6
CONTINUOUS
 10
4.786674558
 20
1.7516306153
 11
4.7891062807
 21
1.7526879585
  0
LINE
  5
2FE
100
AcDbEntity
  8
ALL_ASSEMBLY_MEMBERS
100
AcDbLine
 62
7
  6
CONTINUOUS
 10
4.9265585382
 20
1.812453901
 11
4.9289902609
 21
1.8135112441
  0
LINE
  5
2FF
100
AcDbEntity
  8
ALL_ASSEMBLY_MEMBERS
100
AcDbLine
 62
7
  6
CONTINUOUS
 10
4.7789820557
 20
1.7551762435
 11
4.7814892404
 21
1.7560395364
  0
LINE
  5
300
100
AcDbEntity
  8
ALL_ASSEMBLY_MEMBERS
100
AcDbLine
 62
7
  6
CONTINUOUS
 10
4.9232069602
 20
1.8048368607
 11
4.925714145
 21
1.8057001536
  0
LINE
  5
301
100
AcDbEntity
  8
0
100
AcDbLine
 62
7
  6
CONTINUOUS
 10
5.0556034361
 20
6.8417493815
 11
5.0550206658
 21
6.8419211223
  0
LINE
  5
302
100
AcDbEntity
  8
0
100
AcDbLine
 62
7
  6
CONTINUOUS
 10
5.0555978962
 20
6.8417460304
 11
5.0550206658
 21
6.8419211223
  0
LINE
  5
303
100
AcDbEntity
  8
ALL_FEATURES
100
AcDbLine
 62
7
  6
CONTINUOUS
 10
5.0363333422
 20
6.7312047456
 11
5.0360125754
 21
6.7313033678
  0
LINE
  5
304
100
AcDbEntity
  8
ALL_FEATURES
100
AcDbLine
 62
7
  6
CONTINUOUS
 10
5.0363289884
 20
6.7312022194
 11
5.0360126545
 21
6.7313034137
  0
LINE
  5
305
100
AcDbEntity
  8
ALL_FEATURES
100
AcDbLine
 62
7
  6
CONTINUOUS
 10
5.0875261076
 20
6.7511081946
 11
5.0870899591
 21
6.7512727618
  0
LINE
  5
306
100
AcDbEntity
  8
ALL_FEATURES
100
AcDbLine
 62
7
  6
CONTINUOUS
 10
5.0875259574
 20
6.7511081263
 11
5.0870978361
 21
6.7512763478
  0
CIRCLE
  5
307
100
AcDbEntity
  8
ALL_ASSEMBLY_MEMBERS
100
AcDbCircle
 62
7
  6
CONTINUOUS
 10
4.8279494382
 20
1.8512970585
 40
0.3484485708
  0
CIRCLE
  5
308
100
AcDbEntity
  8
ALL_ASSEMBLY_MEMBERS
100
AcDbCircle
 62
7
  6
CONTINUOUS
 10
4.8279494382
 20
1.8512970585
 40
0.3365188542
  0
CIRCLE
  5
309
100
AcDbEntity
  8
ALL_ASSEMBLY_MEMBERS
100
AcDbCircle
 62
7
  6
CONTINUOUS
 10
4.8279494382
 20
1.8512970585
 40
0.2368764881
  0
CIRCLE
  5
30A
100
AcDbEntity
  8
ALL_ASSEMBLY_MEMBERS
100
AcDbCircle
 62
7
  6
CONTINUOUS
 10
4.8279494382
 20
1.8512970585
 40
0.23625
  0
ARC
  5
30B
100
AcDbEntity
  8
ALL_ASSEMBLY_MEMBERS
100
AcDbCircle
 62
7
  6
CONTINUOUS
 10
4.8279494382
 20
1.8512970585
 40
0.107875
100
AcDbArc
 50
357.4959211729
 51
0.0040788271
  0
ARC
  5
30C
100
AcDbEntity
  8
ALL_ASSEMBLY_MEMBERS
100
AcDbCircle
 62
7
  6
CONTINUOUS
 10
4.8279494382
 20
1.8512970585
 40
0.107875
100
AcDbArc
 50
352.9959211729
 51
355.5040788271
  0
ARC
  5
30D
100
AcDbEntity
  8
ALL_ASSEMBLY_MEMBERS
100
AcDbCircle
 62
7
  6
CONTINUOUS
 10
4.8279494382
 20
1.8512970585
 40
0.107875
100
AcDbArc
 50
348.4959211729
 51
351.0040788271
  0
ARC
  5
30E
100
AcDbEntity
  8
ALL_ASSEMBLY_MEMBERS
100
AcDbCircle
 62
7
  6
CONTINUOUS
 10
4.8279494382
 20
1.8512970585
 40
0.107875
100
AcDbArc
 50
343.9959211729
 51
346.5040788271
  0
ARC
  5
30F
100
AcDbEntity
  8
ALL_ASSEMBLY_MEMBERS
100
AcDbCircle
 62
7
  6
CONTINUOUS
 10
4.8279494382
 20
1.8512970585
 40
0.107875
100
AcDbArc
 50
339.4959211729
 51
342.0040788271
  0
ARC
  5
310
100
AcDbEntity
  8
ALL_ASSEMBLY_MEMBERS
100
AcDbCircle
 62
7
  6
CONTINUOUS
 10
4.8279494382
 20
1.8512970585
 40
0.107875
100
AcDbArc
 50
334.9959211729
 51
337.5040788271
  0
ARC
  5
311
100
AcDbEntity
  8
ALL_ASSEMBLY_MEMBERS
100
AcDbCircle
 62
7
  6
CONTINUOUS
 10
4.8279494382
 20
1.8512970585
 40
0.107875
100
AcDbArc
 50
330.4959211729
 51
333.0040788271
  0
ARC
  5
312
100
AcDbEntity
  8
ALL_ASSEMBLY_MEMBERS
100
AcDbCircle
 62
7
  6
CONTINUOUS
 10
4.8279494382
 20
1.8512970585
 40
0.107875
100
AcDbArc
 50
325.9959211729
 51
328.5040788271
  0
ARC
  5
313
100
AcDbEntity
  8
ALL_ASSEMBLY_MEMBERS
100
AcDbCircle
 62
7
  6
CONTINUOUS
 10
4.8279494382
 20
1.8512970585
 40
0.107875
100
AcDbArc
 50
321.4959211729
 51
324.0040788271
  0
ARC
  5
314
100
AcDbEntity
  8
ALL_ASSEMBLY_MEMBERS
100
AcDbCircle
 62
7
  6
CONTINUOUS
 10
4.8279494382
 20
1.8512970585
 40
0.107875
100
AcDbArc
 50
316.9959211729
 51
319.5040788271
  0
ARC
  5
315
100
AcDbEntity
  8
ALL_ASSEMBLY_MEMBERS
100
AcDbCircle
 62
7
  6
CONTINUOUS
 10
4.8279494382
 20
1.8512970585
 40
0.107875
100
AcDbArc
 50
312.4959211729
 51
315.0040788271
  0
ARC
  5
316
100
AcDbEntity
  8
ALL_ASSEMBLY_MEMBERS
100
AcDbCircle
 62
7
  6
CONTINUOUS
 10
4.8279494382
 20
1.8512970585
 40
0.107875
100
AcDbArc
 50
307.9959211729
 51
310.5040788271
  0
ARC
  5
317
100
AcDbEntity
  8
ALL_ASSEMBLY_MEMBERS
100
AcDbCircle
 62
7
  6
CONTINUOUS
 10
4.8279494382
 20
1.8512970585
 40
0.107875
100
AcDbArc
 50
303.4959211729
 51
306.0040788271
  0
ARC
  5
318
100
AcDbEntity
  8
ALL_ASSEMBLY_MEMBERS
100
AcDbCircle
 62
7
  6
CONTINUOUS
 10
4.8279494382
 20
1.8512970585
 40
0.107875
100
AcDbArc
 50
298.9959211729
 51
301.5040788271
  0
ARC
  5
319
100
AcDbEntity
  8
ALL_ASSEMBLY_MEMBERS
100
AcDbCircle
 62
7
  6
CONTINUOUS
 10
4.8279494382
 20
1.8512970585
 40
0.107875
100
AcDbArc
 50
294.4959211729
 51
297.0040788271
  0
ARC
  5
31A
100
AcDbEntity
  8
ALL_ASSEMBLY_MEMBERS
100
AcDbCircle
 62
7
  6
CONTINUOUS
 10
4.8279494382
 20
1.8512970585
 40
0.107875
100
AcDbArc
 50
289.9959211729
 51
292.5040788271
  0
ARC
  5
31B
100
AcDbEntity
  8
ALL_ASSEMBLY_MEMBERS
100
AcDbCircle
 62
7
  6
CONTINUOUS
 10
4.8279494382
 20
1.8512970585
 40
0.107875
100
AcDbArc
 50
285.4959211729
 51
288.0040788271
  0
ARC
  5
31C
100
AcDbEntity
  8
ALL_ASSEMBLY_MEMBERS
100
AcDbCircle
 62
7
  6
CONTINUOUS
 10
4.8279494382
 20
1.8512970585
 40
0.107875
100
AcDbArc
 50
280.9959211729
 51
283.5040788271
  0
ARC
  5
31D
100
AcDbEntity
  8
ALL_ASSEMBLY_MEMBERS
100
AcDbCircle
 62
7
  6
CONTINUOUS
 10
4.8279494382
 20
1.8512970585
 40
0.107875
100
AcDbArc
 50
276.4959211729
 51
279.0040788271
  0
ARC
  5
31E
100
AcDbEntity
  8
ALL_ASSEMBLY_MEMBERS
100
AcDbCircle
 62
7
  6
CONTINUOUS
 10
4.8279494382
 20
1.8512970585
 40
0.107875
100
AcDbArc
 50
271.9959211729
 51
274.5040788271
  0
ARC
  5
31F
100
AcDbEntity
  8
ALL_ASSEMBLY_MEMBERS
100
AcDbCircle
 62
7
  6
CONTINUOUS
 10
4.8279494382
 20
1.8512970585
 40
0.107875
100
AcDbArc
 50
267.4959211729
 51
270.0040788271
  0
ARC
  5
320
100
AcDbEntity
  8
ALL_ASSEMBLY_MEMBERS
100
AcDbCircle
 62
7
  6
CONTINUOUS
 10
4.8279494382
 20
1.8512970585
 40
0.107875
100
AcDbArc
 50
262.9959211729
 51
265.5040788271
  0
ARC
  5
321
100
AcDbEntity
  8
ALL_ASSEMBLY_MEMBERS
100
AcDbCircle
 62
7
  6
CONTINUOUS
 10
4.8279494382
 20
1.8512970585
 40
0.107875
100
AcDbArc
 50
258.4959211729
 51
261.0040788271
  0
ARC
  5
322
100
AcDbEntity
  8
ALL_ASSEMBLY_MEMBERS
100
AcDbCircle
 62
7
  6
CONTINUOUS
 10
4.8279494382
 20
1.8512970585
 40
0.107875
100
AcDbArc
 50
253.9959211729
 51
256.5040788271
  0
ARC
  5
323
100
AcDbEntity
  8
ALL_ASSEMBLY_MEMBERS
100
AcDbCircle
 62
7
  6
CONTINUOUS
 10
4.8279494382
 20
1.8512970585
 40
0.107875
100
AcDbArc
 50
249.4959211729
 51
252.0040788271
  0
ARC
  5
324
100
AcDbEntity
  8
ALL_ASSEMBLY_MEMBERS
100
AcDbCircle
 62
7
  6
CONTINUOUS
 10
4.8279494382
 20
1.8512970585
 40
0.107875
100
AcDbArc
 50
244.9959211729
 51
247.5040788271
  0
ARC
  5
325
100
AcDbEntity
  8
ALL_ASSEMBLY_MEMBERS
100
AcDbCircle
 62
7
  6
CONTINUOUS
 10
4.8279494382
 20
1.8512970585
 40
0.107875
100
AcDbArc
 50
240.4959211729
 51
243.0040788271
  0
ARC
  5
326
100
AcDbEntity
  8
ALL_ASSEMBLY_MEMBERS
100
AcDbCircle
 62
7
  6
CONTINUOUS
 10
4.8279494382
 20
1.8512970585
 40
0.107875
100
AcDbArc
 50
235.9959211729
 51
238.5040788271
  0
ARC
  5
327
100
AcDbEntity
  8
ALL_ASSEMBLY_MEMBERS
100
AcDbCircle
 62
7
  6
CONTINUOUS
 10
4.8279494382
 20
1.8512970585
 40
0.107875
100
AcDbArc
 50
231.4959211729
 51
234.0040788271
  0
ARC
  5
328
100
AcDbEntity
  8
ALL_ASSEMBLY_MEMBERS
100
AcDbCircle
 62
7
  6
CONTINUOUS
 10
4.8279494382
 20
1.8512970585
 40
0.107875
100
AcDbArc
 50
226.9959211729
 51
229.5040788271
  0
ARC
  5
329
100
AcDbEntity
  8
ALL_ASSEMBLY_MEMBERS
100
AcDbCircle
 62
7
  6
CONTINUOUS
 10
4.8279494382
 20
1.8512970585
 40
0.107875
100
AcDbArc
 50
222.4959211729
 51
225.0040788271
  0
ARC
  5
32A
100
AcDbEntity
  8
ALL_ASSEMBLY_MEMBERS
100
AcDbCircle
 62
7
  6
CONTINUOUS
 10
4.8279494382
 20
1.8512970585
 40
0.107875
100
AcDbArc
 50
217.9959211729
 51
220.5040788271
  0
ARC
  5
32B
100
AcDbEntity
  8
ALL_ASSEMBLY_MEMBERS
100
AcDbCircle
 62
7
  6
CONTINUOUS
 10
4.8279494382
 20
1.8512970585
 40
0.107875
100
AcDbArc
 50
213.4959211729
 51
216.0040788271
  0
ARC
  5
32C
100
AcDbEntity
  8
ALL_ASSEMBLY_MEMBERS
100
AcDbCircle
 62
7
  6
CONTINUOUS
 10
4.8279494382
 20
1.8512970585
 40
0.107875
100
AcDbArc
 50
208.9959211729
 51
211.5040788271
  0
ARC
  5
32D
100
AcDbEntity
  8
ALL_ASSEMBLY_MEMBERS
100
AcDbCircle
 62
7
  6
CONTINUOUS
 10
4.8279494382
 20
1.8512970585
 40
0.107875
100
AcDbArc
 50
204.4959211729
 51
207.0040788271
  0
ARC
  5
32E
100
AcDbEntity
  8
ALL_ASSEMBLY_MEMBERS
100
AcDbCircle
 62
7
  6
CONTINUOUS
 10
4.8279494382
 20
1.8512970585
 40
0.107875
100
AcDbArc
 50
199.9959211729
 51
202.5040788271
  0
ARC
  5
32F
100
AcDbEntity
  8
ALL_ASSEMBLY_MEMBERS
100
AcDbCircle
 62
7
  6
CONTINUOUS
 10
4.8279494382
 20
1.8512970585
 40
0.107875
100
AcDbArc
 50
195.4959211729
 51
198.0040788271
  0
ARC
  5
330
100
AcDbEntity
  8
ALL_ASSEMBLY_MEMBERS
100
AcDbCircle
 62
7
  6
CONTINUOUS
 10
4.8279494382
 20
1.8512970585
 40
0.107875
100
AcDbArc
 50
190.9959211729
 51
193.5040788271
  0
ARC
  5
331
100
AcDbEntity
  8
ALL_ASSEMBLY_MEMBERS
100
AcDbCircle
 62
7
  6
CONTINUOUS
 10
4.8279494382
 20
1.8512970585
 40
0.107875
100
AcDbArc
 50
186.4959211729
 51
189.0040788271
  0
ARC
  5
332
100
AcDbEntity
  8
ALL_ASSEMBLY_MEMBERS
100
AcDbCircle
 62
7
  6
CONTINUOUS
 10
4.8279494382
 20
1.8512970585
 40
0.107875
100
AcDbArc
 50
181.9959211729
 51
184.5040788271
  0
ARC
  5
333
100
AcDbEntity
  8
ALL_ASSEMBLY_MEMBERS
100
AcDbCircle
 62
7
  6
CONTINUOUS
 10
4.8279494382
 20
1.8512970585
 40
0.107875
100
AcDbArc
 50
96.4959211729
 51
99.0040788271
  0
ARC
  5
334
100
AcDbEntity
  8
ALL_ASSEMBLY_MEMBERS
100
AcDbCircle
 62
7
  6
CONTINUOUS
 10
4.8279494382
 20
1.8512970585
 40
0.107875
100
AcDbArc
 50
100.9959211729
 51
103.5040788271
  0
ARC
  5
335
100
AcDbEntity
  8
ALL_ASSEMBLY_MEMBERS
100
AcDbCircle
 62
7
  6
CONTINUOUS
 10
4.8279494382
 20
1.8512970585
 40
0.107875
100
AcDbArc
 50
105.4959211729
 51
108.0040788271
  0
ARC
  5
336
100
AcDbEntity
  8
ALL_ASSEMBLY_MEMBERS
100
AcDbCircle
 62
7
  6
CONTINUOUS
 10
4.8279494382
 20
1.8512970585
 40
0.107875
100
AcDbArc
 50
109.9959211729
 51
112.5040788271
  0
ARC
  5
337
100
AcDbEntity
  8
ALL_ASSEMBLY_MEMBERS
100
AcDbCircle
 62
7
  6
CONTINUOUS
 10
4.8279494382
 20
1.8512970585
 40
0.107875
100
AcDbArc
 50
114.4959211729
 51
117.0040788271
  0
ARC
  5
338
100
AcDbEntity
  8
ALL_ASSEMBLY_MEMBERS
100
AcDbCircle
 62
7
  6
CONTINUOUS
 10
4.8279494382
 20
1.8512970585
 40
0.107875
100
AcDbArc
 50
118.9959211729
 51
121.5040788271
  0
ARC
  5
339
100
AcDbEntity
  8
ALL_ASSEMBLY_MEMBERS
100
AcDbCircle
 62
7
  6
CONTINUOUS
 10
4.8279494382
 20
1.8512970585
 40
0.107875
100
AcDbArc
 50
123.4959211729
 51
126.0040788271
  0
ARC
  5
33A
100
AcDbEntity
  8
ALL_ASSEMBLY_MEMBERS
100
AcDbCircle
 62
7
  6
CONTINUOUS
 10
4.8279494382
 20
1.8512970585
 40
0.107875
100
AcDbArc
 50
127.9959211729
 51
130.5040788271
  0
ARC
  5
33B
100
AcDbEntity
  8
ALL_ASSEMBLY_MEMBERS
100
AcDbCircle
 62
7
  6
CONTINUOUS
 10
4.8279494382
 20
1.8512970585
 40
0.107875
100
AcDbArc
 50
132.4959211729
 51
135.0040788271
  0
ARC
  5
33C
100
AcDbEntity
  8
ALL_ASSEMBLY_MEMBERS
100
AcDbCircle
 62
7
  6
CONTINUOUS
 10
4.8279494382
 20
1.8512970585
 40
0.107875
100
AcDbArc
 50
136.9959211729
 51
139.5040788271
  0
ARC
  5
33D
100
AcDbEntity
  8
ALL_ASSEMBLY_MEMBERS
100
AcDbCircle
 62
7
  6
CONTINUOUS
 10
4.8279494382
 20
1.8512970585
 40
0.107875
100
AcDbArc
 50
141.4959211729
 51
144.0040788271
  0
ARC
  5
33E
100
AcDbEntity
  8
ALL_ASSEMBLY_MEMBERS
100
AcDbCircle
 62
7
  6
CONTINUOUS
 10
4.8279494382
 20
1.8512970585
 40
0.107875
100
AcDbArc
 50
145.9959211729
 51
148.5040788271
  0
ARC
  5
33F
100
AcDbEntity
  8
ALL_ASSEMBLY_MEMBERS
100
AcDbCircle
 62
7
  6
CONTINUOUS
 10
4.8279494382
 20
1.8512970585
 40
0.107875
100
AcDbArc
 50
150.4959211729
 51
153.0040788271
  0
ARC
  5
340
100
AcDbEntity
  8
ALL_ASSEMBLY_MEMBERS
100
AcDbCircle
 62
7
  6
CONTINUOUS
 10
4.8279494382
 20
1.8512970585
 40
0.107875
100
AcDbArc
 50
154.9959211729
 51
157.5040788271
  0
ARC
  5
341
100
AcDbEntity
  8
ALL_ASSEMBLY_MEMBERS
100
AcDbCircle
 62
7
  6
CONTINUOUS
 10
4.8279494382
 20
1.8512970585
 40
0.107875
100
AcDbArc
 50
159.4959211729
 51
162.0040788271
  0
ARC
  5
342
100
AcDbEntity
  8
ALL_ASSEMBLY_MEMBERS
100
AcDbCircle
 62
7
  6
CONTINUOUS
 10
4.8279494382
 20
1.8512970585
 40
0.107875
100
AcDbArc
 50
163.9959211729
 51
166.5040788271
  0
ARC
  5
343
100
AcDbEntity
  8
ALL_ASSEMBLY_MEMBERS
100
AcDbCircle
 62
7
  6
CONTINUOUS
 10
4.8279494382
 20
1.8512970585
 40
0.107875
100
AcDbArc
 50
168.4959211729
 51
171.0040788271
  0
ARC
  5
344
100
AcDbEntity
  8
ALL_ASSEMBLY_MEMBERS
100
AcDbCircle
 62
7
  6
CONTINUOUS
 10
4.8279494382
 20
1.8512970585
 40
0.107875
100
AcDbArc
 50
172.9959211729
 51
175.5040788271
  0
ARC
  5
345
100
AcDbEntity
  8
ALL_ASSEMBLY_MEMBERS
100
AcDbCircle
 62
7
  6
CONTINUOUS
 10
4.8279494382
 20
1.8512970585
 40
0.107875
100
AcDbArc
 50
177.4959211729
 51
180.0040788271
  0
ARC
  5
346
100
AcDbEntity
  8
ALL_ASSEMBLY_MEMBERS
100
AcDbCircle
 62
7
  6
CONTINUOUS
 10
4.8279494382
 20
1.8512970585
 40
0.107875
100
AcDbArc
 50
1.9959211729
 51
4.5040788271
  0
ARC
  5
347
100
AcDbEntity
  8
ALL_ASSEMBLY_MEMBERS
100
AcDbCircle
 62
7
  6
CONTINUOUS
 10
4.8279494382
 20
1.8512970585
 40
0.107875
100
AcDbArc
 50
6.4959211729
 51
9.0040788271
  0
ARC
  5
348
100
AcDbEntity
  8
ALL_ASSEMBLY_MEMBERS
100
AcDbCircle
 62
7
  6
CONTINUOUS
 10
4.8279494382
 20
1.8512970585
 40
0.107875
100
AcDbArc
 50
10.9959211729
 51
13.5040788271
  0
ARC
  5
349
100
AcDbEntity
  8
ALL_ASSEMBLY_MEMBERS
100
AcDbCircle
 62
7
  6
CONTINUOUS
 10
4.8279494382
 20
1.8512970585
 40
0.107875
100
AcDbArc
 50
15.4959211729
 51
18.0040788271
  0
ARC
  5
34A
100
AcDbEntity
  8
ALL_ASSEMBLY_MEMBERS
100
AcDbCircle
 62
7
  6
CONTINUOUS
 10
4.8279494382
 20
1.8512970585
 40
0.107875
100
AcDbArc
 50
19.9959211729
 51
22.5040788271
  0
ARC
  5
34B
100
AcDbEntity
  8
ALL_ASSEMBLY_MEMBERS
100
AcDbCircle
 62
7
  6
CONTINUOUS
 10
4.8279494382
 20
1.8512970585
 40
0.107875
100
AcDbArc
 50
24.4959211729
 51
27.0040788271
  0
ARC
  5
34C
100
AcDbEntity
  8
ALL_ASSEMBLY_MEMBERS
100
AcDbCircle
 62
7
  6
CONTINUOUS
 10
4.8279494382
 20
1.8512970585
 40
0.107875
100
AcDbArc
 50
28.9959211729
 51
31.5040788271
  0
ARC
  5
34D
100
AcDbEntity
  8
ALL_ASSEMBLY_MEMBERS
100
AcDbCircle
 62
7
  6
CONTINUOUS
 10
4.8279494382
 20
1.8512970585
 40
0.107875
100
AcDbArc
 50
33.4959211729
 51
36.0040788271
  0
ARC
  5
34E
100
AcDbEntity
  8
ALL_ASSEMBLY_MEMBERS
100
AcDbCircle
 62
7
  6
CONTINUOUS
 10
4.8279494382
 20
1.8512970585
 40
0.107875
100
AcDbArc
 50
37.9959211729
 51
40.5040788271
  0
ARC
  5
34F
100
AcDbEntity
  8
ALL_ASSEMBLY_MEMBERS
100
AcDbCircle
 62
7
  6
CONTINUOUS
 10
4.8279494382
 20
1.8512970585
 40
0.107875
100
AcDbArc
 50
42.4959211729
 51
45.0040788271
  0
ARC
  5
350
100
AcDbEntity
  8
ALL_ASSEMBLY_MEMBERS
100
AcDbCircle
 62
7
  6
CONTINUOUS
 10
4.8279494382
 20
1.8512970585
 40
0.107875
100
AcDbArc
 50
46.9959211729
 51
49.5040788271
  0
ARC
  5
351
100
AcDbEntity
  8
ALL_ASSEMBLY_MEMBERS
100
AcDbCircle
 62
7
  6
CONTINUOUS
 10
4.8279494382
 20
1.8512970585
 40
0.107875
100
AcDbArc
 50
51.4959211729
 51
54.0040788271
  0
ARC
  5
352
100
AcDbEntity
  8
ALL_ASSEMBLY_MEMBERS
100
AcDbCircle
 62
7
  6
CONTINUOUS
 10
4.8279494382
 20
1.8512970585
 40
0.107875
100
AcDbArc
 50
55.9959211729
 51
58.5040788271
  0
ARC
  5
353
100
AcDbEntity
  8
ALL_ASSEMBLY_MEMBERS
100
AcDbCircle
 62
7
  6
CONTINUOUS
 10
4.8279494382
 20
1.8512970585
 40
0.107875
100
AcDbArc
 50
60.4959211729
 51
63.0040788271
  0
ARC
  5
354
100
AcDbEntity
  8
ALL_ASSEMBLY_MEMBERS
100
AcDbCircle
 62
7
  6
CONTINUOUS
 10
4.8279494382
 20
1.8512970585
 40
0.107875
100
AcDbArc
 50
64.9959211729
 51
67.5040788271
  0
ARC
  5
355
100
AcDbEntity
  8
ALL_ASSEMBLY_MEMBERS
100
AcDbCircle
 62
7
  6
CONTINUOUS
 10
4.8279494382
 20
1.8512970585
 40
0.107875
100
AcDbArc
 50
69.4959211729
 51
72.0040788271
  0
ARC
  5
356
100
AcDbEntity
  8
ALL_ASSEMBLY_MEMBERS
100
AcDbCircle
 62
7
  6
CONTINUOUS
 10
4.8279494382
 20
1.8512970585
 40
0.107875
100
AcDbArc
 50
73.9959211729
 51
76.5040788271
  0
ARC
  5
357
100
AcDbEntity
  8
ALL_ASSEMBLY_MEMBERS
100
AcDbCircle
 62
7
  6
CONTINUOUS
 10
4.8279494382
 20
1.8512970585
 40
0.107875
100
AcDbArc
 50
78.4959211729
 51
81.0040788271
  0
ARC
  5
358
100
AcDbEntity
  8
ALL_ASSEMBLY_MEMBERS
100
AcDbCircle
 62
7
  6
CONTINUOUS
 10
4.8279494382
 20
1.8512970585
 40
0.107875
100
AcDbArc
 50
82.9959211729
 51
85.5040788271
  0
ARC
  5
359
100
AcDbEntity
  8
ALL_ASSEMBLY_MEMBERS
100
AcDbCircle
 62
7
  6
CONTINUOUS
 10
4.8279494382
 20
1.8512970585
 40
0.107875
100
AcDbArc
 50
87.4959211729
 51
90.0040788271
  0
ARC
  5
35A
100
AcDbEntity
  8
ALL_ASSEMBLY_MEMBERS
100
AcDbCircle
 62
7
  6
CONTINUOUS
 10
4.8279494382
 20
1.8512970585
 40
0.107875
100
AcDbArc
 50
91.9959211729
 51
94.5040788271
  0
ARC
  5
35B
100
AcDbEntity
  8
ALL_FEATURES
100
AcDbCircle
 62
7
  6
CONTINUOUS
 10
4.7674099673
 20
6.2508802238
 40
0.5025630578
100
AcDbArc
 50
107.1086042579
 51
107.5206924929
  0
ARC
  5
35C
100
AcDbEntity
  8
ALL_FEATURES
100
AcDbCircle
 62
7
  6
CONTINUOUS
 10
4.761668351
 20
6.2689829654
 40
0.4835715935
100
AcDbArc
 50
107.5689056153
 51
108.7248066198
  0
ARC
  5
35D
100
AcDbEntity
  8
ALL_FEATURES
100
AcDbCircle
 62
7
  6
CONTINUOUS
 10
4.7359312463
 20
6.3406590935
 40
0.4074041353
100
AcDbArc
 50
111.3620828709
 51
111.662867902
  0
ARC
  5
35E
100
AcDbEntity
  8
ALL_FEATURES
100
AcDbCircle
 62
7
  6
CONTINUOUS
 10
4.8279494382
 20
6.8084151687
 40
0.375
100
AcDbArc
 50
356.0586736437
 51
15.76303093
  0
ARC
  5
35F
100
AcDbEntity
  8
ALL_FEATURES
100
AcDbCircle
 62
7
  6
CONTINUOUS
 10
4.8279494382
 20
6.8084151687
 40
0.375
100
AcDbArc
 50
164.2570859633
 51
183.9347857173
  0
ARC
  5
360
100
AcDbEntity
  8
ALL_FEATURES
100
AcDbCircle
 62
7
  6
CONTINUOUS
 10
4.7106023008
 20
6.4000395032
 40
0.3428385781
100
AcDbArc
 50
114.3027113582
 51
115.705797611
  0
ARC
  5
361
100
AcDbEntity
  8
ALL_FEATURES
100
AcDbCircle
 62
7
  6
CONTINUOUS
 10
4.7038166178
 20
6.414298215
 40
0.3270477221
100
AcDbArc
 50
115.7181651574
 51
115.9359928913
  0
ARC
  5
362
100
AcDbEntity
  8
ALL_FEATURES
100
AcDbCircle
 62
7
  6
CONTINUOUS
 10
4.6989200791
 20
6.4243172624
 40
0.3158961783
100
AcDbArc
 50
115.9321157419
 51
117.3286647847
  0
ARC
  5
363
100
AcDbEntity
  8
0
100
AcDbCircle
 62
7
  6
CONTINUOUS
 10
4.6077400618
 20
6.754825064
 40
0.190523569
100
AcDbArc
 50
260.6216172752
 51
265.7845555402
  0
ARC
  5
364
100
AcDbEntity
  8
0
100
AcDbCircle
 62
7
  6
CONTINUOUS
 10
4.6075887273
 20
6.7529561476
 40
0.1886485849
100
AcDbArc
 50
265.7886698636
 51
265.9449560311
  0
ARC
  5
365
100
AcDbEntity
  8
ALL_FEATURES
100
AcDbCircle
 62
7
  6
CONTINUOUS
 10
4.5854429065
 20
6.710939579
 40
0.1327193998
100
AcDbArc
 50
266.2226553472
 51
270.002819756
  0
ARC
  5
366
100
AcDbEntity
  8
ALL_FEATURES
100
AcDbCircle
 62
7
  6
CONTINUOUS
 10
4.5854559699
 20
6.4932174261
 40
0.1327193998
100
AcDbArc
 50
86.2226553472
 51
90.002819756
  0
ARC
  5
367
100
AcDbEntity
  8
ALL_FEATURES
100
AcDbCircle
 62
7
  6
CONTINUOUS
 10
4.5854777031
 20
6.7102800142
 40
0.1320598379
100
AcDbArc
 50
269.9877369328
 51
273.786787964
  0
ARC
  5
368
100
AcDbEntity
  8
ALL_FEATURES
100
AcDbCircle
 62
7
  6
CONTINUOUS
 10
4.5854211733
 20
6.4938769909
 40
0.1320598379
100
AcDbArc
 50
89.9877369329
 51
93.7867879639
  0
ARC
  5
369
100
AcDbEntity
  8
ALL_FEATURES
100
AcDbCircle
 62
7
  6
CONTINUOUS
 10
4.5854494382
 20
6.659855624
 40
0.09625
100
AcDbArc
 50
239.6273547368
 51
264.7840914244
  0
ARC
  5
36A
100
AcDbEntity
  8
ALL_FEATURES
100
AcDbCircle
 62
7
  6
CONTINUOUS
 10
4.5854494382
 20
6.659855624
 40
0.09625
100
AcDbArc
 50
275.2159085705
 51
300.3726452632
  0
ARC
  5
36B
100
AcDbEntity
  8
ALL_FEATURES
100
AcDbCircle
 62
7
  6
CONTINUOUS
 10
4.627868985
 20
6.3398153136
 40
0.085
100
AcDbArc
 50
240.8645905689
 51
270.0
  0
ARC
  5
36C
100
AcDbEntity
  8
ALL_FEATURES
100
AcDbCircle
 62
7
  6
CONTINUOUS
 10
4.6016994382
 20
6.3312224731
 40
0.03125
100
AcDbArc
 50
121.3322514976
 51
180.0
  0
ARC
  5
36D
100
AcDbEntity
  8
ALL_FEATURES
100
AcDbCircle
 62
7
  6
CONTINUOUS
 10
4.6016994382
 20
6.2928662208
 40
0.03125
100
AcDbArc
 50
180.0
 51
240.8645905689
  0
ARC
  5
36E
100
AcDbEntity
  8
ALL_FEATURES
100
AcDbCircle
 62
7
  6
CONTINUOUS
 10
4.6200299731
 20
6.5871281779
 40
0.0295750591
100
AcDbArc
 50
50.5750566422
 51
50.9415755899
  0
ARC
  5
36F
100
AcDbEntity
  8
0
100
AcDbCircle
 62
7
  6
CONTINUOUS
 10
4.6194227423
 20
6.5908457538
 40
0.028075557
100
AcDbArc
 50
42.0315083677
 51
45.2307722465
  0
ARC
  5
370
100
AcDbEntity
  8
0
100
AcDbCircle
 62
7
  6
CONTINUOUS
 10
4.5526986698
 20
6.6136070389
 40
0.0127937023
100
AcDbArc
 50
136.6321979084
 51
141.145716751
  0
ARC
  5
371
100
AcDbEntity
  8
0
100
AcDbCircle
 62
7
  6
CONTINUOUS
 10
4.5536751781
 20
6.6164739088
 40
0.0114114569
100
AcDbArc
 50
146.1367875863
 51
149.7225899928
  0
ARC
  5
372
100
AcDbEntity
  8
0
100
AcDbCircle
 62
7
  6
CONTINUOUS
 10
4.6104494382
 20
6.3904151687
 40
0.01
100
AcDbArc
 50
345.5023084625
 51
360.0
  0
ARC
  5
373
100
AcDbEntity
  8
0
100
AcDbCircle
 62
7
  6
CONTINUOUS
 10
4.5514997811
 20
6.6175816384
 40
0.0089659939
100
AcDbArc
 50
158.9803132047
 51
160.8080109496
  0
ARC
  5
374
100
AcDbEntity
  8
0
100
AcDbCircle
 62
7
  6
CONTINUOUS
 10
4.8908995966
 20
6.2838974936
 40
0.581658047
100
AcDbArc
 50
73.2135732675
 51
73.5509468392
  0
ARC
  5
375
100
AcDbEntity
  8
ALL_FEATURES
100
AcDbCircle
 62
7
  6
CONTINUOUS
 10
4.8963377517
 20
6.2567959551
 40
0.530057713
100
AcDbArc
 50
72.1468257759
 51
72.5121305072
  0
ARC
  5
376
100
AcDbEntity
  8
0
100
AcDbCircle
 62
7
  6
CONTINUOUS
 10
4.9211205786
 20
6.3745906877
 40
0.486046531
100
AcDbArc
 50
69.5059080069
 51
69.9965755492
  0
ARC
  5
377
100
AcDbEntity
  8
ALL_FEATURES
100
AcDbCircle
 62
7
  6
CONTINUOUS
 10
4.8968456188
 20
6.277148416
 40
0.4749989215
100
AcDbArc
 50
70.6079858059
 51
72.9228555327
  0
ARC
  5
378
100
AcDbEntity
  8
ALL_FEATURES
100
AcDbCircle
 62
7
  6
CONTINUOUS
 10
4.9050866219
 20
6.3008253062
 40
0.4499289973
100
AcDbArc
 50
70.4006005829
 51
70.596786212
  0
ARC
  5
379
100
AcDbEntity
  8
ALL_FEATURES
100
AcDbCircle
 62
7
  6
CONTINUOUS
 10
4.9292023787
 20
6.3487645206
 40
0.4323733718
100
AcDbArc
 50
68.026128575
 51
68.5201933788
  0
ARC
  5
37A
100
AcDbEntity
  8
ALL_FEATURES
100
AcDbCircle
 62
7
  6
CONTINUOUS
 10
4.9139074237
 20
6.3251222731
 40
0.4240809385
100
AcDbArc
 50
68.5261641351
 51
70.4221522908
  0
ARC
  5
37B
100
AcDbEntity
  8
ALL_FEATURES
100
AcDbCircle
 62
7
  6
CONTINUOUS
 10
4.9205659318
 20
6.3421909504
 40
0.4057595675
100
AcDbArc
 50
68.3370536142
 51
68.5188027985
  0
ARC
  5
37C
100
AcDbEntity
  8
ALL_FEATURES
100
AcDbCircle
 62
7
  6
CONTINUOUS
 10
4.9458362158
 20
6.4011322677
 40
0.3416204897
100
AcDbArc
 50
64.8850870412
 51
65.3478916653
  0
ARC
  5
37D
100
AcDbEntity
  8
ALL_FEATURES
100
AcDbCircle
 62
7
  6
CONTINUOUS
 10
4.9544939896
 20
6.4193402968
 40
0.3214591256
100
AcDbArc
 50
63.1448900274
 51
64.8464183386
  0
ARC
  5
37E
100
AcDbEntity
  8
ALL_FEATURES
100
AcDbCircle
 62
7
  6
CONTINUOUS
 10
4.9610311582
 20
6.4323083599
 40
0.3069365667
100
AcDbArc
 50
62.8062296002
 51
63.0250397716
  0
ARC
  5
37F
100
AcDbEntity
  8
0
100
AcDbCircle
 62
7
  6
CONTINUOUS
 10
5.0481705247
 20
6.7547294105
 40
0.1904272799
100
AcDbArc
 50
274.0590055806
 51
279.3794629354
  0
ARC
  5
380
100
AcDbEntity
  8
ALL_FEATURES
100
AcDbCircle
 62
7
  6
CONTINUOUS
 10
5.0704429065
 20
6.710939579
 40
0.1327193998
100
AcDbArc
 50
266.2226553472
 51
270.002819756
  0
ARC
  5
381
100
AcDbEntity
  8
ALL_FEATURES
100
AcDbCircle
 62
7
  6
CONTINUOUS
 10
5.0704559699
 20
6.4932174261
 40
0.1327193998
100
AcDbArc
 50
86.2226553472
 51
90.002819756
  0
ARC
  5
382
100
AcDbEntity
  8
ALL_FEATURES
100
AcDbCircle
 62
7
  6
CONTINUOUS
 10
5.0704777031
 20
6.7102800142
 40
0.1320598379
100
AcDbArc
 50
269.9877369328
 51
273.786787964
  0
ARC
  5
383
100
AcDbEntity
  8
ALL_FEATURES
100
AcDbCircle
 62
7
  6
CONTINUOUS
 10
5.0704211733
 20
6.4938769909
 40
0.1320598379
100
AcDbArc
 50
89.9877369329
 51
93.7867879639
  0
ARC
  5
384
100
AcDbEntity
  8
ALL_FEATURES
100
AcDbCircle
 62
7
  6
CONTINUOUS
 10
5.0704494382
 20
6.659855624
 40
0.09625
100
AcDbArc
 50
239.6273547368
 51
264.7840914244
  0
ARC
  5
385
100
AcDbEntity
  8
ALL_FEATURES
100
AcDbCircle
 62
7
  6
CONTINUOUS
 10
5.0704494382
 20
6.659855624
 40
0.09625
100
AcDbArc
 50
275.2159085705
 51
300.3726452632
  0
ARC
  5
386
100
AcDbEntity
  8
ALL_FEATURES
100
AcDbCircle
 62
7
  6
CONTINUOUS
 10
5.0280298914
 20
6.3398153136
 40
0.085
100
AcDbArc
 50
270.0
 51
299.1354094311
  0
ARC
  5
387
100
AcDbEntity
  8
ALL_FEATURES
100
AcDbCircle
 62
7
  6
CONTINUOUS
 10
5.0541994382
 20
6.3312224731
 40
0.03125
100
AcDbArc
 50
0.0
 51
58.6677485024
  0
ARC
  5
388
100
AcDbEntity
  8
ALL_FEATURES
100
AcDbCircle
 62
7
  6
CONTINUOUS
 10
5.0541994382
 20
6.2928662208
 40
0.03125
100
AcDbArc
 50
299.1354094311
 51
360.0
  0
ARC
  5
389
100
AcDbEntity
  8
ALL_FEATURES
100
AcDbCircle
 62
7
  6
CONTINUOUS
 10
5.0358689017
 20
6.5871281798
 40
0.0295750567
100
AcDbArc
 50
129.0584281632
 51
129.4249433683
  0
ARC
  5
38A
100
AcDbEntity
  8
0
100
AcDbCircle
 62
7
  6
CONTINUOUS
 10
5.0370869646
 20
6.5902597011
 40
0.0289218135
100
AcDbArc
 50
134.8106912843
 51
137.633296536
  0
ARC
  5
38B
100
AcDbEntity
  8
0
100
AcDbCircle
 62
7
  6
CONTINUOUS
 10
5.1022237005
 20
6.6164739101
 40
0.0114114544
100
AcDbArc
 50
30.2774096632
 51
33.8631980963
  0
ARC
  5
38C
100
AcDbEntity
  8
0
100
AcDbCircle
 62
7
  6
CONTINUOUS
 10
5.0454494382
 20
6.3904151687
 40
0.01
100
AcDbArc
 50
180.0
 51
194.4976915375
  0
ARC
  5
38D
100
AcDbEntity
  8
0
100
AcDbCircle
 62
7
  6
CONTINUOUS
 10
5.1061675482
 20
6.6155861482
 40
0.0092126093
100
AcDbArc
 50
19.2886278575
 51
25.0261606206
  0
ARC
  5
38E
100
AcDbEntity
  8
0
100
AcDbCircle
 62
7
  6
CONTINUOUS
 10
5.1043990953
 20
6.6175816384
 40
0.0089659939
100
AcDbArc
 50
19.1919890508
 51
21.0196867952
  0
SPLINE
  5
38F
100
AcDbEntity
  8
ALL_FEATURES
100
AcDbSpline
 62
7
  6
CONTINUOUS
 70
0
 71
3
 72
47
 73
43
 74
0
 42
0.0000001
 43
0.0000001
 44
0.0000000001
 40
0.0
 40
0.0
 40
0.0
 40
0.0
 40
0.015636038
 40
0.0234762549
 40
0.0313090995
 40
0.0391469884
 40
0.0469740765
 40
0.0626109349
 40
0.0782412482
 40
0.0938710981
 40
0.1094963244
 40
0.125121656
 40
0.1563605446
 40
0.1876004486
 40
0.218840831
 40
0.2500812885
 40
0.2813218338
 40
0.3125625771
 40
0.3438031414
 40
0.3750436331
 40
0.4375213952
 40
0.499999553
 40
0.5624777701
 40
0.6249556923
 40
0.6561963682
 40
0.6874369965
 40
0.7186779056
 40
0.7499185956
 40
0.7811591504
 40
0.8123996347
 40
0.843639621
 40
0.8748785654
 40
0.8905039093
 40
0.9061291481
 40
0.9217589892
 40
0.9373892437
 40
0.953026055
 40
0.9608530643
 40
0.968690851
 40
0.9765236449
 40
0.9843639057
 40
1.0
 40
1.0
 40
1.0
 40
1.0
 10
4.7526687136
 20
6.3312224731
 30
0.0
 10
4.7526687136
 20
6.3320962515
 30
0.0
 10
4.7528653934
 20
6.3334157715
 30
0.0
 10
4.7534550407
 20
6.3350657902
 30
0.0
 10
4.7540434258
 20
6.3362440451
 30
0.0
 10
4.7547493139
 20
6.337353552
 30
0.0
 10
4.7558171988
 20
6.3387414387
 30
0.0
 10
4.7573496103
 20
6.3403092873
 30
0.0
 10
4.7593903464
 20
6.3419601788
 30
0.0
 10
4.7615729219
 20
6.3434150737
 30
0.0
 10
4.7638537319
 20
6.3447076894
 30
0.0
 10
4.7669913397
 20
6.3462443248
 30
0.0
 10
4.7710481604
 20
6.347870543
 30
0.0
 10
4.7760410572
 20
6.3494620001
 30
0.0
 10
4.7811148483
 20
6.3507696653
 30
0.0
 10
4.7862417794
 20
6.3518464914
 30
0.0
 10
4.7914049746
 20
6.3527310299
 30
0.0
 10
4.7965932849
 20
6.3534517922
 30
0.0
 10
4.8017991482
 20
6.3540308816
 30
0.0
 10
4.8087564108
 20
6.3546359425
 30
0.0
 10
4.8174746142
 20
6.3551115457
 30
0.0
 10
4.8279493661
 20
6.3552956272
 30
0.0
 10
4.8384241291
 20
6.3551115614
 30
0.0
 10
4.8471423498
 20
6.3546359021
 30
0.0
 10
4.8540996451
 20
6.3540309458
 30
0.0
 10
4.8593055216
 20
6.3534517633
 30
0.0
 10
4.8644938597
 20
6.3527310558
 30
0.0
 10
4.8696570775
 20
6.3518465085
 30
0.0
 10
4.8747840238
 20
6.3507696627
 30
0.0
 10
4.8798578309
 20
6.3494619968
 30
0.0
 10
4.88485074
 20
6.3478705345
 30
0.0
 10
4.8889075698
 20
6.3462443152
 30
0.0
 10
4.8920451772
 20
6.3447076692
 30
0.0
 10
4.8943259898
 20
6.3434150563
 30
0.0
 10
4.8965085586
 20
6.3419601566
 30
0.0
 10
4.8985492871
 20
6.3403092656
 30
0.0
 10
4.9000816848
 20
6.3387414188
 30
0.0
 10
4.901149568
 20
6.3373535471
 30
0.0
 10
4.901855452
 20
6.3362440528
 30
0.0
 10
4.9024438344
 20
6.3350658029
 30
0.0
 10
4.9030334709
 20
6.3334157779
 30
0.0
 10
4.9032301628
 20
6.3320962547
 30
0.0
 10
4.9032301628
 20
6.3312224731
 30
0.0
  0
SPLINE
  5
390
100
AcDbEntity
  8
ALL_FEATURES
100
AcDbSpline
 62
7
  6
CONTINUOUS
 70
0
 71
3
 72
42
 73
38
 74
0
 42
0.0000001
 43
0.0000001
 44
0.0000000001
 40
0.0
 40
0.0
 40
0.0
 40
0.0
 40
0.0132094635
 40
0.026270904
 40
0.0389662124
 40
0.0511978635
 40
0.0741950556
 40
0.0953370609
 40
0.1149428706
 40
0.1333212546
 40
0.150729441
 40
0.1673682588
 40
0.1989071477
 40
0.2288224945
 40
0.2576457293
 40
0.285717562
 40
0.3404151409
 40
0.3940384313
 40
0.4471336222
 40
0.5000109793
 40
0.552888386
 40
0.6059837118
 40
0.6596071862
 40
0.7143049449
 40
0.742376878
 40
0.7712001936
 40
0.8011156064
 40
0.8326545502
 40
0.8666789781
 40
0.8850573768
 40
0.9046631484
 40
0.9258051172
 40
0.9488020528
 40
0.961033638
 40
0.9737290198
 40
0.9867905213
 40
1.0
 40
1.0
 40
1.0
 40
1.0
 10
4.5770503202
 20
6.3312224731
 30
0.0
 10
4.5770503202
 20
6.3316587839
 30
0.0
 10
4.5770826439
 20
6.3325267998
 30
0.0
 10
4.5772194933
 20
6.3338075164
 30
0.0
 10
4.5774388376
 20
6.3350440363
 30
0.0
 10
4.5778206937
 20
6.3365811968
 30
0.0
 10
4.5784359998
 20
6.3383437643
 30
0.0
 10
4.5793538368
 20
6.3402429859
 30
0.0
 10
4.5803767173
 20
6.3419101116
 30
0.0
 10
4.5814721958
 20
6.3433782539
 30
0.0
 10
4.5826165518
 20
6.3446801395
 30
0.0
 10
4.5841629459
 20
6.3461994136
 30
0.0
 10
4.5861746529
 20
6.3478248633
 30
0.0
 10
4.588689688
 20
6.3494356075
 30
0.0
 10
4.5912398129
 20
6.3507543082
 30
0.0
 10
4.5946397188
 20
6.3521855907
 30
0.0
 10
4.598958123
 20
6.3535103117
 30
0.0
 10
4.6041970726
 20
6.3545371139
 30
0.0
 10
4.6094426916
 20
6.3551110618
 30
0.0
 10
4.6146906508
 20
6.355295746
 30
0.0
 10
4.6199386145
 20
6.3551110645
 30
0.0
 10
4.6251842459
 20
6.3545371156
 30
0.0
 10
4.6304232097
 20
6.3535102968
 30
0.0
 10
4.6347416364
 20
6.3521856222
 30
0.0
 10
4.6381415563
 20
6.3507542902
 30
0.0
 10
4.6406916535
 20
6.3494356665
 30
0.0
 10
4.6432068386
 20
6.3478246097
 30
0.0
 10
4.6456658205
 20
6.345838542
 30
0.0
 10
4.6475809178
 20
6.343818571
 30
0.0
 10
4.6490045867
 20
6.3419101076
 30
0.0
 10
4.6500275587
 20
6.3402429626
 30
0.0
 10
4.6509453583
 20
6.3383437551
 30
0.0
 10
4.6515606742
 20
6.3365811995
 30
0.0
 10
4.6519425266
 20
6.3350440468
 30
0.0
 10
4.6521618675
 20
6.333807524
 30
0.0
 10
4.6522987196
 20
6.3325268028
 30
0.0
 10
4.6523310448
 20
6.3316587844
 30
0.0
 10
4.6523310448
 20
6.3312224731
 30
0.0
  0
SPLINE
  5
391
100
AcDbEntity
  8
ALL_FEATURES
100
AcDbSpline
 62
7
  6
CONTINUOUS
 70
0
 71
3
 72
41
 73
37
 74
0
 42
0.0000001
 43
0.0000001
 44
0.0000000001
 40
0.0
 40
0.0
 40
0.0
 40
0.0
 40
0.0132097336
 40
0.0262712867
 40
0.0389666112
 40
0.0511985947
 40
0.0741963811
 40
0.0953389349
 40
0.1149451951
 40
0.1333240058
 40
0.1673491551
 40
0.198888745
 40
0.2288047616
 40
0.257628647
 40
0.2857011141
 40
0.3403999645
 40
0.3940245166
 40
0.4471209729
 40
0.4999995879
 40
0.5528782521
 40
0.6059748486
 40
0.6595996285
 40
0.7142987218
 40
0.7423713269
 40
0.7711953234
 40
0.8011114302
 40
0.8326510928
 40
0.8666762977
 40
0.8850551275
 40
0.9046613383
 40
0.9258038449
 40
0.948801299
 40
0.9610331965
 40
0.9737286149
 40
0.9867902467
 40
1.0
 40
1.0
 40
1.0
 40
1.0
 10
5.0035678316
 20
6.3312224731
 30
0.0
 10
5.0035678316
 20
6.331658783
 30
0.0
 10
5.0036001507
 20
6.3325267918
 30
0.0
 10
5.0037369914
 20
6.3338074937
 30
0.0
 10
5.0039563465
 20
6.3350439986
 30
0.0
 10
5.0043381992
 20
6.3365811541
 30
0.0
 10
5.0049534968
 20
6.3383437363
 30
0.0
 10
5.0058713143
 20
6.3402429538
 30
0.0
 10
5.0068942876
 20
6.3419101032
 30
0.0
 10
5.0083179555
 20
6.3438185673
 30
0.0
 10
5.0102330498
 20
6.3458385357
 30
0.0
 10
5.0126920251
 20
6.3478246016
 30
0.0
 10
5.015207202
 20
6.3494356574
 30
0.0
 10
5.0177572897
 20
6.3507542826
 30
0.0
 10
5.0211572116
 20
6.3521855802
 30
0.0
 10
5.0254756057
 20
6.3535103131
 30
0.0
 10
5.030714564
 20
6.354537114
 30
0.0
 10
5.0359601881
 20
6.3551110618
 30
0.0
 10
5.0412081538
 20
6.3552957456
 30
0.0
 10
5.046456124
 20
6.3551110645
 30
0.0
 10
5.0517017627
 20
6.3545371141
 30
0.0
 10
5.0569407358
 20
6.3535102965
 30
0.0
 10
5.0612591674
 20
6.3521856119
 30
0.0
 10
5.0646590926
 20
6.3507542788
 30
0.0
 10
5.0672091925
 20
6.3494356541
 30
0.0
 10
5.0697243769
 20
6.3478245926
 30
0.0
 10
5.0721833567
 20
6.3458385208
 30
0.0
 10
5.074098453
 20
6.3438185472
 30
0.0
 10
5.0755221162
 20
6.3419100785
 30
0.0
 10
5.0765450848
 20
6.3402429292
 30
0.0
 10
5.0774628908
 20
6.3383437223
 30
0.0
 10
5.0780781912
 20
6.3365811576
 30
0.0
 10
5.0784600405
 20
6.335044012
 30
0.0
 10
5.0786793909
 20
6.3338075035
 30
0.0
 10
5.0788162351
 20
6.3325267957
 30
0.0
 10
5.0788485562
 20
6.3316587836
 30
0.0
 10
5.0788485562
 20
6.3312224731
 30
0.0
  0
SPLINE
  5
392
100
AcDbEntity
  8
ALL_FEATURES
100
AcDbSpline
 62
7
  6
CONTINUOUS
 70
0
 71
3
 72
43
 73
39
 74
0
 42
0.0000001
 43
0.0000001
 44
0.0000000001
 40
0.0
 40
0.0
 40
0.0
 40
0.0
 40
0.0156225905
 40
0.0312465605
 40
0.0468708469
 40
0.0624949368
 40
0.0781198588
 40
0.0937457584
 40
0.1093722505
 40
0.1249988189
 40
0.1562446895
 40
0.1874931187
 40
0.2187429828
 40
0.2499935817
 40
0.2812446128
 40
0.3124958914
 40
0.3437473116
 40
0.3749988404
 40
0.4374988493
 40
0.4999994241
 40
0.5625000563
 40
0.6250001847
 40
0.6562518481
 40
0.6875033877
 40
0.7187547615
 40
0.7500058861
 40
0.7812565692
 40
0.8125064884
 40
0.8437549372
 40
0.875000815
 40
0.8906273812
 40
0.9062538683
 40
0.9218797631
 40
0.9375046828
 40
0.9531287923
 40
0.9687531351
 40
0.9843772591
 40
1.0
 40
1.0
 40
1.0
 40
1.0
 10
4.9032301628
 20
6.2928662208
 30
0.0
 10
4.9032301628
 20
6.291993269
 30
0.0
 10
4.9029721775
 20
6.2902384685
 30
0.0
 10
4.9019171459
 20
6.2878161698
 30
0.0
 10
4.9003930959
 20
6.2856688137
 30
0.0
 10
4.8985592454
 20
6.2837879779
 30
0.0
 10
4.8965195278
 20
6.2821374593
 30
0.0
 10
4.8943388188
 20
6.2806812191
 30
0.0
 10
4.8920583942
 20
6.2793884349
 30
0.0
 10
4.888921356
 20
6.2778501768
 30
0.0
 10
4.8848642405
 20
6.2762230573
 30
0.0
 10
4.8798707645
 20
6.2746303501
 30
0.0
 10
4.8747960341
 20
6.2733217911
 30
0.0
 10
4.8696679888
 20
6.2722442735
 30
0.0
 10
4.864503566
 20
6.2713592547
 30
0.0
 10
4.8593139885
 20
6.2706379516
 30
0.0
 10
4.8541067958
 20
6.2700584855
 30
0.0
 10
4.8471476836
 20
6.2694531639
 30
0.0
 10
4.8384271305
 20
6.2689772742
 30
0.0
 10
4.827949532
 20
6.2687931234
 30
0.0
 10
4.8174719238
 20
6.2689772227
 30
0.0
 10
4.8087513581
 20
6.2694531863
 30
0.0
 10
4.8017922204
 20
6.2700584514
 30
0.0
 10
4.7965850084
 20
6.270637924
 30
0.0
 10
4.7913954147
 20
6.2713592357
 30
0.0
 10
4.7862309767
 20
6.2722442556
 30
0.0
 10
4.7811029177
 20
6.2733217708
 30
0.0
 10
4.7760281779
 20
6.2746303295
 30
0.0
 10
4.7710346973
 20
6.276223037
 30
0.0
 10
4.7669775778
 20
6.27785015
 30
0.0
 10
4.7638405383
 20
6.2793884055
 30
0.0
 10
4.7615601126
 20
6.2806811864
 30
0.0
 10
4.7593794015
 20
6.282137422
 30
0.0
 10
4.7573396787
 20
6.2837879355
 30
0.0
 10
4.7555058202
 20
6.2856687689
 30
0.0
 10
4.7539817529
 20
6.2878161287
 30
0.0
 10
4.7529267071
 20
6.2902384434
 30
0.0
 10
4.7526687136
 20
6.2919932606
 30
0.0
 10
4.7526687136
 20
6.2928662208
 30
0.0
  0
SPLINE
  5
393
100
AcDbEntity
  8
ALL_FEATURES
100
AcDbSpline
 62
7
  6
CONTINUOUS
 70
0
 71
3
 72
34
 73
30
 74
0
 42
0.0000001
 43
0.0000001
 44
0.0000000001
 40
0.0
 40
0.0
 40
0.0
 40
0.0
 40
0.0262372762
 40
0.0511198333
 40
0.0740891632
 40
0.0952267317
 40
0.133180107
 40
0.1672211711
 40
0.1987773839
 40
0.2287089289
 40
0.2855892649
 40
0.3403147315
 40
0.3939651943
 40
0.4470872525
 40
0.4999913964
 40
0.5528955823
 40
0.6060177616
 40
0.6596683816
 40
0.7143939967
 40
0.7712744154
 40
0.8012059614
 40
0.8327621492
 40
0.8668031773
 40
0.9047564843
 40
0.9258940392
 40
0.9488634081
 40
0.9737461891
 40
0.9867886744
 40
1.0
 40
1.0
 40
1.0
 40
1.0
 10
5.0788485562
 20
6.2928662208
 30
0.0
 10
5.0788485562
 20
6.2919998014
 30
0.0
 10
5.0787279656
 20
6.2903091832
 30
0.0
 10
5.0782183173
 20
6.2879092699
 30
0.0
 10
5.0774654757
 20
6.2857530183
 30
0.0
 10
5.0762867705
 20
6.2833079916
 30
0.0
 10
5.0745505569
 20
6.2807470146
 30
0.0
 10
5.0721903795
 20
6.2782568977
 30
0.0
 10
5.0697311003
 20
6.2762688605
 30
0.0
 10
5.0664350961
 20
6.2741564882
 30
0.0
 10
5.062173599
 20
6.2721837318
 30
0.0
 10
5.0569455889
 20
6.2705796347
 30
0.0
 10
5.0517045118
 20
6.269551956
 30
0.0
 10
5.0464576666
 20
6.2689777826
 30
0.0
 10
5.041208238
 20
6.2687929954
 30
0.0
 10
5.0359588011
 20
6.2689777401
 30
0.0
 10
5.0307119526
 20
6.2695519727
 30
0.0
 10
5.0254708513
 20
6.2705795972
 30
0.0
 10
5.0202428338
 20
6.2721837198
 30
0.0
 10
5.0159813255
 20
6.2741564667
 30
0.0
 10
5.0126853187
 20
6.2762688401
 30
0.0
 10
5.0102260375
 20
6.2782568679
 30
0.0
 10
5.0078658557
 20
6.2807469886
 30
0.0
 10
5.0061296558
 20
6.2833079255
 30
0.0
 10
5.0049509038
 20
6.2857530233
 30
0.0
 10
5.004198202
 20
6.2879090138
 30
0.0
 10
5.0037788
 20
6.2898824461
 30
0.0
 10
5.0035996215
 20
6.29156266
 30
0.0
 10
5.0035678316
 20
6.2924299503
 30
0.0
 10
5.0035678316
 20
6.2928662208
 30
0.0
  0
SPLINE
  5
394
100
AcDbEntity
  8
ALL_FEATURES
100
AcDbSpline
 62
7
  6
CONTINUOUS
 70
0
 71
3
 72
33
 73
29
 74
0
 42
0.0000001
 43
0.0000001
 44
0.0000000001
 40
0.0
 40
0.0
 40
0.0
 40
0.0
 40
0.0262375714
 40
0.0511204392
 40
0.0740901217
 40
0.0952280267
 40
0.1331820457
 40
0.1672236904
 40
0.1987804259
 40
0.2287124529
 40
0.2855937178
 40
0.3403200898
 40
0.3939714561
 40
0.4470944218
 40
0.4999994677
 40
0.5529045532
 40
0.606027643
 40
0.659679199
 40
0.7144057712
 40
0.7712871628
 40
0.8012192056
 40
0.8327759216
 40
0.8668175276
 40
0.904771478
 40
0.9259093715
 40
0.9488790937
 40
0.973762182
 40
1.0
 40
1.0
 40
1.0
 40
1.0
 10
4.6523310448
 20
6.2928662208
 30
0.0
 10
4.6523310448
 20
6.2919998058
 30
0.0
 10
4.6522104563
 20
6.290309195
 30
0.0
 10
4.6517008112
 20
6.2879092895
 30
0.0
 10
4.6509479741
 20
6.2857530407
 30
0.0
 10
4.6497692717
 20
6.2833080127
 30
0.0
 10
4.6480330613
 20
6.2807470315
 30
0.0
 10
4.6456728823
 20
6.2782569135
 30
0.0
 10
4.6432136063
 20
6.2762688707
 30
0.0
 10
4.6399176007
 20
6.2741565002
 30
0.0
 10
4.6356561067
 20
6.2721837364
 30
0.0
 10
4.6304280933
 20
6.2705796449
 30
0.0
 10
4.625187016
 20
6.2695519521
 30
0.0
 10
4.6199401657
 20
6.2689777899
 30
0.0
 10
4.6146907338
 20
6.2687929908
 30
0.0
 10
4.6094412925
 20
6.2689777382
 30
0.0
 10
4.60419444
 20
6.2695519751
 30
0.0
 10
4.5989533323
 20
6.270579597
 30
0.0
 10
4.5937253101
 20
6.2721837247
 30
0.0
 10
4.5894637997
 20
6.2741564766
 30
0.0
 10
4.5861677906
 20
6.2762688498
 30
0.0
 10
4.5837085109
 20
6.2782568855
 30
0.0
 10
4.5813483325
 20
6.2807469985
 30
0.0
 10
4.5796121179
 20
6.2833079717
 30
0.0
 10
4.5784334105
 20
6.2857529958
 30
0.0
 10
4.5776805643
 20
6.2879092502
 30
0.0
 10
4.5771709126
 20
6.2903091715
 30
0.0
 10
4.5770503202
 20
6.2919997976
 30
0.0
 10
4.5770503202
 20
6.2928662208
 30
0.0
  0
SPLINE
  5
395
100
AcDbEntity
  8
ALL_FEATURES
100
AcDbSpline
 62
7
  6
CONTINUOUS
 70
0
 71
3
 72
13
 73
9
 74
0
 42
0.0000001
 43
0.0000001
 44
0.0000000001
 40
0.0
 40
0.0
 40
0.0
 40
0.0
 40
0.1121581956
 40
0.2257026339
 40
0.341962835
 40
0.4621385417
 40
0.7179855373
 40
1.0
 40
1.0
 40
1.0
 40
1.0
 10
5.0104496428
 20
6.5983810712
 30
0.0
 10
5.0104496428
 20
6.5988226766
 30
0.0
 10
5.0105047836
 20
6.599712302
 30
0.0
 10
5.0107523237
 20
6.601038936
 30
0.0
 10
5.0111641667
 20
6.6023572141
 30
0.0
 10
5.0119451502
 20
6.6041349852
 30
0.0
 10
5.013356458
 20
6.6063280821
 30
0.0
 10
5.0147962698
 20
6.6078935381
 30
0.0
 10
5.0156000092
 20
6.6086596739
 30
0.0
  0
SPLINE
  5
396
100
AcDbEntity
  8
ALL_FEATURES
100
AcDbSpline
 62
7
  6
CONTINUOUS
 70
0
 71
3
 72
15
 73
11
 74
0
 42
0.0000001
 43
0.0000001
 44
0.0000000001
 40
0.0
 40
0.0
 40
0.0
 40
0.0
 40
0.1574172456
 40
0.3040440834
 40
0.4401233334
 40
0.5662898259
 40
0.6835689287
 40
0.7935033187
 40
0.8981447961
 40
1.0
 40
1.0
 40
1.0
 40
1.0
 10
5.0217834094
 20
6.5768154638
 30
0.0
 10
5.0209004323
 20
6.5773329997
 30
0.0
 10
5.0192285999
 20
6.5783919921
 30
0.0
 10
5.0169415016
 20
6.5801176667
 30
0.0
 10
5.0149775658
 20
6.5819161049
 30
0.0
 10
5.0133481083
 20
6.5837768241
 30
0.0
 10
5.0120647238
 20
6.5856912839
 30
0.0
 10
5.0111374128
 20
6.5876494885
 30
0.0
 10
5.0105753911
 20
6.5896389709
 30
0.0
 10
5.0104496428
 20
6.5909847046
 30
0.0
 10
5.0104496428
 20
6.5916469306
 30
0.0
  0
SPLINE
  5
397
100
AcDbEntity
  8
ALL_FEATURES
100
AcDbSpline
 62
7
  6
CONTINUOUS
 70
0
 71
3
 72
13
 73
9
 74
0
 42
0.0000001
 43
0.0000001
 44
0.0000000001
 40
0.0
 40
0.0
 40
0.0
 40
0.0
 40
0.1121581956
 40
0.2257026339
 40
0.341962835
 40
0.4621385417
 40
0.7179855373
 40
1.0
 40
1.0
 40
1.0
 40
1.0
 10
5.1304492336
 20
6.5983810712
 30
0.0
 10
5.1304492336
 20
6.5988226766
 30
0.0
 10
5.1303940928
 20
6.599712302
 30
0.0
 10
5.1301465527
 20
6.601038936
 30
0.0
 10
5.1297347097
 20
6.6023572141
 30
0.0
 10
5.1289537262
 20
6.6041349852
 30
0.0
 10
5.1275424184
 20
6.6063280821
 30
0.0
 10
5.1261026066
 20
6.6078935381
 30
0.0
 10
5.1252988672
 20
6.6086596739
 30
0.0
  0
SPLINE
  5
398
100
AcDbEntity
  8
ALL_FEATURES
100
AcDbSpline
 62
7
  6
CONTINUOUS
 70
0
 71
3
 72
15
 73
11
 74
0
 42
0.0000001
 43
0.0000001
 44
0.0000000001
 40
0.0
 40
0.0
 40
0.0
 40
0.0
 40
0.1574172456
 40
0.3040440834
 40
0.4401233334
 40
0.5662898259
 40
0.6835689287
 40
0.7935033187
 40
0.8981447961
 40
1.0
 40
1.0
 40
1.0
 40
1.0
 10
5.119115467
 20
6.5768154638
 30
0.0
 10
5.1199984441
 20
6.5773329997
 30
0.0
 10
5.1216702765
 20
6.5783919921
 30
0.0
 10
5.1239573748
 20
6.5801176667
 30
0.0
 10
5.1259213106
 20
6.5819161049
 30
0.0
 10
5.1275507681
 20
6.5837768241
 30
0.0
 10
5.1288341526
 20
6.5856912839
 30
0.0
 10
5.1297614636
 20
6.5876494885
 30
0.0
 10
5.1303234853
 20
6.5896389709
 30
0.0
 10
5.1304492336
 20
6.5909847046
 30
0.0
 10
5.1304492336
 20
6.5916469306
 30
0.0
  0
SPLINE
  5
399
100
AcDbEntity
  8
ALL_FEATURES
100
AcDbSpline
 62
7
  6
CONTINUOUS
 70
0
 71
3
 72
17
 73
13
 74
0
 42
0.0000001
 43
0.0000001
 44
0.0000000001
 40
0.0
 40
0.0
 40
0.0
 40
0.0
 40
0.0912026379
 40
0.1409786978
 40
0.1935329425
 40
0.2488317012
 40
0.3067963228
 40
0.4302652856
 40
0.5628452878
 40
0.7031113181
 40
0.8494884921
 40
1.0
 40
1.0
 40
1.0
 40
1.0
 10
5.1252988672
 20
6.6086596739
 30
0.0
 10
5.1242153453
 20
6.6096925025
 30
0.0
 10
5.122396569
 20
6.6111413563
 30
0.0
 10
5.1197328718
 20
6.6128730464
 30
0.0
 10
5.1174822839
 20
6.6141525341
 30
0.0
 10
5.1150465455
 20
6.6153691638
 30
0.0
 10
5.1114892068
 20
6.6169352351
 30
0.0
 10
5.1066363679
 20
6.6186901152
 30
0.0
 10
5.100365619
 20
6.62043798
 30
0.0
 10
5.0936249201
 20
6.6218423326
 30
0.0
 10
5.0865214656
 20
6.6228801637
 30
0.0
 10
5.0816650139
 20
6.6233134786
 30
0.0
 10
5.0791994382
 20
6.6234670786
 30
0.0
  0
SPLINE
  5
39A
100
AcDbEntity
  8
ALL_FEATURES
100
AcDbSpline
 62
7
  6
CONTINUOUS
 70
0
 71
3
 72
25
 73
21
 74
0
 42
0.0000001
 43
0.0000001
 44
0.0000000001
 40
0.0
 40
0.0
 40
0.0
 40
0.0
 40
0.0185060705
 40
0.0371790487
 40
0.0561812713
 40
0.0756634148
 40
0.1165552349
 40
0.1607898939
 40
0.2089725542
 40
0.2614692489
 40
0.3184370557
 40
0.3798758435
 40
0.4456590651
 40
0.5155582641
 40
0.5892638947
 40
0.6663875266
 40
0.7465083215
 40
0.8291790307
 40
0.9138912937
 40
1.0
 40
1.0
 40
1.0
 40
1.0
 10
5.1304492336
 20
6.5916469306
 30
0.0
 10
5.1304492336
 20
6.5920235741
 30
0.0
 10
5.1304092399
 20
6.5927808538
 30
0.0
 10
5.1302296268
 20
6.5939120465
 30
0.0
 10
5.1299303876
 20
6.5950382747
 30
0.0
 10
5.1293646602
 20
6.5965538085
 30
0.0
 10
5.1283427635
 20
6.5984350224
 30
0.0
 10
5.1266787043
 20
6.6005896497
 30
0.0
 10
5.1245747114
 20
6.602667205
 30
0.0
 10
5.1220473707
 20
6.6046530443
 30
0.0
 10
5.1191166589
 20
6.6065346717
 30
0.0
 10
5.1158045962
 20
6.608298138
 30
0.0
 10
5.1121365948
 20
6.6099304306
 30
0.0
 10
5.1081408999
 20
6.6114190588
 30
0.0
 10
5.1038487091
 20
6.6127521081
 30
0.0
 10
5.0992937798
 20
6.6139197464
 30
0.0
 10
5.0945111705
 20
6.6149120834
 30
0.0
 10
5.0895378581
 20
6.6157218234
 30
0.0
 10
5.0844147237
 20
6.6163415647
 30
0.0
 10
5.0809485683
 20
6.616623971
 30
0.0
 10
5.0791994382
 20
6.616732938
 30
0.0
  0
LINE
  5
39B
100
AcDbEntity
  8
ALL_FEATURES
100
AcDbLine
 62
7
  6
CONTINUOUS
 10
5.0156000092
 20
6.6086596739
 11
5.0170867634
 21
6.6099736445
  0
SPLINE
  5
39C
100
AcDbEntity
  8
ALL_FEATURES
100
AcDbSpline
 62
7
  6
CONTINUOUS
 70
0
 71
3
 72
16
 73
12
 74
0
 42
0.0000001
 43
0.0000001
 44
0.0000000001
 40
0.0
 40
0.0
 40
0.0
 40
0.0
 40
0.0460126469
 40
0.094578021
 40
0.1993219627
 40
0.3139439846
 40
0.4377063173
 40
0.5695390962
 40
0.7081818505
 40
0.8522532098
 40
1.0
 40
1.0
 40
1.0
 40
1.0
 10
5.0172332868
 20
6.6100933237
 30
0.0
 10
5.0177938426
 20
6.6105482079
 30
0.0
 10
5.0189801821
 20
6.6114417356
 30
0.0
 10
5.0215927416
 20
6.6131633278
 30
0.0
 10
5.0252970092
 20
6.6151682637
 30
0.0
 10
5.0302531845
 20
6.6172852876
 30
0.0
 10
5.0357622364
 20
6.6191425235
 30
0.0
 10
5.041748509
 20
6.6207154939
 30
0.0
 10
5.0481317621
 20
6.6219818526
 30
0.0
 10
5.0548225883
 20
6.6229232669
 30
0.0
 10
5.0593858932
 20
6.6233229497
 30
0.0
 10
5.0616994382
 20
6.6234670786
 30
0.0
  0
SPLINE
  5
39D
100
AcDbEntity
  8
ALL_FEATURES
100
AcDbSpline
 62
7
  6
CONTINUOUS
 70
0
 71
3
 72
25
 73
21
 74
0
 42
0.0000001
 43
0.0000001
 44
0.0000000001
 40
0.0
 40
0.0
 40
0.0
 40
0.0
 40
0.0185060705
 40
0.0371790487
 40
0.0561812713
 40
0.0756634148
 40
0.1165552349
 40
0.1607898939
 40
0.2089725542
 40
0.2614692489
 40
0.3184370557
 40
0.3798758435
 40
0.4456590651
 40
0.5155582641
 40
0.5892638947
 40
0.6663875266
 40
0.7465083215
 40
0.8291790307
 40
0.9138912937
 40
1.0
 40
1.0
 40
1.0
 40
1.0
 10
5.0104496428
 20
6.5916469306
 30
0.0
 10
5.0104496428
 20
6.5920235741
 30
0.0
 10
5.0104896365
 20
6.5927808538
 30
0.0
 10
5.0106692497
 20
6.5939120465
 30
0.0
 10
5.0109684889
 20
6.5950382747
 30
0.0
 10
5.0115342162
 20
6.5965538085
 30
0.0
 10
5.0125561129
 20
6.5984350224
 30
0.0
 10
5.0142201721
 20
6.6005896497
 30
0.0
 10
5.016324165
 20
6.602667205
 30
0.0
 10
5.0188515057
 20
6.6046530443
 30
0.0
 10
5.0217822175
 20
6.6065346717
 30
0.0
 10
5.0250942802
 20
6.608298138
 30
0.0
 10
5.0287622816
 20
6.6099304306
 30
0.0
 10
5.0327579765
 20
6.6114190588
 30
0.0
 10
5.0370501673
 20
6.6127521081
 30
0.0
 10
5.0416050966
 20
6.6139197464
 30
0.0
 10
5.0463877059
 20
6.6149120834
 30
0.0
 10
5.0513610183
 20
6.6157218234
 30
0.0
 10
5.0564841527
 20
6.6163415647
 30
0.0
 10
5.0599503081
 20
6.616623971
 30
0.0
 10
5.0616994382
 20
6.616732938
 30
0.0
  0
SPLINE
  5
39E
100
AcDbEntity
  8
ALL_FEATURES
100
AcDbSpline
 62
7
  6
CONTINUOUS
 70
0
 71
3
 72
13
 73
9
 74
0
 42
0.0000001
 43
0.0000001
 44
0.0000000001
 40
0.0
 40
0.0
 40
0.0
 40
0.0
 40
0.1121581956
 40
0.2257026339
 40
0.341962835
 40
0.4621385417
 40
0.7179855373
 40
1.0
 40
1.0
 40
1.0
 40
1.0
 10
4.5254496428
 20
6.5983810712
 30
0.0
 10
4.5254496428
 20
6.5988226766
 30
0.0
 10
4.5255047836
 20
6.599712302
 30
0.0
 10
4.5257523237
 20
6.601038936
 30
0.0
 10
4.5261641667
 20
6.6023572141
 30
0.0
 10
4.5269451502
 20
6.6041349852
 30
0.0
 10
4.528356458
 20
6.6063280821
 30
0.0
 10
4.5297962698
 20
6.6078935381
 30
0.0
 10
4.5306000092
 20
6.6086596739
 30
0.0
  0
SPLINE
  5
39F
100
AcDbEntity
  8
ALL_FEATURES
100
AcDbSpline
 62
7
  6
CONTINUOUS
 70
0
 71
3
 72
15
 73
11
 74
0
 42
0.0000001
 43
0.0000001
 44
0.0000000001
 40
0.0
 40
0.0
 40
0.0
 40
0.0
 40
0.1574172456
 40
0.3040440834
 40
0.4401233334
 40
0.5662898259
 40
0.6835689287
 40
0.7935033187
 40
0.8981447961
 40
1.0
 40
1.0
 40
1.0
 40
1.0
 10
4.5367834094
 20
6.5768154638
 30
0.0
 10
4.5359004323
 20
6.5773329997
 30
0.0
 10
4.5342285999
 20
6.5783919921
 30
0.0
 10
4.5319415016
 20
6.5801176667
 30
0.0
 10
4.5299775658
 20
6.5819161049
 30
0.0
 10
4.5283481083
 20
6.5837768241
 30
0.0
 10
4.5270647238
 20
6.5856912839
 30
0.0
 10
4.5261374128
 20
6.5876494885
 30
0.0
 10
4.5255753911
 20
6.5896389709
 30
0.0
 10
4.5254496428
 20
6.5909847046
 30
0.0
 10
4.5254496428
 20
6.5916469306
 30
0.0
  0
SPLINE
  5
3A0
100
AcDbEntity
  8
ALL_FEATURES
100
AcDbSpline
 62
7
  6
CONTINUOUS
 70
0
 71
3
 72
13
 73
9
 74
0
 42
0.0000001
 43
0.0000001
 44
0.0000000001
 40
0.0
 40
0.0
 40
0.0
 40
0.0
 40
0.1121581956
 40
0.2257026339
 40
0.341962835
 40
0.4621385417
 40
0.7179855373
 40
1.0
 40
1.0
 40
1.0
 40
1.0
 10
4.6454492336
 20
6.5983810712
 30
0.0
 10
4.6454492336
 20
6.5988226766
 30
0.0
 10
4.6453940928
 20
6.599712302
 30
0.0
 10
4.6451465527
 20
6.601038936
 30
0.0
 10
4.6447347097
 20
6.6023572141
 30
0.0
 10
4.6439537262
 20
6.6041349852
 30
0.0
 10
4.6425424184
 20
6.6063280821
 30
0.0
 10
4.6411026066
 20
6.6078935381
 30
0.0
 10
4.6402988672
 20
6.6086596739
 30
0.0
  0
SPLINE
  5
3A1
100
AcDbEntity
  8
ALL_FEATURES
100
AcDbSpline
 62
7
  6
CONTINUOUS
 70
0
 71
3
 72
15
 73
11
 74
0
 42
0.0000001
 43
0.0000001
 44
0.0000000001
 40
0.0
 40
0.0
 40
0.0
 40
0.0
 40
0.1574172456
 40
0.3040440834
 40
0.4401233334
 40
0.5662898259
 40
0.6835689287
 40
0.7935033187
 40
0.8981447961
 40
1.0
 40
1.0
 40
1.0
 40
1.0
 10
4.634115467
 20
6.5768154638
 30
0.0
 10
4.6349984441
 20
6.5773329997
 30
0.0
 10
4.6366702765
 20
6.5783919921
 30
0.0
 10
4.6389573748
 20
6.5801176667
 30
0.0
 10
4.6409213106
 20
6.5819161049
 30
0.0
 10
4.6425507681
 20
6.5837768241
 30
0.0
 10
4.6438341526
 20
6.5856912839
 30
0.0
 10
4.6447614636
 20
6.5876494885
 30
0.0
 10
4.6453234853
 20
6.5896389709
 30
0.0
 10
4.6454492336
 20
6.5909847046
 30
0.0
 10
4.6454492336
 20
6.5916469306
 30
0.0
  0
LINE
  5
3A2
100
AcDbEntity
  8
ALL_FEATURES
100
AcDbLine
 62
7
  6
CONTINUOUS
 10
4.6402988672
 20
6.6086596739
 11
4.638812113
 21
6.6099736445
  0
SPLINE
  5
3A3
100
AcDbEntity
  8
ALL_FEATURES
100
AcDbSpline
 62
7
  6
CONTINUOUS
 70
0
 71
3
 72
16
 73
12
 74
0
 42
0.0000001
 43
0.0000001
 44
0.0000000001
 40
0.0
 40
0.0
 40
0.0
 40
0.0
 40
0.0460126484
 40
0.0945780239
 40
0.1993219677
 40
0.3139439908
 40
0.4377063237
 40
0.5695391019
 40
0.7081818548
 40
0.8522532121
 40
1.0
 40
1.0
 40
1.0
 40
1.0
 10
4.6386655881
 20
6.6100933249
 30
0.0
 10
4.6381050323
 20
6.6105482091
 30
0.0
 10
4.6369186928
 20
6.6114417367
 30
0.0
 10
4.6343061332
 20
6.6131633287
 30
0.0
 10
4.6306018656
 20
6.6151682644
 30
0.0
 10
4.6256456904
 20
6.6172852881
 30
0.0
 10
4.6201366387
 20
6.6191425238
 30
0.0
 10
4.6141503663
 20
6.6207154941
 30
0.0
 10
4.6077671136
 20
6.6219818527
 30
0.0
 10
4.6010762877
 20
6.622923267
 30
0.0
 10
4.5965129831
 20
6.6233229498
 30
0.0
 10
4.5941994382
 20
6.6234670786
 30
0.0
  0
SPLINE
  5
3A4
100
AcDbEntity
  8
ALL_FEATURES
100
AcDbSpline
 62
7
  6
CONTINUOUS
 70
0
 71
3
 72
25
 73
21
 74
0
 42
0.0000001
 43
0.0000001
 44
0.0000000001
 40
0.0
 40
0.0
 40
0.0
 40
0.0
 40
0.0185060705
 40
0.0371790487
 40
0.0561812713
 40
0.0756634148
 40
0.1165552349
 40
0.1607898939
 40
0.2089725542
 40
0.2614692489
 40
0.3184370557
 40
0.3798758435
 40
0.4456590651
 40
0.5155582641
 40
0.5892638947
 40
0.6663875266
 40
0.7465083215
 40
0.8291790307
 40
0.9138912937
 40
1.0
 40
1.0
 40
1.0
 40
1.0
 10
4.6454492336
 20
6.5916469306
 30
0.0
 10
4.6454492336
 20
6.5920235741
 30
0.0
 10
4.6454092399
 20
6.5927808538
 30
0.0
 10
4.6452296268
 20
6.5939120465
 30
0.0
 10
4.6449303876
 20
6.5950382747
 30
0.0
 10
4.6443646602
 20
6.5965538085
 30
0.0
 10
4.6433427635
 20
6.5984350224
 30
0.0
 10
4.6416787043
 20
6.6005896497
 30
0.0
 10
4.6395747114
 20
6.602667205
 30
0.0
 10
4.6370473707
 20
6.6046530443
 30
0.0
 10
4.6341166589
 20
6.6065346717
 30
0.0
 10
4.6308045962
 20
6.608298138
 30
0.0
 10
4.6271365948
 20
6.6099304306
 30
0.0
 10
4.6231408999
 20
6.6114190588
 30
0.0
 10
4.6188487091
 20
6.6127521081
 30
0.0
 10
4.6142937798
 20
6.6139197464
 30
0.0
 10
4.6095111705
 20
6.6149120834
 30
0.0
 10
4.6045378581
 20
6.6157218234
 30
0.0
 10
4.5994147237
 20
6.6163415647
 30
0.0
 10
4.5959485683
 20
6.616623971
 30
0.0
 10
4.5941994382
 20
6.616732938
 30
0.0
  0
SPLINE
  5
3A5
100
AcDbEntity
  8
ALL_FEATURES
100
AcDbSpline
 62
7
  6
CONTINUOUS
 70
0
 71
3
 72
17
 73
13
 74
0
 42
0.0000001
 43
0.0000001
 44
0.0000000001
 40
0.0
 40
0.0
 40
0.0
 40
0.0
 40
0.0912026379
 40
0.1409786978
 40
0.1935329425
 40
0.2488317012
 40
0.3067963228
 40
0.4302652856
 40
0.5628452878
 40
0.7031113181
 40
0.8494884921
 40
1.0
 40
1.0
 40
1.0
 40
1.0
 10
4.5306000092
 20
6.6086596739
 30
0.0
 10
4.5316835311
 20
6.6096925025
 30
0.0
 10
4.5335023074
 20
6.6111413563
 30
0.0
 10
4.5361660046
 20
6.6128730464
 30
0.0
 10
4.5384165925
 20
6.6141525341
 30
0.0
 10
4.5408523309
 20
6.6153691638
 30
0.0
 10
4.5444096696
 20
6.6169352351
 30
0.0
 10
4.5492625085
 20
6.6186901152
 30
0.0
 10
4.5555332574
 20
6.62043798
 30
0.0
 10
4.5622739563
 20
6.6218423326
 30
0.0
 10
4.5693774108
 20
6.6228801637
 30
0.0
 10
4.5742338625
 20
6.6233134786
 30
0.0
 10
4.5766994382
 20
6.6234670786
 30
0.0
  0
SPLINE
  5
3A6
100
AcDbEntity
  8
ALL_FEATURES
100
AcDbSpline
 62
7
  6
CONTINUOUS
 70
0
 71
3
 72
25
 73
21
 74
0
 42
0.0000001
 43
0.0000001
 44
0.0000000001
 40
0.0
 40
0.0
 40
0.0
 40
0.0
 40
0.0185060705
 40
0.0371790487
 40
0.0561812713
 40
0.0756634148
 40
0.1165552349
 40
0.1607898939
 40
0.2089725542
 40
0.2614692489
 40
0.3184370557
 40
0.3798758435
 40
0.4456590651
 40
0.5155582641
 40
0.5892638947
 40
0.6663875266
 40
0.7465083215
 40
0.8291790307
 40
0.9138912937
 40
1.0
 40
1.0
 40
1.0
 40
1.0
 10
4.5254496428
 20
6.5916469306
 30
0.0
 10
4.5254496428
 20
6.5920235741
 30
0.0
 10
4.5254896365
 20
6.5927808538
 30
0.0
 10
4.5256692497
 20
6.5939120465
 30
0.0
 10
4.5259684889
 20
6.5950382747
 30
0.0
 10
4.5265342162
 20
6.5965538085
 30
0.0
 10
4.5275561129
 20
6.5984350224
 30
0.0
 10
4.5292201721
 20
6.6005896497
 30
0.0
 10
4.531324165
 20
6.602667205
 30
0.0
 10
4.5338515057
 20
6.6046530443
 30
0.0
 10
4.5367822175
 20
6.6065346717
 30
0.0
 10
4.5400942802
 20
6.608298138
 30
0.0
 10
4.5437622816
 20
6.6099304306
 30
0.0
 10
4.5477579765
 20
6.6114190588
 30
0.0
 10
4.5520501673
 20
6.6127521081
 30
0.0
 10
4.5566050966
 20
6.6139197464
 30
0.0
 10
4.5613877059
 20
6.6149120834
 30
0.0
 10
4.5663610183
 20
6.6157218234
 30
0.0
 10
4.5714841527
 20
6.6163415647
 30
0.0
 10
4.5749503081
 20
6.616623971
 30
0.0
 10
4.5766994382
 20
6.616732938
 30
0.0
  0
SPLINE
  5
3A7
100
AcDbEntity
  8
0
100
AcDbSpline
 62
7
  6
CONTINUOUS
 70
0
 71
3
 72
10
 73
6
 74
0
 42
0.0000001
 43
0.0000001
 44
0.0000000001
 40
0.0
 40
0.0
 40
0.0
 40
0.0
 40
0.4966474183
 40
0.7479697705
 40
1.0
 40
1.0
 40
1.0
 40
1.0
 10
4.7432069052
 20
6.8681859795
 30
0.0
 10
4.7571799536
 20
6.869697876
 30
0.0
 10
4.7782934247
 20
6.8713841209
 30
0.0
 10
4.8065719614
 20
6.8725081165
 30
0.0
 10
4.8208172452
 20
6.8726968813
 30
0.0
 10
4.8279494382
 20
6.8726968813
 30
0.0
  0
SPLINE
  5
3A8
100
AcDbEntity
  8
0
100
AcDbSpline
 62
7
  6
CONTINUOUS
 70
0
 71
3
 72
10
 73
6
 74
0
 42
0.0000001
 43
0.0000001
 44
0.0000000001
 40
0.0
 40
0.0
 40
0.0
 40
0.0
 40
0.252029834
 40
0.5033519749
 40
1.0
 40
1.0
 40
1.0
 40
1.0
 10
4.8279494382
 20
6.8726968813
 30
0.0
 10
4.8350811604
 20
6.8726968813
 30
0.0
 10
4.8493255089
 20
6.8725081412
 30
0.0
 10
4.877602226
 20
6.8713842923
 30
0.0
 10
4.8987143546
 20
6.8696982664
 30
0.0
 10
4.9126865306
 20
6.8681865682
 30
0.0
  0
LINE
  5
3A9
100
AcDbEntity
  8
0
100
AcDbLine
 62
7
  6
CONTINUOUS
 10
4.5438203078
 20
6.622227419
 11
4.5431304092
 21
6.6207976392
  0
LINE
  5
3AA
100
AcDbEntity
  8
0
100
AcDbLine
 62
7
  6
CONTINUOUS
 10
5.1120785686
 20
6.622227419
 11
5.1127684672
 21
6.6207976392
  0
SPLINE
  5
3AB
100
AcDbEntity
  8
ALL_FEATURES
100
AcDbSpline
 62
7
  6
CONTINUOUS
 70
0
 71
3
 72
28
 73
24
 74
0
 42
0.0000001
 43
0.0000001
 44
0.0000000001
 40
0.0
 40
0.0
 40
0.0
 40
0.0
 40
0.0227744532
 40
0.0455648691
 40
0.0685344691
 40
0.0917992442
 40
0.1154292936
 40
0.1394737488
 40
0.1891031287
 40
0.2148669453
 40
0.2413333866
 40
0.2685469874
 40
0.2965421027
 40
0.3549423563
 40
0.4166164176
 40
0.4814893634
 40
0.5493757758
 40
0.6199963556
 40
0.6929983343
 40
0.7679695399
 40
0.8444516549
 40
0.9219769284
 40
1.0
 40
1.0
 40
1.0
 40
1.0
 10
5.2069825692
 20
6.6173401324
 30
0.0
 10
5.2062249806
 20
6.6141257999
 30
0.0
 10
5.2043880446
 20
6.6077660958
 30
0.0
 10
5.2007233282
 20
6.5985139832
 30
0.0
 10
5.1962054682
 20
6.5895681624
 30
0.0
 10
5.1908862256
 20
6.5809333275
 30
0.0
 10
5.1848150899
 20
6.5726170004
 30
0.0
 10
5.1756838044
 20
6.5618475429
 30
0.0
 10
5.1652537595
 20
6.5518275063
 30
0.0
 10
5.1537816553
 20
6.5425181327
 30
0.0
 10
5.1444666826
 20
6.5357312504
 30
0.0
 10
5.1345663976
 20
6.5292239153
 30
0.0
 10
5.1204081853
 20
6.5207928509
 30
0.0
 10
5.10128943
 20
6.5109705112
 30
0.0
 10
5.076606849
 20
6.5004349775
 30
0.0
 10
5.0500178946
 20
6.4910084604
 30
0.0
 10
5.0216994027
 20
6.4827254981
 30
0.0
 10
4.9918498816
 20
6.4756264886
 30
0.0
 10
4.9606906824
 20
6.4697521392
 30
0.0
 10
4.9284619101
 20
6.4651400647
 30
0.0
 10
4.8954155957
 20
6.4618214832
 30
0.0
 10
4.8618209701
 20
6.4598214432
 30
0.0
 10
4.8392631555
 20
6.4593758236
 30
0.0
 10
4.8279494382
 20
6.4593758236
 30
0.0
  0
SPLINE
  5
3AC
100
AcDbEntity
  8
ALL_FEATURES
100
AcDbSpline
 62
7
  6
CONTINUOUS
 70
0
 71
3
 72
28
 73
24
 74
0
 42
0.0000001
 43
0.0000001
 44
0.0000000001
 40
0.0
 40
0.0
 40
0.0
 40
0.0
 40
0.0780232899
 40
0.1555490786
 40
0.2320314808
 40
0.3070028644
 40
0.3800050616
 40
0.4506257866
 40
0.5185122125
 40
0.5833851851
 40
0.6450592205
 40
0.7034592744
 40
0.731454319
 40
0.7586678294
 40
0.7851341531
 40
0.8108979188
 40
0.8605271195
 40
0.884570772
 40
0.9082002507
 40
0.9314652862
 40
0.9544361902
 40
0.977227619
 40
1.0
 40
1.0
 40
1.0
 40
1.0
 10
4.8279494382
 20
6.4593758236
 30
0.0
 10
4.8166356893
 20
6.4593758236
 30
0.0
 10
4.7940777687
 20
6.4598214548
 30
0.0
 10
4.7604829955
 20
6.4618215013
 30
0.0
 10
4.7274365406
 20
6.4651401094
 30
0.0
 10
4.6952076754
 20
6.469752233
 30
0.0
 10
4.6640484017
 20
6.4756266097
 30
0.0
 10
4.634198834
 20
6.4827256623
 30
0.0
 10
4.6058803314
 20
6.4910086801
 30
0.0
 10
4.5792913773
 20
6.5004352085
 30
0.0
 10
4.5546088634
 20
6.5109708219
 30
0.0
 10
4.5354901365
 20
6.5207931241
 30
0.0
 10
4.5213320086
 20
6.5292242285
 30
0.0
 10
4.5114317533
 20
6.5357315321
 30
0.0
 10
4.502116797
 20
6.5425183775
 30
0.0
 10
4.4906448762
 20
6.5518278987
 30
0.0
 10
4.4802149282
 20
6.5618477999
 30
0.0
 10
4.4710836903
 20
6.5726170036
 30
0.0
 10
4.4650126164
 20
6.5809331774
 30
0.0
 10
4.459693325
 20
6.5895681557
 30
0.0
 10
4.45517545
 20
6.5985143903
 30
0.0
 10
4.4515107988
 20
6.60776656
 30
0.0
 10
4.4496738269
 20
6.6141260924
 30
0.0
 10
4.4489163072
 20
6.6173401324
 30
0.0
  0
SPLINE
  5
3AD
100
AcDbEntity
  8
0
100
AcDbSpline
 62
7
  6
CONTINUOUS
 70
0
 71
3
 72
23
 73
19
 74
0
 42
0.0000001
 43
0.0000001
 44
0.0000000001
 40
0.0
 40
0.0
 40
0.0
 40
0.0
 40
0.0475145494
 40
0.0945194836
 40
0.1417659028
 40
0.1899899349
 40
0.239871329
 40
0.2920035722
 40
0.3468778877
 40
0.4048803165
 40
0.4662982813
 40
0.5313301364
 40
0.6000961406
 40
0.6726504181
 40
0.7489901603
 40
0.8290632424
 40
0.9127762692
 40
1.0
 40
1.0
 40
1.0
 40
1.0
 10
5.2234920299
 20
6.6873874319
 30
0.0
 10
5.2242598657
 20
6.6906450089
 30
0.0
 10
5.2253578045
 20
6.697236593
 30
0.0
 10
5.2256108416
 20
6.7072507231
 30
0.0
 10
5.2244523999
 20
6.7172524088
 30
0.0
 10
5.2218899884
 20
6.7271962027
 30
0.0
 10
5.2179396862
 20
6.7370432163
 30
0.0
 10
5.2126222862
 20
6.7467578827
 30
0.0
 10
5.2059621148
 20
6.7563081596
 30
0.0
 10
5.1979862252
 20
6.7656639923
 30
0.0
 10
5.1887241339
 20
6.7747959937
 30
0.0
 10
5.1782086573
 20
6.7836751393
 30
0.0
 10
5.1664763855
 20
6.7922728553
 30
0.0
 10
5.1535675909
 20
6.8005607325
 30
0.0
 10
5.1395265712
 20
6.8085109115
 30
0.0
 10
5.1244016072
 20
6.8160965935
 30
0.0
 10
5.1082451264
 20
6.8232916757
 30
0.0
 10
5.0970457349
 20
6.8277234109
 30
0.0
 10
5.0912907161
 20
6.8298745054
 30
0.0
  0
SPLINE
  5
3AE
100
AcDbEntity
  8
0
100
AcDbSpline
 62
7
  6
CONTINUOUS
 70
0
 71
3
 72
9
 73
5
 74
0
 42
0.0000001
 43
0.0000001
 44
0.0000000001
 40
0.0
 40
0.0
 40
0.0
 40
0.0
 40
0.2450069703
 40
1.0
 40
1.0
 40
1.0
 40
1.0
 10
5.0873855806
 20
6.8313150898
 30
0.0
 10
5.08508105
 20
6.8321540942
 30
0.0
 10
5.0756495775
 20
6.8355082401
 30
0.0
 10
5.0661207435
 20
6.8385872393
 30
0.0
 10
5.0588853497
 20
6.840769894
 30
0.0
  0
SPLINE
  5
3AF
100
AcDbEntity
  8
0
100
AcDbSpline
 62
7
  6
CONTINUOUS
 70
0
 71
3
 72
15
 73
11
 74
0
 42
0.0000001
 43
0.0000001
 44
0.0000000001
 40
0.0
 40
0.0
 40
0.0
 40
0.0
 40
0.1146430448
 40
0.2333235695
 40
0.3555408874
 40
0.4807579409
 40
0.6084097655
 40
0.7379047053
 40
0.8686434909
 40
1.0
 40
1.0
 40
1.0
 40
1.0
 10
5.0550206658
 20
6.8419211223
 30
0.0
 10
5.0465958994
 20
6.8443991478
 30
0.0
 10
5.029335346
 20
6.8490604913
 30
0.0
 10
5.0027699242
 20
6.8550894142
 30
0.0
 10
4.9751980387
 20
6.8602512068
 30
0.0
 10
4.9467787387
 20
6.8645158856
 30
0.0
 10
4.9176754304
 20
6.8678586972
 30
0.0
 10
4.8880551867
 20
6.8702604789
 30
0.0
 10
4.8580893109
 20
6.8717070163
 30
0.0
 10
4.8380113335
 20
6.8720288876
 30
0.0
 10
4.8279494382
 20
6.8720288876
 30
0.0
  0
SPLINE
  5
3B0
100
AcDbEntity
  8
0
100
AcDbSpline
 62
7
  6
CONTINUOUS
 70
0
 71
3
 72
23
 73
19
 74
0
 42
0.0000001
 43
0.0000001
 44
0.0000000001
 40
0.0
 40
0.0
 40
0.0
 40
0.0
 40
0.04814355
 40
0.0957643422
 40
0.1435776518
 40
0.1922873759
 40
0.2425484375
 40
0.2949387322
 40
0.3499426457
 40
0.4079474263
 40
0.4692476724
 40
0.5340526326
 40
0.60249723
 40
0.6746523618
 40
0.7505326502
 40
0.8301054843
 40
0.9132977181
 40
1.0
 40
1.0
 40
1.0
 40
1.0
 10
4.4324068465
 20
6.6873874319
 30
0.0
 10
4.4316620526
 20
6.6905472524
 30
0.0
 10
4.4305845523
 20
6.6969370173
 30
0.0
 10
4.4302772196
 20
6.7066426048
 30
0.0
 10
4.4312961044
 20
6.716339098
 30
0.0
 10
4.4336350652
 20
6.7259853611
 30
0.0
 10
4.4372805041
 20
6.7355458318
 30
0.0
 10
4.4422144848
 20
6.744987607
 30
0.0
 10
4.4484154056
 20
6.7542810818
 30
0.0
 10
4.455859392
 20
6.7633984016
 30
0.0
 10
4.4645203336
 20
6.7723123699
 30
0.0
 10
4.4743689667
 20
6.7809964736
 30
0.0
 10
4.485373018
 20
6.7894243567
 30
0.0
 10
4.4974969387
 20
6.7975697702
 30
0.0
 10
4.5107014122
 20
6.8054072548
 30
0.0
 10
4.5249438183
 20
6.8129119116
 30
0.0
 10
4.5401777779
 20
6.8200593342
 30
0.0
 10
4.5507499301
 20
6.8244822224
 30
0.0
 10
4.5561858834
 20
6.8266344222
 30
0.0
  0
SPLINE
  5
3B1
100
AcDbEntity
  8
0
100
AcDbSpline
 62
7
  6
CONTINUOUS
 70
0
 71
3
 72
15
 73
11
 74
0
 42
0.0000001
 43
0.0000001
 44
0.0000000001
 40
0.0
 40
0.0
 40
0.0
 40
0.0
 40
0.1091856615
 40
0.2244353817
 40
0.3450733164
 40
0.4703317876
 40
0.5993698317
 40
0.7312911466
 40
0.8651552183
 40
1.0
 40
1.0
 40
1.0
 40
1.0
 10
4.5561858834
 20
6.8266344222
 30
0.0
 10
4.5655606793
 20
6.8303460865
 30
0.0
 10
4.5850870053
 20
6.8373394611
 30
0.0
 10
4.6156652009
 20
6.8463582286
 30
0.0
 10
4.6481117281
 20
6.8541295921
 30
0.0
 10
4.6821406571
 20
6.8605841767
 30
0.0
 10
4.7174537141
 20
6.8656649703
 30
0.0
 10
4.7537402312
 20
6.8693266792
 30
0.0
 10
4.7906801564
 20
6.8715368919
 30
0.0
 10
4.8154971109
 20
6.8720288876
 30
0.0
 10
4.8279494382
 20
6.8720288876
 30
0.0
  0
SPLINE
  5
3B2
100
AcDbEntity
  8
ALL_FEATURES
100
AcDbSpline
 62
7
  6
CONTINUOUS
 70
0
 71
3
 72
15
 73
11
 74
0
 42
0.0000001
 43
0.0000001
 44
0.0000000001
 40
0.0
 40
0.0
 40
0.0
 40
0.0
 40
0.1317685017
 40
0.2628782911
 40
0.3926684184
 40
0.5204906649
 40
0.6457175813
 40
0.7677495488
 40
0.8860195573
 40
1.0
 40
1.0
 40
1.0
 40
1.0
 10
4.8279494382
 20
6.7598770068
 30
0.0
 10
4.8186974559
 20
6.7598770068
 30
0.0
 10
4.8002382654
 20
6.7595714804
 30
0.0
 10
4.772696788
 20
6.7581982501
 30
0.0
 10
4.7454930414
 20
6.7559187978
 30
0.0
 10
4.718794576
 20
6.7527471242
 30
0.0
 10
4.692765115
 20
6.7487027101
 30
0.0
 10
4.6675638964
 20
6.7438102822
 30
0.0
 10
4.6433458562
 20
6.7381000913
 30
0.0
 10
4.6276415872
 20
6.7336830795
 30
0.0
 10
4.6199906632
 20
6.7313354043
 30
0.0
  0
SPLINE
  5
3B3
100
AcDbEntity
  8
ALL_FEATURES
100
AcDbSpline
 62
7
  6
CONTINUOUS
 70
0
 71
3
 72
9
 73
5
 74
0
 42
0.0000001
 43
0.0000001
 44
0.0000000001
 40
0.0
 40
0.0
 40
0.0
 40
0.0
 40
0.2541101017
 40
1.0
 40
1.0
 40
1.0
 40
1.0
 10
4.6064307174
 20
6.7269597804
 30
0.0
 10
4.6048169982
 20
6.7264125221
 30
0.0
 10
4.5984783724
 20
6.7242241887
 30
0.0
 10
4.5921880769
 20
6.7218953217
 30
0.0
 10
4.5875299913
 20
6.7200733749
 30
0.0
  0
SPLINE
  5
3B4
100
AcDbEntity
  8
ALL_FEATURES
100
AcDbSpline
 62
7
  6
CONTINUOUS
 70
0
 71
3
 72
9
 73
5
 74
0
 42
0.0000001
 43
0.0000001
 44
0.0000000001
 40
0.0
 40
0.0
 40
0.0
 40
0.0
 40
0.2541851043
 40
1.0
 40
1.0
 40
1.0
 40
1.0
 10
4.5855402383
 20
6.7192890899
 30
0.0
 10
4.5841688596
 20
6.718744365
 30
0.0
 10
4.57878547
 20
6.7165717871
 30
0.0
 10
4.5734503424
 20
6.7142792017
 30
0.0
 10
4.569504517
 20
6.7124970299
 30
0.0
  0
SPLINE
  5
3B5
100
AcDbEntity
  8
ALL_FEATURES
100
AcDbSpline
 62
7
  6
CONTINUOUS
 70
0
 71
3
 72
43
 73
39
 74
0
 42
0.0000001
 43
0.0000001
 44
0.0000000001
 40
0.0
 40
0.0
 40
0.0
 40
0.0
 40
0.0318857145
 40
0.0619031314
 40
0.0900513869
 40
0.1163704517
 40
0.1409491157
 40
0.1526342171
 40
0.1639454109
 40
0.1855535858
 40
0.2060725096
 40
0.2160410862
 40
0.2258770984
 40
0.2356339873
 40
0.2453666707
 40
0.2551306381
 40
0.2649808395
 40
0.2749701791
 40
0.2851487249
 40
0.3062427377
 40
0.3285976995
 40
0.3524607821
 40
0.378007171
 40
0.4053511249
 40
0.434551964
 40
0.465626785
 40
0.4985525597
 40
0.5332777031
 40
0.5697235187
 40
0.6077918739
 40
0.6473653595
 40
0.6883117999
 40
0.7304853056
 40
0.7737298081
 40
0.8178805327
 40
0.862764944
 40
0.9082042246
 40
1.0
 40
1.0
 40
1.0
 40
1.0
 10
4.5538940176
 20
6.7049555295
 30
0.0
 10
4.5487784158
 20
6.7023105107
 30
0.0
 10
4.5389895573
 20
6.6968912979
 30
0.0
 10
4.5252969676
 20
6.6880905159
 30
0.0
 10
4.5130960935
 20
6.678899563
 30
0.0
 10
4.5024479443
 20
6.6693616047
 30
0.0
 10
4.4947854342
 20
6.6610208711
 30
0.0
 10
4.489529173
 20
6.6542175786
 30
0.0
 10
4.4849907255
 20
6.6475567327
 30
0.0
 10
4.4803153038
 20
6.639078558
 30
0.0
 10
4.4769834325
 20
6.6302375857
 30
0.0
 10
4.4752391092
 20
6.6231596161
 30
0.0
 10
4.4743836402
 20
6.6178832146
 30
0.0
 10
4.47396976
 20
6.6125967781
 30
0.0
 10
4.473997875
 20
6.6073071438
 30
0.0
 10
4.4744685883
 20
6.6020215431
 30
0.0
 10
4.4753813618
 20
6.5967472866
 30
0.0
 10
4.4767340444
 20
6.5914910963
 30
0.0
 10
4.4791488061
 20
6.584433969
 30
0.0
 10
4.4833191137
 20
6.5756516642
 30
0.0
 10
4.4899765518
 20
6.5654420751
 30
0.0
 10
4.4983068796
 20
6.5554771243
 30
0.0
 10
4.5082622428
 20
6.5457996627
 30
0.0
 10
4.5197939537
 20
6.5364525964
 30
0.0
 10
4.5328442954
 20
6.5274761396
 30
0.0
 10
4.5473510608
 20
6.5189137627
 30
0.0
 10
4.563242464
 20
6.5108041245
 30
0.0
 10
4.5804414247
 20
6.5031883982
 30
0.0
 10
4.5988627575
 20
6.4961020578
 30
0.0
 10
4.6184161958
 20
6.4895811795
 30
0.0
 10
4.639005055
 20
6.4836568709
 30
0.0
 10
4.6605277077
 20
6.4783588489
 30
0.0
 10
4.682877713
 20
6.4737131806
 30
0.0
 10
4.7059446313
 20
6.4697427015
 30
0.0
 10
4.7296144452
 20
6.4664670822
 30
0.0
 10
4.7537706752
 20
6.4639023642
 30
0.0
 10
4.7865748779
 20
6.4614399721
 30
0.0
 10
4.8113699982
 20
6.4607068167
 30
0.0
 10
4.8279494382
 20
6.4607068167
 30
0.0
  0
SPLINE
  5
3B6
100
AcDbEntity
  8
0
100
AcDbSpline
 62
7
  6
CONTINUOUS
 70
0
 71
3
 72
15
 73
11
 74
0
 42
0.0000001
 43
0.0000001
 44
0.0000000001
 40
0.0
 40
0.0
 40
0.0
 40
0.0
 40
0.0956764405
 40
0.1963507378
 40
0.3044538858
 40
0.4218114007
 40
0.5496344205
 40
0.6885491725
 40
0.838723908
 40
1.0
 40
1.0
 40
1.0
 40
1.0
 10
4.5112207941
 20
6.6054424279
 30
0.0
 10
4.5112211577
 20
6.604482706
 30
0.0
 10
4.511431028
 20
6.6025085008
 30
0.0
 10
4.512334969
 20
6.5995747632
 30
0.0
 10
4.5138206964
 20
6.5966447538
 30
0.0
 10
4.5158674517
 20
6.5937393515
 30
0.0
 10
4.5184567932
 20
6.5908756806
 30
0.0
 10
4.5215672913
 20
6.5880711839
 30
0.0
 10
4.5251751163
 20
6.5853445878
 30
0.0
 10
4.5278034631
 20
6.5836503969
 30
0.0
 10
4.5291899342
 20
6.5828168496
 30
0.0
  0
SPLINE
  5
3B7
100
AcDbEntity
  8
0
100
AcDbSpline
 62
7
  6
CONTINUOUS
 70
0
 71
3
 72
21
 73
17
 74
0
 42
0.0000001
 43
0.0000001
 44
0.0000000001
 40
0.0
 40
0.0
 40
0.0
 40
0.0
 40
0.1738471923
 40
0.3386688156
 40
0.4164265405
 40
0.4904591426
 40
0.5603843164
 40
0.6258865504
 40
0.6867465535
 40
0.7428637307
 40
0.7942937412
 40
0.8412984893
 40
0.8843956407
 40
0.9244098396
 40
0.9624825404
 40
1.0
 40
1.0
 40
1.0
 40
1.0
 10
4.5986508996
 20
6.5645197502
 30
0.0
 10
4.6032026211
 20
6.5643049132
 30
0.0
 10
4.6120889257
 20
6.5642127205
 30
0.0
 10
4.6229920808
 20
6.5649767247
 30
0.0
 10
4.631211851
 20
6.5661415587
 30
0.0
 10
4.6369192361
 20
6.5672517146
 30
0.0
 10
4.6422431941
 20
6.5686063765
 30
0.0
 10
4.6471405045
 20
6.5701968617
 30
0.0
 10
4.6515714171
 20
6.5720118222
 30
0.0
 10
4.6554999281
 20
6.5740393527
 30
0.0
 10
4.6588939665
 20
6.5762669681
 30
0.0
 10
4.6617254637
 20
6.5786817975
 30
0.0
 10
4.6639682819
 20
6.5812714257
 30
0.0
 10
4.6655962142
 20
6.5840221732
 30
0.0
 10
4.6665826805
 20
6.5869108558
 30
0.0
 10
4.6667982342
 20
6.5888994278
 30
0.0
 10
4.6667982491
 20
6.5898828152
 30
0.0
  0
SPLINE
  5
3B8
100
AcDbEntity
  8
0
100
AcDbSpline
 62
7
  6
CONTINUOUS
 70
0
 71
3
 72
9
 73
5
 74
0
 42
0.0000001
 43
0.0000001
 44
0.0000000001
 40
0.0
 40
0.0
 40
0.0
 40
0.0
 40
0.4845203868
 40
1.0
 40
1.0
 40
1.0
 40
1.0
 10
5.1145152292
 20
6.619483377
 30
0.0
 10
5.1142561603
 20
6.6200391381
 30
0.0
 10
5.113608454
 20
6.6211356581
 30
0.0
 10
5.1127854529
 20
6.6221045597
 30
0.0
 10
5.1123291032
 20
6.622570731
 30
0.0
  0
SPLINE
  5
3B9
100
AcDbEntity
  8
ALL_FEATURES
100
AcDbSpline
 62
7
  6
CONTINUOUS
 70
0
 71
3
 72
23
 73
19
 74
0
 42
0.0000001
 43
0.0000001
 44
0.0000000001
 40
0.0
 40
0.0
 40
0.0
 40
0.0
 40
0.0483545855
 40
0.0961829747
 40
0.1441876911
 40
0.1930624973
 40
0.2434532253
 40
0.2959340906
 40
0.3509847184
 40
0.4089942817
 40
0.4702583604
 40
0.5349888014
 40
0.6033281374
 40
0.6753487804
 40
0.7510752403
 40
0.8304776491
 40
0.9134865555
 40
1.0
 40
1.0
 40
1.0
 40
1.0
 10
5.2069825643
 20
6.6173401307
 30
0.0
 10
5.2076889636
 20
6.6203371003
 30
0.0
 10
5.2087143726
 20
6.6263964332
 30
0.0
 10
5.2090255629
 20
6.6355993177
 30
0.0
 10
5.2080920424
 20
6.6447945907
 30
0.0
 10
5.2059190739
 20
6.6539437844
 30
0.0
 10
5.2025204538
 20
6.6630144763
 30
0.0
 10
5.1979102525
 20
6.6719749507
 30
0.0
 10
5.1921107887
 20
6.6807988946
 30
0.0
 10
5.1851420077
 20
6.6894590403
 30
0.0
 10
5.1770290295
 20
6.6979306722
 30
0.0
 10
5.167798806
 20
6.706189453
 30
0.0
 10
5.1574800536
 20
6.7142094614
 30
0.0
 10
5.1461067267
 20
6.721968268
 30
0.0
 10
5.1337137918
 20
6.7294401525
 30
0.0
 10
5.1203413777
 20
6.736603018
 30
0.0
 10
5.1060323408
 20
6.7434338881
 30
0.0
 10
5.0960981943
 20
6.7476665451
 30
0.0
 10
5.0909894602
 20
6.7497279515
 30
0.0
  0
SPLINE
  5
3BA
100
AcDbEntity
  8
ALL_FEATURES
100
AcDbSpline
 62
7
  6
CONTINUOUS
 70
0
 71
3
 72
9
 73
5
 74
0
 42
0.0000001
 43
0.0000001
 44
0.0000000001
 40
0.0
 40
0.0
 40
0.0
 40
0.0
 40
0.2443978083
 40
1.0
 40
1.0
 40
1.0
 40
1.0
 10
5.0870978361
 20
6.7512763478
 30
0.0
 10
5.084823195
 20
6.7521687476
 30
0.0
 10
5.0754857374
 20
6.7557425969
 30
0.0
 10
5.066032767
 20
6.7590128513
 30
0.0
 10
5.0588422153
 20
6.7613288861
 30
0.0
  0
SPLINE
  5
3BB
100
AcDbEntity
  8
ALL_FEATURES
100
AcDbSpline
 62
7
  6
CONTINUOUS
 70
0
 71
3
 72
15
 73
11
 74
0
 42
0.0000001
 43
0.0000001
 44
0.0000000001
 40
0.0
 40
0.0
 40
0.0
 40
0.0
 40
0.1135362849
 40
0.2315302592
 40
0.3534367799
 40
0.4786689226
 40
0.6066042174
 40
0.7365901853
 40
0.8679516628
 40
1.0
 40
1.0
 40
1.0
 40
1.0
 10
5.0556221481
 20
6.7623547155
 30
0.0
 10
5.0472932645
 20
6.7649789935
 30
0.0
 10
5.0301758512
 20
6.7699168152
 30
0.0
 10
5.0037436223
 20
6.7762990581
 30
0.0
 10
4.9761901806
 20
6.7817699515
 30
0.0
 10
4.9476919101
 20
6.7862944912
 30
0.0
 10
4.9184301514
 20
6.7898438683
 30
0.0
 10
4.8885915907
 20
6.7923954001
 30
0.0
 10
4.8583674058
 20
6.7939327969
 30
0.0
 10
4.838105808
 20
6.7942748635
 30
0.0
 10
4.8279494382
 20
6.7942748635
 30
0.0
  0
SPLINE
  5
3BC
100
AcDbEntity
  8
0
100
AcDbSpline
 62
7
  6
CONTINUOUS
 70
0
 71
3
 72
20
 73
16
 74
0
 42
0.0000001
 43
0.0000001
 44
0.0000000001
 40
0.0
 40
0.0
 40
0.0
 40
0.0
 40
0.0405357615
 40
0.0825534849
 40
0.1267170693
 40
0.1735692642
 40
0.2235165982
 40
0.2768417001
 40
0.3337232841
 40
0.3942450024
 40
0.4584207825
 40
0.5261956643
 40
0.6720546394
 40
0.8305798952
 40
1.0
 40
1.0
 40
1.0
 40
1.0
 10
4.6667982491
 20
6.5898828152
 30
0.0
 10
4.6667982414
 20
6.5906154308
 30
0.0
 10
4.6666784857
 20
6.5921097027
 30
0.0
 10
4.6661545586
 20
6.5943468229
 30
0.0
 10
4.6652891922
 20
6.5965973987
 30
0.0
 10
4.6640886569
 20
6.598850791
 30
0.0
 10
4.662559573
 20
6.6010977251
 30
0.0
 10
4.6607098018
 20
6.6033289671
 30
0.0
 10
4.6585477497
 20
6.6055348411
 30
0.0
 10
4.656083545
 20
6.6077061079
 30
0.0
 10
4.6533279617
 20
6.6098328243
 30
0.0
 10
4.6491801407
 20
6.6126663237
 30
0.0
 10
4.6433313858
 20
6.616011227
 30
0.0
 10
4.6355528979
 20
6.619611545
 30
0.0
 10
4.6299987227
 20
6.6216971907
 30
0.0
 10
4.6270989989
 20
6.6226807265
 30
0.0
  0
SPLINE
  5
3BD
100
AcDbEntity
  8
0
100
AcDbSpline
 62
7
  6
CONTINUOUS
 70
0
 71
3
 72
17
 73
13
 74
0
 42
0.0000001
 43
0.0000001
 44
0.0000000001
 40
0.0
 40
0.0
 40
0.0
 40
0.0
 40
0.1282701955
 40
0.2618422763
 40
0.3975652975
 40
0.5322127506
 40
0.6626037822
 40
0.7857227641
 40
0.8437150237
 40
0.898915572
 40
0.9510786346
 40
1.0
 40
1.0
 40
1.0
 40
1.0
 10
4.6270989989
 20
6.6226807265
 30
0.0
 10
4.6230794817
 20
6.6240440769
 30
0.0
 10
4.6147475502
 20
6.6264628816
 30
0.0
 10
4.6018568892
 20
6.6291451297
 30
0.0
 10
4.5885952198
 20
6.630907251
 30
0.0
 10
4.5753458098
 20
6.6317004326
 30
0.0
 10
4.5624909488
 20
6.6315042347
 30
0.0
 10
4.5522169571
 20
6.6305042973
 30
0.0
 10
4.5445063677
 20
6.6291863818
 30
0.0
 10
4.5391658541
 20
6.6279827332
 30
0.0
 10
4.5341923206
 20
6.6265549448
 30
0.0
 10
4.5310416614
 20
6.6254218865
 30
0.0
 10
4.5295408439
 20
6.62481521
 30
0.0
  0
SPLINE
  5
3BE
100
AcDbEntity
  8
0
100
AcDbSpline
 62
7
  6
CONTINUOUS
 70
0
 71
3
 72
15
 73
11
 74
0
 42
0.0000001
 43
0.0000001
 44
0.0000000001
 40
0.0
 40
0.0
 40
0.0
 40
0.0
 40
0.1611439032
 40
0.3100918365
 40
0.4470552325
 40
0.5727353891
 40
0.6884419809
 40
0.7962613292
 40
0.899003891
 40
1.0
 40
1.0
 40
1.0
 40
1.0
 10
4.5295408439
 20
6.62481521
 30
0.0
 10
4.5281341039
 20
6.6242465625
 30
0.0
 10
4.5254652118
 20
6.6230531339
 30
0.0
 10
4.5217833343
 20
6.620999967
 30
0.0
 10
4.5186059343
 20
6.6187666413
 30
0.0
 10
4.5159575404
 20
6.6163677784
 30
0.0
 10
4.5138625786
 20
6.6138154579
 30
0.0
 10
4.5123427225
 20
6.6111249362
 30
0.0
 10
4.5114240021
 20
6.6083179962
 30
0.0
 10
4.5112210859
 20
6.6063934039
 30
0.0
 10
4.5112207941
 20
6.6054424279
 30
0.0
  0
SPLINE
  5
3BF
100
AcDbEntity
  8
ALL_FEATURES
100
AcDbSpline
 62
7
  6
CONTINUOUS
 70
0
 71
3
 72
15
 73
11
 74
0
 42
0.0000001
 43
0.0000001
 44
0.0000000001
 40
0.0
 40
0.0
 40
0.0
 40
0.0
 40
0.1319094447
 40
0.2631459878
 40
0.3930346117
 40
0.5209136424
 40
0.6461430755
 40
0.7681118173
 40
0.8862427792
 40
1.0
 40
1.0
 40
1.0
 40
1.0
 10
4.8279494382
 20
6.7942748635
 30
0.0
 10
4.8178920139
 20
6.7942748635
 30
0.0
 10
4.7978268325
 20
6.793939406
 30
0.0
 10
4.7678924474
 20
6.7924316741
 30
0.0
 10
4.7383326296
 20
6.7899291724
 30
0.0
 10
4.7093331271
 20
6.7864475838
 30
0.0
 10
4.6810753687
 20
6.7820087321
 30
0.0
 10
4.6537357182
 20
6.7766402966
 30
0.0
 10
4.6274856678
 20
6.7703761782
 30
0.0
 10
4.610475026
 20
6.765530097
 30
0.0
 10
4.6021928426
 20
6.7629545444
 30
0.0
  0
SPLINE
  5
3C0
100
AcDbEntity
  8
ALL_FEATURES
100
AcDbSpline
 62
7
  6
CONTINUOUS
 70
0
 71
3
 72
9
 73
5
 74
0
 42
0.0000001
 43
0.0000001
 44
0.0000000001
 40
0.0
 40
0.0
 40
0.0
 40
0.0
 40
0.2563228724
 40
1.0
 40
1.0
 40
1.0
 40
1.0
 10
4.6021928426
 20
6.7629545444
 30
0.0
 10
4.5993428047
 20
6.7620682536
 30
0.0
 10
4.5882528339
 20
6.7585185633
 30
0.0
 10
4.5772817326
 20
6.7545937298
 30
0.0
 10
4.5692171768
 20
6.7514393924
 30
0.0
  0
SPLINE
  5
3C1
100
AcDbEntity
  8
ALL_FEATURES
100
AcDbSpline
 62
7
  6
CONTINUOUS
 70
0
 71
3
 72
23
 73
19
 74
0
 42
0.0000001
 43
0.0000001
 44
0.0000000001
 40
0.0
 40
0.0
 40
0.0
 40
0.0
 40
0.0868084566
 40
0.1701112297
 40
0.2497945063
 40
0.325773841
 40
0.3980156919
 40
0.4665293023
 40
0.5313824059
 40
0.5927082036
 40
0.6507112752
 40
0.7056876099
 40
0.7580217218
 40
0.8082015391
 40
0.8568075961
 40
0.9045001972
 40
0.9519901329
 40
1.0
 40
1.0
 40
1.0
 40
1.0
 10
4.5692171768
 20
6.7514393924
 30
0.0
 10
4.5639443678
 20
6.7493770075
 30
0.0
 10
4.5536878869
 20
6.7451364407
 30
0.0
 10
4.5389049649
 20
6.738276331
 30
0.0
 10
4.5250793907
 20
6.7310680694
 30
0.0
 10
4.5122581196
 20
6.7235334578
 30
0.0
 10
4.5004825175
 20
6.7156985457
 30
0.0
 10
4.4897915831
 20
6.7075873345
 30
0.0
 10
4.4802205111
 20
6.6992253321
 30
0.0
 10
4.4718001791
 20
6.6906391602
 30
0.0
 10
4.4645608598
 20
6.6818532102
 30
0.0
 10
4.4585263058
 20
6.6728956976
 30
0.0
 10
4.4537220178
 20
6.6637922097
 30
0.0
 10
4.4501676678
 20
6.6545726819
 30
0.0
 10
4.4478814569
 20
6.6452686464
 30
0.0
 10
4.4468780612
 20
6.6359149135
 30
0.0
 10
4.4471608667
 20
6.6265518236
 30
0.0
 10
4.4481982302
 20
6.6203879074
 30
0.0
 10
4.4489166321
 20
6.6173401456
 30
0.0
  0
SPLINE
  5
3C2
100
AcDbEntity
  8
0
100
AcDbSpline
 62
7
  6
CONTINUOUS
 70
0
 71
3
 72
9
 73
5
 74
0
 42
0.0000001
 43
0.0000001
 44
0.0000000001
 40
0.0
 40
0.0
 40
0.0
 40
0.0
 40
0.2365629581
 40
1.0
 40
1.0
 40
1.0
 40
1.0
 10
4.6437840255
 20
6.6042826337
 30
0.0
 10
4.6436666104
 20
6.6045726325
 30
0.0
 10
4.6431264728
 20
6.6057807455
 30
0.0
 10
4.6424246971
 20
6.6069129867
 30
0.0
 10
4.6418318587
 20
6.6077303034
 30
0.0
  0
LINE
  5
3C3
100
AcDbEntity
  8
0
100
AcDbLine
 62
7
  6
CONTINUOUS
 10
4.6418318587
 20
6.6077303034
 11
4.640276613
 21
6.6096434392
  0
LINE
  5
3C4
100
AcDbEntity
  8
0
100
AcDbLine
 62
7
  6
CONTINUOUS
 10
5.0157181672
 20
6.6097493342
 11
5.0141303314
 21
6.6078171164
  0
SPLINE
  5
3C5
100
AcDbEntity
  8
0
100
AcDbSpline
 62
7
  6
CONTINUOUS
 70
0
 71
3
 72
9
 73
5
 74
0
 42
0.0000001
 43
0.0000001
 44
0.0000000001
 40
0.0
 40
0.0
 40
0.0
 40
0.0
 40
0.2647883271
 40
1.0
 40
1.0
 40
1.0
 40
1.0
 10
5.0141303314
 20
6.6078171164
 30
0.0
 10
5.0139179296
 20
6.6075274624
 30
0.0
 10
5.0131443921
 20
6.6064134311
 30
0.0
 10
5.0124913089
 20
6.6052114467
 30
0.0
 10
5.0121166872
 20
6.6042871665
 30
0.0
  0
SPLINE
  5
3C6
100
AcDbEntity
  8
ALL_FEATURES
100
AcDbSpline
 62
7
  6
CONTINUOUS
 70
0
 71
3
 72
43
 73
39
 74
0
 42
0.0000001
 43
0.0000001
 44
0.0000000001
 40
0.0
 40
0.0
 40
0.0
 40
0.0
 40
0.0917882747
 40
0.137222382
 40
0.1821000635
 40
0.2262419789
 40
0.2694752484
 40
0.3116345994
 40
0.3525637301
 40
0.3921168137
 40
0.4301610203
 40
0.4665798049
 40
0.5012741906
 40
0.5341670508
 40
0.565204075
 40
0.5943660224
 40
0.621668356
 40
0.647173803
 40
0.6709959807
 40
0.6933141597
 40
0.7143764995
 40
0.7245427074
 40
0.7345220496
 40
0.7443649704
 40
0.754124909
 40
0.7638568617
 40
0.7736164592
 40
0.783458885
 40
0.7934373503
 40
0.813986244
 40
0.835637666
 40
0.8469741619
 40
0.8586874088
 40
0.8833289207
 40
0.9097169978
 40
0.9379398262
 40
0.9680348244
 40
1.0
 40
1.0
 40
1.0
 40
1.0
 10
4.8279494382
 20
6.4607068167
 30
0.0
 10
4.84455172
 20
6.4607068167
 30
0.0
 10
4.8693807621
 20
6.4614419747
 30
0.0
 10
4.9022290949
 20
6.4639111501
 30
0.0
 10
4.9264164819
 20
6.4664828573
 30
0.0
 10
4.950115402
 20
6.4697673344
 30
0.0
 10
4.973208894
 20
6.4737484374
 30
0.0
 10
4.9955824901
 20
6.4784064556
 30
0.0
 10
5.017125425
 20
6.4837182356
 30
0.0
 10
5.037730859
 20
6.4896576658
 30
0.0
 10
5.0572967617
 20
6.4961953686
 30
0.0
 10
5.0757265926
 20
6.5032987087
 30
0.0
 10
5.0929290203
 20
6.5109339312
 30
0.0
 10
5.1088197849
 20
6.5190618775
 30
0.0
 10
5.1233197447
 20
6.5276452304
 30
0.0
 10
5.1363590779
 20
6.5366409034
 30
0.0
 10
5.1478730568
 20
6.5460094732
 30
0.0
 10
5.1578068075
 20
6.5557064354
 30
0.0
 10
5.1661079438
 20
6.5656926838
 30
0.0
 10
5.1727327389
 20
6.5759214444
 30
0.0
 10
5.1768679845
 20
6.584720126
 30
0.0
 10
5.1792536404
 20
6.591788331
 30
0.0
 10
5.1805831659
 20
6.5970531396
 30
0.0
 10
5.181470526
 20
6.6023357757
 30
0.0
 10
5.1819152661
 20
6.6076292077
 30
0.0
 10
5.1819167411
 20
6.6129262811
 30
0.0
 10
5.1814744805
 20
6.6182197489
 30
0.0
 10
5.1805886014
 20
6.6235025277
 30
0.0
 10
5.178802825
 20
6.6305897237
 30
0.0
 10
5.1754159547
 20
6.6394406499
 30
0.0
 10
5.1706836362
 20
6.6479236356
 30
0.0
 10
5.1660994941
 20
6.6545886155
 30
0.0
 10
5.1607932328
 20
6.6613956161
 30
0.0
 10
5.1530666838
 20
6.6697389403
 30
0.0
 10
5.1423412648
 20
6.6792775927
 30
0.0
 10
5.1300605808
 20
6.6884658607
 30
0.0
 10
5.1162869985
 20
6.6972618012
 30
0.0
 10
5.1064441858
 20
6.7026757461
 30
0.0
 10
5.1013015439
 20
6.7053180207
 30
0.0
  0
SPLINE
  5
3C7
100
AcDbEntity
  8
ALL_FEATURES
100
AcDbSpline
 62
7
  6
CONTINUOUS
 70
0
 71
3
 72
9
 73
5
 74
0
 42
0.0000001
 43
0.0000001
 44
0.0000000001
 40
0.0
 40
0.0
 40
0.0
 40
0.0
 40
0.2452468497
 40
1.0
 40
1.0
 40
1.0
 40
1.0
 10
5.0883286964
 20
6.7116164894
 30
0.0
 10
5.086876212
 20
6.7122831298
 30
0.0
 10
5.0809348986
 20
6.7149603558
 30
0.0
 10
5.0749213718
 20
6.7174767156
 30
0.0
 10
5.0703503731
 20
6.7192923264
 30
0.0
  0
SPLINE
  5
3C8
100
AcDbEntity
  8
ALL_FEATURES
100
AcDbSpline
 62
7
  6
CONTINUOUS
 70
0
 71
3
 72
15
 73
11
 74
0
 42
0.0000001
 43
0.0000001
 44
0.0000000001
 40
0.0
 40
0.0
 40
0.0
 40
0.0
 40
0.1139687185
 40
0.2322319433
 40
0.354260875
 40
0.4794882034
 40
0.6073135402
 40
0.7371087455
 40
0.8682246864
 40
1.0
 40
1.0
 40
1.0
 40
1.0
 10
5.0360125754
 20
6.7313033678
 30
0.0
 10
5.0283590053
 20
6.7336537473
 30
0.0
 10
5.0126486269
 20
6.7380755059
 30
0.0
 10
4.9884204218
 20
6.7437921936
 30
0.0
 10
4.9632073708
 20
6.7486900706
 30
0.0
 10
4.9371647653
 20
6.7527390441
 30
0.0
 10
4.9104520825
 20
6.7559143088
 30
0.0
 10
4.8832333413
 20
6.7581963415
 30
0.0
 10
4.8556763607
 20
6.7595711333
 30
0.0
 10
4.837206693
 20
6.7598770068
 30
0.0
 10
4.8279494382
 20
6.7598770068
 30
0.0
  0
SPLINE
  5
3C9
100
AcDbEntity
  8
0
100
AcDbSpline
 62
7
  6
CONTINUOUS
 70
0
 71
3
 72
21
 73
17
 74
0
 42
0.0000001
 43
0.0000001
 44
0.0000000001
 40
0.0
 40
0.0
 40
0.0
 40
0.0
 40
0.0375152415
 40
0.0755856203
 40
0.1155977247
 40
0.1586931221
 40
0.205696734
 40
0.2571263043
 40
0.3132435899
 40
0.3741046644
 40
0.4396081127
 40
0.5095348777
 40
0.5835689776
 40
0.6613282294
 40
0.826152295
 40
1.0
 40
1.0
 40
1.0
 40
1.0
 10
4.9891006273
 20
6.5898828152
 30
0.0
 10
4.9891006429
 20
6.588899337
 30
0.0
 10
4.9893162328
 20
6.5869105816
 30
0.0
 10
4.9903028836
 20
6.5840216549
 30
0.0
 10
4.9919310968
 20
6.5812706986
 30
0.0
 10
4.9941743
 20
6.5786808898
 30
0.0
 10
4.9970062967
 20
6.5762659109
 30
0.0
 10
5.0004009531
 20
6.5740381893
 30
0.0
 10
5.0043301774
 20
6.5720105384
 30
0.0
 10
5.0087619368
 20
6.5701955659
 30
0.0
 10
5.0136601653
 20
6.5686050578
 30
0.0
 10
5.0189851214
 20
6.567250485
 30
0.0
 10
5.0246935498
 20
6.5661404513
 30
0.0
 10
5.0329147742
 20
6.5649758964
 30
0.0
 10
5.0438197414
 20
6.5642124015
 30
0.0
 10
5.0527074649
 20
6.5643051437
 30
0.0
 10
5.0572598749
 20
6.5645203115
 30
0.0
  0
SPLINE
  5
3CA
100
AcDbEntity
  8
0
100
AcDbSpline
 62
7
  6
CONTINUOUS
 70
0
 71
3
 72
15
 73
11
 74
0
 42
0.0000001
 43
0.0000001
 44
0.0000000001
 40
0.0
 40
0.0
 40
0.0
 40
0.0
 40
0.161315
 40
0.3115247771
 40
0.4504618995
 40
0.578299307
 40
0.6956498886
 40
0.8037270196
 40
0.9043608732
 40
1.0
 40
1.0
 40
1.0
 40
1.0
 10
5.1266720656
 20
6.5827946952
 30
0.0
 10
5.1280613096
 20
6.583628874
 30
0.0
 10
5.1306949423
 20
6.5853244701
 30
0.0
 10
5.1343103483
 20
6.5880533697
 30
0.0
 10
5.1374272027
 20
6.5908608275
 30
0.0
 10
5.1400220482
 20
6.5937273764
 30
0.0
 10
5.1420727891
 20
6.5966359601
 30
0.0
 10
5.1435617222
 20
6.5995687669
 30
0.0
 10
5.1444677097
 20
6.6025054222
 30
0.0
 10
5.1446777927
 20
6.6044817097
 30
0.0
 10
5.1446780823
 20
6.6054424279
 30
0.0
  0
SPLINE
  5
3CB
100
AcDbEntity
  8
0
100
AcDbSpline
 62
7
  6
CONTINUOUS
 70
0
 71
3
 72
15
 73
11
 74
0
 42
0.0000001
 43
0.0000001
 44
0.0000000001
 40
0.0
 40
0.0
 40
0.0
 40
0.0
 40
0.1005233248
 40
0.2028681274
 40
0.3104198342
 40
0.4260275448
 40
0.5517876544
 40
0.6890040193
 40
0.8383486475
 40
1.0
 40
1.0
 40
1.0
 40
1.0
 10
5.1446780823
 20
6.6054424279
 30
0.0
 10
5.1446777135
 20
6.6064068751
 30
0.0
 10
5.144468594
 20
6.6083596707
 30
0.0
 10
5.143523134
 20
6.6112056289
 30
0.0
 10
5.1419596378
 20
6.6139305867
 30
0.0
 10
5.1398054821
 20
6.6165117047
 30
0.0
 10
5.1370840752
 20
6.6189339678
 30
0.0
 10
5.133820598
 20
6.621184655
 30
0.0
 10
5.1300410266
 20
6.6232489704
 30
0.0
 10
5.1273032464
 20
6.6244449263
 30
0.0
 10
5.1258604435
 20
6.6250138638
 30
0.0
  0
SPLINE
  5
3CC
100
AcDbEntity
  8
0
100
AcDbSpline
 62
7
  6
CONTINUOUS
 70
0
 71
3
 72
17
 73
13
 74
0
 42
0.0000001
 43
0.0000001
 44
0.0000000001
 40
0.0
 40
0.0
 40
0.0
 40
0.0
 40
0.0491991819
 40
0.1015897741
 40
0.1569655806
 40
0.2150809787
 40
0.3383016474
 40
0.4686304161
 40
0.6030995032
 40
0.7385836802
 40
0.8719149282
 40
1.0
 40
1.0
 40
1.0
 40
1.0
 10
5.1258604435
 20
6.6250138638
 30
0.0
 10
5.1243558368
 20
6.6256071723
 30
0.0
 10
5.1212017675
 20
6.626714547
 30
0.0
 10
5.1162306201
 20
6.6281085486
 30
0.0
 10
5.1109021967
 20
6.6292811463
 30
0.0
 10
5.1032236674
 20
6.630560577
 30
0.0
 10
5.0930088167
 20
6.6315229254
 30
0.0
 10
5.0802423219
 20
6.6316903873
 30
0.0
 10
5.0670965301
 20
6.6308845376
 30
0.0
 10
5.0539445643
 20
6.6291258675
 30
0.0
 10
5.0411603527
 20
6.6264623219
 30
0.0
 10
5.0328956007
 20
6.6240663369
 30
0.0
 10
5.0289070172
 20
6.622717023
 30
0.0
  0
SPLINE
  5
3CD
100
AcDbEntity
  8
0
100
AcDbSpline
 62
7
  6
CONTINUOUS
 70
0
 71
3
 72
20
 73
16
 74
0
 42
0.0000001
 43
0.0000001
 44
0.0000000001
 40
0.0
 40
0.0
 40
0.0
 40
0.0
 40
0.1694284827
 40
0.3279733275
 40
0.4738551867
 40
0.5416406535
 40
0.6058250529
 40
0.6663527254
 40
0.7232367842
 40
0.7765600822
 40
0.8265009102
 40
0.8733417017
 40
0.9174891735
 40
0.9594869226
 40
1.0
 40
1.0
 40
1.0
 40
1.0
 10
5.0289070172
 20
6.622717023
 30
0.0
 10
5.0260003184
 20
6.6217337043
 30
0.0
 10
5.0204324398
 20
6.6196479174
 30
0.0
 10
5.0126340743
 20
6.616045805
 30
0.0
 10
5.0067696569
 20
6.6126980564
 30
0.0
 10
5.0026103109
 20
6.6098615094
 30
0.0
 10
4.9998469399
 20
6.6077322585
 30
0.0
 10
4.9973756639
 20
6.6055581912
 30
0.0
 10
4.9952073087
 20
6.6033493076
 30
0.0
 10
4.9933520862
 20
6.6011148686
 30
0.0
 10
4.9918184456
 20
6.5988646074
 30
0.0
 10
4.9906142916
 20
6.5966078
 30
0.0
 10
4.9897462988
 20
6.5943537554
 30
0.0
 10
4.989220766
 20
6.5921131677
 30
0.0
 10
4.9891006346
 20
6.5906165476
 30
0.0
 10
4.9891006273
 20
6.5898828152
 30
0.0
  0
LINE
  5
3CE
100
AcDbEntity
  8
0
100
AcDbLine
 62
7
  6
CONTINUOUS
 10
4.5427356515
 20
6.6216330643
 11
4.5419114343
 21
6.6204648453
  0
LINE
  5
3CF
100
AcDbEntity
  8
0
100
AcDbLine
 62
7
  6
CONTINUOUS
 10
4.5419114343
 20
6.6204648453
 11
4.5410366083
 21
6.6186318129
  0
SPLINE
  5
3D0
100
AcDbEntity
  8
0
100
AcDbSpline
 62
7
  6
CONTINUOUS
 70
0
 71
3
 72
37
 73
33
 74
0
 42
0.0000001
 43
0.0000001
 44
0.0000000001
 40
0.0
 40
0.0
 40
0.0
 40
0.0
 40
0.0227342061
 40
0.0468799701
 40
0.0724286317
 40
0.0993515506
 40
0.1275997057
 40
0.1571096363
 40
0.1878035679
 40
0.219592593
 40
0.2523780135
 40
0.2860522883
 40
0.3205014772
 40
0.3556047818
 40
0.3912375313
 40
0.4272702729
 40
0.5
 40
0.5727297271
 40
0.6087624687
 40
0.6443952182
 40
0.6794985228
 40
0.7139477117
 40
0.7476219865
 40
0.780407407
 40
0.8121964321
 40
0.8428903637
 40
0.8724002943
 40
0.9006484494
 40
0.9275713683
 40
0.9531200299
 40
0.9772657939
 40
1.0
 40
1.0
 40
1.0
 40
1.0
 10
5.1454828617
 20
6.80516089
 30
0.0
 10
5.1415078299
 20
6.8082575107
 30
0.0
 10
5.133054315
 20
6.8143181349
 30
0.0
 10
5.1193902949
 20
6.8227637164
 30
0.0
 10
5.1044219718
 20
6.8308041253
 30
0.0
 10
5.0882155517
 20
6.8384013384
 30
0.0
 10
5.0708432109
 20
6.8455238759
 30
0.0
 10
5.0523817862
 20
6.8521386808
 30
0.0
 10
5.0329138309
 20
6.8582171692
 30
0.0
 10
5.0125261351
 20
6.8637315668
 30
0.0
 10
4.9913099818
 20
6.8686571938
 30
0.0
 10
4.969360401
 20
6.8729721683
 30
0.0
 10
4.9467757615
 20
6.8766563953
 30
0.0
 10
4.9236574982
 20
6.8796942078
 30
0.0
 10
4.9001091279
 20
6.8820707743
 30
0.0
 10
4.8681827338
 20
6.884351734
 30
0.0
 10
4.8279494382
 20
6.8854853837
 30
0.0
 10
4.7877161426
 20
6.884351734
 30
0.0
 10
4.7557897485
 20
6.8820707743
 30
0.0
 10
4.7322413782
 20
6.8796942078
 30
0.0
 10
4.7091231149
 20
6.8766563953
 30
0.0
 10
4.6865384754
 20
6.8729721683
 30
0.0
 10
4.6645888947
 20
6.8686571938
 30
0.0
 10
4.6433727413
 20
6.8637315668
 30
0.0
 10
4.6229850455
 20
6.8582171692
 30
0.0
 10
4.6035170902
 20
6.8521386808
 30
0.0
 10
4.5850556655
 20
6.8455238759
 30
0.0
 10
4.5676833247
 20
6.8384013384
 30
0.0
 10
4.5514769046
 20
6.8308041253
 30
0.0
 10
4.5365085815
 20
6.8227637164
 30
0.0
 10
4.5228445614
 20
6.8143181349
 30
0.0
 10
4.5143910465
 20
6.8082575107
 30
0.0
 10
4.5104160147
 20
6.80516089
 30
0.0
  0
SPLINE
  5
3D1
100
AcDbEntity
  8
0
100
AcDbSpline
 62
7
  6
CONTINUOUS
 70
0
 71
3
 72
41
 73
37
 74
0
 42
0.0000001
 43
0.0000001
 44
0.0000000001
 40
0.0
 40
0.0
 40
0.0
 40
0.0
 40
0.019561218
 40
0.0407135318
 40
0.0519423432
 40
0.0636197744
 40
0.0883423473
 40
0.1149120145
 40
0.1432965045
 40
0.1734299988
 40
0.2052124325
 40
0.2385163642
 40
0.2731966817
 40
0.3090850782
 40
0.3460033189
 40
0.3837583914
 40
0.4221487355
 40
0.4609671104
 40
0.4999999811
 40
0.539032852
 40
0.5778512275
 40
0.6162415727
 40
0.6539966465
 40
0.690914889
 40
0.7268032875
 40
0.7614836075
 40
0.7947875419
 40
0.8265699786
 40
0.8567034761
 40
0.8850879694
 40
0.91165764
 40
0.9363802164
 40
0.9480576492
 40
0.9592864622
 40
0.9804387792
 40
1.0
 40
1.0
 40
1.0
 40
1.0
 10
4.4655575767
 20
6.7731079443
 30
0.0
 10
4.4682893974
 20
6.7774464289
 30
0.0
 10
4.4746745209
 20
6.7860462987
 30
0.0
 10
4.4841343819
 20
6.7958788521
 30
0.0
 10
4.4927820192
 20
6.8035377749
 30
0.0
 10
4.5025348384
 20
6.8113373955
 30
0.0
 10
4.516139652
 20
6.8207209118
 30
0.0
 10
4.5342382452
 20
6.8311756184
 30
0.0
 10
4.5542897178
 20
6.840973128
 30
0.0
 10
4.5761640454
 20
6.8500440365
 30
0.0
 10
4.5997166642
 20
6.8583310127
 30
0.0
 10
4.6247917063
 20
6.865780635
 30
0.0
 10
4.6512236177
 20
6.8723385525
 30
0.0
 10
4.6788355276
 20
6.8779670551
 30
0.0
 10
4.7074442862
 20
6.8826222257
 30
0.0
 10
4.7368583362
 20
6.886277184
 30
0.0
 10
4.7668814972
 20
6.888905704
 30
0.0
 10
4.7973130185
 20
6.8904886071
 30
0.0
 10
4.8279494096
 20
6.8910193256
 30
0.0
 10
4.8585858009
 20
6.8904886091
 30
0.0
 10
4.8890173228
 20
6.8889057079
 30
0.0
 10
4.9190404847
 20
6.8862771899
 30
0.0
 10
4.948454536
 20
6.8826222334
 30
0.0
 10
4.9770632963
 20
6.8779670647
 30
0.0
 10
5.0046752083
 20
6.8723385638
 30
0.0
 10
5.031107122
 20
6.8657806481
 30
0.0
 10
5.0561821668
 20
6.8583310274
 30
0.0
 10
5.0797347885
 20
6.8500440527
 30
0.0
 10
5.1016091194
 20
6.8409731456
 30
0.0
 10
5.1216605955
 20
6.8311756373
 30
0.0
 10
5.1397591925
 20
6.8207209319
 30
0.0
 10
5.1533640095
 20
6.8113374165
 30
0.0
 10
5.1631168314
 20
6.8035377965
 30
0.0
 10
5.1717644715
 20
6.7958788744
 30
0.0
 10
5.181224336
 20
6.7860463216
 30
0.0
 10
5.1876094627
 20
6.7774464522
 30
0.0
 10
5.190341285
 20
6.7731079677
 30
0.0
  0
ENDSEC
  0
SECTION
  2
OBJECTS
  0
DICTIONARY
  5
C
100
AcDbDictionary
280
0
281
1
  3
ACAD_GROUP
350
D
  3
ACAD_MLINESTYLE
350
17
  3
ACAD_LAYOUT
350
1A
  3
ACAD_PLOTSETTINGS
350
19
  3
ACAD_PLOTSTYLENAME
350
E
  0
DICTIONARY
  5
D
102
{ACAD_REACTORS
330
C
102
}
100
AcDbDictionary
280
0
281
1
  0
ACDBDICTIONARYWDFLT
  5
E
102
{ACAD_REACTORS
330
C
102
}
100
AcDbDictionary
281
1
  3
Normal
350
F
100
AcDbDictionaryWithDefault
340
F
  0
DICTIONARY
  5
17
102
{ACAD_REACTORS
330
C
102
}
100
AcDbDictionary
280
0
281
1
  3
Standard
350
18
  0
DICTIONARY
  5
19
102
{ACAD_REACTORS
330
C
102
}
100
AcDbDictionary
281
1
  0
DICTIONARY
  5
1A
102
{ACAD_REACTORS
330
C
102
}
100
AcDbDictionary
281
1
  3
Model
350
3D2
  3
Layout1
350
3D3
  0
ACDBPLACEHOLDER
  5
F
102
{ACAD_REACTORS
330
E
102
}
  0
MLINESTYLE
  5
18
102
{ACAD_REACTORS
330
17
102
}
100
AcDbMlineStyle
  2
STANDARD
 70
0
  3

 62
256
 51
90.0
 52
90.0
 71
2
 49
0.5
 62
256
  6
BYLAYER
 49
-0.5
 62
256
  6
BYLAYER
  0
LAYOUT
  5
3D2
102
{ACAD_REACTORS
330
1A
102
}
100
AcDbPlotSettings
  1

  2
none_device
  4
ANSI_A_(11.00_x_8.50_Inches)
  6

 40
0.0
 41
0.0
 42
0.0
 43
0.0
 44
279.4
 45
215.9
 46
0.0
 47
0.0
 48
0.0
 49
0.0
140
0.0
141
0.0
142
1.0
143
1.0
 70
1024
 72
0
 73
0
 74
0
  7

 75
0
147
1.0
148
0.0
149
0.0
100
AcDbLayout
  1
Model
 70
0
 71
0
 10
0.0
 20
0.0
 11
11.0
 21
8.5
 12
0.0
 22
0.0
 32
0.0
 14
0.0
 24
0.0
 34
0.0
 15
0.0
 25
0.0
 35
0.0
146
0.0
 13
0.0
 23
0.0
 33
0.0
 16
1.0
 26
0.0
 36
0.0
 17
0.0
 27
1.0
 37
0.0
 76
0
330
21C
345
0
346
0
  0
LAYOUT
  5
3D3
102
{ACAD_REACTORS
330
1A
102
}
100
AcDbPlotSettings
  1

  2
none_device
  4
ANSI_A_(11.00_x_8.50_Inches)
  6

 40
0.0
 41
0.0
 42
0.0
 43
0.0
 44
279.4
 45
215.9
 46
0.0
 47
0.0
 48
0.0
 49
0.0
140
0.0
141
0.0
142
1.0
143
1.0
 70
0
 72
0
 73
0
 74
0
  7

 75
0
147
1.0
148
0.0
149
0.0
100
AcDbLayout
  1
Layout1
 70
0
 71
1
 10
0.0
 20
0.0
 11
11.0
 21
8.5
 12
0.0
 22
0.0
 32
0.0
 14
0.0
 24
0.0
 34
0.0
 15
0.0
 25
0.0
 35
0.0
146
0.0
 13
0.0
 23
0.0
 33
0.0
 16
1.0
 26
0.0
 36
0.0
 17
0.0
 27
1.0
 37
0.0
 76
0
330
21D
345
0
346
0
  0
ENDSEC
  0
EOF
