  0
SECTION
  2
HEADER
  9
$ACADVER
  1
AC1015
  9
$DWGCODEPAGE
  3
ANSI_1252
  9
$EXTMAX
 10
11.6929133858
 20
8.2677165354
 30
0.0
  9
$EXTMIN
 10
0.0
 20
0.0
 30
0.0
  9
$LIMMIN
 10
0.0
 20
0.0
  9
$LIMMAX
 10
11.6929133858
 20
8.2677165354
  9
$VIEWCTR
 10
5.8464566929
 20
4.1338582677
  9
$VIEWSIZE
 40
8.2677165354
  9
$CLAYER
  8
0
  9
$LTSCALE
 40
0.6431102362
  9
$CELTYPE
  6
BYLAYER
  9
$DIMSCALE
 40
1.0
  9
$DIMASZ
 40
0.1875
  9
$DIMEXO
 40
0.0730807087
  9
$DIMDLI
 40
0.4443307087
  9
$DIMEXE
 40
0.2104724409
  9
$DIMCEN
 40
0.1052362205
  9
$DIMLFAC
 40
1.0
  9
$DIMBLK
  1
_CLOSED
  9
$DIMTXT
 40
0.15625
  9
$DIMTOL
 70
0
  9
$DIMLIM
 70
0
  9
$DIMTFAC
 40
1.0
  9
$PDMODE
 70
3
  9
$PDSIZE
 40
0.3125
  9
$HANDSEED
  5
256
  9
$TILEMODE
 70
1
  9
$MEASUREMENT
 70
0
  9
$INSUNITS
 70
1
  0
ENDSEC
  0
SECTION
  2
CLASSES
  0
CLASS
  1
ACDBDICTIONARYWDFLT
  2
AcDbDictionaryWithDefault
  3
AutoCAD 2000
 90
0
280
0
281
0
  0
CLASS
  1
ACDBPLACEHOLDER
  2
AcDbPlaceHolder
  3
AutoCAD 2000
 90
0
280
0
281
0
  0
CLASS
  1
LAYOUT
  2
AcDbLayout
  3
AutoCAD 2000
 90
0
280
0
281
0
  0
ENDSEC
  0
SECTION
  2
TABLES
  0
TABLE
  2
VPORT
  5
8
100
AcDbSymbolTable
 70
2
  0
VPORT
  5
1F4
100
AcDbSymbolTableRecord
100
AcDbViewportTableRecord
  2
*ACTIVE
 70
0
 10
0.0
 20
0.0
 11
1.0
 21
1.0
 12
5.8464566929
 22
4.1338582677
 13
0.0
 23
0.0
 14
1.0
 24
1.0
 15
0.0
 25
0.0
 16
0.0
 26
0.0
 36
1.0
 17
0.0
 27
0.0
 37
0.0
 40
8.2677165354
 41
1.4142857143
 42
50.0
 43
0.0
 44
0.0
 50
0.0
 51
0.0
 71
0
 72
100
 73
1
 74
1
 75
0
 76
0
 77
0
 78
0
  0
ENDTAB
  0
TABLE
  2
LTYPE
  5
5
100
AcDbSymbolTable
 70
6
  0
LTYPE
  5
14
100
AcDbSymbolTableRecord
100
AcDbLinetypeTableRecord
  2
BYBLOCK
 70
0
  3

 72
65
 73
0
 40
0.0
  0
LTYPE
  5
15
100
AcDbSymbolTableRecord
100
AcDbLinetypeTableRecord
  2
BYLAYER
 70
0
  3

 72
65
 73
0
 40
0.0
  0
LTYPE
  5
16
100
AcDbSymbolTableRecord
100
AcDbLinetypeTableRecord
  2
CONTINUOUS
 70
64
  3
Solid line
 72
65
 73
0
 40
0.0
  0
LTYPE
  5
1F5
100
AcDbSymbolTableRecord
100
AcDbLinetypeTableRecord
  2
CENTER
 70
64
  3
____ _ ____ _ ____ _ ____ _ ____ _ ____ _ ____
 72
65
 73
4
 40
0.6
 49
0.375
 74
0
 49
-0.075
 74
0
 49
0.075
 74
0
 49
-0.075
 74
0
  0
LTYPE
  5
1F6
100
AcDbSymbolTableRecord
100
AcDbLinetypeTableRecord
  2
HIDDEN
 70
64
  3
- - - - - - - - - - - - - - - - - - - -
 72
65
 73
2
 40
0.2
 49
0.1
 74
0
 49
-0.1
 74
0
  0
LTYPE
  5
1F7
100
AcDbSymbolTableRecord
100
AcDbLinetypeTableRecord
  2
PHANTOM
 70
64
  3
_____ _ _ _____ _ _ _____ _ _ _____
 72
65
 73
6
 40
0.8
 49
0.45
 74
0
 49
-0.05
 74
0
 49
0.1
 74
0
 49
-0.05
 74
0
 49
0.1
 74
0
 49
-0.05
 74
0
  0
LTYPE
  5
1F8
100
AcDbSymbolTableRecord
100
AcDbLinetypeTableRecord
  2
DOT
 70
64
  3
. . . . . . . . . . . . . . . . . . . .
 72
65
 73
2
 40
0.2
 49
0.1
 74
0
 49
-0.1
 74
0
  0
LTYPE
  5
1F9
100
AcDbSymbolTableRecord
100
AcDbLinetypeTableRecord
  2
DASHED
 70
64
  3
- - - - - - - - - - - - - - - - - - - -
 72
65
 73
2
 40
0.2
 49
0.1
 74
0
 49
-0.1
 74
0
  0
ENDTAB
  0
TABLE
  2
LAYER
  5
2
100
AcDbSymbolTable
 70
36
  0
LAYER
  5
10
100
AcDbSymbolTableRecord
100
AcDbLayerTableRecord
  2
0
 70
0
 62
7
  6
CONTINUOUS
370
-3
390
F
  0
LAYER
  5
1FA
100
AcDbSymbolTableRecord
100
AcDbLayerTableRecord
  2
DEFAULT_1
 70
0
 62
7
  6
CENTER
370
-3
390
F
  0
LAYER
  5
1FB
100
AcDbSymbolTableRecord
100
AcDbLayerTableRecord
  2
DEFAULT_2
 70
0
 62
8
  6
HIDDEN
370
-3
390
F
  0
LAYER
  5
1FC
100
AcDbSymbolTableRecord
100
AcDbLayerTableRecord
  2
DEFAULT_3
 70
0
 62
7
  6
PHANTOM
370
-3
390
F
  0
LAYER
  5
1FD
100
AcDbSymbolTableRecord
100
AcDbLayerTableRecord
  2
DEFAULT_COORDINATE_SYSTEM
 70
0
 62
7
  6
CONTINUOUS
370
-3
390
F
  0
LAYER
  5
1FE
100
AcDbSymbolTableRecord
100
AcDbLayerTableRecord
  2
DEFAULT_DATUM_AXES
 70
0
 62
7
  6
CONTINUOUS
370
-3
390
F
  0
LAYER
  5
1FF
100
AcDbSymbolTableRecord
100
AcDbLayerTableRecord
  2
DEFAULT_DATUM_CURVES
 70
0
 62
7
  6
CONTINUOUS
370
-3
390
F
  0
LAYER
  5
200
100
AcDbSymbolTableRecord
100
AcDbLayerTableRecord
  2
DEFAULT_DATUM_PLANES
 70
0
 62
7
  6
CONTINUOUS
370
-3
390
F
  0
ENDTAB
  0
TABLE
  2
STYLE
  5
3
100
AcDbSymbolTable
 70
1
  0
STYLE
  5
11
100
AcDbSymbolTableRecord
100
AcDbTextStyleTableRecord
  2
STANDARD
 70
0
 40
0.0
 41
0.8
 50
0.0
 71
0
 42
0.2
  3
txt
  4

  0
STYLE
  5
201
100
AcDbSymbolTableRecord
100
AcDbTextStyleTableRecord
  2
TEXTSTYLE_1
 70
0
 40
0.0
 41
0.8
 50
0.0
 71
0
 42
0.2
  3
gdt
  4

  0
ENDTAB
  0
TABLE
  2
VIEW
  5
6
100
AcDbSymbolTable
 70
0
  0
ENDTAB
  0
TABLE
  2
UCS
  5
7
100
AcDbSymbolTable
 70
0
  0
ENDTAB
  0
TABLE
  2
APPID
  5
9
100
AcDbSymbolTable
 70
1
  0
APPID
  5
202
100
AcDbSymbolTableRecord
100
AcDbRegAppTableRecord
  2
ACAD
 70
0
  0
ENDTAB
  0
TABLE
  2
BLOCK_RECORD
  5
1
100
AcDbSymbolTable
 70
0
  0
BLOCK_RECORD
  5
203
100
AcDbSymbolTableRecord
100
AcDbBlockTableRecord
  2
*Model_Space
  0
BLOCK_RECORD
  5
204
100
AcDbSymbolTableRecord
100
AcDbBlockTableRecord
  2
*Paper_Space
  0
ENDTAB
  0
TABLE
  2
DIMSTYLE
  5
A
100
AcDbSymbolTable
 70
1
100
AcDbDimStyleTable
 71
0
  0
DIMSTYLE
105
205
100
AcDbSymbolTableRecord
100
AcDbDimStyleTableRecord
  2
STANDARD
 70
0
  3

  4

 40
1.0
 41
0.1875
 42
0.0625
 43
0.38
 44
0.18
 45
0.0
 46
0.0
 47
0.01
 48
0.01
140
0.15625
141
0.09
142
0.0
143
25.4
144
1.0
145
0.0
146
1.0
147
0.09
 71
0.0
 72
0.0
 73
1
 74
1
 75
0
 76
0
 77
0
 78
4
170
0
171
2
172
0
173
0
174
0
175
0
176
0
177
0
178
0
270
2
271
2
272
2
273
2
274
2
275
0
280
0
281
0
282
0
283
1
284
4
285
0
286
0
287
3
288
0
340
11
  0
ENDTAB
  0
ENDSEC
  0
SECTION
  2
BLOCKS
  0
BLOCK
  5
20
100
AcDbEntity
  8
0
100
AcDbBlockBegin
  2
*Model_Space
 70
0
 10
0.0
 20
0.0
 30
0.0
  3
*Model_Space
  1

  0
ENDBLK
  5
21
100
AcDbEntity
  8
0
100
AcDbBlockEnd
  0
BLOCK
  5
1C
100
AcDbEntity
  8
0
100
AcDbBlockBegin
  2
*Paper_Space
 70
0
 10
0.0
 20
0.0
 30
0.0
  3
*Paper_Space
  1

  0
ENDBLK
  5
1D
100
AcDbEntity
  8
0
100
AcDbBlockEnd
  0
ENDSEC
  0
SECTION
  2
ENTITIES
  0
LINE
  5
206
100
AcDbEntity
  8
0
100
AcDbLine
 62
9
  6
CONTINUOUS
 10
4.3722964169
 20
3.1083671841
 11
4.3722964169
 21
3.4833671841
  0
LINE
  5
207
100
AcDbEntity
  8
0
100
AcDbLine
 62
6
  6
CONTINUOUS
 10
5.8543010506
 20
2.7193607114
 11
6.1942917832
 21
2.7193607114
  0
LINE
  5
208
100
AcDbEntity
  8
0
100
AcDbLine
 62
6
  6
CONTINUOUS
 10
5.8442964169
 20
2.7293607114
 11
6.2042964169
 21
2.7293607114
  0
LINE
  5
209
100
AcDbEntity
  8
0
100
AcDbLine
 62
6
  6
CONTINUOUS
 10
5.7518011798
 20
2.7853607114
 11
6.296791654
 21
2.7853607114
  0
LINE
  5
20A
100
AcDbEntity
  8
0
100
AcDbLine
 62
9
  6
CONTINUOUS
 10
6.3197964158
 20
2.8093607114
 11
5.728796418
 21
2.8093607114
  0
LINE
  5
20B
100
AcDbEntity
  8
0
100
AcDbLine
 62
9
  6
CONTINUOUS
 10
6.3547964169
 20
2.8443607114
 11
5.6937964169
 21
2.8443607114
  0
LINE
  5
20C
100
AcDbEntity
  8
0
100
AcDbLine
 62
6
  6
CONTINUOUS
 10
5.6937964169
 20
2.927363792
 11
6.3547964169
 21
2.927363792
  0
LINE
  5
20D
100
AcDbEntity
  8
0
100
AcDbLine
 62
6
  6
CONTINUOUS
 10
4.8542964169
 20
6.0523607114
 11
4.8542964169
 21
6.0383607114
  0
LINE
  5
20E
100
AcDbEntity
  8
0
100
AcDbLine
 62
6
  6
CONTINUOUS
 10
5.5662629955
 20
3.1083671841
 11
3.5625001518
 21
3.1083671841
  0
LINE
  5
20F
100
AcDbEntity
  8
0
100
AcDbLine
 62
6
  6
CONTINUOUS
 10
6.4823298384
 20
3.1083671841
 11
9.0597964169
 21
3.1083671841
  0
LINE
  5
210
100
AcDbEntity
  8
0
100
AcDbLine
 62
6
  6
CONTINUOUS
 10
5.8542964169
 20
2.7193607114
 11
5.8442964169
 21
2.7293607114
  0
LINE
  5
211
100
AcDbEntity
  8
0
100
AcDbLine
 62
6
  6
CONTINUOUS
 10
5.566220619
 20
3.4833671841
 11
3.5624364557
 21
3.4833671841
  0
LINE
  5
212
100
AcDbEntity
  8
0
100
AcDbLine
 62
6
  6
CONTINUOUS
 10
6.4823722148
 20
3.4833671841
 11
9.0597964169
 21
3.4833671841
  0
LINE
  5
213
100
AcDbEntity
  8
0
100
AcDbLine
 62
9
  6
CONTINUOUS
 10
5.6459620685
 20
3.6150663709
 11
6.4026307653
 21
3.6150663709
  0
LINE
  5
214
100
AcDbEntity
  8
0
100
AcDbLine
 62
6
  6
CONTINUOUS
 10
5.6717964169
 20
4.0003607114
 11
5.6717964169
 21
4.0443607114
  0
LINE
  5
215
100
AcDbEntity
  8
0
100
AcDbLine
 62
6
  6
CONTINUOUS
 10
5.5896308733
 20
4.2494657013
 11
5.6144311834
 21
4.1088161535
  0
LINE
  5
216
100
AcDbEntity
  8
0
100
AcDbLine
 62
6
  6
CONTINUOUS
 10
5.6937964169
 20
2.8443607114
 11
5.6937964169
 21
2.927363792
  0
LINE
  5
217
100
AcDbEntity
  8
0
100
AcDbLine
 62
6
  6
CONTINUOUS
 10
5.7517964169
 20
2.7853607114
 11
5.7517964169
 21
2.8093607114
  0
LINE
  5
218
100
AcDbEntity
  8
0
100
AcDbLine
 62
6
  6
CONTINUOUS
 10
5.6717964169
 20
4.0003607114
 11
6.3767964169
 21
4.0003607114
  0
LINE
  5
219
100
AcDbEntity
  8
0
100
AcDbLine
 62
7
  6
CONTINUOUS
 10
5.6717964169
 20
4.0443607114
 11
6.3767964169
 21
4.0443607114
  0
LINE
  5
21A
100
AcDbEntity
  8
0
100
AcDbLine
 62
9
  6
CONTINUOUS
 10
6.4341616504
 20
4.1088161535
 11
5.6144311834
 21
4.1088161535
  0
LINE
  5
21B
100
AcDbEntity
  8
0
100
AcDbLine
 62
9
  6
CONTINUOUS
 10
5.5896308733
 20
4.2494657013
 11
6.4589619605
 21
4.2494657013
  0
LINE
  5
21C
100
AcDbEntity
  8
0
100
AcDbLine
 62
6
  6
CONTINUOUS
 10
6.2967964169
 20
2.7853607114
 11
6.2967964169
 21
2.8093607114
  0
LINE
  5
21D
100
AcDbEntity
  8
0
100
AcDbLine
 62
6
  6
CONTINUOUS
 10
6.3547964169
 20
2.8443607114
 11
6.3547964169
 21
2.927363792
  0
LINE
  5
21E
100
AcDbEntity
  8
0
100
AcDbLine
 62
6
  6
CONTINUOUS
 10
6.3767964169
 20
4.0003607114
 11
6.3767964169
 21
4.0443607114
  0
LINE
  5
21F
100
AcDbEntity
  8
0
100
AcDbLine
 62
9
  6
CONTINUOUS
 10
5.4998013164
 20
4.4398662315
 11
6.5487915174
 21
4.4398662315
  0
LINE
  5
220
100
AcDbEntity
  8
0
100
AcDbLine
 62
6
  6
CONTINUOUS
 10
6.4589619605
 20
4.2494657013
 11
6.4341616504
 21
4.1088161535
  0
LINE
  5
221
100
AcDbEntity
  8
0
100
AcDbLine
 62
9
  6
CONTINUOUS
 10
5.2365488534
 20
4.9783607114
 11
6.8120439804
 21
4.9783607114
  0
LINE
  5
222
100
AcDbEntity
  8
0
100
AcDbLine
 62
6
  6
CONTINUOUS
 10
7.1942964169
 20
6.0523607114
 11
7.1942964169
 21
6.0383607114
  0
LINE
  5
223
100
AcDbEntity
  8
0
100
AcDbLine
 62
9
  6
CONTINUOUS
 10
5.2088258544
 20
5.3833607114
 11
6.8397669794
 21
5.3833607114
  0
LINE
  5
224
100
AcDbEntity
  8
0
100
AcDbLine
 62
6
  6
CONTINUOUS
 10
6.1942964169
 20
2.7193607114
 11
6.2042964169
 21
2.7293607114
  0
LINE
  5
225
100
AcDbEntity
  8
0
100
AcDbLine
 62
9
  6
CONTINUOUS
 10
5.0824726467
 20
5.6723607114
 11
6.9661201871
 21
5.6723607114
  0
LINE
  5
226
100
AcDbEntity
  8
0
100
AcDbLine
 62
9
  6
CONTINUOUS
 10
5.0723482633
 20
5.6873607114
 11
6.9762445705
 21
5.6873607114
  0
LINE
  5
227
100
AcDbEntity
  8
0
100
AcDbLine
 62
9
  6
CONTINUOUS
 10
5.0449528598
 20
5.7223607114
 11
7.003639974
 21
5.7223607114
  0
LINE
  5
228
100
AcDbEntity
  8
0
100
AcDbLine
 62
9
  6
CONTINUOUS
 10
5.0078259106
 20
5.7783607114
 11
7.0407669232
 21
5.7783607114
  0
LINE
  5
229
100
AcDbEntity
  8
0
100
AcDbLine
 62
9
  6
CONTINUOUS
 10
4.9835504893
 20
5.8193607114
 11
7.0650423445
 21
5.8193607114
  0
LINE
  5
22A
100
AcDbEntity
  8
0
100
AcDbLine
 62
9
  6
CONTINUOUS
 10
4.9523740473
 20
5.8773607114
 11
7.0962187866
 21
5.8773607114
  0
LINE
  5
22B
100
AcDbEntity
  8
0
100
AcDbLine
 62
9
  6
CONTINUOUS
 10
4.9199247065
 20
5.9283607114
 11
7.1286681273
 21
5.9283607114
  0
LINE
  5
22C
100
AcDbEntity
  8
0
100
AcDbLine
 62
9
  6
CONTINUOUS
 10
4.8542964169
 20
6.0383607114
 11
7.1942964169
 21
6.0383607114
  0
LINE
  5
22D
100
AcDbEntity
  8
0
100
AcDbLine
 62
6
  6
CONTINUOUS
 10
4.8542964169
 20
6.0523607114
 11
7.1942964169
 21
6.0523607114
  0
LINE
  5
22E
100
AcDbEntity
  8
0
100
AcDbLine
 62
9
  6
CONTINUOUS
 10
7.9972964169
 20
3.4833671841
 11
7.9972964169
 21
3.1083671841
  0
ARC
  5
22F
100
AcDbEntity
  8
0
100
AcDbCircle
 62
6
  6
CONTINUOUS
 10
6.0242964169
 20
3.2958671841
 40
0.495
100
AcDbArc
 50
139.8458068178
 51
228.1119911417
  0
ARC
  5
230
100
AcDbEntity
  8
0
100
AcDbCircle
 62
6
  6
CONTINUOUS
 10
6.0242964169
 20
3.2958671841
 40
0.495
100
AcDbArc
 50
311.8880088583
 51
337.7377825585
  0
ARC
  5
231
100
AcDbEntity
  8
0
100
AcDbCircle
 62
6
  6
CONTINUOUS
 10
6.0242964169
 20
3.2958671841
 40
0.495
100
AcDbArc
 50
22.2602698734
 51
40.1541931822
  0
ARC
  5
232
100
AcDbEntity
  8
0
100
AcDbCircle
 62
6
  6
CONTINUOUS
 10
5.1957077721
 20
4.1800064302
 40
0.4
100
AcDbArc
 50
10.0
 51
40.5151811264
  0
ARC
  5
233
100
AcDbEntity
  8
0
100
AcDbCircle
 62
6
  6
CONTINUOUS
 10
5.3967964169
 20
3.8252864414
 40
0.326
100
AcDbArc
 50
319.8458068178
 51
32.4822048034
  0
CIRCLE
  5
234
100
AcDbEntity
  8
0
100
AcDbCircle
 62
6
  6
CONTINUOUS
 10
3.3125223446
 20
3.2958671841
 40
0.3125
  0
ARC
  5
235
100
AcDbEntity
  8
0
100
AcDbCircle
 62
6
  6
CONTINUOUS
 10
5.6912461881
 20
4.1223607114
 40
0.078
100
AcDbArc
 50
190.0000000004
 51
270.0
  0
ARC
  5
236
100
AcDbEntity
  8
0
100
AcDbCircle
 62
6
  6
CONTINUOUS
 10
5.7882964169
 20
2.7293607114
 40
0.056
100
AcDbArc
 50
0.0
 51
90.0
  0
ARC
  5
237
100
AcDbEntity
  8
0
100
AcDbCircle
 62
6
  6
CONTINUOUS
 10
5.7287964169
 20
2.8443607114
 40
0.035
100
AcDbArc
 50
180.0
 51
270.0000017894
  0
ARC
  5
238
100
AcDbEntity
  8
0
100
AcDbCircle
 62
6
  6
CONTINUOUS
 10
4.8665633976
 20
5.4058420513
 40
0.343
100
AcDbArc
 50
356.2419535375
 51
50.9887457037
  0
ARC
  5
239
100
AcDbEntity
  8
0
100
AcDbCircle
 62
6
  6
CONTINUOUS
 10
4.9464340546
 20
5.7696981473
 40
0.062
100
AcDbArc
 50
8.03157335
 51
53.2265724874
  0
ARC
  5
23A
100
AcDbEntity
  8
0
100
AcDbCircle
 62
6
  6
CONTINUOUS
 10
4.9792964169
 20
6.0383607114
 40
0.125
100
AcDbArc
 50
180.0
 51
241.6423634237
  0
ARC
  5
23B
100
AcDbEntity
  8
0
100
AcDbCircle
 62
6
  6
CONTINUOUS
 10
4.8904763381
 20
5.8738007114
 40
0.062
100
AcDbArc
 50
3.291697165
 51
61.6423634237
  0
ARC
  5
23C
100
AcDbEntity
  8
0
100
AcDbCircle
 62
6
  6
CONTINUOUS
 10
5.0850608262
 20
5.7892587759
 40
0.078
100
AcDbArc
 50
188.03157335
 51
239.0556893899
  0
ARC
  5
23D
100
AcDbEntity
  8
0
100
AcDbCircle
 62
6
  6
CONTINUOUS
 10
5.0130721687
 20
5.6691853268
 40
0.062
100
AcDbArc
 50
17.0467181651
 51
59.0556893899
  0
ARC
  5
23E
100
AcDbEntity
  8
0
100
AcDbCircle
 62
6
  6
CONTINUOUS
 10
5.1019863106
 20
5.6964484037
 40
0.031
100
AcDbArc
 50
197.0467181651
 51
230.9887457037
  0
ARC
  5
23F
100
AcDbEntity
  8
0
100
AcDbCircle
 62
6
  6
CONTINUOUS
 10
5.0302453588
 20
5.8818394211
 40
0.078
100
AcDbArc
 50
183.291697165
 51
233.2265724874
  0
ARC
  5
240
100
AcDbEntity
  8
0
100
AcDbCircle
 62
6
  6
CONTINUOUS
 10
5.3230353923
 20
5.2837349483
 40
1.52
100
AcDbArc
 50
348.4101664982
 51
3.7580464625
  0
ARC
  5
241
100
AcDbEntity
  8
0
100
AcDbCircle
 62
6
  6
CONTINUOUS
 10
5.6365108845
 20
5.2194456353
 40
1.2
100
AcDbArc
 50
319.4848188736
 51
348.4101664982
  0
ARC
  5
242
100
AcDbEntity
  8
0
100
AcDbCircle
 62
6
  6
CONTINUOUS
 10
6.8528850617
 20
4.1800064302
 40
0.4
100
AcDbArc
 50
139.4848188736
 51
170.0
  0
ARC
  5
243
100
AcDbEntity
  8
0
100
AcDbCircle
 62
6
  6
CONTINUOUS
 10
6.6517964169
 20
3.8252864414
 40
0.326
100
AcDbArc
 50
147.5177951966
 51
220.1541931822
  0
ARC
  5
244
100
AcDbEntity
  8
0
100
AcDbCircle
 62
9
  6
CONTINUOUS
 10
9.0597964169
 20
3.2958671841
 40
0.1875
100
AcDbArc
 50
270.0
 51
90.0
  0
ARC
  5
245
100
AcDbEntity
  8
0
100
AcDbCircle
 62
6
  6
CONTINUOUS
 10
6.3573466457
 20
4.1223607114
 40
0.078
100
AcDbArc
 50
270.0
 51
349.9999999996
  0
ARC
  5
246
100
AcDbEntity
  8
0
100
AcDbCircle
 62
6
  6
CONTINUOUS
 10
6.2602964169
 20
2.7293607114
 40
0.056
100
AcDbArc
 50
90.0
 51
180.0
  0
ARC
  5
247
100
AcDbEntity
  8
0
100
AcDbCircle
 62
6
  6
CONTINUOUS
 10
6.3197964169
 20
2.8443607114
 40
0.035
100
AcDbArc
 50
269.9999982106
 51
360.0
  0
ARC
  5
248
100
AcDbEntity
  8
0
100
AcDbCircle
 62
6
  6
CONTINUOUS
 10
6.7255574415
 20
5.2837349483
 40
1.52
100
AcDbArc
 50
176.2419535375
 51
191.5898335018
  0
ARC
  5
249
100
AcDbEntity
  8
0
100
AcDbCircle
 62
6
  6
CONTINUOUS
 10
6.4120819493
 20
5.2194456353
 40
1.2
100
AcDbArc
 50
191.5898335018
 51
220.5151811264
  0
ARC
  5
24A
100
AcDbEntity
  8
0
100
AcDbCircle
 62
6
  6
CONTINUOUS
 10
7.1820294362
 20
5.4058420513
 40
0.343
100
AcDbArc
 50
129.0112542963
 51
183.7580464625
  0
ARC
  5
24B
100
AcDbEntity
  8
0
100
AcDbCircle
 62
6
  6
CONTINUOUS
 10
7.0692964169
 20
6.0383607114
 40
0.125
100
AcDbArc
 50
298.3576365763
 51
360.0
  0
ARC
  5
24C
100
AcDbEntity
  8
0
100
AcDbCircle
 62
6
  6
CONTINUOUS
 10
7.018347475
 20
5.8818394211
 40
0.078
100
AcDbArc
 50
306.7734275126
 51
356.708302835
  0
ARC
  5
24D
100
AcDbEntity
  8
0
100
AcDbCircle
 62
6
  6
CONTINUOUS
 10
6.9635320076
 20
5.7892587759
 40
0.078
100
AcDbArc
 50
300.9443106101
 51
351.96842665
  0
ARC
  5
24E
100
AcDbEntity
  8
0
100
AcDbCircle
 62
6
  6
CONTINUOUS
 10
7.1581164957
 20
5.8738007114
 40
0.062
100
AcDbArc
 50
118.3576365763
 51
176.708302835
  0
ARC
  5
24F
100
AcDbEntity
  8
0
100
AcDbCircle
 62
6
  6
CONTINUOUS
 10
7.1021587792
 20
5.7696981473
 40
0.062
100
AcDbArc
 50
126.7734275126
 51
171.96842665
  0
ARC
  5
250
100
AcDbEntity
  8
0
100
AcDbCircle
 62
6
  6
CONTINUOUS
 10
7.0355206652
 20
5.6691853268
 40
0.062
100
AcDbArc
 50
120.9443106101
 51
162.9532818349
  0
ARC
  5
251
100
AcDbEntity
  8
0
100
AcDbCircle
 62
6
  6
CONTINUOUS
 10
6.9466065232
 20
5.6964484037
 40
0.031
100
AcDbArc
 50
309.0112542963
 51
342.9532818349
  0
SPLINE
  5
252
100
AcDbEntity
  8
0
100
AcDbSpline
 62
9
  6
CONTINUOUS
 70
0
 71
3
 72
45
 73
41
 74
39
 42
0.0000001
 43
0.0000001
 44
0.0000000001
 12
0.0
 22
0.2532223526
 32
0.0
 13
-0.2532223526
 23
-0.0
 33
0.0
 40
0.0
 40
0.0
 40
0.0
 40
0.0
 40
0.0362483776
 40
0.0725106111
 40
0.1087273534
 40
0.1448392486
 40
0.1807875273
 40
0.2165146422
 40
0.251971004
 40
0.2871226707
 40
0.3219383669
 40
0.3563878419
 40
0.3904423949
 40
0.407314029
 40
0.4240771931
 40
0.4572651562
 40
0.4899869375
 40
0.522223411
 40
0.5539580206
 40
0.5851775142
 40
0.6005921863
 40
0.6158752789
 40
0.6460464156
 40
0.6756998056
 40
0.7048454366
 40
0.7334973144
 40
0.761674255
 40
0.7755935778
 40
0.7894041935
 40
0.8167145244
 40
0.8302272036
 40
0.8436506653
 40
0.8702484132
 40
0.8965575523
 40
0.9096214423
 40
0.9226326343
 40
0.9355982498
 40
0.9485258031
 40
0.9742933487
 40
1.0
 40
1.0
 40
1.0
 40
1.0
 10
3.7535779834
 20
3.2958671841
 30
0.0
 10
3.7535779834
 20
3.2989268173
 30
0.0
 10
3.7534706494
 20
3.3050477827
 30
0.0
 10
3.7529908837
 20
3.3142143837
 30
0.0
 10
3.7521944762
 20
3.3233474729
 30
0.0
 10
3.751083644
 20
3.3324209652
 30
0.0
 10
3.7496606663
 20
3.3414089785
 30
0.0
 10
3.7479274634
 20
3.350286056
 30
0.0
 10
3.7458864582
 20
3.3590284675
 30
0.0
 10
3.7435448829
 20
3.3676155176
 30
0.0
 10
3.740909176
 20
3.3760279509
 30
0.0
 10
3.7379859084
 20
3.3842465996
 30
0.0
 10
3.7353073109
 20
3.3909388354
 30
0.0
 10
3.7330251736
 20
3.3961771279
 30
0.0
 10
3.7306674528
 20
3.4013014145
 30
0.0
 10
3.7275560344
 20
3.4075500087
 30
0.0
 10
3.7235533963
 20
3.4148059507
 30
0.0
 10
3.7193044958
 20
3.421777457
 30
0.0
 10
3.7148196651
 20
3.42844733
 30
0.0
 10
3.7108774802
 20
3.4337625556
 30
0.0
 10
3.7076140886
 20
3.437845332
 30
0.0
 10
3.704308579
 20
3.4417791525
 30
0.0
 10
3.700051025
 20
3.4464803359
 30
0.0
 10
3.6947294384
 20
3.4517837942
 30
0.0
 10
3.689230299
 20
3.4567132285
 30
0.0
 10
3.683566903
 20
3.4612564945
 30
0.0
 10
3.6787013803
 20
3.4647250769
 30
0.0
 10
3.6747404894
 20
3.4672913787
 30
0.0
 10
3.6707670873
 20
3.4696998232
 30
0.0
 10
3.666716146
 20
3.4719106116
 30
0.0
 10
3.6625980566
 20
3.4739137173
 30
0.0
 10
3.6584737648
 20
3.4757615469
 30
0.0
 10
3.6532571982
 20
3.477805952
 30
0.0
 10
3.6479468171
 20
3.4794958854
 30
0.0
 10
3.6436706188
 20
3.480623316
 30
0.0
 10
3.6404569548
 20
3.4813553349
 30
0.0
 10
3.6372314225
 20
3.4819748215
 30
0.0
 10
3.6329226943
 20
3.4826498224
 30
0.0
 10
3.6275114989
 20
3.4832134659
 30
0.0
 10
3.6231652948
 20
3.4833639475
 30
0.0
 10
3.6209954619
 20
3.4833639475
 30
0.0
 11
3.7535779834
 21
3.2958671841
 31
0.0
 11
3.7534175344
 21
3.3050446811
 31
0.0
 11
3.7529376803
 21
3.3142145425
 31
0.0
 11
3.7521406606
 21
3.323350732
 31
0.0
 11
3.7510287144
 21
3.3324272133
 31
0.0
 11
3.7496040812
 21
3.3414179502
 31
0.0
 11
3.7478690045
 21
3.3502969131
 31
0.0
 11
3.745826893
 21
3.3590399349
 31
0.0
 11
3.7434838911
 21
3.3676272211
 31
0.0
 11
3.7408465353
 21
3.3760396045
 31
0.0
 11
3.7379213621
 21
3.3842579176
 31
0.0
 11
3.7347149082
 21
3.3922629931
 31
0.0
 11
3.7330082437
 21
3.3961795769
 31
0.0
 11
3.7312337404
 21
3.4000356801
 31
0.0
 11
3.727485897
 21
3.4075576331
 31
0.0
 11
3.7234815203
 21
3.4148116583
 31
0.0
 11
3.7192309147
 21
3.4217806504
 31
0.0
 11
3.7147443845
 21
3.428447504
 31
0.0
 11
3.710032234
 21
3.4347951138
 31
0.0
 11
3.7075947713
 21
3.437843857
 31
0.0
 11
3.7051048468
 21
3.4408065138
 31
0.0
 11
3.6999740934
 21
3.4464673499
 31
0.0
 11
3.6946531652
 21
3.4517655874
 31
0.0
 11
3.6891552995
 21
3.4566892722
 31
0.0
 11
3.6834937332
 21
3.4612264505
 31
0.0
 11
3.6776817038
 21
3.4653651681
 31
0.0
 11
3.6747234056
 21
3.4672813797
 31
0.0
 11
3.6717325675
 21
3.4690938343
 31
0.0
 11
3.6656608018
 21
3.4724042715
 31
0.0
 11
3.6625836485
 21
3.4739006818
 31
0.0
 11
3.659481498
 21
3.4752901718
 31
0.0
 11
3.6532097538
 21
3.4777452468
 31
0.0
 11
3.6468606669
 21
3.4797632081
 31
0.0
 11
3.643661838
 21
3.4806063059
 31
0.0
 11
3.6404493351
 21
3.481337767
 31
0.0
 11
3.6372250526
 21
3.4819568772
 31
0.0
 11
3.6339909358
 21
3.4824634225
 31
0.0
 11
3.6275010664
 21
3.4831388163
 31
0.0
 11
3.6209954619
 21
3.4833639475
 31
0.0
  0
SPLINE
  5
253
100
AcDbEntity
  8
0
100
AcDbSpline
 62
9
  6
CONTINUOUS
 70
0
 71
3
 72
45
 73
41
 74
39
 42
0.0000001
 43
0.0000001
 44
0.0000000001
 12
0.2532223526
 22
0.0
 32
0.0
 13
-0.0
 23
0.2532223526
 33
0.0
 40
0.0
 40
0.0
 40
0.0
 40
0.0
 40
0.0257066513
 40
0.0514741969
 40
0.0644017502
 40
0.0773673657
 40
0.0903785577
 40
0.1034424477
 40
0.1297515868
 40
0.1563493347
 40
0.1697727964
 40
0.1832854756
 40
0.2105958065
 40
0.2244064222
 40
0.238325745
 40
0.2665026856
 40
0.2951545634
 40
0.3243001944
 40
0.3539535844
 40
0.3841247211
 40
0.3994078137
 40
0.4148224858
 40
0.4460419794
 40
0.477776589
 40
0.5100130625
 40
0.5427348438
 40
0.5759228069
 40
0.592685971
 40
0.6095576051
 40
0.6436121581
 40
0.6780616331
 40
0.7128773293
 40
0.748028996
 40
0.7834853578
 40
0.8192124727
 40
0.8551607514
 40
0.8912726466
 40
0.9274893889
 40
0.9637516224
 40
1.0
 40
1.0
 40
1.0
 40
1.0
 10
3.6209954619
 20
3.1083704207
 30
0.0
 10
3.6231652948
 20
3.1083704207
 30
0.0
 10
3.6275114989
 20
3.1085209023
 30
0.0
 10
3.6329226943
 20
3.1090845458
 30
0.0
 10
3.6372314225
 20
3.1097595467
 30
0.0
 10
3.6404569548
 20
3.1103790334
 30
0.0
 10
3.6436706188
 20
3.1111110522
 30
0.0
 10
3.6479468171
 20
3.1122384828
 30
0.0
 10
3.6532571982
 20
3.1139284163
 30
0.0
 10
3.6584737648
 20
3.1159728213
 30
0.0
 10
3.6625980566
 20
3.117820651
 30
0.0
 10
3.666716146
 20
3.1198237567
 30
0.0
 10
3.6707670873
 20
3.1220345451
 30
0.0
 10
3.6747404894
 20
3.1244429896
 30
0.0
 10
3.6787013803
 20
3.1270092913
 30
0.0
 10
3.683566903
 20
3.1304778737
 30
0.0
 10
3.689230299
 20
3.1350211397
 30
0.0
 10
3.6947294384
 20
3.1399505741
 30
0.0
 10
3.700051025
 20
3.1452540324
 30
0.0
 10
3.704308579
 20
3.1499552157
 30
0.0
 10
3.7076140886
 20
3.1538890362
 30
0.0
 10
3.7108774802
 20
3.1579718127
 30
0.0
 10
3.7148196651
 20
3.1632870383
 30
0.0
 10
3.7193044958
 20
3.1699569113
 30
0.0
 10
3.7235533963
 20
3.1769284175
 30
0.0
 10
3.7275560344
 20
3.1841843596
 30
0.0
 10
3.7306674528
 20
3.1904329538
 30
0.0
 10
3.7330251736
 20
3.1955572403
 30
0.0
 10
3.7353073109
 20
3.2007955328
 30
0.0
 10
3.7379859084
 20
3.2074877686
 30
0.0
 10
3.740909176
 20
3.2157064173
 30
0.0
 10
3.7435448829
 20
3.2241188507
 30
0.0
 10
3.7458864582
 20
3.2327059007
 30
0.0
 10
3.7479274634
 20
3.2414483122
 30
0.0
 10
3.7496606663
 20
3.2503253898
 30
0.0
 10
3.751083644
 20
3.2593134031
 30
0.0
 10
3.7521944762
 20
3.2683868954
 30
0.0
 10
3.7529908837
 20
3.2775199845
 30
0.0
 10
3.7534706494
 20
3.2866865856
 30
0.0
 10
3.7535779834
 20
3.292807551
 30
0.0
 10
3.7535779834
 20
3.2958671841
 30
0.0
 11
3.6209954619
 21
3.1083704207
 31
0.0
 11
3.6275010664
 21
3.108595552
 31
0.0
 11
3.6339909358
 21
3.1092709457
 31
0.0
 11
3.6372250526
 21
3.1097774911
 31
0.0
 11
3.6404493351
 21
3.1103966013
 31
0.0
 11
3.643661838
 21
3.1111280624
 31
0.0
 11
3.6468606669
 21
3.1119711602
 31
0.0
 11
3.6532097538
 21
3.1139891214
 31
0.0
 11
3.659481498
 21
3.1164441964
 31
0.0
 11
3.6625836485
 21
3.1178336865
 31
0.0
 11
3.6656608018
 21
3.1193300968
 31
0.0
 11
3.6717325675
 21
3.1226405339
 31
0.0
 11
3.6747234056
 21
3.1244529886
 31
0.0
 11
3.6776817038
 21
3.1263692001
 31
0.0
 11
3.6834937332
 21
3.1305079178
 31
0.0
 11
3.6891552995
 21
3.135045096
 31
0.0
 11
3.6946531652
 21
3.1399687809
 31
0.0
 11
3.6999740934
 21
3.1452670183
 31
0.0
 11
3.7051048468
 21
3.1509278544
 31
0.0
 11
3.7075947713
 21
3.1538905113
 31
0.0
 11
3.710032234
 21
3.1569392545
 31
0.0
 11
3.7147443845
 21
3.1632868643
 31
0.0
 11
3.7192309147
 21
3.1699537179
 31
0.0
 11
3.7234815203
 21
3.1769227099
 31
0.0
 11
3.727485897
 21
3.1841767351
 31
0.0
 11
3.7312337404
 21
3.1916986882
 31
0.0
 11
3.7330082437
 21
3.1955547914
 31
0.0
 11
3.7347149082
 21
3.1994713752
 31
0.0
 11
3.7379213621
 21
3.2074764507
 31
0.0
 11
3.7408465353
 21
3.2156947638
 31
0.0
 11
3.7434838911
 21
3.2241071471
 31
0.0
 11
3.745826893
 21
3.2326944334
 31
0.0
 11
3.7478690045
 21
3.2414374551
 31
0.0
 11
3.7496040812
 21
3.2503164181
 31
0.0
 11
3.7510287144
 21
3.2593071549
 31
0.0
 11
3.7521406606
 21
3.2683836362
 31
0.0
 11
3.7529376803
 21
3.2775198257
 31
0.0
 11
3.7534175344
 21
3.2866896871
 31
0.0
 11
3.7535779834
 21
3.2958671841
 31
0.0
  0
ENDSEC
  0
SECTION
  2
OBJECTS
  0
DICTIONARY
  5
C
100
AcDbDictionary
280
0
281
1
  3
ACAD_GROUP
350
D
  3
ACAD_MLINESTYLE
350
17
  3
ACAD_LAYOUT
350
1A
  3
ACAD_PLOTSETTINGS
350
19
  3
ACAD_PLOTSTYLENAME
350
E
  0
DICTIONARY
  5
D
102
{ACAD_REACTORS
330
C
102
}
100
AcDbDictionary
280
0
281
1
  0
ACDBDICTIONARYWDFLT
  5
E
102
{ACAD_REACTORS
330
C
102
}
100
AcDbDictionary
281
1
  3
Normal
350
F
100
AcDbDictionaryWithDefault
340
F
  0
DICTIONARY
  5
17
102
{ACAD_REACTORS
330
C
102
}
100
AcDbDictionary
280
0
281
1
  3
Standard
350
18
  0
DICTIONARY
  5
19
102
{ACAD_REACTORS
330
C
102
}
100
AcDbDictionary
281
1
  0
DICTIONARY
  5
1A
102
{ACAD_REACTORS
330
C
102
}
100
AcDbDictionary
281
1
  3
Model
350
254
  3
Layout1
350
255
  0
ACDBPLACEHOLDER
  5
F
102
{ACAD_REACTORS
330
E
102
}
  0
MLINESTYLE
  5
18
102
{ACAD_REACTORS
330
17
102
}
100
AcDbMlineStyle
  2
STANDARD
 70
0
  3

 62
256
 51
90.0
 52
90.0
 71
2
 49
0.5
 62
256
  6
BYLAYER
 49
-0.5
 62
256
  6
BYLAYER
  0
LAYOUT
  5
254
102
{ACAD_REACTORS
330
1A
102
}
100
AcDbPlotSettings
  1

  2
none_device
  4
ISO_A4_(297.00_x_210.00_MM)
  6

 40
0.0
 41
0.0
 42
0.0
 43
0.0
 44
297.0
 45
210.0
 46
0.0
 47
0.0
 48
0.0
 49
0.0
140
0.0
141
0.0
142
1.0
143
1.0
 70
1024
 72
0
 73
0
 74
0
  7

 75
0
147
1.0
148
0.0
149
0.0
100
AcDbLayout
  1
Model
 70
0
 71
0
 10
0.0
 20
0.0
 11
11.6929133858
 21
8.2677165354
 12
0.0
 22
0.0
 32
0.0
 14
0.0
 24
0.0
 34
0.0
 15
0.0
 25
0.0
 35
0.0
146
0.0
 13
0.0
 23
0.0
 33
0.0
 16
1.0
 26
0.0
 36
0.0
 17
0.0
 27
1.0
 37
0.0
 76
0
330
203
345
0
346
0
  0
LAYOUT
  5
255
102
{ACAD_REACTORS
330
1A
102
}
100
AcDbPlotSettings
  1

  2
none_device
  4
ISO_A4_(297.00_x_210.00_MM)
  6

 40
0.0
 41
0.0
 42
0.0
 43
0.0
 44
297.0
 45
210.0
 46
0.0
 47
0.0
 48
0.0
 49
0.0
140
0.0
141
0.0
142
1.0
143
1.0
 70
0
 72
0
 73
0
 74
0
  7

 75
0
147
1.0
148
0.0
149
0.0
100
AcDbLayout
  1
Layout1
 70
0
 71
1
 10
0.0
 20
0.0
 11
11.6929133858
 21
8.2677165354
 12
0.0
 22
0.0
 32
0.0
 14
0.0
 24
0.0
 34
0.0
 15
0.0
 25
0.0
 35
0.0
146
0.0
 13
0.0
 23
0.0
 33
0.0
 16
1.0
 26
0.0
 36
0.0
 17
0.0
 27
1.0
 37
0.0
 76
0
330
204
345
0
346
0
  0
ENDSEC
  0
EOF
