999
DXF file: 12-28_front.dxf
999
Pro/ENGINEER 2009300 by Parametric Technology Corporation
  0
SECTION
  2
HEADER
  9
$ACADVER
  1
AC1015
  9
$DWGCODEPAGE
  3
ANSI_1252
  9
$EXTMAX
 10
11.6929133858
 20
8.2677165354
 30
0.0
  9
$EXTMIN
 10
0.0
 20
0.0
 30
0.0
  9
$LIMMIN
 10
0.0
 20
0.0
  9
$LIMMAX
 10
11.6929133858
 20
8.2677165354
  9
$VIEWCTR
 10
5.8464566929
 20
4.1338582677
  9
$VIEWSIZE
 40
8.2677165354
  9
$CLAYER
  8
0
  9
$LTSCALE
 40
0.6431102362
  9
$CELTYPE
  6
BYLAYER
  9
$DIMSCALE
 40
1.0
  9
$DIMASZ
 40
0.1875
  9
$DIMEXO
 40
0.0730807087
  9
$DIMDLI
 40
0.4443307087
  9
$DIMEXE
 40
0.2104724409
  9
$DIMCEN
 40
0.1052362205
  9
$DIMLFAC
 40
1.0
  9
$DIMBLK
  1
_CLOSED
  9
$DIMTXT
 40
0.15625
  9
$DIMTOL
 70
0
  9
$DIMLIM
 70
0
  9
$DIMTFAC
 40
1.0
  9
$PDMODE
 70
3
  9
$PDSIZE
 40
0.3125
  9
$HANDSEED
  5
255
  9
$TILEMODE
 70
1
  9
$MEASUREMENT
 70
0
  9
$INSUNITS
 70
1
  0
ENDSEC
  0
SECTION
  2
CLASSES
  0
CLASS
  1
ACDBDICTIONARYWDFLT
  2
AcDbDictionaryWithDefault
  3
AutoCAD 2000
 90
0
280
0
281
0
  0
CLASS
  1
ACDBPLACEHOLDER
  2
AcDbPlaceHolder
  3
AutoCAD 2000
 90
0
280
0
281
0
  0
CLASS
  1
LAYOUT
  2
AcDbLayout
  3
AutoCAD 2000
 90
0
280
0
281
0
  0
ENDSEC
  0
SECTION
  2
TABLES
  0
TABLE
  2
VPORT
  5
8
100
AcDbSymbolTable
 70
2
  0
VPORT
  5
1F4
100
AcDbSymbolTableRecord
100
AcDbViewportTableRecord
  2
*ACTIVE
 70
0
 10
0.0
 20
0.0
 11
1.0
 21
1.0
 12
5.8464566929
 22
4.1338582677
 13
0.0
 23
0.0
 14
1.0
 24
1.0
 15
0.0
 25
0.0
 16
0.0
 26
0.0
 36
1.0
 17
0.0
 27
0.0
 37
0.0
 40
8.2677165354
 41
1.4142857143
 42
50.0
 43
0.0
 44
0.0
 50
0.0
 51
0.0
 71
0
 72
100
 73
1
 74
1
 75
0
 76
0
 77
0
 78
0
  0
ENDTAB
  0
TABLE
  2
LTYPE
  5
5
100
AcDbSymbolTable
 70
6
  0
LTYPE
  5
14
100
AcDbSymbolTableRecord
100
AcDbLinetypeTableRecord
  2
BYBLOCK
 70
0
  3

 72
65
 73
0
 40
0.0
  0
LTYPE
  5
15
100
AcDbSymbolTableRecord
100
AcDbLinetypeTableRecord
  2
BYLAYER
 70
0
  3

 72
65
 73
0
 40
0.0
  0
LTYPE
  5
16
100
AcDbSymbolTableRecord
100
AcDbLinetypeTableRecord
  2
CONTINUOUS
 70
64
  3
Solid line
 72
65
 73
0
 40
0.0
  0
LTYPE
  5
1F5
100
AcDbSymbolTableRecord
100
AcDbLinetypeTableRecord
  2
CENTER
 70
64
  3
____ _ ____ _ ____ _ ____ _ ____ _ ____ _ ____
 72
65
 73
4
 40
0.6
 49
0.375
 74
0
 49
-0.075
 74
0
 49
0.075
 74
0
 49
-0.075
 74
0
  0
LTYPE
  5
1F6
100
AcDbSymbolTableRecord
100
AcDbLinetypeTableRecord
  2
HIDDEN
 70
64
  3
- - - - - - - - - - - - - - - - - - - -
 72
65
 73
2
 40
0.2
 49
0.1
 74
0
 49
-0.1
 74
0
  0
LTYPE
  5
1F7
100
AcDbSymbolTableRecord
100
AcDbLinetypeTableRecord
  2
PHANTOM
 70
64
  3
_____ _ _ _____ _ _ _____ _ _ _____
 72
65
 73
6
 40
0.8
 49
0.45
 74
0
 49
-0.05
 74
0
 49
0.1
 74
0
 49
-0.05
 74
0
 49
0.1
 74
0
 49
-0.05
 74
0
  0
LTYPE
  5
1F8
100
AcDbSymbolTableRecord
100
AcDbLinetypeTableRecord
  2
DOT
 70
64
  3
. . . . . . . . . . . . . . . . . . . .
 72
65
 73
2
 40
0.2
 49
0.1
 74
0
 49
-0.1
 74
0
  0
LTYPE
  5
1F9
100
AcDbSymbolTableRecord
100
AcDbLinetypeTableRecord
  2
DASHED
 70
64
  3
- - - - - - - - - - - - - - - - - - - -
 72
65
 73
2
 40
0.2
 49
0.1
 74
0
 49
-0.1
 74
0
  0
ENDTAB
  0
TABLE
  2
LAYER
  5
2
100
AcDbSymbolTable
 70
36
  0
LAYER
  5
10
100
AcDbSymbolTableRecord
100
AcDbLayerTableRecord
  2
0
 70
0
 62
7
  6
CONTINUOUS
370
-3
390
F
  0
LAYER
  5
1FA
100
AcDbSymbolTableRecord
100
AcDbLayerTableRecord
  2
DEFAULT_1
 70
0
 62
7
  6
CENTER
370
-3
390
F
  0
LAYER
  5
1FB
100
AcDbSymbolTableRecord
100
AcDbLayerTableRecord
  2
DEFAULT_2
 70
0
 62
8
  6
HIDDEN
370
-3
390
F
  0
LAYER
  5
1FC
100
AcDbSymbolTableRecord
100
AcDbLayerTableRecord
  2
DEFAULT_3
 70
0
 62
7
  6
PHANTOM
370
-3
390
F
  0
LAYER
  5
1FD
100
AcDbSymbolTableRecord
100
AcDbLayerTableRecord
  2
DEFAULT_COORDINATE_SYSTEM
 70
0
 62
7
  6
CONTINUOUS
370
-3
390
F
  0
LAYER
  5
1FE
100
AcDbSymbolTableRecord
100
AcDbLayerTableRecord
  2
DEFAULT_DATUM_AXES
 70
0
 62
7
  6
CONTINUOUS
370
-3
390
F
  0
LAYER
  5
1FF
100
AcDbSymbolTableRecord
100
AcDbLayerTableRecord
  2
DEFAULT_DATUM_CURVES
 70
0
 62
7
  6
CONTINUOUS
370
-3
390
F
  0
LAYER
  5
200
100
AcDbSymbolTableRecord
100
AcDbLayerTableRecord
  2
DEFAULT_DATUM_PLANES
 70
0
 62
7
  6
CONTINUOUS
370
-3
390
F
  0
ENDTAB
  0
TABLE
  2
STYLE
  5
3
100
AcDbSymbolTable
 70
1
  0
STYLE
  5
11
100
AcDbSymbolTableRecord
100
AcDbTextStyleTableRecord
  2
STANDARD
 70
0
 40
0.0
 41
0.8
 50
0.0
 71
0
 42
0.2
  3
txt
  4

  0
STYLE
  5
201
100
AcDbSymbolTableRecord
100
AcDbTextStyleTableRecord
  2
TEXTSTYLE_1
 70
0
 40
0.0
 41
0.8
 50
0.0
 71
0
 42
0.2
  3
gdt
  4

  0
ENDTAB
  0
TABLE
  2
VIEW
  5
6
100
AcDbSymbolTable
 70
0
  0
ENDTAB
  0
TABLE
  2
UCS
  5
7
100
AcDbSymbolTable
 70
0
  0
ENDTAB
  0
TABLE
  2
APPID
  5
9
100
AcDbSymbolTable
 70
1
  0
APPID
  5
202
100
AcDbSymbolTableRecord
100
AcDbRegAppTableRecord
  2
ACAD
 70
0
  0
ENDTAB
  0
TABLE
  2
BLOCK_RECORD
  5
1
100
AcDbSymbolTable
 70
0
  0
BLOCK_RECORD
  5
203
100
AcDbSymbolTableRecord
100
AcDbBlockTableRecord
  2
*Model_Space
  0
BLOCK_RECORD
  5
204
100
AcDbSymbolTableRecord
100
AcDbBlockTableRecord
  2
*Paper_Space
  0
ENDTAB
  0
TABLE
  2
DIMSTYLE
  5
A
100
AcDbSymbolTable
 70
1
100
AcDbDimStyleTable
 71
0
  0
DIMSTYLE
105
205
100
AcDbSymbolTableRecord
100
AcDbDimStyleTableRecord
  2
STANDARD
 70
0
  3

  4

 40
1.0
 41
0.1875
 42
0.0625
 43
0.38
 44
0.18
 45
0.0
 46
0.0
 47
0.01
 48
0.01
140
0.15625
141
0.09
142
0.0
143
25.4
144
1.0
145
0.0
146
1.0
147
0.09
 71
0.0
 72
0.0
 73
1
 74
1
 75
0
 76
0
 77
0
 78
4
170
0
171
2
172
0
173
0
174
0
175
0
176
0
177
0
178
0
270
2
271
2
272
2
273
2
274
2
275
0
280
0
281
0
282
0
283
1
284
4
285
0
286
0
287
3
288
0
340
11
  0
ENDTAB
  0
ENDSEC
  0
SECTION
  2
BLOCKS
  0
BLOCK
  5
20
100
AcDbEntity
  8
0
100
AcDbBlockBegin
  2
*Model_Space
 70
0
 10
0.0
 20
0.0
 30
0.0
  3
*Model_Space
  1

  0
ENDBLK
  5
21
100
AcDbEntity
  8
0
100
AcDbBlockEnd
  0
BLOCK
  5
1C
100
AcDbEntity
  8
0
100
AcDbBlockBegin
  2
*Paper_Space
 70
0
 10
0.0
 20
0.0
 30
0.0
  3
*Paper_Space
  1

  0
ENDBLK
  5
1D
100
AcDbEntity
  8
0
100
AcDbBlockEnd
  0
ENDSEC
  0
SECTION
  2
ENTITIES
  0
LINE
  5
206
100
AcDbEntity
  8
0
100
AcDbLine
 62
9
  6
CONTINUOUS
 10
3.2245201772
 20
3.8094558284
 11
3.2245201772
 21
4.4969558284
  0
LINE
  5
207
100
AcDbEntity
  8
0
100
AcDbLine
 62
9
  6
CONTINUOUS
 10
3.297138615
 20
3.7782058284
 11
3.297138615
 21
4.5282058284
  0
LINE
  5
208
100
AcDbEntity
  8
0
100
AcDbLine
 62
9
  6
CONTINUOUS
 10
3.7649462913
 20
4.5170718859
 11
3.7648517739
 21
4.5172008895
  0
LWPOLYLINE
  5
209
100
AcDbEntity
  8
0
100
AcDbPolyline
 62
6
  6
CONTINUOUS
 90
6
 70
0
 10
3.7649462913
 20
4.5170718859
 10
3.7581239785
 20
4.5254840914
 10
3.7494615201
 20
4.5335731259
 10
3.7392849993
 20
4.5398720431
 10
3.7278553151
 20
4.5434636414
 10
3.721615147
 20
4.5439778901
  0
LWPOLYLINE
  5
20A
100
AcDbEntity
  8
0
100
AcDbPolyline
 62
6
  6
CONTINUOUS
 90
4
 70
0
 10
8.2810035484
 20
3.7419315104
 10
8.2886020701
 20
3.7426502095
 10
8.3016147102
 20
3.7472681915
 10
8.3100682319
 20
3.7532058284
  0
LWPOLYLINE
  5
20B
100
AcDbEntity
  8
0
100
AcDbPolyline
 62
6
  6
CONTINUOUS
 90
3
 70
0
 10
7.8010074691
 20
3.7507181372
 10
7.8085988918
 20
3.7514296723
 10
7.8135786446
 20
3.7532058284
  0
LWPOLYLINE
  5
20C
100
AcDbEntity
  8
0
100
AcDbPolyline
 62
6
  6
CONTINUOUS
 90
9
 70
0
 10
8.5085922615
 20
3.7355251173
 10
8.5117271543
 20
3.7357167875
 10
8.5177702551
 20
3.7371579209
 10
8.5230578841
 20
3.7396700981
 10
8.5274967197
 20
3.7429431735
 10
8.5309290237
 20
3.7466077354
 10
8.5333097262
 20
3.7502376887
 10
8.534757912
 20
3.7533668099
 10
8.535373865
 20
3.7551841299
  0
LINE
  5
20D
100
AcDbEntity
  8
0
100
AcDbLine
 62
6
  6
CONTINUOUS
 10
5.6169017395
 20
4.5532058284
 11
5.6169017395
 21
3.7532058284
  0
LWPOLYLINE
  5
20E
100
AcDbEntity
  8
0
100
AcDbPolyline
 62
6
  6
CONTINUOUS
 90
3
 70
0
 10
4.9205861282
 20
3.7749660924
 10
4.9280019819
 20
3.7756303669
 10
4.935449372
 20
3.7782058284
  0
LWPOLYLINE
  5
20F
100
AcDbEntity
  8
0
100
AcDbPolyline
 62
6
  6
CONTINUOUS
 90
4
 70
0
 10
4.4406010006
 20
3.7700323105
 10
4.4471562773
 20
3.7705559252
 10
4.4597426869
 20
3.7745087737
 10
4.4655720198
 20
3.7782058284
  0
LINE
  5
210
100
AcDbEntity
  8
0
100
AcDbLine
 62
6
  6
CONTINUOUS
 10
8.4824935074
 20
3.7532058284
 11
5.6169017395
 21
3.7532058284
  0
LINE
  5
211
100
AcDbEntity
  8
0
100
AcDbLine
 62
6
  6
CONTINUOUS
 10
5.6169017395
 20
3.7782058284
 11
3.297138615
 21
3.7782058284
  0
LWPOLYLINE
  5
212
100
AcDbEntity
  8
0
100
AcDbPolyline
 62
6
  6
CONTINUOUS
 90
4
 70
0
 10
3.9605771194
 20
3.7650985901
 10
3.9688505759
 20
3.7659305903
 10
3.9828596711
 20
3.7712121817
 10
3.9922139857
 20
3.7782058284
  0
LWPOLYLINE
  5
213
100
AcDbEntity
  8
0
100
AcDbPolyline
 62
6
  6
CONTINUOUS
 90
9
 70
0
 10
3.6340866146
 20
3.7605780998
 10
3.6372870318
 20
3.7607774564
 10
3.6432401443
 20
3.7621990989
 10
3.6483853685
 20
3.7646147922
 10
3.6527290553
 20
3.7677461969
 10
3.6561545122
 20
3.7712834941
 10
3.6586055993
 20
3.7748538633
 10
3.6601510838
 20
3.7780092168
 10
3.6602222198
 20
3.7782058284
  0
LWPOLYLINE
  5
214
100
AcDbEntity
  8
0
100
AcDbPolyline
 62
6
  6
CONTINUOUS
 90
4
 70
0
 10
8.0410548982
 20
4.5600868379
 10
8.0338539194
 20
4.5594431515
 10
8.0205928286
 20
4.5548468234
 10
8.0182438984
 20
4.5532058284
  0
LWPOLYLINE
  5
215
100
AcDbEntity
  8
0
100
AcDbPolyline
 62
6
  6
CONTINUOUS
 90
7
 70
0
 10
8.479772447
 20
4.5697841
 10
8.4763919245
 20
4.5695755971
 10
8.4688075582
 20
4.5676023097
 10
8.4621322792
 20
4.5639594608
 10
8.4571526678
 20
4.559667284
 10
8.4537233898
 20
4.5555162032
 10
8.4522565188
 20
4.5532058284
  0
LINE
  5
216
100
AcDbEntity
  8
0
100
AcDbLine
 62
6
  6
CONTINUOUS
 10
3.617445422
 20
4.5461838657
 11
3.6169017395
 21
4.5462058284
  0
LWPOLYLINE
  5
217
100
AcDbEntity
  8
0
100
AcDbPolyline
 62
6
  6
CONTINUOUS
 90
5
 70
0
 10
3.7216636356
 20
4.5439778371
 10
3.7137084652
 20
4.5431413146
 10
3.700409475
 20
4.5378472101
 10
3.6896732238
 20
4.5292009759
 10
3.6888977768
 20
4.5282058284
  0
LINE
  5
218
100
AcDbEntity
  8
0
100
AcDbLine
 62
6
  6
CONTINUOUS
 10
5.160642403
 20
4.5289786674
 11
5.1526453625
 21
4.5282058284
  0
LWPOLYLINE
  5
219
100
AcDbEntity
  8
0
100
AcDbPolyline
 62
6
  6
CONTINUOUS
 90
4
 70
0
 10
4.2006303324
 20
4.5388462236
 10
4.1938751804
 20
4.5382896405
 10
4.1806441052
 20
4.5339508038
 10
4.1720588594
 20
4.5282058284
  0
LWPOLYLINE
  5
21A
100
AcDbEntity
  8
0
100
AcDbPolyline
 62
6
  6
CONTINUOUS
 90
4
 70
0
 10
4.6806243446
 20
4.5339124644
 10
4.6741599587
 20
4.5334044915
 10
4.6611092857
 20
4.5292697021
 10
4.659472464
 20
4.5282058284
  0
LINE
  5
21B
100
AcDbEntity
  8
0
100
AcDbLine
 62
6
  6
CONTINUOUS
 10
5.6169017395
 20
4.5282058284
 11
5.1683860109
 21
4.5282058284
  0
LINE
  5
21C
100
AcDbEntity
  8
0
100
AcDbLine
 62
6
  6
CONTINUOUS
 10
5.1605832219
 20
4.5282058284
 11
3.643039565
 21
4.5282058284
  0
LINE
  5
21D
100
AcDbEntity
  8
0
100
AcDbLine
 62
6
  6
CONTINUOUS
 10
3.5914897324
 20
4.5282058284
 11
3.297138615
 21
4.5282058284
  0
LINE
  5
21E
100
AcDbEntity
  8
0
100
AcDbLine
 62
6
  6
CONTINUOUS
 10
8.5165422825
 20
4.5532058284
 11
5.6169017395
 21
4.5532058284
  0
LINE
  5
21F
100
AcDbEntity
  8
0
100
AcDbLine
 62
9
  6
CONTINUOUS
 10
8.599222011
 20
4.5094558284
 11
8.599222011
 21
3.7969558284
  0
ARC
  5
220
100
AcDbEntity
  8
0
100
AcDbCircle
 62
6
  6
CONTINUOUS
 10
3.1519017395
 20
3.7407058284
 40
0.1
100
AcDbArc
 50
43.4325365578
 51
77.7444802001
  0
ARC
  5
221
100
AcDbEntity
  8
0
100
AcDbCircle
 62
6
  6
CONTINUOUS
 10
3.297138615
 20
3.8782058284
 40
0.1
100
AcDbArc
 50
223.4325365578
 51
270.0
  0
ARC
  5
222
100
AcDbEntity
  8
0
100
AcDbCircle
 62
6
  6
CONTINUOUS
 10
2.7919017395
 20
4.1532058284
 40
1.17
100
AcDbArc
 50
18.7297740891
 51
341.2702259109
  0
ARC
  5
223
100
AcDbEntity
  8
0
100
AcDbCircle
 62
9
  6
CONTINUOUS
 10
2.7919017395
 20
4.1532058284
 40
1.1043717104
100
AcDbArc
 50
19.8888471076
 51
340.1111528925
  0
ARC
  5
224
100
AcDbEntity
  8
0
100
AcDbCircle
 62
9
  6
CONTINUOUS
 10
2.7919017395
 20
4.1532058284
 40
1.0719223696
100
AcDbArc
 50
20.5112524956
 51
339.4887475044
  0
ARC
  5
225
100
AcDbEntity
  8
0
100
AcDbCircle
 62
9
  6
CONTINUOUS
 10
2.7919017395
 20
4.1532058284
 40
1.0407459276
100
AcDbArc
 50
21.1607823486
 51
338.8392176514
  0
ARC
  5
226
100
AcDbEntity
  8
0
100
AcDbCircle
 62
9
  6
CONTINUOUS
 10
2.7919017395
 20
4.1532058284
 40
1.0164705063
100
AcDbArc
 50
22.5642032178
 51
338.3155597544
  0
ARC
  5
227
100
AcDbEntity
  8
0
100
AcDbCircle
 62
9
  6
CONTINUOUS
 10
2.7919017395
 20
4.1532058284
 40
0.9793435571
100
AcDbArc
 50
22.8125935296
 51
337.4644613111
  0
ARC
  5
228
100
AcDbEntity
  8
0
100
AcDbCircle
 62
9
  6
CONTINUOUS
 10
2.7919017395
 20
4.1532058284
 40
0.9519481536
100
AcDbArc
 50
23.2061173322
 51
336.7938826678
  0
ARC
  5
229
100
AcDbEntity
  8
0
100
AcDbCircle
 62
9
  6
CONTINUOUS
 10
2.7919017395
 20
4.1532058284
 40
0.9418237702
100
AcDbArc
 50
23.4638123511
 51
335.639961279
  0
ARC
  5
22A
100
AcDbEntity
  8
0
100
AcDbCircle
 62
6
  6
CONTINUOUS
 10
2.7919017395
 20
4.1532058284
 40
0.8187389754
100
AcDbArc
 50
27.2598043872
 51
332.7401956129
  0
ARC
  5
22B
100
AcDbEntity
  8
0
100
AcDbCircle
 62
9
  6
CONTINUOUS
 10
2.7919017395
 20
4.1532058284
 40
0.7877475635
100
AcDbArc
 50
28.5065340767
 51
331.4934659233
  0
ARC
  5
22C
100
AcDbEntity
  8
0
100
AcDbCircle
 62
9
  6
CONTINUOUS
 10
2.7919017395
 20
4.1532058284
 40
0.5244951005
100
AcDbArc
 50
38.5038576153
 51
321.4961423847
  0
ARC
  5
22D
100
AcDbEntity
  8
0
100
AcDbCircle
 62
6
  6
CONTINUOUS
 10
2.7919017395
 20
4.1532058284
 40
0.495
100
AcDbArc
 50
39.565855887
 51
320.434144113
  0
CIRCLE
  5
22E
100
AcDbEntity
  8
0
100
AcDbCircle
 62
6
  6
CONTINUOUS
 10
2.7919017395
 20
4.1532058284
 40
0.3305
  0
CIRCLE
  5
22F
100
AcDbEntity
  8
0
100
AcDbCircle
 62
9
  6
CONTINUOUS
 10
2.7919017395
 20
4.1532058284
 40
0.2955
  0
CIRCLE
  5
230
100
AcDbEntity
  8
0
100
AcDbCircle
 62
6
  6
CONTINUOUS
 10
2.7919017395
 20
4.1532058284
 40
0.272
  0
CIRCLE
  5
231
100
AcDbEntity
  8
0
100
AcDbCircle
 62
7
  6
CONTINUOUS
 10
2.7919017395
 20
4.1532058284
 40
0.2416833309
  0
CIRCLE
  5
232
100
AcDbEntity
  8
0
100
AcDbCircle
 62
6
  6
CONTINUOUS
 10
2.7919017395
 20
4.1532058284
 40
0.185
  0
CIRCLE
  5
233
100
AcDbEntity
  8
0
100
AcDbCircle
 62
6
  6
CONTINUOUS
 10
2.7919017395
 20
4.1532058284
 40
0.17
  0
ARC
  5
234
100
AcDbEntity
  8
0
100
AcDbCircle
 62
6
  6
CONTINUOUS
 10
3.1519017395
 20
4.5657058284
 40
0.1
100
AcDbArc
 50
282.2555197999
 51
316.5674634422
  0
ARC
  5
235
100
AcDbEntity
  8
0
100
AcDbCircle
 62
6
  6
CONTINUOUS
 10
3.297138615
 20
4.4282058284
 40
0.1
100
AcDbArc
 50
90.0
 51
136.5674634422
  0
ARC
  5
236
100
AcDbEntity
  8
0
100
AcDbCircle
 62
9
  6
CONTINUOUS
 10
3.7443580768
 20
4.5023789668
 40
0.0252763935
100
AcDbArc
 50
35.8773432622
 51
40.0958954097
  0
ARC
  5
237
100
AcDbEntity
  8
0
100
AcDbCircle
 62
6
  6
CONTINUOUS
 10
8.6819017395
 20
3.7407058284
 40
0.1
100
AcDbArc
 50
102.0931616442
 51
145.7711336722
  0
ARC
  5
238
100
AcDbEntity
  8
0
100
AcDbCircle
 62
6
  6
CONTINUOUS
 10
8.5165422825
 20
3.8532058284
 40
0.1
100
AcDbArc
 50
288.5903778907
 51
325.7711336722
  0
ARC
  5
239
100
AcDbEntity
  8
0
100
AcDbCircle
 62
6
  6
CONTINUOUS
 10
8.6819017395
 20
4.5657058284
 40
0.1
100
AcDbArc
 50
214.2288663278
 51
257.9068383558
  0
ARC
  5
23A
100
AcDbEntity
  8
0
100
AcDbCircle
 62
6
  6
CONTINUOUS
 10
8.5165422825
 20
4.4532058284
 40
0.1
100
AcDbArc
 50
34.2288663278
 51
90.0
  0
ARC
  5
23B
100
AcDbEntity
  8
0
100
AcDbCircle
 62
6
  6
CONTINUOUS
 10
9.0419017395
 20
4.1532058284
 40
1.17
100
AcDbArc
 50
200.0178938588
 51
159.9821061412
  0
ARC
  5
23C
100
AcDbEntity
  8
0
100
AcDbCircle
 62
9
  6
CONTINUOUS
 10
9.0419017395
 20
4.1532058284
 40
1.1043717104
100
AcDbArc
 50
201.2595380414
 51
158.7404619586
  0
ARC
  5
23D
100
AcDbEntity
  8
0
100
AcDbCircle
 62
9
  6
CONTINUOUS
 10
9.0419017395
 20
4.1532058284
 40
1.0719223696
100
AcDbArc
 50
201.923437122
 51
157.7560637156
  0
ARC
  5
23E
100
AcDbEntity
  8
0
100
AcDbCircle
 62
9
  6
CONTINUOUS
 10
9.0419017395
 20
4.1532058284
 40
1.0407459276
100
AcDbArc
 50
202.6225703897
 51
157.3774296103
  0
ARC
  5
23F
100
AcDbEntity
  8
0
100
AcDbCircle
 62
9
  6
CONTINUOUS
 10
9.0419017395
 20
4.1532058284
 40
1.0164705063
100
AcDbArc
 50
203.1811388131
 51
156.8188611869
  0
ARC
  5
240
100
AcDbEntity
  8
0
100
AcDbCircle
 62
9
  6
CONTINUOUS
 10
9.0419017395
 20
4.1532058284
 40
0.9793435571
100
AcDbArc
 50
204.1263785273
 51
155.8736214727
  0
ARC
  5
241
100
AcDbEntity
  8
0
100
AcDbCircle
 62
9
  6
CONTINUOUS
 10
9.0419017395
 20
4.1532058284
 40
0.9519481536
100
AcDbArc
 50
204.8854676981
 51
155.1145323019
  0
ARC
  5
242
100
AcDbEntity
  8
0
100
AcDbCircle
 62
9
  6
CONTINUOUS
 10
9.0419017395
 20
4.1532058284
 40
0.9418237702
100
AcDbArc
 50
205.17717621
 51
154.82282379
  0
ARC
  5
243
100
AcDbEntity
  8
0
100
AcDbCircle
 62
6
  6
CONTINUOUS
 10
9.0419017395
 20
4.1532058284
 40
0.8187389754
100
AcDbArc
 50
209.2800803652
 51
150.7199196348
  0
ARC
  5
244
100
AcDbEntity
  8
0
100
AcDbCircle
 62
9
  6
CONTINUOUS
 10
9.0419017395
 20
4.1532058284
 40
0.7877475635
100
AcDbArc
 50
210.5800574447
 51
149.4199425553
  0
ARC
  5
245
100
AcDbEntity
  8
0
100
AcDbCircle
 62
9
  6
CONTINUOUS
 10
9.0419017395
 20
4.1532058284
 40
0.5244951005
100
AcDbArc
 50
218.5042326679
 51
141.4957673321
  0
ARC
  5
246
100
AcDbEntity
  8
0
100
AcDbCircle
 62
6
  6
CONTINUOUS
 10
9.0419017395
 20
4.1532058284
 40
0.495
100
AcDbArc
 50
219.5658605186
 51
140.4341394814
  0
CIRCLE
  5
247
100
AcDbEntity
  8
0
100
AcDbCircle
 62
6
  6
CONTINUOUS
 10
9.0419017395
 20
4.1532058284
 40
0.3305
  0
CIRCLE
  5
248
100
AcDbEntity
  8
0
100
AcDbCircle
 62
9
  6
CONTINUOUS
 10
9.0419017395
 20
4.1532058284
 40
0.2955
  0
CIRCLE
  5
249
100
AcDbEntity
  8
0
100
AcDbCircle
 62
6
  6
CONTINUOUS
 10
9.0419017395
 20
4.1532058284
 40
0.272
  0
CIRCLE
  5
24A
100
AcDbEntity
  8
0
100
AcDbCircle
 62
7
  6
CONTINUOUS
 10
9.0419017395
 20
4.1532058284
 40
0.2416833309
  0
CIRCLE
  5
24B
100
AcDbEntity
  8
0
100
AcDbCircle
 62
6
  6
CONTINUOUS
 10
9.0419017395
 20
4.1532058284
 40
0.185
  0
CIRCLE
  5
24C
100
AcDbEntity
  8
0
100
AcDbCircle
 62
6
  6
CONTINUOUS
 10
9.0419017395
 20
4.1532058284
 40
0.17
  0
SPLINE
  5
24D
100
AcDbEntity
  8
0
100
AcDbSpline
 62
6
  6
CONTINUOUS
 70
0
 71
3
 72
15
 73
11
 74
9
 42
0.0000001
 43
0.0000001
 44
0.0000000001
 12
-0.033401083
 22
0.0
 32
0.0
 13
-0.0119971522
 23
-0.031172114
 33
0.0
 40
0.0
 40
0.0
 40
0.0
 40
0.0
 40
0.1243423622
 40
0.2494804781
 40
0.3750446651
 40
0.5004423183
 40
0.6254178755
 40
0.7500772442
 40
0.8748803522
 40
1.0
 40
1.0
 40
1.0
 40
1.0
 10
3.6169017395
 20
4.5462058284
 30
0.0
 10
3.6155173496
 20
4.5462058284
 30
0.0
 10
3.6127353492
 20
4.5459746011
 30
0.0
 10
3.6086611757
 20
4.5449968739
 30
0.0
 10
3.6047579927
 20
4.5434420409
 30
0.0
 10
3.601112125
 20
4.5413579231
 30
0.0
 10
3.5978109143
 20
4.5387767203
 30
0.0
 10
3.5949408651
 20
4.5357287842
 30
0.0
 10
3.5925977424
 20
4.5322584468
 30
0.0
 10
3.5914043143
 20
4.529731357
 30
0.0
 10
3.5909039545
 20
4.5284312757
 30
0.0
 11
3.6169017395
 21
4.5462058284
 31
0.0
 11
3.6127620714
 21
4.5458712164
 31
0.0
 11
3.6086961062
 21
4.5449025958
 31
0.0
 11
3.604798983
 21
4.5433527901
 31
0.0
 11
3.6011642797
 21
4.5412714991
 31
0.0
 11
3.5978793017
 21
4.5386958713
 31
0.0
 11
3.5950297795
 21
4.5356599031
 31
0.0
 11
3.5926919667
 21
4.5322085968
 31
0.0
 11
3.5909039545
 21
4.5284312757
 31
0.0
  0
SPLINE
  5
24E
100
AcDbEntity
  8
0
100
AcDbSpline
 62
6
  6
CONTINUOUS
 70
0
 71
3
 72
15
 73
11
 74
9
 42
0.0000001
 43
0.0000001
 44
0.0000000001
 12
-0.0118023114
 22
0.0306658606
 32
0.0
 13
-0.0328509502
 23
0.0007103757
 33
0.0
 40
0.0
 40
0.0
 40
0.0
 40
0.0
 40
0.1251051767
 40
0.2499000268
 40
0.3745377157
 40
0.49947166
 40
0.6248249027
 40
0.7503805493
 40
0.8755729051
 40
1.0
 40
1.0
 40
1.0
 40
1.0
 10
3.6428995245
 20
4.5284312757
 30
0.0
 10
3.6424073477
 20
4.529710095
 30
0.0
 10
3.6412365067
 20
4.5321969329
 30
0.0
 10
3.6389452923
 20
4.5356189361
 30
0.0
 10
3.6361423921
 20
4.5386348191
 30
0.0
 10
3.6329177272
 20
4.5412006584
 30
0.0
 10
3.6293539755
 20
4.5432876613
 30
0.0
 10
3.6255343038
 20
4.544865556
 30
0.0
 10
3.6215410107
 20
4.5458900554
 30
0.0
 10
3.6188082856
 20
4.5461704718
 30
0.0
 10
3.6174457695
 20
4.5461999352
 30
0.0
 11
3.6428995245
 21
4.5284312757
 31
0.0
 11
3.6411453531
 21
4.5321489945
 31
0.0
 11
3.6388588173
 21
4.5355529003
 31
0.0
 11
3.6360752831
 21
4.5385569696
 31
0.0
 11
3.63286638
 21
4.5411172948
 31
0.0
 11
3.6293136885
 21
4.5432015249
 31
0.0
 11
3.625499944
 21
4.5447749978
 31
0.0
 11
3.6215137933
 21
4.5457912229
 31
0.0
 11
3.6174457695
 21
4.5461999352
 31
0.0
  0
SPLINE
  5
24F
100
AcDbEntity
  8
0
100
AcDbSpline
 62
9
  6
CONTINUOUS
 70
0
 71
3
 72
24
 73
20
 74
18
 42
0.0000001
 43
0.0000001
 44
0.0000000001
 12
-0.0603754615
 22
-0.0
 32
0.0
 13
0.03712115
 23
-0.0476152977
 33
0.0
 40
0.0
 40
0.0
 40
0.0
 40
0.0
 40
0.0635894072
 40
0.1274674171
 40
0.1914231736
 40
0.2551187134
 40
0.3183386735
 40
0.3810430201
 40
0.4122578248
 40
0.4434102482
 40
0.5055517738
 40
0.5675344377
 40
0.629295195
 40
0.6908484265
 40
0.752347895
 40
0.8139472753
 40
0.875780504
 40
0.9378140973
 40
1.0
 40
1.0
 40
1.0
 40
1.0
 10
3.7419017395
 20
4.5287224207
 30
0.0
 10
3.7406219929
 20
4.5287224207
 30
0.0
 10
3.7380534003
 20
4.52853032
 30
0.0
 10
3.734276983
 20
4.5277165208
 30
0.0
 10
3.7306354096
 20
4.5264214536
 30
0.0
 10
3.7271963176
 20
4.5246874299
 30
0.0
 10
3.7240282172
 20
4.5225408273
 30
0.0
 10
3.7216656822
 20
4.5204215007
 30
0.0
 10
3.7199843944
 20
4.5185454896
 30
0.0
 10
3.7184553231
 20
4.5165577932
 30
0.0
 10
3.716827091
 20
4.5138766905
 30
0.0
 10
3.7153534714
 20
4.510425006
 30
0.0
 10
3.7143834325
 20
4.5068111624
 30
0.0
 10
3.7139371127
 20
4.5031061457
 30
0.0
 10
3.7140134978
 20
4.4993786051
 30
0.0
 10
3.7146132806
 20
4.4956928196
 30
0.0
 10
3.7157337012
 20
4.4921191078
 30
0.0
 10
3.7173497698
 20
4.4887283564
 30
0.0
 10
3.7187425593
 20
4.4866396902
 30
0.0
 10
3.7195120301
 20
4.4856526901
 30
0.0
 11
3.7419017395
 21
4.5287224207
 31
0.0
 11
3.7380726303
 21
4.5284436998
 31
0.0
 11
3.7343013383
 21
4.5276367201
 31
0.0
 11
3.7306623538
 21
4.526345256
 31
0.0
 11
3.7272296326
 21
4.524611638
 31
0.0
 11
3.7240727016
 21
4.5224662304
 31
0.0
 11
3.7212588976
 21
4.5199334813
 31
0.0
 11
3.7200017062
 21
4.5185294806
 31
0.0
 11
3.7188545655
 21
4.5170389658
 31
0.0
 11
3.716905019
 21
4.5138334321
 31
0.0
 11
3.715435307
 21
4.510391885
 31
0.0
 11
3.7144695779
 21
4.5067902781
 31
0.0
 11
3.714024077
 21
4.5031007727
 31
0.0
 11
3.714100395
 21
4.4993884983
 31
0.0
 11
3.7146985316
 21
4.4957178212
 31
0.0
 11
3.7158141321
 21
4.4921551971
 31
0.0
 11
3.7174267068
 21
4.4887748235
 31
0.0
 11
3.7195120301
 21
4.4856526901
 31
0.0
  0
SPLINE
  5
250
100
AcDbEntity
  8
0
100
AcDbSpline
 62
9
  6
CONTINUOUS
 70
0
 71
3
 72
21
 73
17
 74
15
 42
0.0000001
 43
0.0000001
 44
0.0000000001
 12
-0.0396571831
 22
0.0
 32
0.0
 13
0.0013373779
 23
-0.0396346262
 33
0.0
 40
0.0
 40
0.0
 40
0.0
 40
0.0
 40
0.1395014689
 40
0.2777855649
 40
0.345676336
 40
0.4122802873
 40
0.477390949
 40
0.540870075
 40
0.6026726056
 40
0.6628765493
 40
0.7216343862
 40
0.7790965767
 40
0.8354220926
 40
0.8908022552
 40
0.9455372202
 40
1.0
 40
1.0
 40
1.0
 40
1.0
 10
8.4919017395
 20
4.4763994789
 30
0.0
 10
8.490057661
 20
4.4763994789
 30
0.0
 10
8.4863800982
 20
4.4760817484
 30
0.0
 10
8.4819264963
 20
4.4749795346
 30
0.0
 10
8.4785464375
 20
4.4737145084
 30
0.0
 10
8.476153868
 20
4.4725947482
 30
0.0
 10
8.473914935
 20
4.4713055499
 30
0.0
 10
8.4718544285
 20
4.4698537524
 30
0.0
 10
8.4699973324
 20
4.4682457586
 30
0.0
 10
8.4683701633
 20
4.4664890548
 30
0.0
 10
8.4669834118
 20
4.464607828
 30
0.0
 10
8.4658460753
 20
4.4626248241
 30
0.0
 10
8.4649670414
 20
4.4605627766
 30
0.0
 10
8.4643562283
 20
4.4584430929
 30
0.0
 10
8.4640192373
 20
4.4562882494
 30
0.0
 10
8.4639769193
 20
4.4548408715
 30
0.0
 10
8.4640011984
 20
4.4541213342
 30
0.0
 11
8.4919017395
 21
4.4763994789
 31
0.0
 11
8.4863888601
 21
4.4759371064
 31
0.0
 11
8.4810652488
 21
4.474620689
 31
0.0
 11
8.4785443617
 21
4.4736752192
 31
0.0
 11
8.4761533536
 21
4.4725528652
 31
0.0
 11
8.4739175806
 21
4.4712611271
 31
0.0
 11
8.471862348
 21
4.4698073945
 31
0.0
 11
8.4700129612
 21
4.4681990571
 31
0.0
 11
8.4683919181
 21
4.4664462121
 31
0.0
 11
8.4670109197
 21
4.4645693698
 31
0.0
 11
8.4658790717
 21
4.4625915433
 31
0.0
 11
8.4650054796
 21
4.4605357459
 31
0.0
 11
8.4643990439
 21
4.4584249111
 31
0.0
 11
8.4640642252
 21
4.4562802548
 31
0.0
 11
8.4640011984
 21
4.4541213342
 31
0.0
  0
SPLINE
  5
251
100
AcDbEntity
  8
0
100
AcDbSpline
 62
9
  6
CONTINUOUS
 70
0
 71
3
 72
21
 73
17
 74
15
 42
0.0000001
 43
0.0000001
 44
0.0000000001
 12
-0.0012940173
 22
0.0384815994
 32
0.0
 13
-0.0385033502
 23
-0.0
 33
0.0
 40
0.0
 40
0.0
 40
0.0
 40
0.0
 40
0.0543136865
 40
0.1090699024
 40
0.1646003725
 40
0.2211272068
 40
0.2788114024
 40
0.3377954701
 40
0.3982206201
 40
0.4602198368
 40
0.5238314886
 40
0.5889891248
 40
0.6555486771
 40
0.7233065198
 40
0.8611089212
 40
1.0
 40
1.0
 40
1.0
 40
1.0
 10
8.5198023474
 20
4.4552775818
 30
0.0
 10
8.5197789198
 20
4.4559742744
 30
0.0
 10
8.5196463739
 20
4.4573719291
 30
0.0
 10
8.5191925121
 20
4.4594402053
 30
0.0
 10
8.5184840426
 20
4.4614659331
 30
0.0
 10
8.5175293337
 20
4.4634293799
 30
0.0
 10
8.5163365341
 20
4.4653105068
 30
0.0
 10
8.5149140677
 20
4.4670889904
 30
0.0
 10
8.5132692421
 20
4.4687431093
 30
0.0
 10
8.5114160031
 20
4.4702548013
 30
0.0
 10
8.5093791888
 20
4.4716194323
 30
0.0
 10
8.5071809348
 20
4.4728306203
 30
0.0
 10
8.5048437713
 20
4.4738822226
 30
0.0
 10
8.5015561994
 20
4.4750693051
 30
0.0
 10
8.4972405597
 20
4.4761023856
 30
0.0
 10
8.4936843301
 20
4.4763994789
 30
0.0
 10
8.4919017395
 20
4.4763994789
 30
0.0
 11
8.5198023474
 21
4.4552775818
 31
0.0
 11
8.5196052025
 21
4.4573595275
 31
0.0
 11
8.5191541477
 21
4.4594190102
 31
0.0
 11
8.5184503701
 21
4.4614379722
 31
0.0
 11
8.5175005211
 21
4.4633962417
 31
0.0
 11
8.5163128225
 21
4.4652730389
 31
0.0
 11
8.5148954963
 21
4.4670475839
 31
0.0
 11
8.5132568291
 21
4.4686991592
 31
0.0
 11
8.5114101804
 21
4.4702119398
 31
0.0
 11
8.5093775563
 21
4.4715784398
 31
0.0
 11
8.5071818063
 21
4.4727919865
 31
0.0
 11
8.50484578
 21
4.4738459076
 31
0.0
 11
8.5023924326
 21
4.4747333006
 31
0.0
 11
8.4972319931
 21
4.4759669746
 31
0.0
 11
8.4919017395
 21
4.4763994789
 31
0.0
  0
SPLINE
  5
252
100
AcDbEntity
  8
0
100
AcDbSpline
 62
9
  6
CONTINUOUS
 70
0
 71
3
 72
14
 73
10
 74
8
 42
0.0000001
 43
0.0000001
 44
0.0000000001
 12
-0.0159217408
 22
0.0189081271
 32
0.0
 13
-0.0247188005
 23
-0.0
 33
0.0
 40
0.0
 40
0.0
 40
0.0
 40
0.0
 40
0.1231412301
 40
0.2470046476
 40
0.4968192084
 40
0.6228156888
 40
0.7489040428
 40
0.8746981205
 40
1.0
 40
1.0
 40
1.0
 40
1.0
 10
3.7636936975
 20
4.518658704
 30
0.0
 10
3.7630401566
 20
4.5194348274
 30
0.0
 10
3.7616334117
 20
4.5209136754
 30
0.0
 10
3.7584878242
 20
4.5235432208
 30
0.0
 10
3.7549119053
 20
4.5256555175
 30
0.0
 10
3.7510706126
 20
4.5272004926
 30
0.0
 10
3.7480720674
 20
4.5280617002
 30
0.0
 10
3.7450049446
 20
4.5285974965
 30
0.0
 10
3.7429341769
 20
4.5287224207
 30
0.0
 10
3.7419017395
 20
4.5287224207
 30
0.0
 11
3.7636936975
 21
4.518658704
 31
0.0
 11
3.7615984657
 21
4.5208667241
 31
0.0
 11
3.759251404
 21
4.5228328486
 31
0.0
 11
3.7539432672
 21
4.5259881212
 31
0.0
 11
3.7510535763
 21
4.52714988
 31
0.0
 11
3.7480573342
 21
4.5280081816
 31
0.0
 11
3.7449936767
 21
4.5285400279
 31
0.0
 11
3.7419017395
 21
4.5287224207
 31
0.0
  0
ENDSEC
  0
SECTION
  2
OBJECTS
  0
DICTIONARY
  5
C
100
AcDbDictionary
280
0
281
1
  3
ACAD_GROUP
350
D
  3
ACAD_MLINESTYLE
350
17
  3
ACAD_LAYOUT
350
1A
  3
ACAD_PLOTSETTINGS
350
19
  3
ACAD_PLOTSTYLENAME
350
E
  0
DICTIONARY
  5
D
102
{ACAD_REACTORS
330
C
102
}
100
AcDbDictionary
280
0
281
1
  0
ACDBDICTIONARYWDFLT
  5
E
102
{ACAD_REACTORS
330
C
102
}
100
AcDbDictionary
281
1
  3
Normal
350
F
100
AcDbDictionaryWithDefault
340
F
  0
DICTIONARY
  5
17
102
{ACAD_REACTORS
330
C
102
}
100
AcDbDictionary
280
0
281
1
  3
Standard
350
18
  0
DICTIONARY
  5
19
102
{ACAD_REACTORS
330
C
102
}
100
AcDbDictionary
281
1
  0
DICTIONARY
  5
1A
102
{ACAD_REACTORS
330
C
102
}
100
AcDbDictionary
281
1
  3
Model
350
253
  3
Layout1
350
254
  0
ACDBPLACEHOLDER
  5
F
102
{ACAD_REACTORS
330
E
102
}
  0
MLINESTYLE
  5
18
102
{ACAD_REACTORS
330
17
102
}
100
AcDbMlineStyle
  2
STANDARD
 70
0
  3

 62
256
 51
90.0
 52
90.0
 71
2
 49
0.5
 62
256
  6
BYLAYER
 49
-0.5
 62
256
  6
BYLAYER
  0
LAYOUT
  5
253
102
{ACAD_REACTORS
330
1A
102
}
100
AcDbPlotSettings
  1

  2
none_device
  4
ISO_A4_(297.00_x_210.00_MM)
  6

 40
0.0
 41
0.0
 42
0.0
 43
0.0
 44
297.0
 45
210.0
 46
0.0
 47
0.0
 48
0.0
 49
0.0
140
0.0
141
0.0
142
1.0
143
1.0
 70
1024
 72
0
 73
0
 74
0
  7

 75
0
147
1.0
148
0.0
149
0.0
100
AcDbLayout
  1
Model
 70
0
 71
0
 10
0.0
 20
0.0
 11
11.6929133858
 21
8.2677165354
 12
0.0
 22
0.0
 32
0.0
 14
0.0
 24
0.0
 34
0.0
 15
0.0
 25
0.0
 35
0.0
146
0.0
 13
0.0
 23
0.0
 33
0.0
 16
1.0
 26
0.0
 36
0.0
 17
0.0
 27
1.0
 37
0.0
 76
0
330
203
345
0
346
0
  0
LAYOUT
  5
254
102
{ACAD_REACTORS
330
1A
102
}
100
AcDbPlotSettings
  1

  2
none_device
  4
ISO_A4_(297.00_x_210.00_MM)
  6

 40
0.0
 41
0.0
 42
0.0
 43
0.0
 44
297.0
 45
210.0
 46
0.0
 47
0.0
 48
0.0
 49
0.0
140
0.0
141
0.0
142
1.0
143
1.0
 70
0
 72
0
 73
0
 74
0
  7

 75
0
147
1.0
148
0.0
149
0.0
100
AcDbLayout
  1
Layout1
 70
0
 71
1
 10
0.0
 20
0.0
 11
11.6929133858
 21
8.2677165354
 12
0.0
 22
0.0
 32
0.0
 14
0.0
 24
0.0
 34
0.0
 15
0.0
 25
0.0
 35
0.0
146
0.0
 13
0.0
 23
0.0
 33
0.0
 16
1.0
 26
0.0
 36
0.0
 17
0.0
 27
1.0
 37
0.0
 76
0
330
204
345
0
346
0
  0
ENDSEC
  0
EOF
