  0
SECTION
  2
HEADER
  9
$ACADVER
  1
AC1015
  9
$DWGCODEPAGE
  3
ANSI_1252
  9
$EXTMAX
 10
11.6929133858
 20
8.2677165354
 30
0.0
  9
$EXTMIN
 10
0.0
 20
0.0
 30
0.0
  9
$LIMMIN
 10
0.0
 20
0.0
  9
$LIMMAX
 10
11.6929133858
 20
8.2677165354
  9
$VIEWCTR
 10
5.8464566929
 20
4.1338582677
  9
$VIEWSIZE
 40
8.2677165354
  9
$CLAYER
  8
0
  9
$LTSCALE
 40
0.6431102362
  9
$CELTYPE
  6
BYLAYER
  9
$DIMSCALE
 40
1.0
  9
$DIMASZ
 40
0.1875
  9
$DIMEXO
 40
0.0730807087
  9
$DIMDLI
 40
0.4443307087
  9
$DIMEXE
 40
0.2104724409
  9
$DIMCEN
 40
0.1052362205
  9
$DIMLFAC
 40
1.0
  9
$DIMBLK
  1
_CLOSED
  9
$DIMTXT
 40
0.15625
  9
$DIMTOL
 70
0
  9
$DIMLIM
 70
0
  9
$DIMTFAC
 40
1.0
  9
$PDMODE
 70
3
  9
$PDSIZE
 40
0.3125
  9
$HANDSEED
  5
2E2
  9
$TILEMODE
 70
1
  9
$MEASUREMENT
 70
0
  9
$INSUNITS
 70
1
  0
ENDSEC
  0
SECTION
  2
CLASSES
  0
CLASS
  1
ACDBDICTIONARYWDFLT
  2
AcDbDictionaryWithDefault
  3
AutoCAD 2000
 90
0
280
0
281
0
  0
CLASS
  1
ACDBPLACEHOLDER
  2
AcDbPlaceHolder
  3
AutoCAD 2000
 90
0
280
0
281
0
  0
CLASS
  1
LAYOUT
  2
AcDbLayout
  3
AutoCAD 2000
 90
0
280
0
281
0
  0
ENDSEC
  0
SECTION
  2
TABLES
  0
TABLE
  2
VPORT
  5
8
100
AcDbSymbolTable
 70
2
  0
VPORT
  5
1F4
100
AcDbSymbolTableRecord
100
AcDbViewportTableRecord
  2
*ACTIVE
 70
0
 10
0.0
 20
0.0
 11
1.0
 21
1.0
 12
5.8464566929
 22
4.1338582677
 13
0.0
 23
0.0
 14
1.0
 24
1.0
 15
0.0
 25
0.0
 16
0.0
 26
0.0
 36
1.0
 17
0.0
 27
0.0
 37
0.0
 40
8.2677165354
 41
1.4142857143
 42
50.0
 43
0.0
 44
0.0
 50
0.0
 51
0.0
 71
0
 72
100
 73
1
 74
1
 75
0
 76
0
 77
0
 78
0
  0
ENDTAB
  0
TABLE
  2
LTYPE
  5
5
100
AcDbSymbolTable
 70
6
  0
LTYPE
  5
14
100
AcDbSymbolTableRecord
100
AcDbLinetypeTableRecord
  2
BYBLOCK
 70
0
  3

 72
65
 73
0
 40
0.0
  0
LTYPE
  5
15
100
AcDbSymbolTableRecord
100
AcDbLinetypeTableRecord
  2
BYLAYER
 70
0
  3

 72
65
 73
0
 40
0.0
  0
LTYPE
  5
16
100
AcDbSymbolTableRecord
100
AcDbLinetypeTableRecord
  2
CONTINUOUS
 70
64
  3
Solid line
 72
65
 73
0
 40
0.0
  0
LTYPE
  5
1F5
100
AcDbSymbolTableRecord
100
AcDbLinetypeTableRecord
  2
CENTER
 70
64
  3
____ _ ____ _ ____ _ ____ _ ____ _ ____ _ ____
 72
65
 73
4
 40
0.6
 49
0.375
 74
0
 49
-0.075
 74
0
 49
0.075
 74
0
 49
-0.075
 74
0
  0
LTYPE
  5
1F6
100
AcDbSymbolTableRecord
100
AcDbLinetypeTableRecord
  2
HIDDEN
 70
64
  3
- - - - - - - - - - - - - - - - - - - -
 72
65
 73
2
 40
0.2
 49
0.1
 74
0
 49
-0.1
 74
0
  0
LTYPE
  5
1F7
100
AcDbSymbolTableRecord
100
AcDbLinetypeTableRecord
  2
PHANTOM
 70
64
  3
_____ _ _ _____ _ _ _____ _ _ _____
 72
65
 73
6
 40
0.8
 49
0.45
 74
0
 49
-0.05
 74
0
 49
0.1
 74
0
 49
-0.05
 74
0
 49
0.1
 74
0
 49
-0.05
 74
0
  0
LTYPE
  5
1F8
100
AcDbSymbolTableRecord
100
AcDbLinetypeTableRecord
  2
DOT
 70
64
  3
. . . . . . . . . . . . . . . . . . . .
 72
65
 73
2
 40
0.2
 49
0.1
 74
0
 49
-0.1
 74
0
  0
LTYPE
  5
1F9
100
AcDbSymbolTableRecord
100
AcDbLinetypeTableRecord
  2
DASHED
 70
64
  3
- - - - - - - - - - - - - - - - - - - -
 72
65
 73
2
 40
0.2
 49
0.1
 74
0
 49
-0.1
 74
0
  0
ENDTAB
  0
TABLE
  2
LAYER
  5
2
100
AcDbSymbolTable
 70
36
  0
LAYER
  5
10
100
AcDbSymbolTableRecord
100
AcDbLayerTableRecord
  2
0
 70
0
 62
7
  6
CONTINUOUS
370
-3
390
F
  0
LAYER
  5
1FA
100
AcDbSymbolTableRecord
100
AcDbLayerTableRecord
  2
DEFAULT_1
 70
0
 62
7
  6
CENTER
370
-3
390
F
  0
LAYER
  5
1FB
100
AcDbSymbolTableRecord
100
AcDbLayerTableRecord
  2
DEFAULT_2
 70
0
 62
8
  6
HIDDEN
370
-3
390
F
  0
LAYER
  5
1FC
100
AcDbSymbolTableRecord
100
AcDbLayerTableRecord
  2
DEFAULT_3
 70
0
 62
7
  6
PHANTOM
370
-3
390
F
  0
LAYER
  5
1FD
100
AcDbSymbolTableRecord
100
AcDbLayerTableRecord
  2
DEFAULT_COORDINATE_SYSTEM
 70
0
 62
7
  6
CONTINUOUS
370
-3
390
F
  0
LAYER
  5
1FE
100
AcDbSymbolTableRecord
100
AcDbLayerTableRecord
  2
DEFAULT_DATUM_AXES
 70
0
 62
7
  6
CONTINUOUS
370
-3
390
F
  0
LAYER
  5
1FF
100
AcDbSymbolTableRecord
100
AcDbLayerTableRecord
  2
DEFAULT_DATUM_CURVES
 70
0
 62
7
  6
CONTINUOUS
370
-3
390
F
  0
LAYER
  5
200
100
AcDbSymbolTableRecord
100
AcDbLayerTableRecord
  2
DEFAULT_DATUM_PLANES
 70
0
 62
7
  6
CONTINUOUS
370
-3
390
F
  0
ENDTAB
  0
TABLE
  2
STYLE
  5
3
100
AcDbSymbolTable
 70
1
  0
STYLE
  5
11
100
AcDbSymbolTableRecord
100
AcDbTextStyleTableRecord
  2
STANDARD
 70
0
 40
0.0
 41
0.8
 50
0.0
 71
0
 42
0.2
  3
txt
  4

  0
STYLE
  5
201
100
AcDbSymbolTableRecord
100
AcDbTextStyleTableRecord
  2
TEXTSTYLE_1
 70
0
 40
0.0
 41
0.8
 50
0.0
 71
0
 42
0.2
  3
gdt
  4

  0
ENDTAB
  0
TABLE
  2
VIEW
  5
6
100
AcDbSymbolTable
 70
0
  0
ENDTAB
  0
TABLE
  2
UCS
  5
7
100
AcDbSymbolTable
 70
0
  0
ENDTAB
  0
TABLE
  2
APPID
  5
9
100
AcDbSymbolTable
 70
1
  0
APPID
  5
202
100
AcDbSymbolTableRecord
100
AcDbRegAppTableRecord
  2
ACAD
 70
0
  0
ENDTAB
  0
TABLE
  2
BLOCK_RECORD
  5
1
100
AcDbSymbolTable
 70
0
  0
BLOCK_RECORD
  5
203
100
AcDbSymbolTableRecord
100
AcDbBlockTableRecord
  2
*Model_Space
  0
BLOCK_RECORD
  5
204
100
AcDbSymbolTableRecord
100
AcDbBlockTableRecord
  2
*Paper_Space
  0
ENDTAB
  0
TABLE
  2
DIMSTYLE
  5
A
100
AcDbSymbolTable
 70
1
100
AcDbDimStyleTable
 71
0
  0
DIMSTYLE
105
205
100
AcDbSymbolTableRecord
100
AcDbDimStyleTableRecord
  2
STANDARD
 70
0
  3

  4

 40
1.0
 41
0.1875
 42
0.0625
 43
0.38
 44
0.18
 45
0.0
 46
0.0
 47
0.01
 48
0.01
140
0.15625
141
0.09
142
0.0
143
25.4
144
1.0
145
0.0
146
1.0
147
0.09
 71
0.0
 72
0.0
 73
1
 74
1
 75
0
 76
0
 77
0
 78
4
170
0
171
2
172
0
173
0
174
0
175
0
176
0
177
0
178
0
270
2
271
2
272
2
273
2
274
2
275
0
280
0
281
0
282
0
283
1
284
4
285
0
286
0
287
3
288
0
340
11
  0
ENDTAB
  0
ENDSEC
  0
SECTION
  2
BLOCKS
  0
BLOCK
  5
20
100
AcDbEntity
  8
0
100
AcDbBlockBegin
  2
*Model_Space
 70
0
 10
0.0
 20
0.0
 30
0.0
  3
*Model_Space
  1

  0
ENDBLK
  5
21
100
AcDbEntity
  8
0
100
AcDbBlockEnd
  0
BLOCK
  5
1C
100
AcDbEntity
  8
0
100
AcDbBlockBegin
  2
*Paper_Space
 70
0
 10
0.0
 20
0.0
 30
0.0
  3
*Paper_Space
  1

  0
ENDBLK
  5
1D
100
AcDbEntity
  8
0
100
AcDbBlockEnd
  0
ENDSEC
  0
SECTION
  2
ENTITIES
  0
LINE
  5
206
100
AcDbEntity
  8
0
100
AcDbLine
 62
6
  6
CONTINUOUS
 10
1.8099798515
 20
6.614842783
 11
1.8099798515
 21
6.600842783
  0
LINE
  5
207
100
AcDbEntity
  8
0
100
AcDbLine
 62
6
  6
CONTINUOUS
 10
2.8099798515
 20
2.250842783
 11
2.7949798515
 21
2.265842783
  0
LINE
  5
208
100
AcDbEntity
  8
0
100
AcDbLine
 62
6
  6
CONTINUOUS
 10
2.5459798515
 20
4.526842783
 11
2.5459798515
 21
4.576842783
  0
LINE
  5
209
100
AcDbEntity
  8
0
100
AcDbLine
 62
6
  6
CONTINUOUS
 10
2.6494798515
 20
2.375842783
 11
2.6494798515
 21
2.458842783
  0
LINE
  5
20A
100
AcDbEntity
  8
0
100
AcDbLine
 62
6
  6
CONTINUOUS
 10
2.7079798515
 20
2.316842783
 11
2.7079798515
 21
2.340842783
  0
LINE
  5
20B
100
AcDbEntity
  8
0
100
AcDbLine
 62
6
  6
CONTINUOUS
 10
2.5453143079
 20
4.8119477729
 11
2.570114618
 21
4.6712982251
  0
LINE
  5
20C
100
AcDbEntity
  8
0
100
AcDbLine
 62
6
  6
CONTINUOUS
 10
3.2519798515
 20
2.316842783
 11
3.2519798515
 21
2.340842783
  0
LINE
  5
20D
100
AcDbEntity
  8
0
100
AcDbLine
 62
6
  6
CONTINUOUS
 10
3.3104798515
 20
2.375842783
 11
3.3104798515
 21
2.458842783
  0
LINE
  5
20E
100
AcDbEntity
  8
0
100
AcDbLine
 62
9
  6
CONTINUOUS
 10
3.4125982892
 20
2.4835961751
 11
3.4125982892
 21
3.1710961751
  0
LINE
  5
20F
100
AcDbEntity
  8
0
100
AcDbLine
 62
6
  6
CONTINUOUS
 10
3.4139798515
 20
4.526842783
 11
3.4139798515
 21
4.576842783
  0
LINE
  5
210
100
AcDbEntity
  8
0
100
AcDbLine
 62
9
  6
CONTINUOUS
 10
3.485216727
 20
2.4523461751
 11
3.485216727
 21
3.2023461751
  0
LINE
  5
211
100
AcDbEntity
  8
0
100
AcDbLine
 62
6
  6
CONTINUOUS
 10
3.4146453951
 20
4.8119477729
 11
3.389845085
 21
4.6712982251
  0
LWPOLYLINE
  5
212
100
AcDbEntity
  8
0
100
AcDbPolyline
 62
6
  6
CONTINUOUS
 90
21
 70
0
 10
3.7831511843
 20
2.4735079756
 10
3.7832617864
 20
2.4715693668
 10
3.7833734957
 20
2.4697657867
 10
3.7834869073
 20
2.4680891612
 10
3.7836029594
 20
2.46652895
 10
3.7837231459
 20
2.4650712982
 10
3.7838498977
 20
2.4636976505
 10
3.7839872995
 20
2.4623824115
 10
3.784142514
 20
2.4610888659
 10
3.7843287659
 20
2.4597620366
 10
3.7845692627
 20
2.4583307219
 10
3.7849074094
 20
2.4566943505
 10
3.7854289058
 20
2.4547054173
 10
3.7862979716
 20
2.4521850514
 10
3.7877677476
 20
2.449063271
 10
3.79016854
 20
2.4454552967
 10
3.7936405873
 20
2.4417963744
 10
3.7981449089
 20
2.438526546
 10
3.8035113626
 20
2.4360381437
 10
3.8096048521
 20
2.4346598394
 10
3.8124000324
 20
2.434507279
  0
LINE
  5
213
100
AcDbEntity
  8
0
100
AcDbLine
 62
6
  6
CONTINUOUS
 10
4.1499798515
 20
6.614842783
 11
4.1499798515
 21
6.600842783
  0
LINE
  5
214
100
AcDbEntity
  8
0
100
AcDbLine
 62
6
  6
CONTINUOUS
 10
7.8690814631
 20
2.4270551493
 11
7.8720923754
 21
2.4273461751
  0
LWPOLYLINE
  5
215
100
AcDbEntity
  8
0
100
AcDbPolyline
 62
6
  6
CONTINUOUS
 90
4
 70
0
 10
8.349087056
 20
2.4182685084
 10
8.3561751417
 20
2.4188934259
 10
8.3693564456
 20
2.4234180126
 10
8.3750317381
 20
2.4273461751
  0
LWPOLYLINE
  5
216
100
AcDbEntity
  8
0
100
AcDbPolyline
 62
6
  6
CONTINUOUS
 90
4
 70
0
 10
4.9886844218
 20
2.4478729771
 10
4.9948613636
 20
2.4483373551
 10
5.006519618
 20
2.4517417808
 10
5.0075555289
 20
2.4523461751
  0
LWPOLYLINE
  5
217
100
AcDbEntity
  8
0
100
AcDbPolyline
 62
6
  6
CONTINUOUS
 90
9
 70
0
 10
8.6866669545
 20
2.410048397
 10
8.6899145557
 20
2.4102536601
 10
8.6958898224
 20
2.4116943575
 10
8.70104211
 20
2.4141308962
 10
8.7053849451
 20
2.4172833589
 10
8.7088060634
 20
2.420844134
 10
8.7112469422
 20
2.4244364074
 10
8.7127789041
 20
2.4276064266
 10
8.7129266334
 20
2.4280214242
  0
LINE
  5
218
100
AcDbEntity
  8
0
100
AcDbLine
 62
6
  6
CONTINUOUS
 10
2.8099798515
 20
2.250842783
 11
3.1499798515
 21
2.250842783
  0
LINE
  5
219
100
AcDbEntity
  8
0
100
AcDbLine
 62
6
  6
CONTINUOUS
 10
9.0599798515
 20
2.250842783
 11
9.3999798515
 21
2.250842783
  0
LINE
  5
21A
100
AcDbEntity
  8
0
100
AcDbLine
 62
6
  6
CONTINUOUS
 10
2.7949798515
 20
2.265842783
 11
3.1649798515
 21
2.265842783
  0
LINE
  5
21B
100
AcDbEntity
  8
0
100
AcDbLine
 62
6
  6
CONTINUOUS
 10
9.0449798515
 20
2.265842783
 11
9.4149798515
 21
2.265842783
  0
LINE
  5
21C
100
AcDbEntity
  8
0
100
AcDbLine
 62
6
  6
CONTINUOUS
 10
2.7079798515
 20
2.316842783
 11
3.2519798515
 21
2.316842783
  0
LINE
  5
21D
100
AcDbEntity
  8
0
100
AcDbLine
 62
6
  6
CONTINUOUS
 10
8.9579798515
 20
2.316842783
 11
9.5019798515
 21
2.316842783
  0
LINE
  5
21E
100
AcDbEntity
  8
0
100
AcDbLine
 62
9
  6
CONTINUOUS
 10
2.6844879059
 20
2.340842783
 11
3.275471797
 21
2.340842783
  0
LINE
  5
21F
100
AcDbEntity
  8
0
100
AcDbLine
 62
9
  6
CONTINUOUS
 10
8.9344879059
 20
2.340842783
 11
9.525471797
 21
2.340842783
  0
LINE
  5
220
100
AcDbEntity
  8
0
100
AcDbLine
 62
9
  6
CONTINUOUS
 10
2.6494798515
 20
2.375842783
 11
3.3104798515
 21
2.375842783
  0
LINE
  5
221
100
AcDbEntity
  8
0
100
AcDbLine
 62
9
  6
CONTINUOUS
 10
8.8994798515
 20
2.375842783
 11
9.5604798515
 21
2.375842783
  0
LINE
  5
222
100
AcDbEntity
  8
0
100
AcDbLine
 62
6
  6
CONTINUOUS
 10
5.8049798515
 20
2.4273461751
 11
7.8658222821
 21
2.4273461751
  0
LINE
  5
223
100
AcDbEntity
  8
0
100
AcDbLine
 62
6
  6
CONTINUOUS
 10
7.8720923754
 20
2.4273461751
 11
8.6606654141
 21
2.4273461751
  0
LINE
  5
224
100
AcDbEntity
  8
0
100
AcDbLine
 62
6
  6
CONTINUOUS
 10
5.8049798515
 20
2.4523461751
 11
3.485216727
 21
2.4523461751
  0
LINE
  5
225
100
AcDbEntity
  8
0
100
AcDbLine
 62
6
  6
CONTINUOUS
 10
2.6494798515
 20
2.458842783
 11
3.3104798515
 21
2.458842783
  0
LINE
  5
226
100
AcDbEntity
  8
0
100
AcDbLine
 62
6
  6
CONTINUOUS
 10
8.8994798515
 20
2.458842783
 11
9.5604798515
 21
2.458842783
  0
LINE
  5
227
100
AcDbEntity
  8
0
100
AcDbLine
 62
6
  6
CONTINUOUS
 10
8.5844595264
 20
3.2406963467
 11
8.573425493
 21
3.2378108853
  0
LWPOLYLINE
  5
228
100
AcDbEntity
  8
0
100
AcDbPolyline
 62
6
  6
CONTINUOUS
 90
4
 70
0
 10
4.5086632694
 20
2.4429392385
 10
4.5163924636
 20
2.4436644844
 10
4.5299219525
 20
2.448476729
 10
4.5353852224
 20
2.4523461751
  0
LWPOLYLINE
  5
229
100
AcDbEntity
  8
0
100
AcDbPolyline
 62
6
  6
CONTINUOUS
 90
5
 70
0
 10
4.0286700224
 20
2.4380054654
 10
4.0360036731
 20
2.4386623176
 10
4.0493165331
 20
2.4432516114
 10
4.0611114457
 20
2.4514146436
 10
4.0619816671
 20
2.4523461751
  0
LWPOLYLINE
  5
22A
100
AcDbEntity
  8
0
100
AcDbPolyline
 62
6
  6
CONTINUOUS
 90
9
 70
0
 10
3.8124001043
 20
2.434507279
 10
3.8154567514
 20
2.434689546
 10
3.8214643299
 20
2.4360995643
 10
3.8267421475
 20
2.4385781113
 10
3.831183611
 20
2.4418175308
 10
3.8346225965
 20
2.445443614
 10
3.8370181275
 20
2.449036498
 10
3.8384931936
 20
2.4521595953
 10
3.8385577875
 20
2.4523461751
  0
LINE
  5
22B
100
AcDbEntity
  8
0
100
AcDbLine
 62
6
  6
CONTINUOUS
 10
3.8328563266
 20
2.8273461751
 11
3.7771033763
 21
2.8273461751
  0
LINE
  5
22C
100
AcDbEntity
  8
0
100
AcDbLine
 62
6
  6
CONTINUOUS
 10
7.8658222821
 20
2.4273461751
 11
7.8691345829
 21
2.4270551253
  0
LWPOLYLINE
  5
22D
100
AcDbEntity
  8
0
100
AcDbPolyline
 62
6
  6
CONTINUOUS
 90
3
 70
0
 10
8.1091349228
 20
3.2320305286
 10
8.1015951666
 20
3.2313263511
 10
8.0901961237
 20
3.2273461751
  0
LINE
  5
22E
100
AcDbEntity
  8
0
100
AcDbLine
 62
6
  6
CONTINUOUS
 10
8.5891236385
 20
3.2409792618
 11
8.5844595264
 21
3.2406963467
  0
LWPOLYLINE
  5
22F
100
AcDbEntity
  8
0
100
AcDbPolyline
 62
6
  6
CONTINUOUS
 90
9
 70
0
 10
8.7043303924
 20
3.2453211601
 10
8.7020381143
 20
3.2452182207
 10
8.6962683898
 20
3.24406096
 10
8.6910722755
 20
3.2418606384
 10
8.6866072688
 20
3.2388924782
 10
8.6830432884
 20
3.2354815556
 10
8.6804357016
 20
3.231970738
 10
8.6787400281
 20
3.228759879
 10
8.6781997252
 20
3.2273461751
  0
LWPOLYLINE
  5
230
100
AcDbEntity
  8
0
100
AcDbPolyline
 62
6
  6
CONTINUOUS
 90
4
 70
0
 10
4.2687119212
 20
3.2142200076
 10
4.2615021107
 20
3.2135858847
 10
4.2485307233
 20
3.2092224239
 10
4.238278199
 20
3.2023461751
  0
LWPOLYLINE
  5
231
100
AcDbEntity
  8
0
100
AcDbPolyline
 62
6
  6
CONTINUOUS
 90
4
 70
0
 10
4.7487129048
 20
3.2092862411
 10
4.7414993694
 20
3.208654972
 10
4.7279684221
 20
3.2040289764
 10
4.7255345119
 20
3.2023461751
  0
LWPOLYLINE
  5
232
100
AcDbEntity
  8
0
100
AcDbPolyline
 62
6
  6
CONTINUOUS
 90
3
 70
0
 10
5.2287061454
 20
3.2043524792
 10
5.2218222214
 20
3.2037795649
 10
5.2174810906
 20
3.2023461751
  0
LWPOLYLINE
  5
233
100
AcDbEntity
  8
0
100
AcDbPolyline
 62
6
  6
CONTINUOUS
 90
8
 70
0
 10
3.8380736875
 20
3.2196305999
 10
3.8347361989
 20
3.2194235591
 10
3.8277434202
 20
3.217654892
 10
3.8216348996
 20
3.2144802875
 10
3.8168360431
 20
3.2105466899
 10
3.8134560232
 20
3.2065545022
 10
3.8111891121
 20
3.2028791168
 10
3.8109404368
 20
3.2023461751
  0
LINE
  5
234
100
AcDbEntity
  8
0
100
AcDbLine
 62
6
  6
CONTINUOUS
 10
5.8049798515
 20
3.2023461751
 11
5.2401692842
 21
3.2023461751
  0
LINE
  5
235
100
AcDbEntity
  8
0
100
AcDbLine
 62
6
  6
CONTINUOUS
 10
5.2287061454
 20
3.2023461751
 11
3.485216727
 21
3.2023461751
  0
LINE
  5
236
100
AcDbEntity
  8
0
100
AcDbLine
 62
6
  6
CONTINUOUS
 10
5.8049798515
 20
3.2273461751
 11
8.7046203945
 21
3.2273461751
  0
LINE
  5
237
100
AcDbEntity
  8
0
100
AcDbLine
 62
9
  6
CONTINUOUS
 10
2.7004610224
 20
3.2358730705
 11
3.2594986805
 21
3.2358730705
  0
LINE
  5
238
100
AcDbEntity
  8
0
100
AcDbLine
 62
9
  6
CONTINUOUS
 10
8.9504610224
 20
3.2358730705
 11
9.5094986805
 21
3.2358730705
  0
LINE
  5
239
100
AcDbEntity
  8
0
100
AcDbLine
 62
9
  6
CONTINUOUS
 10
2.6994541859
 20
3.2446579323
 11
3.2605055171
 21
3.2446579323
  0
LINE
  5
23A
100
AcDbEntity
  8
0
100
AcDbLine
 62
9
  6
CONTINUOUS
 10
8.9494541859
 20
3.2446579323
 11
9.5105055171
 21
3.2446579323
  0
LINE
  5
23B
100
AcDbEntity
  8
0
100
AcDbLine
 62
9
  6
CONTINUOUS
 10
2.6994541859
 20
3.3601844555
 11
3.2605055171
 21
3.3601844555
  0
LINE
  5
23C
100
AcDbEntity
  8
0
100
AcDbLine
 62
9
  6
CONTINUOUS
 10
8.9494541859
 20
3.3601844555
 11
9.5105055171
 21
3.3601844555
  0
LINE
  5
23D
100
AcDbEntity
  8
0
100
AcDbLine
 62
9
  6
CONTINUOUS
 10
2.6980241439
 20
3.369827819
 11
3.2619355591
 21
3.369827819
  0
LINE
  5
23E
100
AcDbEntity
  8
0
100
AcDbLine
 62
9
  6
CONTINUOUS
 10
8.9480241439
 20
3.369827819
 11
9.5119355591
 21
3.369827819
  0
LINE
  5
23F
100
AcDbEntity
  8
0
100
AcDbLine
 62
9
  6
CONTINUOUS
 10
2.5743177034
 20
3.4684301172
 11
3.3856419995
 21
3.4684301172
  0
LINE
  5
240
100
AcDbEntity
  8
0
100
AcDbLine
 62
9
  6
CONTINUOUS
 10
8.8243177034
 20
3.4684301172
 11
9.6356419995
 21
3.4684301172
  0
LINE
  5
241
100
AcDbEntity
  8
0
100
AcDbLine
 62
6
  6
CONTINUOUS
 10
5.8049798515
 20
2.4273570779
 11
5.8049798515
 21
3.2273352723
  0
LINE
  5
242
100
AcDbEntity
  8
0
100
AcDbLine
 62
6
  6
CONTINUOUS
 10
3.1499798515
 20
2.250842783
 11
3.1649798515
 21
2.265842783
  0
LINE
  5
243
100
AcDbEntity
  8
0
100
AcDbLine
 62
9
  6
CONTINUOUS
 10
2.6017298515
 20
3.9125226062
 11
3.3582298515
 21
3.9125226062
  0
LINE
  5
244
100
AcDbEntity
  8
0
100
AcDbLine
 62
9
  6
CONTINUOUS
 10
8.8517298515
 20
3.9125226062
 11
9.6082298515
 21
3.9125226062
  0
LINE
  5
245
100
AcDbEntity
  8
0
100
AcDbLine
 62
6
  6
CONTINUOUS
 10
2.5459798515
 20
4.526842783
 11
3.4139798515
 21
4.526842783
  0
LINE
  5
246
100
AcDbEntity
  8
0
100
AcDbLine
 62
6
  6
CONTINUOUS
 10
8.7959798515
 20
4.526842783
 11
9.6639798515
 21
4.526842783
  0
LINE
  5
247
100
AcDbEntity
  8
0
100
AcDbLine
 62
6
  6
CONTINUOUS
 10
2.5459798515
 20
4.576842783
 11
3.4139798515
 21
4.576842783
  0
LINE
  5
248
100
AcDbEntity
  8
0
100
AcDbLine
 62
6
  6
CONTINUOUS
 10
8.7959798515
 20
4.576842783
 11
9.6639798515
 21
4.576842783
  0
LINE
  5
249
100
AcDbEntity
  8
0
100
AcDbLine
 62
7
  6
CONTINUOUS
 10
9.5630300802
 20
4.606842783
 11
8.8969296227
 21
4.606842783
  0
LINE
  5
24A
100
AcDbEntity
  8
0
100
AcDbLine
 62
7
  6
CONTINUOUS
 10
3.3130300802
 20
4.606842783
 11
2.6469296227
 21
4.606842783
  0
LINE
  5
24B
100
AcDbEntity
  8
0
100
AcDbLine
 62
9
  6
CONTINUOUS
 10
9.639845085
 20
4.6712982251
 11
8.820114618
 21
4.6712982251
  0
LINE
  5
24C
100
AcDbEntity
  8
0
100
AcDbLine
 62
9
  6
CONTINUOUS
 10
3.389845085
 20
4.6712982251
 11
2.570114618
 21
4.6712982251
  0
LINE
  5
24D
100
AcDbEntity
  8
0
100
AcDbLine
 62
9
  6
CONTINUOUS
 10
2.5453143079
 20
4.8119477729
 11
3.4146453951
 21
4.8119477729
  0
LINE
  5
24E
100
AcDbEntity
  8
0
100
AcDbLine
 62
9
  6
CONTINUOUS
 10
8.7953143079
 20
4.8119477729
 11
9.6646453951
 21
4.8119477729
  0
LINE
  5
24F
100
AcDbEntity
  8
0
100
AcDbLine
 62
9
  6
CONTINUOUS
 10
2.455484751
 20
5.0023483031
 11
3.504474952
 21
5.0023483031
  0
LINE
  5
250
100
AcDbEntity
  8
0
100
AcDbLine
 62
9
  6
CONTINUOUS
 10
8.705484751
 20
5.0023483031
 11
9.754474952
 21
5.0023483031
  0
LINE
  5
251
100
AcDbEntity
  8
0
100
AcDbLine
 62
6
  6
CONTINUOUS
 10
9.0599798515
 20
2.250842783
 11
9.0449798515
 21
2.265842783
  0
LINE
  5
252
100
AcDbEntity
  8
0
100
AcDbLine
 62
9
  6
CONTINUOUS
 10
2.192232288
 20
5.540842783
 11
3.767727415
 21
5.540842783
  0
LINE
  5
253
100
AcDbEntity
  8
0
100
AcDbLine
 62
9
  6
CONTINUOUS
 10
8.442232288
 20
5.540842783
 11
10.017727415
 21
5.540842783
  0
LINE
  5
254
100
AcDbEntity
  8
0
100
AcDbLine
 62
9
  6
CONTINUOUS
 10
2.164509289
 20
5.945842783
 11
3.795450414
 21
5.945842783
  0
LINE
  5
255
100
AcDbEntity
  8
0
100
AcDbLine
 62
9
  6
CONTINUOUS
 10
8.414509289
 20
5.945842783
 11
10.045450414
 21
5.945842783
  0
LINE
  5
256
100
AcDbEntity
  8
0
100
AcDbLine
 62
6
  6
CONTINUOUS
 10
8.0599798515
 20
6.614842783
 11
8.0599798515
 21
6.600842783
  0
LINE
  5
257
100
AcDbEntity
  8
0
100
AcDbLine
 62
9
  6
CONTINUOUS
 10
2.0381560813
 20
6.234842783
 11
3.9218036217
 21
6.234842783
  0
LINE
  5
258
100
AcDbEntity
  8
0
100
AcDbLine
 62
9
  6
CONTINUOUS
 10
8.2881560813
 20
6.234842783
 11
10.1718036217
 21
6.234842783
  0
LINE
  5
259
100
AcDbEntity
  8
0
100
AcDbLine
 62
9
  6
CONTINUOUS
 10
2.0280316979
 20
6.249842783
 11
3.9319280051
 21
6.249842783
  0
LINE
  5
25A
100
AcDbEntity
  8
0
100
AcDbLine
 62
9
  6
CONTINUOUS
 10
8.2780316979
 20
6.249842783
 11
10.1819280051
 21
6.249842783
  0
LINE
  5
25B
100
AcDbEntity
  8
0
100
AcDbLine
 62
9
  6
CONTINUOUS
 10
2.0006362944
 20
6.284842783
 11
3.9593234085
 21
6.284842783
  0
LINE
  5
25C
100
AcDbEntity
  8
0
100
AcDbLine
 62
9
  6
CONTINUOUS
 10
8.2506362944
 20
6.284842783
 11
10.2093234085
 21
6.284842783
  0
LINE
  5
25D
100
AcDbEntity
  8
0
100
AcDbLine
 62
9
  6
CONTINUOUS
 10
1.9635093451
 20
6.340842783
 11
3.9964503578
 21
6.340842783
  0
LINE
  5
25E
100
AcDbEntity
  8
0
100
AcDbLine
 62
9
  6
CONTINUOUS
 10
8.2135093451
 20
6.340842783
 11
10.2464503578
 21
6.340842783
  0
LINE
  5
25F
100
AcDbEntity
  8
0
100
AcDbLine
 62
9
  6
CONTINUOUS
 10
1.9392339239
 20
6.381842783
 11
4.0207257791
 21
6.381842783
  0
LINE
  5
260
100
AcDbEntity
  8
0
100
AcDbLine
 62
9
  6
CONTINUOUS
 10
8.1892339239
 20
6.381842783
 11
10.2707257791
 21
6.381842783
  0
LINE
  5
261
100
AcDbEntity
  8
0
100
AcDbLine
 62
6
  6
CONTINUOUS
 10
8.573425493
 20
3.2378108853
 11
8.564570398
 21
3.2331486251
  0
LINE
  5
262
100
AcDbEntity
  8
0
100
AcDbLine
 62
9
  6
CONTINUOUS
 10
1.9080574818
 20
6.439842783
 11
4.0519022211
 21
6.439842783
  0
LINE
  5
263
100
AcDbEntity
  8
0
100
AcDbLine
 62
9
  6
CONTINUOUS
 10
8.1580574818
 20
6.439842783
 11
10.3019022211
 21
6.439842783
  0
LINE
  5
264
100
AcDbEntity
  8
0
100
AcDbLine
 62
9
  6
CONTINUOUS
 10
1.875608141
 20
6.490842783
 11
4.0843515619
 21
6.490842783
  0
LINE
  5
265
100
AcDbEntity
  8
0
100
AcDbLine
 62
9
  6
CONTINUOUS
 10
8.125608141
 20
6.490842783
 11
10.3343515619
 21
6.490842783
  0
LINE
  5
266
100
AcDbEntity
  8
0
100
AcDbLine
 62
9
  6
CONTINUOUS
 10
1.8099798515
 20
6.600842783
 11
4.1499798515
 21
6.600842783
  0
LINE
  5
267
100
AcDbEntity
  8
0
100
AcDbLine
 62
9
  6
CONTINUOUS
 10
8.0599798515
 20
6.600842783
 11
10.3999798515
 21
6.600842783
  0
LINE
  5
268
100
AcDbEntity
  8
0
100
AcDbLine
 62
6
  6
CONTINUOUS
 10
1.8099798515
 20
6.614842783
 11
4.1499798515
 21
6.614842783
  0
LINE
  5
269
100
AcDbEntity
  8
0
100
AcDbLine
 62
6
  6
CONTINUOUS
 10
8.0599798515
 20
6.614842783
 11
10.3999798515
 21
6.614842783
  0
LWPOLYLINE
  5
26A
100
AcDbEntity
  8
0
100
AcDbPolyline
 62
6
  6
CONTINUOUS
 90
19
 70
0
 10
8.7328074995
 20
3.214168204
 10
8.7327811893
 20
3.2145741358
 10
8.7327072322
 20
3.2156392549
 10
8.7326265648
 20
3.2166804151
 10
8.7325367421
 20
3.2177052078
 10
8.7324330654
 20
3.2187341908
 10
8.7323064391
 20
3.2198067277
 10
8.7321387206
 20
3.2209908819
 10
8.7318915306
 20
3.2224029473
 10
8.7314908494
 20
3.2241908612
 10
8.7308094346
 20
3.2264861558
 10
8.7296847879
 20
3.2292770675
 10
8.7279300639
 20
3.2324343419
 10
8.7253060585
 20
3.235830794
 10
8.7217629902
 20
3.2391232796
 10
8.7173671171
 20
3.2419793533
 10
8.7122935183
 20
3.2440917591
 10
8.7067024896
 20
3.2452109678
 10
8.7043304525
 20
3.2453211601
  0
LINE
  5
26B
100
AcDbEntity
  8
0
100
AcDbLine
 62
9
  6
CONTINUOUS
 10
8.7046203945
 20
2.4273461751
 11
8.7046203945
 21
3.2273461751
  0
LINE
  5
26C
100
AcDbEntity
  8
0
100
AcDbLine
 62
6
  6
CONTINUOUS
 10
8.5647353884
 20
3.2332354935
 11
8.5575337476
 21
3.2273461751
  0
LINE
  5
26D
100
AcDbEntity
  8
0
100
AcDbLine
 62
9
  6
CONTINUOUS
 10
8.564848833
 20
3.2333282656
 11
8.564570398
 21
3.2331486251
  0
LINE
  5
26E
100
AcDbEntity
  8
0
100
AcDbLine
 62
9
  6
CONTINUOUS
 10
8.787300123
 20
2.4710961751
 11
8.787300123
 21
3.1835961751
  0
LINE
  5
26F
100
AcDbEntity
  8
0
100
AcDbLine
 62
6
  6
CONTINUOUS
 10
8.7959798515
 20
4.526842783
 11
8.7959798515
 21
4.576842783
  0
LINE
  5
270
100
AcDbEntity
  8
0
100
AcDbLine
 62
6
  6
CONTINUOUS
 10
8.8994798515
 20
2.375842783
 11
8.8994798515
 21
2.458842783
  0
LINE
  5
271
100
AcDbEntity
  8
0
100
AcDbLine
 62
6
  6
CONTINUOUS
 10
8.9579798515
 20
2.316842783
 11
8.9579798515
 21
2.340842783
  0
LINE
  5
272
100
AcDbEntity
  8
0
100
AcDbLine
 62
6
  6
CONTINUOUS
 10
8.7953143079
 20
4.8119477729
 11
8.820114618
 21
4.6712982251
  0
LINE
  5
273
100
AcDbEntity
  8
0
100
AcDbLine
 62
6
  6
CONTINUOUS
 10
9.5019798515
 20
2.316842783
 11
9.5019798515
 21
2.340842783
  0
LINE
  5
274
100
AcDbEntity
  8
0
100
AcDbLine
 62
6
  6
CONTINUOUS
 10
9.5604798515
 20
2.375842783
 11
9.5604798515
 21
2.458842783
  0
LINE
  5
275
100
AcDbEntity
  8
0
100
AcDbLine
 62
6
  6
CONTINUOUS
 10
9.6639798515
 20
4.526842783
 11
9.6639798515
 21
4.576842783
  0
LINE
  5
276
100
AcDbEntity
  8
0
100
AcDbLine
 62
6
  6
CONTINUOUS
 10
9.6646453951
 20
4.8119477729
 11
9.639845085
 21
4.6712982251
  0
LINE
  5
277
100
AcDbEntity
  8
0
100
AcDbLine
 62
6
  6
CONTINUOUS
 10
9.3999798515
 20
2.250842783
 11
9.4149798515
 21
2.265842783
  0
LINE
  5
278
100
AcDbEntity
  8
0
100
AcDbLine
 62
6
  6
CONTINUOUS
 10
10.3999798515
 20
6.614842783
 11
10.3999798515
 21
6.600842783
  0
ARC
  5
279
100
AcDbEntity
  8
0
100
AcDbCircle
 62
6
  6
CONTINUOUS
 10
3.9274798515
 20
4.1705525221
 40
0.625
100
AcDbArc
 50
145.2452821023
 51
204.38385925
  0
ARC
  5
27A
100
AcDbEntity
  8
0
100
AcDbCircle
 62
6
  6
CONTINUOUS
 10
2.7889798515
 20
3.6544926903
 40
0.625
100
AcDbArc
 50
342.6804809403
 51
24.38385925
  0
ARC
  5
27B
100
AcDbEntity
  8
0
100
AcDbCircle
 62
6
  6
CONTINUOUS
 10
2.0324798515
 20
4.1705525221
 40
0.625
100
AcDbArc
 50
335.61614075
 51
34.7547178977
  0
ARC
  5
27C
100
AcDbEntity
  8
0
100
AcDbCircle
 62
6
  6
CONTINUOUS
 10
3.1709798515
 20
3.6544926903
 40
0.625
100
AcDbArc
 50
155.61614075
 51
197.3195190597
  0
ARC
  5
27D
100
AcDbEntity
  8
0
100
AcDbCircle
 62
6
  6
CONTINUOUS
 10
2.9799798515
 20
2.8273461751
 40
0.495
100
AcDbArc
 50
311.8880088583
 51
320.4140892275
  0
ARC
  5
27E
100
AcDbEntity
  8
0
100
AcDbCircle
 62
6
  6
CONTINUOUS
 10
2.9799798515
 20
2.8273461751
 40
0.495
100
AcDbArc
 50
39.5862721715
 51
55.6196144884
  0
ARC
  5
27F
100
AcDbEntity
  8
0
100
AcDbCircle
 62
6
  6
CONTINUOUS
 10
2.9799798515
 20
2.8273461751
 40
0.495
100
AcDbArc
 50
124.3803855116
 51
228.1119911417
  0
ARC
  5
280
100
AcDbEntity
  8
0
100
AcDbCircle
 62
6
  6
CONTINUOUS
 10
3.2510350189
 20
3.5104058337
 40
0.141
100
AcDbArc
 50
274.4338918313
 51
342.6804809403
  0
ARC
  5
281
100
AcDbEntity
  8
0
100
AcDbCircle
 62
6
  6
CONTINUOUS
 10
2.708924684
 20
3.5104058337
 40
0.141
100
AcDbArc
 50
197.3195190597
 51
265.5661081687
  0
ARC
  5
282
100
AcDbEntity
  8
0
100
AcDbCircle
 62
6
  6
CONTINUOUS
 10
3.485216727
 20
3.1023461751
 40
0.1
100
AcDbArc
 50
90.0
 51
136.5674634422
  0
ARC
  5
283
100
AcDbEntity
  8
0
100
AcDbCircle
 62
6
  6
CONTINUOUS
 10
3.3399798515
 20
3.2398461751
 40
0.1
100
AcDbArc
 50
282.1473015408
 51
316.5674634422
  0
ARC
  5
284
100
AcDbEntity
  8
0
100
AcDbCircle
 62
6
  6
CONTINUOUS
 10
3.485216727
 20
2.5523461751
 40
0.1
100
AcDbArc
 50
223.4325365578
 51
270.0
  0
ARC
  5
285
100
AcDbEntity
  8
0
100
AcDbCircle
 62
6
  6
CONTINUOUS
 10
3.3399798515
 20
2.4148461751
 40
0.1
100
AcDbArc
 50
43.4325365578
 51
77.8629464627
  0
ARC
  5
286
100
AcDbEntity
  8
0
100
AcDbCircle
 62
6
  6
CONTINUOUS
 10
3.2379798515
 20
3.3024211939
 40
0.062
100
AcDbArc
 50
291.3040561787
 51
68.6959438213
  0
ARC
  5
287
100
AcDbEntity
  8
0
100
AcDbCircle
 62
6
  6
CONTINUOUS
 10
2.7219798515
 20
3.3024211939
 40
0.062
100
AcDbArc
 50
111.3040561787
 51
248.6959438213
  0
ARC
  5
288
100
AcDbEntity
  8
0
100
AcDbCircle
 62
6
  6
CONTINUOUS
 10
3.2216631824
 20
2.259842783
 40
0.057
100
AcDbArc
 50
90.47804054
 51
173.9576715809
  0
ARC
  5
289
100
AcDbEntity
  8
0
100
AcDbCircle
 62
6
  6
CONTINUOUS
 10
2.7382965206
 20
2.259842783
 40
0.057
100
AcDbArc
 50
6.0423284191
 51
89.52195946
  0
ARC
  5
28A
100
AcDbEntity
  8
0
100
AcDbCircle
 62
6
  6
CONTINUOUS
 10
3.2754798515
 20
2.375842783
 40
0.035
100
AcDbArc
 50
270.0
 51
360.0
  0
ARC
  5
28B
100
AcDbEntity
  8
0
100
AcDbCircle
 62
6
  6
CONTINUOUS
 10
2.6844798515
 20
2.375842783
 40
0.035
100
AcDbArc
 50
180.0
 51
270.0
  0
ARC
  5
28C
100
AcDbEntity
  8
0
100
AcDbCircle
 62
6
  6
CONTINUOUS
 10
3.262322103
 20
3.364842783
 40
0.005
100
AcDbArc
 50
94.4338918313
 51
248.6959438213
  0
ARC
  5
28D
100
AcDbEntity
  8
0
100
AcDbCircle
 62
6
  6
CONTINUOUS
 10
3.262322103
 20
3.2399996048
 40
0.005
100
AcDbArc
 50
111.3040561787
 51
235.6196144884
  0
ARC
  5
28E
100
AcDbEntity
  8
0
100
AcDbCircle
 62
6
  6
CONTINUOUS
 10
2.6976375999
 20
3.364842783
 40
0.005
100
AcDbArc
 50
291.3040561787
 51
85.5661081687
  0
ARC
  5
28F
100
AcDbEntity
  8
0
100
AcDbCircle
 62
6
  6
CONTINUOUS
 10
2.6976375999
 20
3.2399996048
 40
0.005
100
AcDbArc
 50
304.3803855116
 51
68.6959438213
  0
ARC
  5
290
100
AcDbEntity
  8
0
100
AcDbCircle
 62
6
  6
CONTINUOUS
 10
2.1513912067
 20
4.7424885018
 40
0.4
100
AcDbArc
 50
10.0
 51
40.5151811264
  0
ARC
  5
291
100
AcDbEntity
  8
0
100
AcDbCircle
 62
6
  6
CONTINUOUS
 10
2.6469296227
 20
4.684842783
 40
0.078
100
AcDbArc
 50
190.0000000004
 51
270.0
  0
ARC
  5
292
100
AcDbEntity
  8
0
100
AcDbCircle
 62
6
  6
CONTINUOUS
 10
1.8222468322
 20
5.968324123
 40
0.343
100
AcDbArc
 50
356.2419535375
 51
50.9887457037
  0
ARC
  5
293
100
AcDbEntity
  8
0
100
AcDbCircle
 62
6
  6
CONTINUOUS
 10
1.9021174891
 20
6.3321802189
 40
0.062
100
AcDbArc
 50
8.03157335
 51
53.2265724874
  0
ARC
  5
294
100
AcDbEntity
  8
0
100
AcDbCircle
 62
6
  6
CONTINUOUS
 10
1.9349798515
 20
6.600842783
 40
0.125
100
AcDbArc
 50
180.0
 51
241.6423634237
  0
ARC
  5
295
100
AcDbEntity
  8
0
100
AcDbCircle
 62
6
  6
CONTINUOUS
 10
1.8461597727
 20
6.436282783
 40
0.062
100
AcDbArc
 50
3.291697165
 51
61.6423634237
  0
ARC
  5
296
100
AcDbEntity
  8
0
100
AcDbCircle
 62
6
  6
CONTINUOUS
 10
2.0407442608
 20
6.3517408475
 40
0.078
100
AcDbArc
 50
188.03157335
 51
239.0556893899
  0
ARC
  5
297
100
AcDbEntity
  8
0
100
AcDbCircle
 62
6
  6
CONTINUOUS
 10
1.9687556032
 20
6.2316673984
 40
0.062
100
AcDbArc
 50
17.0467181651
 51
59.0556893899
  0
ARC
  5
298
100
AcDbEntity
  8
0
100
AcDbCircle
 62
6
  6
CONTINUOUS
 10
2.0576697452
 20
6.2589304753
 40
0.031
100
AcDbArc
 50
197.0467181651
 51
230.9887457037
  0
ARC
  5
299
100
AcDbEntity
  8
0
100
AcDbCircle
 62
6
  6
CONTINUOUS
 10
1.9859287934
 20
6.4443214927
 40
0.078
100
AcDbArc
 50
183.291697165
 51
233.2265724874
  0
ARC
  5
29A
100
AcDbEntity
  8
0
100
AcDbCircle
 62
6
  6
CONTINUOUS
 10
2.2787188269
 20
5.84621702
 40
1.52
100
AcDbArc
 50
348.4101664982
 51
3.7580464625
  0
ARC
  5
29B
100
AcDbEntity
  8
0
100
AcDbCircle
 62
6
  6
CONTINUOUS
 10
2.5921943191
 20
5.7819277069
 40
1.2
100
AcDbArc
 50
319.4848188736
 51
348.4101664982
  0
ARC
  5
29C
100
AcDbEntity
  8
0
100
AcDbCircle
 62
6
  6
CONTINUOUS
 10
3.8085684963
 20
4.7424885018
 40
0.4
100
AcDbArc
 50
139.4848188736
 51
170.0
  0
ARC
  5
29D
100
AcDbEntity
  8
0
100
AcDbCircle
 62
6
  6
CONTINUOUS
 10
3.3130300802
 20
4.684842783
 40
0.078
100
AcDbArc
 50
270.0
 51
349.9999999996
  0
ARC
  5
29E
100
AcDbEntity
  8
0
100
AcDbCircle
 62
6
  6
CONTINUOUS
 10
3.6812408761
 20
5.84621702
 40
1.52
100
AcDbArc
 50
176.2419535375
 51
191.5898335018
  0
ARC
  5
29F
100
AcDbEntity
  8
0
100
AcDbCircle
 62
6
  6
CONTINUOUS
 10
3.3677653839
 20
5.7819277069
 40
1.2
100
AcDbArc
 50
191.5898335018
 51
220.5151811264
  0
ARC
  5
2A0
100
AcDbEntity
  8
0
100
AcDbCircle
 62
6
  6
CONTINUOUS
 10
4.1377128708
 20
5.968324123
 40
0.343
100
AcDbArc
 50
129.0112542963
 51
183.7580464625
  0
ARC
  5
2A1
100
AcDbEntity
  8
0
100
AcDbCircle
 62
6
  6
CONTINUOUS
 10
3.9192154422
 20
6.3517408475
 40
0.078
100
AcDbArc
 50
300.9443106101
 51
351.96842665
  0
ARC
  5
2A2
100
AcDbEntity
  8
0
100
AcDbCircle
 62
6
  6
CONTINUOUS
 10
3.9912040997
 20
6.2316673984
 40
0.062
100
AcDbArc
 50
120.9443106101
 51
162.9532818349
  0
ARC
  5
2A3
100
AcDbEntity
  8
0
100
AcDbCircle
 62
6
  6
CONTINUOUS
 10
3.9022899578
 20
6.2589304753
 40
0.031
100
AcDbArc
 50
309.0112542963
 51
342.9532818349
  0
ARC
  5
2A4
100
AcDbEntity
  8
0
100
AcDbCircle
 62
6
  6
CONTINUOUS
 10
3.9740309096
 20
6.4443214927
 40
0.078
100
AcDbArc
 50
306.7734275126
 51
356.708302835
  0
ARC
  5
2A5
100
AcDbEntity
  8
0
100
AcDbCircle
 62
6
  6
CONTINUOUS
 10
4.0578422138
 20
6.3321802189
 40
0.062
100
AcDbArc
 50
126.7734275126
 51
171.96842665
  0
ARC
  5
2A6
100
AcDbEntity
  8
0
100
AcDbCircle
 62
6
  6
CONTINUOUS
 10
4.0249798515
 20
6.600842783
 40
0.125
100
AcDbArc
 50
298.3576365763
 51
360.0
  0
ARC
  5
2A7
100
AcDbEntity
  8
0
100
AcDbCircle
 62
6
  6
CONTINUOUS
 10
4.1137999303
 20
6.436282783
 40
0.062
100
AcDbArc
 50
118.3576365763
 51
176.708302835
  0
ARC
  5
2A8
100
AcDbEntity
  8
0
100
AcDbCircle
 62
6
  6
CONTINUOUS
 10
8.2824798515
 20
4.1705525221
 40
0.625
100
AcDbArc
 50
335.61614075
 51
34.7547178977
  0
ARC
  5
2A9
100
AcDbEntity
  8
0
100
AcDbCircle
 62
6
  6
CONTINUOUS
 10
9.4209798515
 20
3.6544926903
 40
0.625
100
AcDbArc
 50
155.61614075
 51
197.3195190597
  0
ARC
  5
2AA
100
AcDbEntity
  8
0
100
AcDbCircle
 62
6
  6
CONTINUOUS
 10
10.1774798515
 20
4.1705525221
 40
0.625
100
AcDbArc
 50
145.2452821023
 51
204.38385925
  0
ARC
  5
2AB
100
AcDbEntity
  8
0
100
AcDbCircle
 62
6
  6
CONTINUOUS
 10
9.0389798515
 20
3.6544926903
 40
0.625
100
AcDbArc
 50
342.6804809403
 51
24.38385925
  0
ARC
  5
2AC
100
AcDbEntity
  8
0
100
AcDbCircle
 62
6
  6
CONTINUOUS
 10
9.2299798515
 20
2.8273461751
 40
0.495
100
AcDbArc
 50
219.5859394657
 51
228.1119911417
  0
ARC
  5
2AD
100
AcDbEntity
  8
0
100
AcDbCircle
 62
6
  6
CONTINUOUS
 10
9.2299798515
 20
2.8273461751
 40
0.495
100
AcDbArc
 50
124.3803855116
 51
140.4136999012
  0
ARC
  5
2AE
100
AcDbEntity
  8
0
100
AcDbCircle
 62
6
  6
CONTINUOUS
 10
9.2299798515
 20
2.8273461751
 40
0.495
100
AcDbArc
 50
311.8880088583
 51
55.6196144884
  0
ARC
  5
2AF
100
AcDbEntity
  8
0
100
AcDbCircle
 62
6
  6
CONTINUOUS
 10
8.958924684
 20
3.5104058337
 40
0.141
100
AcDbArc
 50
197.3195190597
 51
265.5661081687
  0
ARC
  5
2B0
100
AcDbEntity
  8
0
100
AcDbCircle
 62
6
  6
CONTINUOUS
 10
9.5010350189
 20
3.5104058337
 40
0.141
100
AcDbArc
 50
274.4338918313
 51
342.6804809403
  0
ARC
  5
2B1
100
AcDbEntity
  8
0
100
AcDbCircle
 62
6
  6
CONTINUOUS
 10
8.7046203945
 20
3.1273461751
 40
0.1
100
AcDbArc
 50
34.2288663278
 51
74.2554348541
  0
ARC
  5
2B2
100
AcDbEntity
  8
0
100
AcDbCircle
 62
6
  6
CONTINUOUS
 10
8.8699798515
 20
3.2398461751
 40
0.1
100
AcDbArc
 50
214.2288663278
 51
257.8528125191
  0
ARC
  5
2B3
100
AcDbEntity
  8
0
100
AcDbCircle
 62
6
  6
CONTINUOUS
 10
8.7046203945
 20
2.5273461751
 40
0.1
100
AcDbArc
 50
270.0
 51
325.7711336722
  0
ARC
  5
2B4
100
AcDbEntity
  8
0
100
AcDbCircle
 62
6
  6
CONTINUOUS
 10
8.8699798515
 20
2.4148461751
 40
0.1
100
AcDbArc
 50
102.1369409761
 51
145.7711336722
  0
ARC
  5
2B5
100
AcDbEntity
  8
0
100
AcDbCircle
 62
6
  6
CONTINUOUS
 10
8.9719798515
 20
3.3024211939
 40
0.062
100
AcDbArc
 50
111.3040561787
 51
248.6959438213
  0
ARC
  5
2B6
100
AcDbEntity
  8
0
100
AcDbCircle
 62
6
  6
CONTINUOUS
 10
9.4879798515
 20
3.3024211939
 40
0.062
100
AcDbArc
 50
291.3040561787
 51
68.6959438213
  0
ARC
  5
2B7
100
AcDbEntity
  8
0
100
AcDbCircle
 62
6
  6
CONTINUOUS
 10
8.9882965206
 20
2.259842783
 40
0.057
100
AcDbArc
 50
6.0423284191
 51
89.52195946
  0
ARC
  5
2B8
100
AcDbEntity
  8
0
100
AcDbCircle
 62
6
  6
CONTINUOUS
 10
9.4716631824
 20
2.259842783
 40
0.057
100
AcDbArc
 50
90.47804054
 51
173.9576715809
  0
ARC
  5
2B9
100
AcDbEntity
  8
0
100
AcDbCircle
 62
6
  6
CONTINUOUS
 10
8.9344798515
 20
2.375842783
 40
0.035
100
AcDbArc
 50
180.0
 51
270.0
  0
ARC
  5
2BA
100
AcDbEntity
  8
0
100
AcDbCircle
 62
6
  6
CONTINUOUS
 10
9.5254798515
 20
2.375842783
 40
0.035
100
AcDbArc
 50
270.0
 51
360.0
  0
ARC
  5
2BB
100
AcDbEntity
  8
0
100
AcDbCircle
 62
9
  6
CONTINUOUS
 10
8.5808225983
 20
3.2080584813
 40
0.0299069622
100
AcDbArc
 50
115.5760976652
 51
122.2983184203
  0
ARC
  5
2BC
100
AcDbEntity
  8
0
100
AcDbCircle
 62
9
  6
CONTINUOUS
 10
8.5804079195
 20
3.208732787
 40
0.0291153946
100
AcDbArc
 50
122.969925685
 51
124.6649171662
  0
ARC
  5
2BD
100
AcDbEntity
  8
0
100
AcDbCircle
 62
6
  6
CONTINUOUS
 10
8.9476375999
 20
3.364842783
 40
0.005
100
AcDbArc
 50
291.3040561787
 51
85.5661081687
  0
ARC
  5
2BE
100
AcDbEntity
  8
0
100
AcDbCircle
 62
6
  6
CONTINUOUS
 10
8.9476375999
 20
3.2399996048
 40
0.005
100
AcDbArc
 50
304.3803855116
 51
68.6959438213
  0
ARC
  5
2BF
100
AcDbEntity
  8
0
100
AcDbCircle
 62
6
  6
CONTINUOUS
 10
9.512322103
 20
3.364842783
 40
0.005
100
AcDbArc
 50
94.4338918313
 51
248.6959438213
  0
ARC
  5
2C0
100
AcDbEntity
  8
0
100
AcDbCircle
 62
6
  6
CONTINUOUS
 10
9.512322103
 20
3.2399996048
 40
0.005
100
AcDbArc
 50
111.3040561787
 51
235.6196144884
  0
ARC
  5
2C1
100
AcDbEntity
  8
0
100
AcDbCircle
 62
6
  6
CONTINUOUS
 10
8.4013912067
 20
4.7424885018
 40
0.4
100
AcDbArc
 50
10.0
 51
40.5151811264
  0
ARC
  5
2C2
100
AcDbEntity
  8
0
100
AcDbCircle
 62
6
  6
CONTINUOUS
 10
8.8969296227
 20
4.684842783
 40
0.078
100
AcDbArc
 50
190.0000000004
 51
270.0
  0
ARC
  5
2C3
100
AcDbEntity
  8
0
100
AcDbCircle
 62
6
  6
CONTINUOUS
 10
8.0722468322
 20
5.968324123
 40
0.343
100
AcDbArc
 50
356.2419535375
 51
50.9887457037
  0
ARC
  5
2C4
100
AcDbEntity
  8
0
100
AcDbCircle
 62
6
  6
CONTINUOUS
 10
8.1521174891
 20
6.3321802189
 40
0.062
100
AcDbArc
 50
8.03157335
 51
53.2265724874
  0
ARC
  5
2C5
100
AcDbEntity
  8
0
100
AcDbCircle
 62
6
  6
CONTINUOUS
 10
8.1849798515
 20
6.600842783
 40
0.125
100
AcDbArc
 50
180.0
 51
241.6423634237
  0
ARC
  5
2C6
100
AcDbEntity
  8
0
100
AcDbCircle
 62
6
  6
CONTINUOUS
 10
8.0961597727
 20
6.436282783
 40
0.062
100
AcDbArc
 50
3.291697165
 51
61.6423634237
  0
ARC
  5
2C7
100
AcDbEntity
  8
0
100
AcDbCircle
 62
6
  6
CONTINUOUS
 10
8.2907442608
 20
6.3517408475
 40
0.078
100
AcDbArc
 50
188.03157335
 51
239.0556893899
  0
ARC
  5
2C8
100
AcDbEntity
  8
0
100
AcDbCircle
 62
6
  6
CONTINUOUS
 10
8.2187556032
 20
6.2316673984
 40
0.062
100
AcDbArc
 50
17.0467181651
 51
59.0556893899
  0
ARC
  5
2C9
100
AcDbEntity
  8
0
100
AcDbCircle
 62
6
  6
CONTINUOUS
 10
8.3076697452
 20
6.2589304753
 40
0.031
100
AcDbArc
 50
197.0467181651
 51
230.9887457037
  0
ARC
  5
2CA
100
AcDbEntity
  8
0
100
AcDbCircle
 62
6
  6
CONTINUOUS
 10
8.2359287934
 20
6.4443214927
 40
0.078
100
AcDbArc
 50
183.291697165
 51
233.2265724874
  0
ARC
  5
2CB
100
AcDbEntity
  8
0
100
AcDbCircle
 62
6
  6
CONTINUOUS
 10
8.5287188269
 20
5.84621702
 40
1.52
100
AcDbArc
 50
348.4101664982
 51
3.7580464625
  0
ARC
  5
2CC
100
AcDbEntity
  8
0
100
AcDbCircle
 62
6
  6
CONTINUOUS
 10
8.8421943191
 20
5.7819277069
 40
1.2
100
AcDbArc
 50
319.4848188736
 51
348.4101664982
  0
ARC
  5
2CD
100
AcDbEntity
  8
0
100
AcDbCircle
 62
6
  6
CONTINUOUS
 10
10.0585684963
 20
4.7424885018
 40
0.4
100
AcDbArc
 50
139.4848188736
 51
170.0
  0
ARC
  5
2CE
100
AcDbEntity
  8
0
100
AcDbCircle
 62
6
  6
CONTINUOUS
 10
9.5630300802
 20
4.684842783
 40
0.078
100
AcDbArc
 50
270.0
 51
349.9999999996
  0
ARC
  5
2CF
100
AcDbEntity
  8
0
100
AcDbCircle
 62
6
  6
CONTINUOUS
 10
9.9312408761
 20
5.84621702
 40
1.52
100
AcDbArc
 50
176.2419535375
 51
191.5898335018
  0
ARC
  5
2D0
100
AcDbEntity
  8
0
100
AcDbCircle
 62
6
  6
CONTINUOUS
 10
9.6177653839
 20
5.7819277069
 40
1.2
100
AcDbArc
 50
191.5898335018
 51
220.5151811264
  0
ARC
  5
2D1
100
AcDbEntity
  8
0
100
AcDbCircle
 62
6
  6
CONTINUOUS
 10
10.3877128708
 20
5.968324123
 40
0.343
100
AcDbArc
 50
129.0112542963
 51
183.7580464625
  0
ARC
  5
2D2
100
AcDbEntity
  8
0
100
AcDbCircle
 62
6
  6
CONTINUOUS
 10
10.1692154422
 20
6.3517408475
 40
0.078
100
AcDbArc
 50
300.9443106101
 51
351.96842665
  0
ARC
  5
2D3
100
AcDbEntity
  8
0
100
AcDbCircle
 62
6
  6
CONTINUOUS
 10
10.2412040997
 20
6.2316673984
 40
0.062
100
AcDbArc
 50
120.9443106101
 51
162.9532818349
  0
ARC
  5
2D4
100
AcDbEntity
  8
0
100
AcDbCircle
 62
6
  6
CONTINUOUS
 10
10.1522899578
 20
6.2589304753
 40
0.031
100
AcDbArc
 50
309.0112542963
 51
342.9532818349
  0
ARC
  5
2D5
100
AcDbEntity
  8
0
100
AcDbCircle
 62
6
  6
CONTINUOUS
 10
10.2240309096
 20
6.4443214927
 40
0.078
100
AcDbArc
 50
306.7734275126
 51
356.708302835
  0
ARC
  5
2D6
100
AcDbEntity
  8
0
100
AcDbCircle
 62
6
  6
CONTINUOUS
 10
10.3078422138
 20
6.3321802189
 40
0.062
100
AcDbArc
 50
126.7734275126
 51
171.96842665
  0
ARC
  5
2D7
100
AcDbEntity
  8
0
100
AcDbCircle
 62
6
  6
CONTINUOUS
 10
10.2749798515
 20
6.600842783
 40
0.125
100
AcDbArc
 50
298.3576365763
 51
360.0
  0
ARC
  5
2D8
100
AcDbEntity
  8
0
100
AcDbCircle
 62
6
  6
CONTINUOUS
 10
10.3637999303
 20
6.436282783
 40
0.062
100
AcDbArc
 50
118.3576365763
 51
176.708302835
  0
SPLINE
  5
2D9
100
AcDbEntity
  8
0
100
AcDbSpline
 62
6
  6
CONTINUOUS
 70
0
 71
3
 72
19
 73
15
 74
13
 42
0.0000001
 43
0.0000001
 44
0.0000000001
 12
-0.002739178
 22
0.0416425241
 32
0.0
 13
-0.0417325162
 23
0.0
 33
0.0
 40
0.0
 40
0.0
 40
0.0
 40
0.0
 40
0.062090464
 40
0.1242634043
 40
0.2487127476
 40
0.3110155851
 40
0.3732814511
 40
0.4355340208
 40
0.4978747785
 40
0.5603939333
 40
0.6231221715
 40
0.748984249
 40
0.8748949835
 40
1.0
 40
1.0
 40
1.0
 40
1.0
 10
8.7328109463
 20
3.214168451
 30
0.0
 10
8.732754254
 20
3.2150303189
 30
0.0
 10
8.7325607158
 20
3.2167512391
 30
0.0
 10
8.731854175
 20
3.2201417477
 30
0.0
 10
8.7306708925
 20
3.223422281
 30
0.0
 10
8.7290443047
 20
3.226485187
 30
0.0
 10
8.7276068214
 20
3.2286556804
 30
0.0
 10
8.7259578189
 20
3.2306707312
 30
0.0
 10
8.7241134701
 20
3.2325132595
 30
0.0
 10
8.7220971762
 20
3.2341760201
 30
0.0
 10
8.719205857
 20
3.2361432734
 30
0.0
 10
8.7152702496
 20
3.2381106371
 30
0.0
 10
8.7102201088
 20
3.239610281
 30
0.0
 10
8.7067201672
 20
3.2399713345
 30
0.0
 10
8.7049798515
 20
3.2399713345
 30
0.0
 11
8.7328109463
 21
3.214168451
 31
0.0
 11
8.7325210301
 21
3.2167433725
 31
0.0
 11
8.7319914702
 21
3.2192833898
 31
0.0
 11
8.7302279862
 21
3.224168412
 31
0.0
 11
8.7290078413
 21
3.2264643928
 31
0.0
 11
8.7275715224
 21
3.2286298602
 31
0.0
 11
8.7259264957
 21
3.2306406472
 31
0.0
 11
8.7240874762
 21
3.2324808974
 31
0.0
 11
8.7220755291
 21
3.2341420343
 31
0.0
 11
8.7199119345
 21
3.2356157279
 31
0.0
 11
8.7152151043
 21
3.2379671053
 31
0.0
 11
8.7101750068
 21
3.2394530195
 31
0.0
 11
8.7049798515
 21
3.2399713345
 31
0.0
  0
SPLINE
  5
2DA
100
AcDbEntity
  8
0
100
AcDbSpline
 62
6
  6
CONTINUOUS
 70
0
 71
3
 72
20
 73
16
 74
14
 42
0.0000001
 43
0.0000001
 44
0.0000000001
 12
-0.0454233483
 22
0.0
 32
0.0
 13
0.0030103859
 23
-0.0453234834
 33
0.0
 40
0.0
 40
0.0
 40
0.0
 40
0.0
 40
0.125190739
 40
0.1882224155
 40
0.2513462572
 40
0.3771181581
 40
0.4397599762
 40
0.502188501
 40
0.564486611
 40
0.6267820895
 40
0.6891176113
 40
0.7514664078
 40
0.8137644895
 40
0.875951728
 40
1.0
 40
1.0
 40
1.0
 40
1.0
 10
8.7049798515
 20
3.2399713345
 30
0.0
 10
8.703084324
 20
3.2399713345
 30
0.0
 10
8.7002245012
 20
3.2396499185
 30
0.0
 10
8.6965454631
 20
3.2386609515
 30
0.0
 10
8.6929705455
 20
3.2373165369
 30
0.0
 10
8.6896077412
 20
3.2354692792
 30
0.0
 10
8.6865811648
 20
3.2331664414
 30
0.0
 10
8.6845067504
 20
3.2312232058
 30
0.0
 10
8.6826559711
 20
3.2290725443
 30
0.0
 10
8.6810546367
 20
3.2267320106
 30
0.0
 10
8.6797092484
 20
3.2242351973
 30
0.0
 10
8.6786287962
 20
3.2216130979
 30
0.0
 10
8.6778216537
 20
3.2188962409
 30
0.0
 10
8.677123184
 20
3.2151940179
 30
0.0
 10
8.6770254571
 20
3.2123505688
 30
0.0
 10
8.6771499348
 20
3.2104764689
 30
0.0
 11
8.7049798515
 21
3.2399713345
 31
0.0
 11
8.6993264055
 21
3.2393583342
 31
0.0
 11
8.6965608914
 21
3.2386171663
 31
0.0
 11
8.6938768625
 21
3.2376085156
 31
0.0
 11
8.6888731793
 21
3.2348514693
 31
0.0
 11
8.6866097882
 21
3.2331271234
 31
0.0
 11
8.68454203
 21
3.2311865972
 31
0.0
 11
8.682697359
 21
3.2290406957
 31
0.0
 11
8.6810976747
 21
3.2267065924
 31
0.0
 11
8.6797535041
 21
3.2242144989
 31
0.0
 11
8.678673982
 21
3.2215962223
 31
0.0
 11
8.6778682437
 21
3.21888357
 31
0.0
 11
8.6773444977
 21
3.2161077967
 31
0.0
 11
8.6771499348
 21
3.2104764689
 31
0.0
  0
SPLINE
  5
2DB
100
AcDbEntity
  8
0
100
AcDbSpline
 62
9
  6
CONTINUOUS
 70
0
 71
3
 72
21
 73
17
 74
15
 42
0.0000001
 43
0.0000001
 44
0.0000000001
 12
-0.029752842
 22
-0.0
 32
0.0
 13
-0.0065869476
 23
0.0290145434
 33
0.0
 40
0.0
 40
0.0
 40
0.0
 40
0.0
 40
0.175000602
 40
0.3452205051
 40
0.4267075199
 40
0.5048214333
 40
0.5789160564
 40
0.6483695659
 40
0.7125897013
 40
0.7710391057
 40
0.8234279157
 40
0.8697283445
 40
0.9100322779
 40
0.9446285471
 40
0.9741724296
 40
1.0
 40
1.0
 40
1.0
 40
1.0
 10
3.9299798515
 20
2.7207383442
 30
0.0
 10
3.9282442631
 20
2.7207383442
 30
0.0
 10
3.9248199146
 20
2.7208359173
 30
0.0
 10
3.9205998881
 20
2.7211800028
 30
0.0
 10
3.9173532255
 20
2.7215817772
 30
0.0
 10
3.9150620972
 20
2.72193424
 30
0.0
 10
3.9129010211
 20
2.7223398316
 30
0.0
 10
3.9108910624
 20
2.7227962704
 30
0.0
 10
3.9090529029
 20
2.7233009112
 30
0.0
 10
3.9074056242
 20
2.723852771
 30
0.0
 10
3.9059638413
 20
2.7244481784
 30
0.0
 10
3.9047360204
 20
2.7250791498
 30
0.0
 10
3.9037284004
 20
2.7257396943
 30
0.0
 10
3.9029461004
 20
2.7264256833
 30
0.0
 10
3.9023953316
 20
2.7271364554
 30
0.0
 10
3.9021809995
 20
2.7276525356
 30
0.0
 10
3.9021242912
 20
2.7279023273
 30
0.0
 11
3.9299798515
 21
2.7207383442
 31
0.0
 11
3.9247751164
 21
2.72088373
 31
0.0
 11
3.9197276409
 21
2.7212989567
 31
0.0
 11
3.9173216781
 21
2.7215979538
 31
0.0
 11
3.9150248766
 21
2.7219531928
 31
0.0
 11
3.9128586558
 21
2.7223623632
 31
0.0
 11
3.910844275
 21
2.7228232769
 31
0.0
 11
3.9090029938
 21
2.7233337459
 31
0.0
 11
3.9073558274
 21
2.7238914991
 31
0.0
 11
3.9059174777
 21
2.7244921201
 31
0.0
 11
3.9046959215
 21
2.7251289072
 31
0.0
 11
3.9036988091
 21
2.7257950478
 31
0.0
 11
3.9029337905
 21
2.726483729
 31
0.0
 11
3.9024080649
 21
2.7271881998
 31
0.0
 11
3.9021242912
 21
2.7279023273
 31
0.0
  0
SPLINE
  5
2DC
100
AcDbEntity
  8
0
100
AcDbSpline
 62
9
  6
CONTINUOUS
 70
0
 71
3
 72
21
 73
17
 74
15
 42
0.0000001
 43
0.0000001
 44
0.0000000001
 12
-0.0359327539
 22
0.0
 32
0.0
 13
-0.000983962
 23
0.0359192792
 33
0.0
 40
0.0
 40
0.0
 40
0.0
 40
0.0
 40
0.1495212394
 40
0.2966480407
 40
0.3681996767
 40
0.4378056291
 40
0.5051304992
 40
0.5699006399
 40
0.6319270596
 40
0.691148974
 40
0.7476915686
 40
0.8017632137
 40
0.8536253367
 40
0.9036150132
 40
0.9521985811
 40
1.0
 40
1.0
 40
1.0
 40
1.0
 10
8.6799798515
 20
2.5637735877
 30
0.0
 10
8.6781889482
 20
2.5637735877
 30
0.0
 10
8.6746324162
 20
2.5640163812
 30
0.0
 10
8.6702927444
 20
2.5648648756
 30
0.0
 10
8.6669797742
 20
2.5658453544
 30
0.0
 10
8.664635192
 20
2.5667104728
 30
0.0
 10
8.6624317861
 20
2.5677066064
 30
0.0
 10
8.6603923409
 20
2.5688286529
 30
0.0
 10
8.6585390446
 20
2.5700713408
 30
0.0
 10
8.6568957394
 20
2.5714319475
 30
0.0
 10
8.6554763868
 20
2.5728951344
 30
0.0
 10
8.6542891831
 20
2.574443026
 30
0.0
 10
8.6533428743
 20
2.5760590994
 30
0.0
 10
8.652646333
 20
2.5777273052
 30
0.0
 10
8.6522084815
 20
2.5794311641
 30
0.0
 10
8.6520895038
 20
2.5805845983
 30
0.0
 10
8.6520738256
 20
2.5811569291
 30
0.0
 11
8.6799798515
 21
2.5637735877
 31
0.0
 11
8.6746189984
 21
2.5641303307
 31
0.0
 11
8.6694311201
 21
2.5651475871
 31
0.0
 11
8.6669663393
 21
2.5658791197
 31
0.0
 11
8.664620926
 21
2.5667478578
 31
0.0
 11
8.6624182242
 21
2.5677480968
 31
0.0
 11
8.6603814829
 21
2.5688743001
 31
0.0
 11
8.6585339514
 21
2.5701209307
 31
0.0
 11
8.6568978087
 21
2.5714816103
 31
0.0
 11
8.655486092
 21
2.5729427698
 31
0.0
 11
8.6543072032
 21
2.574487195
 31
0.0
 11
8.6533695082
 21
2.576097643
 31
0.0
 11
8.6526813699
 21
2.5777568717
 31
0.0
 11
8.6522491666
 21
2.5794482656
 31
0.0
 11
8.6520738256
 21
2.5811569291
 31
0.0
  0
SPLINE
  5
2DD
100
AcDbEntity
  8
0
100
AcDbSpline
 62
9
  6
CONTINUOUS
 70
0
 71
3
 72
24
 73
20
 74
18
 42
0.0000001
 43
0.0000001
 44
0.0000000001
 12
0.0068591331
 22
-0.029956812
 32
0.0
 13
-0.0307320401
 23
-0.0
 33
0.0
 40
0.0
 40
0.0
 40
0.0
 40
0.0
 40
0.0127831635
 40
0.0254680808
 40
0.0384436483
 40
0.0520740547
 40
0.0666748903
 40
0.0825040504
 40
0.1185060497
 40
0.1609970464
 40
0.2103272263
 40
0.2665918312
 40
0.3297112856
 40
0.3992142112
 40
0.4744046978
 40
0.5545331484
 40
0.6388174504
 40
0.8164046781
 40
1.0
 40
1.0
 40
1.0
 40
1.0
 10
3.957834473
 20
2.7288723031
 30
0.0
 10
3.9578637002
 20
2.7287446555
 30
0.0
 10
3.9578999652
 20
2.7284846068
 30
0.0
 10
3.9578816873
 20
2.728089067
 30
0.0
 10
3.9577902799
 20
2.7276949234
 30
0.0
 10
3.9576265062
 20
2.7273039384
 30
0.0
 10
3.9573912869
 20
2.7269170029
 30
0.0
 10
3.9569646443
 20
2.7263848074
 30
0.0
 10
3.9562376123
 20
2.7257388348
 30
0.0
 10
3.9551364384
 20
2.7250247024
 30
0.0
 10
3.9537771135
 20
2.7243455311
 30
0.0
 10
3.9521682687
 20
2.7237095113
 30
0.0
 10
3.9503218193
 20
2.7231266866
 30
0.0
 10
3.948258465
 20
2.7225992852
 30
0.0
 10
3.9460031197
 20
2.722129643
 30
0.0
 10
3.9435823575
 20
2.7217209405
 30
0.0
 10
3.940109743
 20
2.7212531625
 30
0.0
 10
3.9355612869
 20
2.7208524285
 30
0.0
 10
3.9318606044
 20
2.7207383442
 30
0.0
 10
3.9299798515
 20
2.7207383442
 30
0.0
 11
3.957834473
 21
2.7288723031
 31
0.0
 11
3.9578879182
 21
2.7284831028
 31
0.0
 11
3.9578702187
 21
2.7280936715
 31
0.0
 11
3.9577813746
 21
2.7277049289
 31
0.0
 11
3.9576213858
 21
2.7273177951
 31
0.0
 11
3.9573902524
 21
2.72693319
 31
0.0
 11
3.9570879838
 21
2.7265520347
 31
0.0
 11
3.9562726545
 21
2.7258041095
 31
0.0
 11
3.9551842573
 21
2.7250825858
 31
0.0
 11
3.9538325486
 21
2.724396152
 31
0.0
 11
3.952227285
 21
2.7237534965
 31
0.0
 11
3.9503796095
 21
2.7231628368
 31
0.0
 11
3.9483115044
 21
2.7226287067
 31
0.0
 11
3.9460500528
 21
2.7221539068
 31
0.0
 11
3.9436223677
 21
2.7217412277
 31
0.0
 11
3.9410555884
 21
2.7213934803
 31
0.0
 11
3.9356195349
 21
2.7209088016
 31
0.0
 11
3.9299798515
 21
2.7207383442
 31
0.0
  0
SPLINE
  5
2DE
100
AcDbEntity
  8
0
100
AcDbSpline
 62
9
  6
CONTINUOUS
 70
0
 71
3
 72
9
 73
5
 74
3
 42
0.0000001
 43
0.0000001
 44
0.0000000001
 12
-0.006471352
 22
-0.0044753605
 32
0.0
 13
-0.0049339043
 23
-0.0061289344
 33
0.0
 40
0.0
 40
0.0
 40
0.0
 40
0.0
 40
0.5007997862
 40
1.0
 40
1.0
 40
1.0
 40
1.0
 10
8.5638477815
 20
3.2326799797
 30
0.0
 10
8.5627674976
 20
3.2319328932
 30
0.0
 10
8.5607091149
 20
3.2302924072
 30
0.0
 10
8.5589059512
 20
3.2283727984
 30
0.0
 10
8.5580849492
 20
3.2273529433
 30
0.0
 11
8.5638477815
 21
3.2326799797
 31
0.0
 11
8.5607698314
 21
3.230219779
 31
0.0
 11
8.5580849492
 21
3.2273529433
 31
0.0
  0
SPLINE
  5
2DF
100
AcDbEntity
  8
0
100
AcDbSpline
 62
9
  6
CONTINUOUS
 70
0
 71
3
 72
21
 73
17
 74
15
 42
0.0000001
 43
0.0000001
 44
0.0000000001
 12
0.0010030187
 22
-0.0365435764
 32
0.0
 13
-0.0365573388
 23
-0.0
 33
0.0
 40
0.0
 40
0.0
 40
0.0
 40
0.0
 40
0.0479378145
 40
0.0964485198
 40
0.1462104691
 40
0.1977741172
 40
0.2515235034
 40
0.307752221
 40
0.3666910734
 40
0.4285014112
 40
0.4931563661
 40
0.560476037
 40
0.6301839601
 40
0.7019355098
 40
0.8496941295
 40
1.0
 40
1.0
 40
1.0
 40
1.0
 10
8.7078858606
 20
2.5817830687
 30
0.0
 10
8.7079018882
 20
2.581199129
 30
0.0
 10
8.7078434421
 20
2.5800198156
 30
0.0
 10
8.7074834815
 20
2.5782682181
 30
0.0
 10
8.7068516622
 20
2.5765481799
 30
0.0
 10
8.7059552559
 20
2.5748781109
 30
0.0
 10
8.7048044696
 20
2.5732746853
 30
0.0
 10
8.703408459
 20
2.5717557175
 30
0.0
 10
8.7017763466
 20
2.5703394074
 30
0.0
 10
8.6999202438
 20
2.5690447814
 30
0.0
 10
8.6978651176
 20
2.5678758175
 30
0.0
 10
8.6956348027
 20
2.5668376675
 30
0.0
 10
8.6932535698
 20
2.5659358187
 30
0.0
 10
8.6898785827
 20
2.5649129838
 30
0.0
 10
8.6854472108
 20
2.5640273516
 30
0.0
 10
8.6818114457
 20
2.5637735877
 30
0.0
 10
8.6799798515
 20
2.5637735877
 30
0.0
 11
8.7078858606
 21
2.5817830687
 31
0.0
 11
8.7077995684
 21
2.5800327156
 31
0.0
 11
8.7074445407
 21
2.5782951938
 31
0.0
 11
8.7068210439
 21
2.5765862143
 31
0.0
 11
8.7059339766
 21
2.5749229498
 31
0.0
 11
8.7047921667
 21
2.5733238132
 31
0.0
 11
8.7034045668
 21
2.5718072566
 31
0.0
 11
8.7017801296
 21
2.5703917319
 31
0.0
 11
8.6999307747
 21
2.5690933577
 31
0.0
 11
8.6978790176
 21
2.5679199185
 31
0.0
 11
8.6956497379
 21
2.5668773394
 31
0.0
 11
8.6932678155
 21
2.5659715455
 31
0.0
 11
8.6907581881
 21
2.5652085651
 31
0.0
 11
8.6854619651
 21
2.564146504
 31
0.0
 11
8.6799798515
 21
2.5637735877
 31
0.0
  0
ENDSEC
  0
SECTION
  2
OBJECTS
  0
DICTIONARY
  5
C
100
AcDbDictionary
280
0
281
1
  3
ACAD_GROUP
350
D
  3
ACAD_MLINESTYLE
350
17
  3
ACAD_LAYOUT
350
1A
  3
ACAD_PLOTSETTINGS
350
19
  3
ACAD_PLOTSTYLENAME
350
E
  0
DICTIONARY
  5
D
102
{ACAD_REACTORS
330
C
102
}
100
AcDbDictionary
280
0
281
1
  0
ACDBDICTIONARYWDFLT
  5
E
102
{ACAD_REACTORS
330
C
102
}
100
AcDbDictionary
281
1
  3
Normal
350
F
100
AcDbDictionaryWithDefault
340
F
  0
DICTIONARY
  5
17
102
{ACAD_REACTORS
330
C
102
}
100
AcDbDictionary
280
0
281
1
  3
Standard
350
18
  0
DICTIONARY
  5
19
102
{ACAD_REACTORS
330
C
102
}
100
AcDbDictionary
281
1
  0
DICTIONARY
  5
1A
102
{ACAD_REACTORS
330
C
102
}
100
AcDbDictionary
281
1
  3
Model
350
2E0
  3
Layout1
350
2E1
  0
ACDBPLACEHOLDER
  5
F
102
{ACAD_REACTORS
330
E
102
}
  0
MLINESTYLE
  5
18
102
{ACAD_REACTORS
330
17
102
}
100
AcDbMlineStyle
  2
STANDARD
 70
0
  3

 62
256
 51
90.0
 52
90.0
 71
2
 49
0.5
 62
256
  6
BYLAYER
 49
-0.5
 62
256
  6
BYLAYER
  0
LAYOUT
  5
2E0
102
{ACAD_REACTORS
330
1A
102
}
100
AcDbPlotSettings
  1

  2
none_device
  4
ISO_A4_(297.00_x_210.00_MM)
  6

 40
0.0
 41
0.0
 42
0.0
 43
0.0
 44
297.0
 45
210.0
 46
0.0
 47
0.0
 48
0.0
 49
0.0
140
0.0
141
0.0
142
1.0
143
1.0
 70
1024
 72
0
 73
0
 74
0
  7

 75
0
147
1.0
148
0.0
149
0.0
100
AcDbLayout
  1
Model
 70
0
 71
0
 10
0.0
 20
0.0
 11
11.6929133858
 21
8.2677165354
 12
0.0
 22
0.0
 32
0.0
 14
0.0
 24
0.0
 34
0.0
 15
0.0
 25
0.0
 35
0.0
146
0.0
 13
0.0
 23
0.0
 33
0.0
 16
1.0
 26
0.0
 36
0.0
 17
0.0
 27
1.0
 37
0.0
 76
0
330
203
345
0
346
0
  0
LAYOUT
  5
2E1
102
{ACAD_REACTORS
330
1A
102
}
100
AcDbPlotSettings
  1

  2
none_device
  4
ISO_A4_(297.00_x_210.00_MM)
  6

 40
0.0
 41
0.0
 42
0.0
 43
0.0
 44
297.0
 45
210.0
 46
0.0
 47
0.0
 48
0.0
 49
0.0
140
0.0
141
0.0
142
1.0
143
1.0
 70
0
 72
0
 73
0
 74
0
  7

 75
0
147
1.0
148
0.0
149
0.0
100
AcDbLayout
  1
Layout1
 70
0
 71
1
 10
0.0
 20
0.0
 11
11.6929133858
 21
8.2677165354
 12
0.0
 22
0.0
 32
0.0
 14
0.0
 24
0.0
 34
0.0
 15
0.0
 25
0.0
 35
0.0
146
0.0
 13
0.0
 23
0.0
 33
0.0
 16
1.0
 26
0.0
 36
0.0
 17
0.0
 27
1.0
 37
0.0
 76
0
330
204
345
0
346
0
  0
ENDSEC
  0
EOF
