999
DXF file: 1200-1400_top.dxf
999
Pro/ENGINEER 2018400 by Parametric Technology Corporation
  0
SECTION
  2
HEADER
  9
$ACADVER
  1
AC1027
  9
$DWGCODEPAGE
  3
ANSI_1252
  9
$EXTMAX
 10
11.0
 20
8.5
 30
0.0
  9
$EXTMIN
 10
0.0
 20
0.0
 30
0.0
  9
$LIMMIN
 10
0.0
 20
0.0
  9
$LIMMAX
 10
11.0
 20
8.5
  9
$VIEWCTR
 10
5.5
 20
4.25
  9
$VIEWSIZE
 40
8.5
  9
$CLAYER
  8
0
  9
$LTSCALE
 40
0.605
  9
$CELTYPE
  6
BYLAYER
  9
$DIMSCALE
 40
1.0
  9
$DIMASZ
 40
0.1
  9
$DIMEXO
 40
0.0625
  9
$DIMDLI
 40
0.418
  9
$DIMEXE
 40
0.125
  9
$DIMCEN
 40
0.099
  9
$DIMLFAC
 40
1.0
  9
$DIMBLK
  1
_FILLED
  9
$DIMALT
 70
1
  9
$DIMALTD
 70
1
  9
$DIMALTTD
 70
2
  9
$DIMALTF
 40
25.4
  9
$DIMTXT
 40
0.08
  9
$DIMTOL
 70
1
  9
$DIMLIM
 70
0
  9
$DIMTFAC
 40
1.0
  9
$DIMTP
 40
0.01
  9
$DIMTM
 40
0.01
  9
$DIMGAP
 40
0.09
  9
$DIMDSEP
 70
46
  9
$AUNITS
 70
0
  9
$PDMODE
 70
3
  9
$PDSIZE
 40
0.3125
  9
$HANDSEED
  5
239
  9
$TILEMODE
 70
1
  9
$MEASUREMENT
 70
0
  9
$INSUNITS
 70
1
  0
ENDSEC
  0
SECTION
  2
CLASSES
  0
CLASS
  1
ACDBDICTIONARYWDFLT
  2
AcDbDictionaryWithDefault
  3
AutoCAD 2000
 90
0
 91
1
280
0
281
0
  0
CLASS
  1
ACDBPLACEHOLDER
  2
AcDbPlaceHolder
  3
AutoCAD 2000
 90
0
 91
1
280
0
281
0
  0
CLASS
  1
LAYOUT
  2
AcDbLayout
  3
AutoCAD 2000
 90
0
 91
0
280
0
281
0
  0
ENDSEC
  0
SECTION
  2
TABLES
  0
TABLE
  2
VPORT
  5
8
100
AcDbSymbolTable
 70
2
  0
VPORT
  5
1F4
100
AcDbSymbolTableRecord
100
AcDbViewportTableRecord
  2
*ACTIVE
 70
0
 10
0.0
 20
0.0
 11
1.0
 21
1.0
 12
5.5
 22
4.25
 13
0.0
 23
0.0
 14
1.0
 24
1.0
 15
0.0
 25
0.0
 16
0.0
 26
0.0
 36
1.0
 17
0.0
 27
0.0
 37
0.0
 40
8.5
 41
1.2941176471
 42
50.0
 43
0.0
 44
0.0
 50
0.0
 51
0.0
 71
0
 72
100
 73
1
 74
1
 75
0
 76
0
 77
0
 78
0
  0
ENDTAB
  0
TABLE
  2
LTYPE
  5
5
100
AcDbSymbolTable
 70
6
  0
LTYPE
  5
14
100
AcDbSymbolTableRecord
100
AcDbLinetypeTableRecord
  2
BYBLOCK
 70
0
  3

 72
65
 73
0
 40
0.0
  0
LTYPE
  5
15
100
AcDbSymbolTableRecord
100
AcDbLinetypeTableRecord
  2
BYLAYER
 70
0
  3

 72
65
 73
0
 40
0.0
  0
LTYPE
  5
16
100
AcDbSymbolTableRecord
100
AcDbLinetypeTableRecord
  2
CONTINUOUS
 70
64
  3
Solid line
 72
65
 73
0
 40
0.0
  0
LTYPE
  5
1F5
100
AcDbSymbolTableRecord
100
AcDbLinetypeTableRecord
  2
CENTER
 70
64
  3
____ _ ____ _ ____ _ ____ _ ____ _ ____ _ ____
 72
65
 73
4
 40
0.6
 49
0.375
 74
0
 49
-0.075
 74
0
 49
0.075
 74
0
 49
-0.075
 74
0
  0
LTYPE
  5
1F6
100
AcDbSymbolTableRecord
100
AcDbLinetypeTableRecord
  2
HIDDEN
 70
64
  3
- - - - - - - - - - - - - - - - - - - -
 72
65
 73
2
 40
0.2
 49
0.1
 74
0
 49
-0.1
 74
0
  0
LTYPE
  5
1F7
100
AcDbSymbolTableRecord
100
AcDbLinetypeTableRecord
  2
PHANTOM
 70
64
  3
_____ _ _ _____ _ _ _____ _ _ _____
 72
65
 73
6
 40
0.8
 49
0.45
 74
0
 49
-0.05
 74
0
 49
0.1
 74
0
 49
-0.05
 74
0
 49
0.1
 74
0
 49
-0.05
 74
0
  0
LTYPE
  5
1F8
100
AcDbSymbolTableRecord
100
AcDbLinetypeTableRecord
  2
DOT
 70
64
  3
. . . . . . . . . . . . . . . . . . . .
 72
65
 73
2
 40
0.2
 49
0.1
 74
0
 49
-0.1
 74
0
  0
LTYPE
  5
1F9
100
AcDbSymbolTableRecord
100
AcDbLinetypeTableRecord
  2
DASHED
 70
64
  3
- - - - - - - - - - - - - - - - - - - -
 72
65
 73
2
 40
0.2
 49
0.1
 74
0
 49
-0.1
 74
0
  0
ENDTAB
  0
TABLE
  2
LAYER
  5
2
100
AcDbSymbolTable
 70
36
  0
LAYER
  5
10
100
AcDbSymbolTableRecord
100
AcDbLayerTableRecord
  2
0
 70
0
 62
7
  6
CONTINUOUS
370
-3
390
F
  0
LAYER
  5
1FA
100
AcDbSymbolTableRecord
100
AcDbLayerTableRecord
  2
DEFAULT_1
 70
0
 62
7
  6
CENTER
370
-3
390
F
  0
LAYER
  5
1FB
100
AcDbSymbolTableRecord
100
AcDbLayerTableRecord
  2
DEFAULT_2
 70
0
 62
8
  6
HIDDEN
370
-3
390
F
  0
LAYER
  5
1FC
100
AcDbSymbolTableRecord
100
AcDbLayerTableRecord
  2
DEFAULT_3
 70
0
 62
7
  6
PHANTOM
370
-3
390
F
  0
LAYER
  5
1FD
100
AcDbSymbolTableRecord
100
AcDbLayerTableRecord
  2
DEFAULT_COORDINATE_SYSTEM
 70
0
 62
7
  6
CONTINUOUS
370
-3
390
F
  0
LAYER
  5
1FE
100
AcDbSymbolTableRecord
100
AcDbLayerTableRecord
  2
DEFAULT_DATUM_AXES
 70
0
 62
7
  6
CONTINUOUS
370
-3
390
F
  0
LAYER
  5
1FF
100
AcDbSymbolTableRecord
100
AcDbLayerTableRecord
  2
DEFAULT_DATUM_PLANES
 70
0
 62
7
  6
CONTINUOUS
370
-3
390
F
  0
ENDTAB
  0
TABLE
  2
STYLE
  5
3
100
AcDbSymbolTable
 70
1
  0
STYLE
  5
11
100
AcDbSymbolTableRecord
100
AcDbTextStyleTableRecord
  2
STANDARD
 70
0
 40
0.0
 41
0.8
 50
0.0
 71
0
 42
0.2
  3
txt
  4

  0
STYLE
  5
200
100
AcDbSymbolTableRecord
100
AcDbTextStyleTableRecord
  2
TEXTSTYLE_1
 70
0
 40
0.0
 41
0.8
 50
0.0
 71
0
 42
0.2
  3
gdt
  4

  0
ENDTAB
  0
TABLE
  2
VIEW
  5
6
100
AcDbSymbolTable
 70
0
  0
ENDTAB
  0
TABLE
  2
UCS
  5
7
100
AcDbSymbolTable
 70
0
  0
ENDTAB
  0
TABLE
  2
APPID
  5
9
100
AcDbSymbolTable
 70
1
  0
APPID
  5
201
100
AcDbSymbolTableRecord
100
AcDbRegAppTableRecord
  2
ACAD
 70
0
  0
ENDTAB
  0
TABLE
  2
BLOCK_RECORD
  5
1
100
AcDbSymbolTable
 70
0
  0
BLOCK_RECORD
  5
202
100
AcDbSymbolTableRecord
100
AcDbBlockTableRecord
  2
*Model_Space
  0
BLOCK_RECORD
  5
203
100
AcDbSymbolTableRecord
100
AcDbBlockTableRecord
  2
*Paper_Space
  0
BLOCK_RECORD
  5
204
100
AcDbSymbolTableRecord
100
AcDbBlockTableRecord
  2
_FILLED
  0
ENDTAB
  0
TABLE
  2
DIMSTYLE
  5
A
100
AcDbSymbolTable
 70
1
100
AcDbDimStyleTable
 71
0
  0
DIMSTYLE
105
205
100
AcDbSymbolTableRecord
100
AcDbDimStyleTableRecord
  2
STANDARD
 70
0
  3

  4

 40
1.0
 41
0.1
 42
0.0625
 43
0.38
 44
0.125
 45
0.0
 46
0.0
 47
0.01
 48
0.01
140
0.08
141
0.09
142
0.0
143
25.4
144
1.0
145
0.0
146
1.0
147
0.09
 71
1.0
 72
0.0
 73
1
 74
1
 75
0
 76
0
 77
0
 78
4
 79
1
170
1
171
1
172
0
173
0
174
0
175
0
176
0
177
0
178
0
270
2
179
2
271
2
272
2
273
2
274
2
275
0
280
0
281
0
282
0
283
1
284
4
285
0
286
0
287
3
288
0
340
11
278
46
341
204
342
204
343
204
344
204
  0
ENDTAB
  0
ENDSEC
  0
SECTION
  2
BLOCKS
  0
BLOCK
  5
20
100
AcDbEntity
  8
0
100
AcDbBlockBegin
  2
*Model_Space
 70
0
 10
0.0
 20
0.0
 30
0.0
  3
*Model_Space
  1

  0
ENDBLK
  5
21
100
AcDbEntity
  8
0
100
AcDbBlockEnd
  0
BLOCK
  5
1C
100
AcDbEntity
  8
0
100
AcDbBlockBegin
  2
*Paper_Space
 70
0
 10
0.0
 20
0.0
 30
0.0
  3
*Paper_Space
  1

  0
ENDBLK
  5
1D
100
AcDbEntity
  8
0
100
AcDbBlockEnd
  0
BLOCK
  5
206
100
AcDbEntity
  8
0
100
AcDbBlockBegin
  2
_FILLED
 70
64
 10
0.0
 20
0.0
  3
_FILLED
  1

  0
SOLID
  5
207
100
AcDbEntity
  8
0
  6
BYBLOCK
 62
0
100
AcDbTrace
 10
0.0
 20
0.0
 11
-1.0
 21
0.2
 12
-1.0
 22
-0.2
 13
-1.0
 23
-0.2
  0
ENDBLK
  5
208
100
AcDbEntity
  8
0
  6
BYBLOCK
 62
0
100
AcDbBlockEnd
  0
ENDSEC
  0
SECTION
  2
ENTITIES
  0
MTEXT
  5
209
100
AcDbEntity
  8
0
100
AcDbMText
 62
2
  6
CONTINUOUS
  7
STANDARD
 71
3
 72
1
 10
4.9465838509
 20
2.4794619565
 30
0.0
 11
1.0
 21
0.0
 31
0.0
 73
2
 44
0.9
  1
SCALE  .500
 40
0.08
 41
0.704
  0
LINE
  5
20A
100
AcDbEntity
  8
0
100
AcDbLine
 62
7
  6
CONTINUOUS
 10
0.0
 20
0.0
 11
0.0
 21
8.5
  0
LINE
  5
20B
100
AcDbEntity
  8
0
100
AcDbLine
 62
7
  6
CONTINUOUS
 10
0.0
 20
0.0
 11
11.0
 21
0.0
  0
LINE
  5
20C
100
AcDbEntity
  8
0
100
AcDbLine
 62
7
  6
CONTINUOUS
 10
0.0
 20
8.5
 11
11.0
 21
8.5
  0
LINE
  5
20D
100
AcDbEntity
  8
0
100
AcDbLine
 62
7
  6
CONTINUOUS
 10
11.0
 20
0.0
 11
11.0
 21
8.5
  0
LINE
  5
20E
100
AcDbEntity
  8
0
100
AcDbLine
 62
7
  6
CONTINUOUS
 10
3.9318493545
 20
4.4151731366
 11
3.9318493545
 21
4.3355643761
  0
LINE
  5
20F
100
AcDbEntity
  8
0
100
AcDbLine
 62
7
  6
CONTINUOUS
 10
2.9944542213
 20
3.3751731366
 11
4.1847014995
 21
3.3751731366
  0
LINE
  5
210
100
AcDbEntity
  8
0
100
AcDbLine
 62
7
  6
CONTINUOUS
 10
4.604006217
 20
3.3751731366
 11
6.2289108232
 21
3.3751731366
  0
LINE
  5
211
100
AcDbEntity
  8
0
100
AcDbLine
 62
7
  6
CONTINUOUS
 10
4.2073493545
 20
3.8571731366
 11
4.2073493545
 21
3.8441731366
  0
LINE
  5
212
100
AcDbEntity
  8
0
100
AcDbLine
 62
7
  6
CONTINUOUS
 10
4.2243493545
 20
3.6342803559
 11
4.2243493545
 21
3.7747641294
  0
LINE
  5
213
100
AcDbEntity
  8
0
100
AcDbLine
 62
7
  6
CONTINUOUS
 10
2.9944510131
 20
3.5701731366
 11
4.1819219827
 21
3.5701731366
  0
LINE
  5
214
100
AcDbEntity
  8
0
100
AcDbLine
 62
7
  6
CONTINUOUS
 10
4.6067781661
 20
3.5701731366
 11
6.2289108232
 21
3.5701731366
  0
LINE
  5
215
100
AcDbEntity
  8
0
100
AcDbLine
 62
7
  6
CONTINUOUS
 10
4.2243493545
 20
3.6342803559
 11
4.5643493545
 21
3.6342803559
  0
LINE
  5
216
100
AcDbEntity
  8
0
100
AcDbLine
 62
7
  6
CONTINUOUS
 10
4.2243493545
 20
3.7747641294
 11
4.5643493545
 21
3.7747641294
  0
LINE
  5
217
100
AcDbEntity
  8
0
100
AcDbLine
 62
7
  6
CONTINUOUS
 10
4.1966372333
 20
3.8042099014
 11
4.5920614757
 21
3.8042099014
  0
LINE
  5
218
100
AcDbEntity
  8
0
100
AcDbLine
 62
7
  6
CONTINUOUS
 10
4.5908493545
 20
3.8441731366
 11
4.1978493545
 21
3.8441731366
  0
LINE
  5
219
100
AcDbEntity
  8
0
100
AcDbLine
 62
7
  6
CONTINUOUS
 10
4.5643493545
 20
3.6342803559
 11
4.5643493545
 21
3.7747641294
  0
LINE
  5
21A
100
AcDbEntity
  8
0
100
AcDbLine
 62
7
  6
CONTINUOUS
 10
4.5813493545
 20
3.8571731366
 11
4.5813493545
 21
3.8441731366
  0
LINE
  5
21B
100
AcDbEntity
  8
0
100
AcDbLine
 62
7
  6
CONTINUOUS
 10
4.6265993545
 20
3.5701731366
 11
4.6265993545
 21
3.3751731366
  0
LINE
  5
21C
100
AcDbEntity
  8
0
100
AcDbLine
 62
7
  6
CONTINUOUS
 10
4.6067779592
 20
3.5701584314
 11
4.604006217
 21
3.3751731366
  0
LINE
  5
21D
100
AcDbEntity
  8
0
100
AcDbLine
 62
7
  6
CONTINUOUS
 10
4.2073493545
 20
3.8571731366
 11
4.5813493545
 21
3.8571731366
  0
LINE
  5
21E
100
AcDbEntity
  8
0
100
AcDbLine
 62
7
  6
CONTINUOUS
 10
4.1634966126
 20
3.8696731366
 11
4.6252020963
 21
3.8696731366
  0
LINE
  5
21F
100
AcDbEntity
  8
0
100
AcDbLine
 62
7
  6
CONTINUOUS
 10
4.6736979008
 20
4.0850253491
 11
4.1150008082
 21
4.0850253491
  0
LINE
  5
220
100
AcDbEntity
  8
0
100
AcDbLine
 62
7
  6
CONTINUOUS
 10
4.8568493545
 20
4.4151731366
 11
4.8568493545
 21
4.3355643761
  0
LINE
  5
221
100
AcDbEntity
  8
0
100
AcDbLine
 62
7
  6
CONTINUOUS
 10
4.8568493545
 20
4.4151731366
 11
3.9318493545
 21
4.4151731366
  0
ARC
  5
222
100
AcDbEntity
  8
0
100
AcDbCircle
 62
7
  6
CONTINUOUS
 10
4.3943493545
 20
3.4756731366
 40
0.2325
100
AcDbArc
 50
23.9821247077
 51
43.0143561528
  0
ARC
  5
223
100
AcDbEntity
  8
0
100
AcDbCircle
 62
7
  6
CONTINUOUS
 10
4.3943493545
 20
3.4756731366
 40
0.2325
100
AcDbArc
 50
136.9856438472
 51
334.3890518307
  0
CIRCLE
  5
224
100
AcDbEntity
  8
0
100
AcDbCircle
 62
7
  6
CONTINUOUS
 10
2.8708019363
 20
3.4726731366
 40
0.157475
  0
ARC
  5
225
100
AcDbEntity
  8
0
100
AcDbCircle
 62
7
  6
CONTINUOUS
 10
6.2290993545
 20
3.4726731366
 40
0.0975
100
AcDbArc
 50
270.0
 51
90.0
  0
ARC
  5
226
100
AcDbEntity
  8
0
100
AcDbCircle
 62
7
  6
CONTINUOUS
 10
4.5938493545
 20
3.7747641294
 40
0.0295
100
AcDbArc
 50
93.4746007873
 51
180.0
  0
ARC
  5
227
100
AcDbEntity
  8
0
100
AcDbCircle
 62
7
  6
CONTINUOUS
 10
4.1948493545
 20
3.7747641294
 40
0.0295
100
AcDbArc
 50
0.0
 51
86.5253992127
  0
ARC
  5
228
100
AcDbEntity
  8
0
100
AcDbCircle
 62
7
  6
CONTINUOUS
 10
4.1978493545
 20
3.8241731366
 40
0.02
100
AcDbArc
 50
90.0
 51
266.5253992127
  0
ARC
  5
229
100
AcDbEntity
  8
0
100
AcDbCircle
 62
7
  6
CONTINUOUS
 10
4.5908493545
 20
3.8241731366
 40
0.02
100
AcDbArc
 50
273.4746007873
 51
90.0
  0
ARC
  5
22A
100
AcDbEntity
  8
0
100
AcDbCircle
 62
7
  6
CONTINUOUS
 10
4.1948493545
 20
3.8571731366
 40
0.0125
100
AcDbArc
 50
0.0
 51
90.0
  0
ARC
  5
22B
100
AcDbEntity
  8
0
100
AcDbCircle
 62
7
  6
CONTINUOUS
 10
4.5938493545
 20
3.8571731366
 40
0.0125
100
AcDbArc
 50
90.0
 51
180.0
  0
SPLINE
  5
22C
100
AcDbEntity
  8
0
100
AcDbSpline
 62
7
  6
CONTINUOUS
 70
0
 71
3
 72
11
 73
7
 74
0
 42
0.0000001
 43
0.0000001
 44
0.0000000001
 40
0.0
 40
0.0
 40
0.0
 40
0.0
 40
0.2499975449
 40
0.4999999416
 40
0.7500023568
 40
1.0
 40
1.0
 40
1.0
 40
1.0
 10
4.6252020963
 20
3.8696731366
 30
0.0
 10
4.6279332111
 20
3.8878797293
 30
0.0
 10
4.634061568
 20
3.9241968664
 30
0.0
 10
4.6452286572
 20
3.9782996964
 30
0.0
 10
4.6583457895
 20
4.0319629977
 30
0.0
 10
4.6683711353
 20
4.0674024991
 30
0.0
 10
4.6736979008
 20
4.0850253491
 30
0.0
  0
SPLINE
  5
22D
100
AcDbEntity
  8
0
100
AcDbSpline
 62
7
  6
CONTINUOUS
 70
0
 71
3
 72
20
 73
16
 74
0
 42
0.0000001
 43
0.0000001
 44
0.0000000001
 40
0.0
 40
0.0
 40
0.0
 40
0.0
 40
0.0625006925
 40
0.1250086566
 40
0.18751214
 40
0.2500153652
 40
0.3125197882
 40
0.375023802
 40
0.4375279002
 40
0.5000319922
 40
0.562536111
 40
0.6250402974
 40
0.7500255675
 40
0.8750118111
 40
1.0
 40
1.0
 40
1.0
 40
1.0
 10
4.6736979008
 20
4.0850253491
 30
0.0
 10
4.6756016746
 20
4.0913237154
 30
0.0
 10
4.6796950013
 20
4.1038368421
 30
0.0
 10
4.686667523
 20
4.1223115285
 30
0.0
 10
4.6944508456
 20
4.1404601148
 30
0.0
 10
4.7030193443
 20
4.158250737
 30
0.0
 10
4.7123465026
 20
4.1756555198
 30
0.0
 10
4.7224050983
 20
4.1926479672
 30
0.0
 10
4.7331661645
 20
4.2092042547
 30
0.0
 10
4.7446007361
 20
4.2253024586
 30
0.0
 10
4.7566793167
 20
4.2409234342
 30
0.0
 10
4.7736003179
 20
4.2610884743
 30
0.0
 10
4.7962188519
 20
4.2850248397
 30
0.0
 10
4.8254574772
 20
4.3115956297
 30
0.0
 10
4.8462040733
 20
4.3278302621
 30
0.0
 10
4.8568493545
 20
4.3355643761
 30
0.0
  0
SPLINE
  5
22E
100
AcDbEntity
  8
0
100
AcDbSpline
 62
7
  6
CONTINUOUS
 70
0
 71
3
 72
11
 73
7
 74
0
 42
0.0000001
 43
0.0000001
 44
0.0000000001
 40
0.0
 40
0.0
 40
0.0
 40
0.0
 40
0.2499975449
 40
0.4999999416
 40
0.7500023568
 40
1.0
 40
1.0
 40
1.0
 40
1.0
 10
4.1634966126
 20
3.8696731366
 30
0.0
 10
4.1607654978
 20
3.8878797293
 30
0.0
 10
4.1546371409
 20
3.9241968664
 30
0.0
 10
4.1434700518
 20
3.9782996964
 30
0.0
 10
4.1303529195
 20
4.0319629977
 30
0.0
 10
4.1203275736
 20
4.0674024991
 30
0.0
 10
4.1150008082
 20
4.0850253491
 30
0.0
  0
SPLINE
  5
22F
100
AcDbEntity
  8
0
100
AcDbSpline
 62
7
  6
CONTINUOUS
 70
0
 71
3
 72
20
 73
16
 74
0
 42
0.0000001
 43
0.0000001
 44
0.0000000001
 40
0.0
 40
0.0
 40
0.0
 40
0.0
 40
0.0625006925
 40
0.1250086566
 40
0.18751214
 40
0.2500153652
 40
0.3125197882
 40
0.375023802
 40
0.4375279002
 40
0.5000319922
 40
0.562536111
 40
0.6250402974
 40
0.7500255675
 40
0.8750118111
 40
1.0
 40
1.0
 40
1.0
 40
1.0
 10
4.1150008082
 20
4.0850253491
 30
0.0
 10
4.1130970343
 20
4.0913237154
 30
0.0
 10
4.1090037077
 20
4.1038368421
 30
0.0
 10
4.102031186
 20
4.1223115285
 30
0.0
 10
4.0942478633
 20
4.1404601148
 30
0.0
 10
4.0856793647
 20
4.158250737
 30
0.0
 10
4.0763522064
 20
4.1756555198
 30
0.0
 10
4.0662936107
 20
4.1926479672
 30
0.0
 10
4.0555325444
 20
4.2092042547
 30
0.0
 10
4.0440979729
 20
4.2253024586
 30
0.0
 10
4.0320193922
 20
4.2409234342
 30
0.0
 10
4.0150983911
 20
4.2610884743
 30
0.0
 10
3.9924798571
 20
4.2850248397
 30
0.0
 10
3.9632412317
 20
4.3115956297
 30
0.0
 10
3.9424946357
 20
4.3278302621
 30
0.0
 10
3.9318493545
 20
4.3355643761
 30
0.0
  0
SPLINE
  5
230
100
AcDbEntity
  8
0
100
AcDbSpline
 62
7
  6
CONTINUOUS
 70
0
 71
3
 72
33
 73
29
 74
0
 42
0.0000001
 43
0.0000001
 44
0.0000000001
 40
0.0
 40
0.0
 40
0.0
 40
0.0
 40
0.0585259552
 40
0.0882959091
 40
0.1184040476
 40
0.1488479672
 40
0.1796170312
 40
0.2106952968
 40
0.2420627736
 40
0.2736956401
 40
0.3055667652
 40
0.3376463362
 40
0.3699025465
 40
0.434805983
 40
0.4999999984
 40
0.5651940155
 40
0.6300974525
 40
0.6623536625
 40
0.694433233
 40
0.7263043577
 40
0.757937224
 40
0.7893047012
 40
0.8203829675
 40
0.8511520317
 40
0.8815959513
 40
0.9117040899
 40
0.9414740442
 40
1.0
 40
1.0
 40
1.0
 40
1.0
 10
4.1630993545
 20
4.3355643761
 30
0.0
 10
4.1714331154
 20
4.3396008599
 30
0.0
 10
4.1842783909
 20
4.3451443412
 30
0.0
 10
4.2018781127
 20
4.3515697866
 30
0.0
 10
4.2154733124
 20
4.355983992
 30
0.0
 10
4.2293612577
 20
4.3599788939
 30
0.0
 10
4.2435175339
 20
4.3635690885
 30
0.0
 10
4.2579166458
 20
4.3667684769
 30
0.0
 10
4.2725334604
 20
4.3695904231
 30
0.0
 10
4.2873429258
 20
4.3720479636
 30
0.0
 10
4.3023202881
 20
4.3741523666
 30
0.0
 10
4.3174409733
 20
4.3759146907
 30
0.0
 10
4.3378010618
 20
4.3778233454
 30
0.0
 10
4.3634488286
 20
4.3793893179
 30
0.0
 10
4.394349354
 20
4.3800097624
 30
0.0
 10
4.4252498794
 20
4.3793893179
 30
0.0
 10
4.4508976465
 20
4.3778233454
 30
0.0
 10
4.471257735
 20
4.3759146908
 30
0.0
 10
4.48637842
 20
4.3741523667
 30
0.0
 10
4.5013557822
 20
4.3720479638
 30
0.0
 10
4.5161652475
 20
4.3695904233
 30
0.0
 10
4.5307820623
 20
4.3667684771
 30
0.0
 10
4.5451811744
 20
4.3635690886
 30
0.0
 10
4.5593374507
 20
4.3599788941
 30
0.0
 10
4.5732253961
 20
4.3559839921
 30
0.0
 10
4.5868205959
 20
4.3515697867
 30
0.0
 10
4.6044203179
 20
4.3451443413
 30
0.0
 10
4.6172655934
 20
4.3396008599
 30
0.0
 10
4.6255993545
 20
4.3355643761
 30
0.0
  0
SPLINE
  5
231
100
AcDbEntity
  8
0
100
AcDbSpline
 62
7
  6
CONTINUOUS
 70
0
 71
3
 72
42
 73
38
 74
0
 42
0.0000001
 43
0.0000001
 44
0.0000000001
 40
0.0
 40
0.0
 40
0.0
 40
0.0
 40
0.0218465235
 40
0.0421072689
 40
0.0610208391
 40
0.0700693565
 40
0.0788996123
 40
0.0875574908
 40
0.096090628
 40
0.104548205
 40
0.1129802314
 40
0.1214361123
 40
0.1299633449
 40
0.1386074751
 40
0.1474115404
 40
0.1656447368
 40
0.184940056
 40
0.2055082004
 40
0.2275043847
 40
0.2510414783
 40
0.2761947108
 40
0.3030134724
 40
0.3315237051
 40
0.36173641
 40
0.3936477448
 40
0.427245162
 40
0.4625060144
 40
0.4994023731
 40
0.5378986966
 40
0.577956003
 40
0.6195287836
 40
0.662569093
 40
0.7070232556
 40
0.752835692
 40
0.7999440443
 40
0.8977837173
 40
1.0
 40
1.0
 40
1.0
 40
1.0
 10
3.9318493545
 20
4.3355643761
 30
0.0
 10
3.9318493545
 20
4.3374845448
 30
0.0
 10
3.9319799001
 20
4.3411879226
 30
0.0
 10
3.9326428599
 20
4.3465179047
 30
0.0
 10
3.9336086609
 20
4.3506554398
 30
0.0
 10
3.9346317445
 20
4.3537251377
 30
0.0
 10
3.9355104676
 20
4.3558875463
 30
0.0
 10
3.9365130005
 20
4.3579451978
 30
0.0
 10
3.9376400128
 20
4.3598997721
 30
0.0
 10
3.9388921444
 20
4.3617527924
 30
0.0
 10
3.940269947
 20
4.3635057542
 30
0.0
 10
3.9417737051
 20
4.3651601752
 30
0.0
 10
3.943403372
 20
4.3667177032
 30
0.0
 10
3.945158975
 20
4.3681799887
 30
0.0
 10
3.9476965574
 20
4.3700261123
 30
0.0
 10
3.9512105275
 20
4.3721049685
 30
0.0
 10
3.9558730278
 20
4.3742081324
 30
0.0
 10
3.961026353
 20
4.3759638834
 30
0.0
 10
3.9666658255
 20
4.3773832843
 30
0.0
 10
3.9727861923
 20
4.3784763388
 30
0.0
 10
3.9793812173
 20
4.379249374
 30
0.0
 10
3.9864429581
 20
4.379708051
 30
0.0
 10
3.9939623645
 20
4.3798543067
 30
0.0
 10
4.0019287429
 20
4.3796900221
 30
0.0
 10
4.0103301712
 20
4.3792132644
 30
0.0
 10
4.0191532439
 20
4.3784223126
 30
0.0
 10
4.0283831467
 20
4.3773117317
 30
0.0
 10
4.0380036239
 20
4.3758763316
 30
0.0
 10
4.0479967919
 20
4.3741075421
 30
0.0
 10
4.0583432207
 20
4.3719969763
 30
0.0
 10
4.069021621
 20
4.3695334244
 30
0.0
 10
4.0800089844
 20
4.3667058134
 30
0.0
 10
4.0912802446
 20
4.363500936
 30
0.0
 10
4.1028083882
 20
4.3599057891
 30
0.0
 10
4.1186829721
 20
4.3545048191
 30
0.0
 10
4.13896591
 20
4.3466944006
 30
0.0
 10
4.1550137158
 20
4.3394806811
 30
0.0
 10
4.1630993545
 20
4.3355643761
 30
0.0
  0
SPLINE
  5
232
100
AcDbEntity
  8
0
100
AcDbSpline
 62
7
  6
CONTINUOUS
 70
0
 71
3
 72
9
 73
5
 74
0
 42
0.0000001
 43
0.0000001
 44
0.0000000001
 40
0.0
 40
0.0
 40
0.0
 40
0.0
 40
0.5030154072
 40
1.0
 40
1.0
 40
1.0
 40
1.0
 10
4.5097757254
 20
3.8696731366
 30
0.0
 10
4.512493946
 20
3.9059144076
 30
0.0
 10
4.5192296163
 20
3.9778690144
 30
0.0
 10
4.5286578018
 20
4.0495211976
 30
0.0
 10
4.5340236276
 20
4.0850253491
 30
0.0
  0
SPLINE
  5
233
100
AcDbEntity
  8
0
100
AcDbSpline
 62
7
  6
CONTINUOUS
 70
0
 71
3
 72
19
 73
15
 74
0
 42
0.0000001
 43
0.0000001
 44
0.0000000001
 40
0.0
 40
0.0
 40
0.0
 40
0.0
 40
0.1405688161
 40
0.2775749252
 40
0.4104215591
 40
0.5386319633
 40
0.6008913376
 40
0.6618712668
 40
0.7215474016
 40
0.7799023213
 40
0.8369245942
 40
0.8926132982
 40
0.9469717574
 40
1.0
 40
1.0
 40
1.0
 40
1.0
 10
4.5340236276
 20
4.0850253491
 30
0.0
 10
4.5359067328
 20
4.0974853228
 30
0.0
 10
4.5402122425
 20
4.1220053328
 30
0.0
 10
4.5483574715
 20
4.1579003522
 30
0.0
 10
4.558017271
 20
4.1922691476
 30
0.0
 10
4.5673265946
 20
4.219733937
 30
0.0
 10
4.575449972
 20
4.2407635485
 30
0.0
 10
4.5817904261
 20
4.2558883379
 30
0.0
 10
4.5884232456
 20
4.2705036428
 30
0.0
 10
4.5953336627
 20
4.2845957775
 30
0.0
 10
4.6025072353
 20
4.2981527321
 30
0.0
 10
4.6099297801
 20
4.3111642586
 30
0.0
 10
4.6175869933
 20
4.3236205748
 30
0.0
 10
4.6229043297
 20
4.3316483446
 30
0.0
 10
4.6255993545
 20
4.3355643761
 30
0.0
  0
SPLINE
  5
234
100
AcDbEntity
  8
0
100
AcDbSpline
 62
7
  6
CONTINUOUS
 70
0
 71
3
 72
19
 73
15
 74
0
 42
0.0000001
 43
0.0000001
 44
0.0000000001
 40
0.0
 40
0.0
 40
0.0
 40
0.0
 40
0.0530282426
 40
0.1073867018
 40
0.1630754058
 40
0.2200976787
 40
0.2784525984
 40
0.3381287332
 40
0.3991086624
 40
0.4613680367
 40
0.5895784409
 40
0.7224250748
 40
0.8594311839
 40
1.0
 40
1.0
 40
1.0
 40
1.0
 10
4.1630993545
 20
4.3355643761
 30
0.0
 10
4.1657943792
 20
4.3316483446
 30
0.0
 10
4.1711117157
 20
4.3236205748
 30
0.0
 10
4.1787689288
 20
4.3111642586
 30
0.0
 10
4.1861914737
 20
4.2981527321
 30
0.0
 10
4.1933650463
 20
4.2845957775
 30
0.0
 10
4.2002754633
 20
4.2705036428
 30
0.0
 10
4.2069082828
 20
4.2558883379
 30
0.0
 10
4.2132487369
 20
4.2407635485
 30
0.0
 10
4.2213721144
 20
4.219733937
 30
0.0
 10
4.2306814379
 20
4.1922691476
 30
0.0
 10
4.2403412374
 20
4.1579003522
 30
0.0
 10
4.2484864665
 20
4.1220053328
 30
0.0
 10
4.2527919762
 20
4.0974853228
 30
0.0
 10
4.2546750813
 20
4.0850253491
 30
0.0
  0
SPLINE
  5
235
100
AcDbEntity
  8
0
100
AcDbSpline
 62
7
  6
CONTINUOUS
 70
0
 71
3
 72
9
 73
5
 74
0
 42
0.0000001
 43
0.0000001
 44
0.0000000001
 40
0.0
 40
0.0
 40
0.0
 40
0.0
 40
0.5030154072
 40
1.0
 40
1.0
 40
1.0
 40
1.0
 10
4.2789229836
 20
3.8696731366
 30
0.0
 10
4.2762047629
 20
3.9059144076
 30
0.0
 10
4.2694690927
 20
3.9778690144
 30
0.0
 10
4.2600409072
 20
4.0495211976
 30
0.0
 10
4.2546750813
 20
4.0850253491
 30
0.0
  0
SPLINE
  5
236
100
AcDbEntity
  8
0
100
AcDbSpline
 62
7
  6
CONTINUOUS
 70
0
 71
3
 72
42
 73
38
 74
0
 42
0.0000001
 43
0.0000001
 44
0.0000000001
 40
0.0
 40
0.0
 40
0.0
 40
0.0
 40
0.1022162826
 40
0.2000559555
 40
0.2471643077
 40
0.2929767441
 40
0.3374309066
 40
0.380471216
 40
0.4220439966
 40
0.462101303
 40
0.5005976265
 40
0.5374939853
 40
0.5727548377
 40
0.606352255
 40
0.6382635898
 40
0.6684762947
 40
0.6969865273
 40
0.7238052888
 40
0.7489585211
 40
0.7724956147
 40
0.7944917989
 40
0.8150599435
 40
0.8343552628
 40
0.8525884593
 40
0.8613925246
 40
0.8700366548
 40
0.8785638875
 40
0.8870197684
 40
0.8954517947
 40
0.9039093717
 40
0.9124425089
 40
0.9211003874
 40
0.9299306432
 40
0.9389791607
 40
0.957892731
 40
0.9781534765
 40
1.0
 40
1.0
 40
1.0
 40
1.0
 10
4.6255993545
 20
4.3355643761
 30
0.0
 10
4.6336849932
 20
4.3394806811
 30
0.0
 10
4.6497327989
 20
4.3466944006
 30
0.0
 10
4.6700157369
 20
4.3545048191
 30
0.0
 10
4.6858903207
 20
4.359905789
 30
0.0
 10
4.6974184643
 20
4.3635009359
 30
0.0
 10
4.7086897245
 20
4.3667058134
 30
0.0
 10
4.7196770879
 20
4.3695334244
 30
0.0
 10
4.7303554881
 20
4.3719969763
 30
0.0
 10
4.740701917
 20
4.374107542
 30
0.0
 10
4.7506950849
 20
4.3758763316
 30
0.0
 10
4.7603155622
 20
4.3773117317
 30
0.0
 10
4.769545465
 20
4.3784223126
 30
0.0
 10
4.7783685377
 20
4.3792132644
 30
0.0
 10
4.786769966
 20
4.3796900221
 30
0.0
 10
4.7947363444
 20
4.3798543067
 30
0.0
 10
4.8022557508
 20
4.379708051
 30
0.0
 10
4.8093174916
 20
4.3792493741
 30
0.0
 10
4.8159125165
 20
4.3784763388
 30
0.0
 10
4.8220328832
 20
4.3773832843
 30
0.0
 10
4.8276723558
 20
4.3759638834
 30
0.0
 10
4.832825681
 20
4.3742081325
 30
0.0
 10
4.8374881813
 20
4.3721049686
 30
0.0
 10
4.8410021515
 20
4.3700261124
 30
0.0
 10
4.8435397339
 20
4.3681799887
 30
0.0
 10
4.8452953369
 20
4.3667177032
 30
0.0
 10
4.8469250038
 20
4.3651601753
 30
0.0
 10
4.8484287619
 20
4.3635057542
 30
0.0
 10
4.8498065645
 20
4.3617527925
 30
0.0
 10
4.8510586961
 20
4.3598997722
 30
0.0
 10
4.8521857084
 20
4.3579451979
 30
0.0
 10
4.8531882413
 20
4.3558875464
 30
0.0
 10
4.8540669645
 20
4.3537251377
 30
0.0
 10
4.855090048
 20
4.3506554398
 30
0.0
 10
4.8560558491
 20
4.3465179047
 30
0.0
 10
4.8567188088
 20
4.3411879226
 30
0.0
 10
4.8568493545
 20
4.3374845448
 30
0.0
 10
4.8568493545
 20
4.3355643761
 30
0.0
  0
ENDSEC
  0
SECTION
  2
OBJECTS
  0
DICTIONARY
  5
C
100
AcDbDictionary
280
0
281
1
  3
ACAD_GROUP
350
D
  3
ACAD_MLINESTYLE
350
17
  3
ACAD_LAYOUT
350
1A
  3
ACAD_PLOTSETTINGS
350
19
  3
ACAD_PLOTSTYLENAME
350
E
  0
DICTIONARY
  5
D
102
{ACAD_REACTORS
330
C
102
}
100
AcDbDictionary
280
0
281
1
  0
ACDBDICTIONARYWDFLT
  5
E
102
{ACAD_REACTORS
330
C
102
}
100
AcDbDictionary
281
1
  3
Normal
350
F
100
AcDbDictionaryWithDefault
340
F
  0
DICTIONARY
  5
17
102
{ACAD_REACTORS
330
C
102
}
100
AcDbDictionary
280
0
281
1
  3
Standard
350
18
  0
DICTIONARY
  5
19
102
{ACAD_REACTORS
330
C
102
}
100
AcDbDictionary
281
1
  0
DICTIONARY
  5
1A
102
{ACAD_REACTORS
330
C
102
}
100
AcDbDictionary
281
1
  3
Model
350
237
  3
Layout1
350
238
  0
ACDBPLACEHOLDER
  5
F
102
{ACAD_REACTORS
330
E
102
}
  0
MLINESTYLE
  5
18
102
{ACAD_REACTORS
330
17
102
}
100
AcDbMlineStyle
  2
STANDARD
 70
0
  3

 62
256
 51
90.0
 52
90.0
 71
2
 49
0.5
 62
256
  6
BYLAYER
 49
-0.5
 62
256
  6
BYLAYER
  0
LAYOUT
  5
237
102
{ACAD_REACTORS
330
1A
102
}
100
AcDbPlotSettings
  1

  2
none_device
  4
ANSI_A_(11.00_x_8.50_Inches)
  6

 40
0.0
 41
0.0
 42
0.0
 43
0.0
 44
279.4
 45
215.9
 46
0.0
 47
0.0
 48
0.0
 49
0.0
140
0.0
141
0.0
142
1.0
143
1.0
 70
1024
 72
0
 73
0
 74
0
  7

 75
0
147
1.0
148
0.0
149
0.0
100
AcDbLayout
  1
Model
 70
0
 71
0
 10
0.0
 20
0.0
 11
11.0
 21
8.5
 12
0.0
 22
0.0
 32
0.0
 14
0.0
 24
0.0
 34
0.0
 15
0.0
 25
0.0
 35
0.0
146
0.0
 13
0.0
 23
0.0
 33
0.0
 16
1.0
 26
0.0
 36
0.0
 17
0.0
 27
1.0
 37
0.0
 76
0
330
202
345
0
346
0
  0
LAYOUT
  5
238
102
{ACAD_REACTORS
330
1A
102
}
100
AcDbPlotSettings
  1

  2
none_device
  4
ANSI_A_(11.00_x_8.50_Inches)
  6

 40
0.0
 41
0.0
 42
0.0
 43
0.0
 44
279.4
 45
215.9
 46
0.0
 47
0.0
 48
0.0
 49
0.0
140
0.0
141
0.0
142
1.0
143
1.0
 70
0
 72
0
 73
0
 74
0
  7

 75
0
147
1.0
148
0.0
149
0.0
100
AcDbLayout
  1
Layout1
 70
0
 71
1
 10
0.0
 20
0.0
 11
11.0
 21
8.5
 12
0.0
 22
0.0
 32
0.0
 14
0.0
 24
0.0
 34
0.0
 15
0.0
 25
0.0
 35
0.0
146
0.0
 13
0.0
 23
0.0
 33
0.0
 16
1.0
 26
0.0
 36
0.0
 17
0.0
 27
1.0
 37
0.0
 76
0
330
203
345
0
346
0
  0
ENDSEC
  0
EOF
