999
DXF file: E:\BT Custom\CADOUTPUT\_TOP.dxf
999
Pro/ENGINEER 2018400 by Parametric Technology Corporation
  0
SECTION
  2
HEADER
  9
$ACADVER
  1
AC1018
  9
$DWGCODEPAGE
  3
ANSI_1252
  9
$EXTMAX
 10
22.0
 20
17.0
 30
0.0
  9
$EXTMIN
 10
0.0
 20
0.0
 30
0.0
  9
$LIMMIN
 10
0.0
 20
0.0
  9
$LIMMAX
 10
22.0
 20
17.0
  9
$VIEWCTR
 10
11.0
 20
8.5
  9
$VIEWSIZE
 40
17.0
  9
$CLAYER
  8
0
  9
$LTSCALE
 40
1.21
  9
$CELTYPE
  6
BYLAYER
  9
$DIMSCALE
 40
1.0
  9
$DIMASZ
 40
0.1
  9
$DIMEXO
 40
0.0625
  9
$DIMDLI
 40
0.836
  9
$DIMEXE
 40
0.125
  9
$DIMCEN
 40
0.198
  9
$DIMLFAC
 40
1.0
  9
$DIMBLK
  1
_FILLED
  9
$DIMALT
 70
1
  9
$DIMALTD
 70
2
  9
$DIMALTTD
 70
2
  9
$DIMALTF
 40
25.4
  9
$DIMTXT
 40
0.08
  9
$DIMTOL
 70
1
  9
$DIMLIM
 70
0
  9
$DIMTFAC
 40
1.0
  9
$DIMTP
 40
0.001
  9
$DIMTM
 40
0.001
  9
$DIMGAP
 40
0.09
  9
$DIMDSEP
 70
46
  9
$AUNITS
 70
0
  9
$PDMODE
 70
3
  9
$PDSIZE
 40
0.06
  9
$HANDSEED
  5
22E
  9
$TILEMODE
 70
1
  9
$MEASUREMENT
 70
0
  9
$INSUNITS
 70
1
  0
ENDSEC
  0
SECTION
  2
CLASSES
  0
CLASS
  1
ACDBDICTIONARYWDFLT
  2
AcDbDictionaryWithDefault
  3
AutoCAD 2000
 90
0
 91
1
280
0
281
0
  0
CLASS
  1
ACDBPLACEHOLDER
  2
AcDbPlaceHolder
  3
AutoCAD 2000
 90
0
 91
1
280
0
281
0
  0
CLASS
  1
LAYOUT
  2
AcDbLayout
  3
AutoCAD 2000
 90
0
 91
0
280
0
281
0
  0
ENDSEC
  0
SECTION
  2
TABLES
  0
TABLE
  2
VPORT
  5
8
100
AcDbSymbolTable
 70
2
  0
VPORT
  5
1F4
100
AcDbSymbolTableRecord
100
AcDbViewportTableRecord
  2
*ACTIVE
 70
0
 10
0.0
 20
0.0
 11
1.0
 21
1.0
 12
11.0
 22
8.5
 13
0.0
 23
0.0
 14
1.0
 24
1.0
 15
0.0
 25
0.0
 16
0.0
 26
0.0
 36
1.0
 17
0.0
 27
0.0
 37
0.0
 40
17.0
 41
1.2941176471
 42
50.0
 43
0.0
 44
0.0
 50
0.0
 51
0.0
 71
0
 72
100
 73
1
 74
1
 75
0
 76
0
 77
0
 78
0
  0
ENDTAB
  0
TABLE
  2
LTYPE
  5
5
100
AcDbSymbolTable
 70
6
  0
LTYPE
  5
14
100
AcDbSymbolTableRecord
100
AcDbLinetypeTableRecord
  2
BYBLOCK
 70
0
  3

 72
65
 73
0
 40
0.0
  0
LTYPE
  5
15
100
AcDbSymbolTableRecord
100
AcDbLinetypeTableRecord
  2
BYLAYER
 70
0
  3

 72
65
 73
0
 40
0.0
  0
LTYPE
  5
16
100
AcDbSymbolTableRecord
100
AcDbLinetypeTableRecord
  2
CONTINUOUS
 70
64
  3
Solid line
 72
65
 73
0
 40
0.0
  0
LTYPE
  5
1F5
100
AcDbSymbolTableRecord
100
AcDbLinetypeTableRecord
  2
CENTER
 70
64
  3
____ _ ____ _ ____ _ ____ _ ____ _ ____ _ ____
 72
65
 73
4
 40
0.6
 49
0.375
 74
0
 49
-0.075
 74
0
 49
0.075
 74
0
 49
-0.075
 74
0
  0
LTYPE
  5
1F6
100
AcDbSymbolTableRecord
100
AcDbLinetypeTableRecord
  2
HIDDEN
 70
64
  3
- - - - - - - - - - - - - - - - - - - -
 72
65
 73
2
 40
0.2
 49
0.1
 74
0
 49
-0.1
 74
0
  0
LTYPE
  5
1F7
100
AcDbSymbolTableRecord
100
AcDbLinetypeTableRecord
  2
PHANTOM
 70
64
  3
_____ _ _ _____ _ _ _____ _ _ _____
 72
65
 73
6
 40
0.8
 49
0.45
 74
0
 49
-0.05
 74
0
 49
0.1
 74
0
 49
-0.05
 74
0
 49
0.1
 74
0
 49
-0.05
 74
0
  0
LTYPE
  5
1F8
100
AcDbSymbolTableRecord
100
AcDbLinetypeTableRecord
  2
DOT
 70
64
  3
. . . . . . . . . . . . . . . . . . . .
 72
65
 73
2
 40
0.2
 49
0.1
 74
0
 49
-0.1
 74
0
  0
LTYPE
  5
1F9
100
AcDbSymbolTableRecord
100
AcDbLinetypeTableRecord
  2
DASHED
 70
64
  3
- - - - - - - - - - - - - - - - - - - -
 72
65
 73
2
 40
0.2
 49
0.1
 74
0
 49
-0.1
 74
0
  0
ENDTAB
  0
TABLE
  2
LAYER
  5
2
100
AcDbSymbolTable
 70
36
  0
LAYER
  5
10
100
AcDbSymbolTableRecord
100
AcDbLayerTableRecord
  2
0
 70
0
 62
7
  6
CONTINUOUS
370
-3
390
F
  0
LAYER
  5
1FA
100
AcDbSymbolTableRecord
100
AcDbLayerTableRecord
  2
DEFAULT_1
 70
0
 62
7
  6
CENTER
370
-3
390
F
  0
LAYER
  5
1FB
100
AcDbSymbolTableRecord
100
AcDbLayerTableRecord
  2
DEFAULT_2
 70
0
 62
8
  6
HIDDEN
370
-3
390
F
  0
LAYER
  5
1FC
100
AcDbSymbolTableRecord
100
AcDbLayerTableRecord
  2
DEFAULT_3
 70
0
 62
7
  6
PHANTOM
370
-3
390
F
  0
LAYER
  5
1FD
100
AcDbSymbolTableRecord
100
AcDbLayerTableRecord
  2
ALL_FEATURES
 70
0
 62
7
  6
CONTINUOUS
370
-3
390
F
  0
LAYER
  5
1FE
100
AcDbSymbolTableRecord
100
AcDbLayerTableRecord
  2
AXES_FEATURES
 70
0
 62
7
  6
CONTINUOUS
370
-3
390
F
  0
LAYER
  5
1FF
100
AcDbSymbolTableRecord
100
AcDbLayerTableRecord
  2
DEFAULT_COORDINATE_SYSTEM
 70
0
 62
7
  6
CONTINUOUS
370
-3
390
F
  0
LAYER
  5
200
100
AcDbSymbolTableRecord
100
AcDbLayerTableRecord
  2
DEFAULT_DATUM_AXES
 70
0
 62
7
  6
CONTINUOUS
370
-3
390
F
  0
LAYER
  5
201
100
AcDbSymbolTableRecord
100
AcDbLayerTableRecord
  2
DEFAULT_DATUM_PLANES
 70
0
 62
7
  6
CONTINUOUS
370
-3
390
F
  0
LAYER
  5
202
100
AcDbSymbolTableRecord
100
AcDbLayerTableRecord
  2
DIMENSIONS
 70
0
 62
7
  6
CONTINUOUS
370
-3
390
F
  0
ENDTAB
  0
TABLE
  2
STYLE
  5
3
100
AcDbSymbolTable
 70
1
  0
STYLE
  5
11
100
AcDbSymbolTableRecord
100
AcDbTextStyleTableRecord
  2
STANDARD
 70
0
 40
0.0
 41
0.8
 50
0.0
 71
0
 42
0.2
  3
txt
  4

  0
STYLE
  5
203
100
AcDbSymbolTableRecord
100
AcDbTextStyleTableRecord
  2
TEXTSTYLE_1
 70
0
 40
0.0
 41
0.8
 50
0.0
 71
0
 42
0.2
  3
gdt
  4

  0
ENDTAB
  0
TABLE
  2
VIEW
  5
6
100
AcDbSymbolTable
 70
0
  0
ENDTAB
  0
TABLE
  2
UCS
  5
7
100
AcDbSymbolTable
 70
0
  0
ENDTAB
  0
TABLE
  2
APPID
  5
9
100
AcDbSymbolTable
 70
1
  0
APPID
  5
204
100
AcDbSymbolTableRecord
100
AcDbRegAppTableRecord
  2
ACAD
 70
0
  0
ENDTAB
  0
TABLE
  2
BLOCK_RECORD
  5
1
100
AcDbSymbolTable
 70
0
  0
BLOCK_RECORD
  5
205
100
AcDbSymbolTableRecord
100
AcDbBlockTableRecord
  2
*Model_Space
  0
BLOCK_RECORD
  5
206
100
AcDbSymbolTableRecord
100
AcDbBlockTableRecord
  2
*Paper_Space
  0
BLOCK_RECORD
  5
207
100
AcDbSymbolTableRecord
100
AcDbBlockTableRecord
  2
_FILLED
  0
ENDTAB
  0
TABLE
  2
DIMSTYLE
  5
A
100
AcDbSymbolTable
 70
1
100
AcDbDimStyleTable
 71
0
  0
DIMSTYLE
105
208
100
AcDbSymbolTableRecord
100
AcDbDimStyleTableRecord
  2
STANDARD
 70
0
  3

  4

 40
1.0
 41
0.1
 42
0.0625
 43
0.38
 44
0.125
 45
0.0
 46
0.0
 47
0.001
 48
0.001
140
0.08
141
0.09
142
0.0
143
25.4
144
1.0
145
0.0
146
1.0
147
0.09
 71
1.0
 72
0.0
 73
1
 74
1
 75
0
 76
0
 77
0
 78
4
 79
1
170
1
171
2
172
0
173
0
174
0
175
0
176
0
177
0
178
0
270
2
179
3
271
3
272
3
273
2
274
2
275
0
280
0
281
0
282
0
283
1
284
4
285
0
286
0
287
3
288
0
340
11
278
46
341
207
342
207
343
207
344
207
  0
ENDTAB
  0
ENDSEC
  0
SECTION
  2
BLOCKS
  0
BLOCK
  5
20
100
AcDbEntity
  8
0
100
AcDbBlockBegin
  2
*Model_Space
 70
0
 10
0.0
 20
0.0
 30
0.0
  3
*Model_Space
  1

  0
ENDBLK
  5
21
100
AcDbEntity
  8
0
100
AcDbBlockEnd
  0
BLOCK
  5
1C
100
AcDbEntity
  8
0
100
AcDbBlockBegin
  2
*Paper_Space
 70
0
 10
0.0
 20
0.0
 30
0.0
  3
*Paper_Space
  1

  0
ENDBLK
  5
1D
100
AcDbEntity
  8
0
100
AcDbBlockEnd
  0
BLOCK
  5
209
100
AcDbEntity
  8
0
100
AcDbBlockBegin
  2
_FILLED
 70
64
 10
0.0
 20
0.0
  3
_FILLED
  1

  0
SOLID
  5
20A
100
AcDbEntity
  8
0
  6
BYBLOCK
 62
0
100
AcDbTrace
 10
0.0
 20
0.0
 11
-1.0
 21
0.2
 12
-1.0
 22
-0.2
 13
-1.0
 23
-0.2
  0
ENDBLK
  5
20B
100
AcDbEntity
  8
0
  6
BYBLOCK
 62
0
100
AcDbBlockEnd
  0
ENDSEC
  0
SECTION
  2
ENTITIES
  0
LINE
  5
20C
100
AcDbEntity
  8
0
100
AcDbLine
 62
7
  6
CONTINUOUS
 10
10.1223183383
 20
8.5573318604
 11
10.1223183383
 21
8.3981143394
  0
LINE
  5
20D
100
AcDbEntity
  8
0
100
AcDbLine
 62
7
  6
CONTINUOUS
 10
10.6733183383
 20
7.4413318604
 11
10.6733183383
 21
7.4153318604
  0
LINE
  5
20E
100
AcDbEntity
  8
0
100
AcDbLine
 62
7
  6
CONTINUOUS
 10
10.7073183383
 20
7.1895462989
 11
10.7073183383
 21
7.2663571161
  0
LINE
  5
20F
100
AcDbEntity
  8
0
100
AcDbLine
 62
7
  6
CONTINUOUS
 10
10.7073183383
 20
7.1895462989
 11
11.3873183383
 21
7.1895462989
  0
LINE
  5
210
100
AcDbEntity
  8
0
100
AcDbLine
 62
9
  6
CONTINUOUS
 10
10.7073183383
 20
7.2663571161
 11
11.3873183383
 21
7.2663571161
  0
LINE
  5
211
100
AcDbEntity
  8
0
100
AcDbLine
 62
9
  6
CONTINUOUS
 10
11.4211365201
 20
7.3203433403
 11
10.6735001565
 21
7.3203433403
  0
LINE
  5
212
100
AcDbEntity
  8
0
100
AcDbLine
 62
7
  6
CONTINUOUS
 10
10.6733183383
 20
7.4153318604
 11
11.4213183383
 21
7.4153318604
  0
LINE
  5
213
100
AcDbEntity
  8
0
100
AcDbLine
 62
9
  6
CONTINUOUS
 10
10.6733183383
 20
7.4413318604
 11
11.4213183383
 21
7.4413318604
  0
LINE
  5
214
100
AcDbEntity
  8
0
100
AcDbLine
 62
7
  6
CONTINUOUS
 10
10.5856128546
 20
7.4663318604
 11
11.509023822
 21
7.4663318604
  0
LINE
  5
215
100
AcDbEntity
  8
0
100
AcDbLine
 62
7
  6
CONTINUOUS
 10
11.3873183383
 20
7.1895462989
 11
11.3873183383
 21
7.2663571161
  0
LINE
  5
216
100
AcDbEntity
  8
0
100
AcDbLine
 62
7
  6
CONTINUOUS
 10
11.4213183383
 20
7.4413318604
 11
11.4213183383
 21
7.4153318604
  0
LINE
  5
217
100
AcDbEntity
  8
0
100
AcDbLine
 62
9
  6
CONTINUOUS
 10
11.6060154309
 20
7.8970362853
 11
10.4886212456
 21
7.8970362853
  0
LINE
  5
218
100
AcDbEntity
  8
0
100
AcDbLine
 62
7
  6
CONTINUOUS
 10
11.9723183383
 20
8.5573318604
 11
11.9723183383
 21
8.3981143394
  0
LINE
  5
219
100
AcDbEntity
  8
0
100
AcDbLine
 62
7
  6
CONTINUOUS
 10
11.9723183383
 20
8.5573318604
 11
10.1223183383
 21
8.5573318604
  0
ARC
  5
21A
100
AcDbEntity
  8
0
100
AcDbCircle
 62
7
  6
CONTINUOUS
 10
5.0584907701
 20
7.0360865733
 40
5.7740267672
100
AcDbArc
 50
4.2732930106
 51
8.5751985542
  0
ARC
  5
21B
100
AcDbEntity
  8
0
100
AcDbCircle
 62
7
  6
CONTINUOUS
 10
17.0361459065
 20
7.0360865733
 40
5.7740267672
100
AcDbArc
 50
171.4248014458
 51
175.7267069894
  0
ARC
  5
21C
100
AcDbEntity
  8
0
100
AcDbCircle
 62
7
  6
CONTINUOUS
 10
14.5293025885
 20
7.0123927985
 40
3.0542056075
100
AcDbArc
 50
163.163165175
 51
171.4525885655
  0
ARC
  5
21D
100
AcDbEntity
  8
0
100
AcDbCircle
 62
7
  6
CONTINUOUS
 10
7.5653340881
 20
7.0123927985
 40
3.0542056075
100
AcDbArc
 50
8.5474114344
 51
16.8368348251
  0
ARC
  5
21E
100
AcDbEntity
  8
0
100
AcDbCircle
 62
7
  6
CONTINUOUS
 10
11.0473183383
 20
6.8723318604
 40
0.465
100
AcDbArc
 50
136.9856438472
 51
43.0143561528
  0
ARC
  5
21F
100
AcDbEntity
  8
0
100
AcDbCircle
 62
7
  6
CONTINUOUS
 10
10.6473183383
 20
7.2663571161
 40
0.06
100
AcDbArc
 50
0.0
 51
64.1279040443
  0
ARC
  5
220
100
AcDbEntity
  8
0
100
AcDbCircle
 62
7
  6
CONTINUOUS
 10
11.4473183383
 20
7.2663571161
 40
0.06
100
AcDbArc
 50
115.8720959557
 51
180.0
  0
ARC
  5
221
100
AcDbEntity
  8
0
100
AcDbCircle
 62
7
  6
CONTINUOUS
 10
11.3993183383
 20
7.3653318604
 40
0.05
100
AcDbArc
 50
295.8720959557
 51
90.0
  0
ARC
  5
222
100
AcDbEntity
  8
0
100
AcDbCircle
 62
7
  6
CONTINUOUS
 10
10.6953183383
 20
7.3653318604
 40
0.05
100
AcDbArc
 50
90.0
 51
244.1279040443
  0
ARC
  5
223
100
AcDbEntity
  8
0
100
AcDbCircle
 62
7
  6
CONTINUOUS
 10
10.6483183383
 20
7.4413318604
 40
0.025
100
AcDbArc
 50
0.0
 51
90.0
  0
ARC
  5
224
100
AcDbEntity
  8
0
100
AcDbCircle
 62
7
  6
CONTINUOUS
 10
11.4463183383
 20
7.4413318604
 40
0.025
100
AcDbArc
 50
90.0
 51
180.0
  0
SPLINE
  5
225
100
AcDbEntity
  8
0
100
AcDbSpline
 62
7
  6
CONTINUOUS
 70
0
 71
3
 72
18
 73
14
 74
0
 42
0.0000001
 43
0.0000001
 44
0.0000000001
 40
0.0
 40
0.0
 40
0.0
 40
0.0
 40
0.1249844417
 40
0.1874956171
 40
0.2500023328
 40
0.3749895333
 40
0.4999792737
 40
0.56248765
 40
0.6249957462
 40
0.687503697
 40
0.7500094811
 40
0.87500827
 40
1.0
 40
1.0
 40
1.0
 40
1.0
 10
11.6060154309
 20
7.8970362853
 30
0.0
 10
11.6136290159
 20
7.9222247542
 30
0.0
 10
11.6267704365
 20
7.9595216553
 30
0.0
 10
11.6475217165
 20
8.0079061116
 30
0.0
 10
11.6703675065
 20
8.0553424026
 30
0.0
 10
11.7027277414
 20
8.1127203345
 30
0.0
 10
11.7397742967
 20
8.1671839567
 30
0.0
 10
11.7719785851
 20
8.2088330189
 30
0.0
 10
11.7973643897
 20
8.2390846583
 30
0.0
 10
11.8239179219
 20
8.2683152034
 30
0.0
 10
11.8607986724
 20
8.3058872312
 30
0.0
 10
11.9095368141
 20
8.3501786188
 30
0.0
 10
11.9510285095
 20
8.3826466444
 30
0.0
 10
11.9723183383
 20
8.3981143394
 30
0.0
  0
SPLINE
  5
226
100
AcDbEntity
  8
0
100
AcDbSpline
 62
7
  6
CONTINUOUS
 70
0
 71
3
 72
18
 73
14
 74
0
 42
0.0000001
 43
0.0000001
 44
0.0000000001
 40
0.0
 40
0.0
 40
0.0
 40
0.0
 40
0.1249844417
 40
0.1874956171
 40
0.2500023328
 40
0.3749895333
 40
0.4999792737
 40
0.56248765
 40
0.6249957462
 40
0.687503697
 40
0.7500094811
 40
0.87500827
 40
1.0
 40
1.0
 40
1.0
 40
1.0
 10
10.4886212456
 20
7.8970362853
 30
0.0
 10
10.4810076606
 20
7.9222247542
 30
0.0
 10
10.4678662401
 20
7.9595216553
 30
0.0
 10
10.4471149601
 20
8.0079061116
 30
0.0
 10
10.4242691701
 20
8.0553424026
 30
0.0
 10
10.3919089352
 20
8.1127203345
 30
0.0
 10
10.3548623798
 20
8.1671839567
 30
0.0
 10
10.3226580914
 20
8.2088330189
 30
0.0
 10
10.2972722869
 20
8.2390846583
 30
0.0
 10
10.2707187546
 20
8.2683152034
 30
0.0
 10
10.2338380042
 20
8.3058872312
 30
0.0
 10
10.1850998625
 20
8.3501786188
 30
0.0
 10
10.1436081671
 20
8.3826466444
 30
0.0
 10
10.1223183383
 20
8.3981143394
 30
0.0
  0
SPLINE
  5
227
100
AcDbEntity
  8
0
100
AcDbSpline
 62
7
  6
CONTINUOUS
 70
0
 71
3
 72
15
 73
11
 74
0
 42
0.0000001
 43
0.0000001
 44
0.0000000001
 40
0.0
 40
0.0
 40
0.0
 40
0.0
 40
0.1073736045
 40
0.2200805333
 40
0.3381025401
 40
0.4613363405
 40
0.5895540893
 40
0.7224069313
 40
0.8594243425
 40
1.0
 40
1.0
 40
1.0
 40
1.0
 10
10.5848183383
 20
8.3981143394
 30
0.0
 10
10.5957317133
 20
8.3822565551
 30
0.0
 10
10.6169400581
 20
8.3489418488
 30
0.0
 10
10.6460988317
 20
8.2957566307
 30
0.0
 10
10.6731475677
 20
8.2383081482
 30
0.0
 10
10.6978533995
 20
8.1768098559
 30
0.0
 10
10.7199817998
 20
8.1115256906
 30
0.0
 10
10.7393021775
 20
8.0427867545
 30
0.0
 10
10.7555923689
 20
7.9709966264
 30
0.0
 10
10.7642036063
 20
7.9219560701
 30
0.0
 10
10.767969792
 20
7.8970362853
 30
0.0
  0
SPLINE
  5
228
100
AcDbEntity
  8
0
100
AcDbSpline
 62
7
  6
CONTINUOUS
 70
0
 71
3
 72
15
 73
11
 74
0
 42
0.0000001
 43
0.0000001
 44
0.0000000001
 40
0.0
 40
0.0
 40
0.0
 40
0.0
 40
0.1405756575
 40
0.2775930687
 40
0.4104459107
 40
0.5386636595
 40
0.6618974599
 40
0.7799194667
 40
0.8926263955
 40
1.0
 40
1.0
 40
1.0
 40
1.0
 10
11.3266668846
 20
7.8970362853
 30
0.0
 10
11.3304330703
 20
7.9219560701
 30
0.0
 10
11.3390443077
 20
7.9709966264
 30
0.0
 10
11.355334499
 20
8.0427867545
 30
0.0
 10
11.3746548768
 20
8.1115256906
 30
0.0
 10
11.3967832771
 20
8.1768098559
 30
0.0
 10
11.4214891089
 20
8.2383081482
 30
0.0
 10
11.4485378449
 20
8.2957566307
 30
0.0
 10
11.4776966184
 20
8.3489418488
 30
0.0
 10
11.4989049633
 20
8.3822565551
 30
0.0
 10
11.5098183383
 20
8.3981143394
 30
0.0
  0
SPLINE
  5
229
100
AcDbEntity
  8
0
100
AcDbSpline
 62
7
  6
CONTINUOUS
 70
0
 71
3
 72
39
 73
35
 74
0
 42
0.0000001
 43
0.0000001
 44
0.0000000001
 40
0.0
 40
0.0
 40
0.0
 40
0.0
 40
0.1022139074
 40
0.2000641011
 40
0.2471727754
 40
0.2929840725
 40
0.3804754513
 40
0.4621004817
 40
0.5005979244
 40
0.5374943955
 40
0.5727568763
 40
0.6063545668
 40
0.6382666221
 40
0.66848036
 40
0.6969908581
 40
0.7238101643
 40
0.7489646095
 40
0.7725012829
 40
0.7944988631
 40
0.8150671417
 40
0.8343626309
 40
0.8525970053
 40
0.8700361474
 40
0.878563399
 40
0.8870195137
 40
0.8954520924
 40
0.9039098391
 40
0.9124424408
 40
0.9210998744
 40
0.9389708475
 40
0.9578881032
 40
0.9678381216
 40
0.9781561938
 40
1.0
 40
1.0
 40
1.0
 40
1.0
 10
11.5098183383
 20
8.3981143394
 30
0.0
 10
11.5259888147
 20
8.4059465613
 30
0.0
 10
11.5580851908
 20
8.4203735247
 30
0.0
 10
11.5986507717
 20
8.435995895
 30
0.0
 10
11.6304011815
 20
8.4467972525
 30
0.0
 10
11.6606789518
 20
8.456240101
 30
0.0
 10
11.6971566304
 20
8.4661396712
 30
0.0
 10
11.7328283942
 20
8.4739273031
 30
0.0
 10
11.7600099705
 20
8.4787380617
 30
0.0
 10
11.7792508297
 20
8.4816100123
 30
0.0
 10
11.7977106607
 20
8.4838296741
 30
0.0
 10
11.8153566939
 20
8.4854126771
 30
0.0
 10
11.8321594933
 20
8.4863659896
 30
0.0
 10
11.848092189
 20
8.4866940311
 30
0.0
 10
11.863130927
 20
8.4864020087
 30
0.0
 10
11.8772544344
 20
8.485484888
 30
0.0
 10
11.8904442391
 20
8.4839378621
 30
0.0
 10
11.9026852149
 20
8.481752887
 30
0.0
 10
11.913963951
 20
8.4789133182
 30
0.0
 10
11.9242704414
 20
8.4754022152
 30
0.0
 10
11.9335962353
 20
8.47119534
 30
0.0
 10
11.9419315099
 20
8.4662652116
 30
0.0
 10
11.9480919006
 20
8.4614899291
 30
0.0
 10
11.9524690018
 20
8.4573059947
 30
0.0
 10
11.9554766706
 20
8.4539971197
 30
0.0
 10
11.9582325665
 20
8.4504913951
 30
0.0
 10
11.9607370424
 20
8.4467856096
 30
0.0
 10
11.9629907364
 20
8.4428764505
 30
0.0
 10
11.9656918964
 20
8.4373320413
 30
0.0
 10
11.9684481509
 20
8.4298081968
 30
0.0
 10
11.9703180681
 20
8.4217895517
 30
0.0
 10
11.9713574484
 20
8.4149780607
 30
0.0
 10
11.9721186124
 20
8.4076123807
 30
0.0
 10
11.9723183383
 20
8.401954098
 30
0.0
 10
11.9723183383
 20
8.3981143394
 30
0.0
  0
SPLINE
  5
22A
100
AcDbEntity
  8
0
100
AcDbSpline
 62
7
  6
CONTINUOUS
 70
0
 71
3
 72
31
 73
27
 74
0
 42
0.0000001
 43
0.0000001
 44
0.0000000001
 40
0.0
 40
0.0
 40
0.0
 40
0.0
 40
0.0585247695
 40
0.1183991407
 40
0.1488425633
 40
0.1796115216
 40
0.210690649
 40
0.2420591992
 40
0.3055595682
 40
0.3376397231
 40
0.3698965107
 40
0.4022964911
 40
0.4348048198
 40
0.4999999971
 40
0.5651951746
 40
0.5977035034
 40
0.6301034839
 40
0.6623602718
 40
0.694440427
 40
0.7579407966
 40
0.7893093471
 40
0.8203884747
 40
0.8511574331
 40
0.8816008563
 40
0.9414752295
 40
1.0
 40
1.0
 40
1.0
 40
1.0
 10
10.5848183383
 20
8.3981143394
 30
0.0
 10
10.6014851527
 20
8.4061869642
 30
0.0
 10
10.6359292071
 20
8.4210504084
 30
0.0
 10
10.6805156129
 20
8.4363504139
 30
0.0
 10
10.7173431046
 20
8.4469436082
 30
0.0
 10
10.745655268
 20
8.4541239832
 30
0.0
 10
10.7744535571
 20
8.460522622
 30
0.0
 10
10.8135884954
 20
8.4680779792
 30
0.0
 10
10.8533201576
 20
8.4741319499
 30
0.0
 10
10.8935018817
 20
8.4788148084
 30
0.0
 10
10.923981195
 20
8.4816731937
 30
0.0
 10
10.9546501456
 20
8.4838787548
 30
0.0
 10
10.99576793
 20
8.4859710931
 30
0.0
 10
11.0473183356
 20
8.4870044267
 30
0.0
 10
11.0988687412
 20
8.485971093
 30
0.0
 10
11.1399865258
 20
8.4838787552
 30
0.0
 10
11.1706554765
 20
8.4816731942
 30
0.0
 10
11.20113479
 20
8.4788148087
 30
0.0
 10
11.2413165146
 20
8.4741319508
 30
0.0
 10
11.2810481771
 20
8.4680779797
 30
0.0
 10
11.3201831158
 20
8.4605226229
 30
0.0
 10
11.3489814051
 20
8.454123984
 30
0.0
 10
11.3772935688
 20
8.4469436091
 30
0.0
 10
11.4141210614
 20
8.4363504147
 30
0.0
 10
11.4587074682
 20
8.4210504088
 30
0.0
 10
11.4931515236
 20
8.4061869644
 30
0.0
 10
11.5098183383
 20
8.3981143394
 30
0.0
  0
SPLINE
  5
22B
100
AcDbEntity
  8
0
100
AcDbSpline
 62
7
  6
CONTINUOUS
 70
0
 71
3
 72
39
 73
35
 74
0
 42
0.0000001
 43
0.0000001
 44
0.0000000001
 40
0.0
 40
0.0
 40
0.0
 40
0.0
 40
0.0218438062
 40
0.0321618783
 40
0.0421118966
 40
0.0610291521
 40
0.078900125
 40
0.0875575586
 40
0.0960901603
 40
0.104547907
 40
0.1129804858
 40
0.1214366005
 40
0.129963852
 40
0.1474029942
 40
0.1656373687
 40
0.1849328579
 40
0.2055011365
 40
0.2274987167
 40
0.2510353901
 40
0.2761898354
 40
0.3030091415
 40
0.3315196396
 40
0.3617333773
 40
0.3936454325
 40
0.4272431229
 40
0.4625056034
 40
0.4994020743
 40
0.5378995171
 40
0.6195245479
 40
0.707015927
 40
0.7528272241
 40
0.7999358986
 40
0.8977860925
 40
1.0
 40
1.0
 40
1.0
 40
1.0
 10
10.1223183383
 20
8.3981143394
 30
0.0
 10
10.1223183383
 20
8.401954098
 30
0.0
 10
10.1225180642
 20
8.4076123807
 30
0.0
 10
10.1232792281
 20
8.4149780607
 30
0.0
 10
10.1243186084
 20
8.4217895516
 30
0.0
 10
10.1261885256
 20
8.4298081966
 30
0.0
 10
10.12894478
 20
8.437332041
 30
0.0
 10
10.13164594
 20
8.4428764503
 30
0.0
 10
10.133899634
 20
8.4467856094
 30
0.0
 10
10.1364041099
 20
8.4504913948
 30
0.0
 10
10.1391600058
 20
8.4539971194
 30
0.0
 10
10.1421676746
 20
8.4573059945
 30
0.0
 10
10.1465447757
 20
8.4614899289
 30
0.0
 10
10.1527051665
 20
8.4662652115
 30
0.0
 10
10.161040441
 20
8.4711953399
 30
0.0
 10
10.170366235
 20
8.4754022151
 30
0.0
 10
10.1806727254
 20
8.4789133182
 30
0.0
 10
10.1919514615
 20
8.481752887
 30
0.0
 10
10.2041924373
 20
8.4839378621
 30
0.0
 10
10.2173822419
 20
8.485484888
 30
0.0
 10
10.2315057494
 20
8.4864020087
 30
0.0
 10
10.2465444873
 20
8.4866940311
 30
0.0
 10
10.262477183
 20
8.4863659896
 30
0.0
 10
10.2792799823
 20
8.4854126771
 30
0.0
 10
10.2969260154
 20
8.4838296742
 30
0.0
 10
10.3153858463
 20
8.4816100123
 30
0.0
 10
10.3346267054
 20
8.4787380618
 30
0.0
 10
10.3618082818
 20
8.4739273033
 30
0.0
 10
10.3974800458
 20
8.4661396713
 30
0.0
 10
10.4339577245
 20
8.4562401011
 30
0.0
 10
10.4642354948
 20
8.4467972525
 30
0.0
 10
10.4959859048
 20
8.435995895
 30
0.0
 10
10.5365514857
 20
8.4203735247
 30
0.0
 10
10.5686478618
 20
8.4059465613
 30
0.0
 10
10.5848183383
 20
8.3981143394
 30
0.0
  0
ENDSEC
  0
SECTION
  2
OBJECTS
  0
DICTIONARY
  5
C
100
AcDbDictionary
280
0
281
1
  3
ACAD_GROUP
350
D
  3
ACAD_MLINESTYLE
350
17
  3
ACAD_LAYOUT
350
1A
  3
ACAD_PLOTSETTINGS
350
19
  3
ACAD_PLOTSTYLENAME
350
E
  0
DICTIONARY
  5
D
102
{ACAD_REACTORS
330
C
102
}
100
AcDbDictionary
280
0
281
1
  0
ACDBDICTIONARYWDFLT
  5
E
102
{ACAD_REACTORS
330
C
102
}
100
AcDbDictionary
281
1
  3
Normal
350
F
100
AcDbDictionaryWithDefault
340
F
  0
DICTIONARY
  5
17
102
{ACAD_REACTORS
330
C
102
}
100
AcDbDictionary
280
0
281
1
  3
Standard
350
18
  0
DICTIONARY
  5
19
102
{ACAD_REACTORS
330
C
102
}
100
AcDbDictionary
281
1
  0
DICTIONARY
  5
1A
102
{ACAD_REACTORS
330
C
102
}
100
AcDbDictionary
281
1
  3
Model
350
22C
  3
Layout1
350
22D
  0
ACDBPLACEHOLDER
  5
F
102
{ACAD_REACTORS
330
E
102
}
  0
MLINESTYLE
  5
18
102
{ACAD_REACTORS
330
17
102
}
100
AcDbMlineStyle
  2
STANDARD
 70
0
  3

 62
256
 51
90.0
 52
90.0
 71
2
 49
0.5
 62
256
  6
BYLAYER
 49
-0.5
 62
256
  6
BYLAYER
  0
LAYOUT
  5
22C
102
{ACAD_REACTORS
330
1A
102
}
100
AcDbPlotSettings
  1

  2
none_device
  4
ANSI_C_(22.00_x_17.00_Inches)
  6

 40
0.0
 41
0.0
 42
0.0
 43
0.0
 44
558.8
 45
431.8
 46
0.0
 47
0.0
 48
0.0
 49
0.0
140
0.0
141
0.0
142
1.0
143
1.0
 70
1024
 72
0
 73
0
 74
0
  7

 75
0
147
1.0
148
0.0
149
0.0
100
AcDbLayout
  1
Model
 70
0
 71
0
 10
0.0
 20
0.0
 11
22.0
 21
17.0
 12
0.0
 22
0.0
 32
0.0
 14
0.0
 24
0.0
 34
0.0
 15
0.0
 25
0.0
 35
0.0
146
0.0
 13
0.0
 23
0.0
 33
0.0
 16
1.0
 26
0.0
 36
0.0
 17
0.0
 27
1.0
 37
0.0
 76
0
330
205
345
0
346
0
  0
LAYOUT
  5
22D
102
{ACAD_REACTORS
330
1A
102
}
100
AcDbPlotSettings
  1

  2
none_device
  4
ANSI_C_(22.00_x_17.00_Inches)
  6

 40
0.0
 41
0.0
 42
0.0
 43
0.0
 44
558.8
 45
431.8
 46
0.0
 47
0.0
 48
0.0
 49
0.0
140
0.0
141
0.0
142
1.0
143
1.0
 70
0
 72
0
 73
0
 74
0
  7

 75
0
147
1.0
148
0.0
149
0.0
100
AcDbLayout
  1
Layout1
 70
0
 71
1
 10
0.0
 20
0.0
 11
22.0
 21
17.0
 12
0.0
 22
0.0
 32
0.0
 14
0.0
 24
0.0
 34
0.0
 15
0.0
 25
0.0
 35
0.0
146
0.0
 13
0.0
 23
0.0
 33
0.0
 16
1.0
 26
0.0
 36
0.0
 17
0.0
 27
1.0
 37
0.0
 76
0
330
206
345
0
346
0
  0
ENDSEC
  0
EOF
