999
DXF file: E:\BT Custom\CADOUTPUT\_TOP.dxf
999
Pro/ENGINEER 2018400 by Parametric Technology Corporation
  0
SECTION
  2
HEADER
  9
$ACADVER
  1
AC1018
  9
$DWGCODEPAGE
  3
ANSI_1252
  9
$EXTMAX
 10
22.0
 20
17.0
 30
0.0
  9
$EXTMIN
 10
0.0
 20
0.0
 30
0.0
  9
$LIMMIN
 10
0.0
 20
0.0
  9
$LIMMAX
 10
22.0
 20
17.0
  9
$VIEWCTR
 10
11.0
 20
8.5
  9
$VIEWSIZE
 40
17.0
  9
$CLAYER
  8
0
  9
$LTSCALE
 40
1.21
  9
$CELTYPE
  6
BYLAYER
  9
$DIMSCALE
 40
1.0
  9
$DIMASZ
 40
0.1
  9
$DIMEXO
 40
0.0625
  9
$DIMDLI
 40
0.836
  9
$DIMEXE
 40
0.125
  9
$DIMCEN
 40
0.198
  9
$DIMLFAC
 40
1.0
  9
$DIMBLK
  1
_FILLED
  9
$DIMALT
 70
1
  9
$DIMALTD
 70
2
  9
$DIMALTTD
 70
2
  9
$DIMALTF
 40
25.4
  9
$DIMTXT
 40
0.08
  9
$DIMTOL
 70
1
  9
$DIMLIM
 70
0
  9
$DIMTFAC
 40
1.0
  9
$DIMTP
 40
0.001
  9
$DIMTM
 40
0.001
  9
$DIMGAP
 40
0.09
  9
$DIMDSEP
 70
46
  9
$AUNITS
 70
0
  9
$PDMODE
 70
3
  9
$PDSIZE
 40
0.06
  9
$HANDSEED
  5
238
  9
$TILEMODE
 70
1
  9
$MEASUREMENT
 70
0
  9
$INSUNITS
 70
1
  0
ENDSEC
  0
SECTION
  2
CLASSES
  0
CLASS
  1
ACDBDICTIONARYWDFLT
  2
AcDbDictionaryWithDefault
  3
AutoCAD 2000
 90
0
 91
1
280
0
281
0
  0
CLASS
  1
ACDBPLACEHOLDER
  2
AcDbPlaceHolder
  3
AutoCAD 2000
 90
0
 91
1
280
0
281
0
  0
CLASS
  1
LAYOUT
  2
AcDbLayout
  3
AutoCAD 2000
 90
0
 91
0
280
0
281
0
  0
ENDSEC
  0
SECTION
  2
TABLES
  0
TABLE
  2
VPORT
  5
8
100
AcDbSymbolTable
 70
2
  0
VPORT
  5
1F4
100
AcDbSymbolTableRecord
100
AcDbViewportTableRecord
  2
*ACTIVE
 70
0
 10
0.0
 20
0.0
 11
1.0
 21
1.0
 12
11.0
 22
8.5
 13
0.0
 23
0.0
 14
1.0
 24
1.0
 15
0.0
 25
0.0
 16
0.0
 26
0.0
 36
1.0
 17
0.0
 27
0.0
 37
0.0
 40
17.0
 41
1.2941176471
 42
50.0
 43
0.0
 44
0.0
 50
0.0
 51
0.0
 71
0
 72
100
 73
1
 74
1
 75
0
 76
0
 77
0
 78
0
  0
ENDTAB
  0
TABLE
  2
LTYPE
  5
5
100
AcDbSymbolTable
 70
6
  0
LTYPE
  5
14
100
AcDbSymbolTableRecord
100
AcDbLinetypeTableRecord
  2
BYBLOCK
 70
0
  3

 72
65
 73
0
 40
0.0
  0
LTYPE
  5
15
100
AcDbSymbolTableRecord
100
AcDbLinetypeTableRecord
  2
BYLAYER
 70
0
  3

 72
65
 73
0
 40
0.0
  0
LTYPE
  5
16
100
AcDbSymbolTableRecord
100
AcDbLinetypeTableRecord
  2
CONTINUOUS
 70
64
  3
Solid line
 72
65
 73
0
 40
0.0
  0
LTYPE
  5
1F5
100
AcDbSymbolTableRecord
100
AcDbLinetypeTableRecord
  2
CENTER
 70
64
  3
____ _ ____ _ ____ _ ____ _ ____ _ ____ _ ____
 72
65
 73
4
 40
0.6
 49
0.375
 74
0
 49
-0.075
 74
0
 49
0.075
 74
0
 49
-0.075
 74
0
  0
LTYPE
  5
1F6
100
AcDbSymbolTableRecord
100
AcDbLinetypeTableRecord
  2
HIDDEN
 70
64
  3
- - - - - - - - - - - - - - - - - - - -
 72
65
 73
2
 40
0.2
 49
0.1
 74
0
 49
-0.1
 74
0
  0
LTYPE
  5
1F7
100
AcDbSymbolTableRecord
100
AcDbLinetypeTableRecord
  2
PHANTOM
 70
64
  3
_____ _ _ _____ _ _ _____ _ _ _____
 72
65
 73
6
 40
0.8
 49
0.45
 74
0
 49
-0.05
 74
0
 49
0.1
 74
0
 49
-0.05
 74
0
 49
0.1
 74
0
 49
-0.05
 74
0
  0
LTYPE
  5
1F8
100
AcDbSymbolTableRecord
100
AcDbLinetypeTableRecord
  2
DOT
 70
64
  3
. . . . . . . . . . . . . . . . . . . .
 72
65
 73
2
 40
0.2
 49
0.1
 74
0
 49
-0.1
 74
0
  0
LTYPE
  5
1F9
100
AcDbSymbolTableRecord
100
AcDbLinetypeTableRecord
  2
DASHED
 70
64
  3
- - - - - - - - - - - - - - - - - - - -
 72
65
 73
2
 40
0.2
 49
0.1
 74
0
 49
-0.1
 74
0
  0
ENDTAB
  0
TABLE
  2
LAYER
  5
2
100
AcDbSymbolTable
 70
36
  0
LAYER
  5
10
100
AcDbSymbolTableRecord
100
AcDbLayerTableRecord
  2
0
 70
0
 62
7
  6
CONTINUOUS
370
-3
390
F
  0
LAYER
  5
1FA
100
AcDbSymbolTableRecord
100
AcDbLayerTableRecord
  2
DEFAULT_1
 70
0
 62
7
  6
CENTER
370
-3
390
F
  0
LAYER
  5
1FB
100
AcDbSymbolTableRecord
100
AcDbLayerTableRecord
  2
DEFAULT_2
 70
0
 62
8
  6
HIDDEN
370
-3
390
F
  0
LAYER
  5
1FC
100
AcDbSymbolTableRecord
100
AcDbLayerTableRecord
  2
DEFAULT_3
 70
0
 62
7
  6
PHANTOM
370
-3
390
F
  0
LAYER
  5
1FD
100
AcDbSymbolTableRecord
100
AcDbLayerTableRecord
  2
ALL_FEATURES
 70
0
 62
7
  6
CONTINUOUS
370
-3
390
F
  0
LAYER
  5
1FE
100
AcDbSymbolTableRecord
100
AcDbLayerTableRecord
  2
AXES_FEATURES
 70
0
 62
7
  6
CONTINUOUS
370
-3
390
F
  0
LAYER
  5
1FF
100
AcDbSymbolTableRecord
100
AcDbLayerTableRecord
  2
DEFAULT_COORDINATE_SYSTEM
 70
0
 62
7
  6
CONTINUOUS
370
-3
390
F
  0
LAYER
  5
200
100
AcDbSymbolTableRecord
100
AcDbLayerTableRecord
  2
DEFAULT_DATUM_AXES
 70
0
 62
7
  6
CONTINUOUS
370
-3
390
F
  0
LAYER
  5
201
100
AcDbSymbolTableRecord
100
AcDbLayerTableRecord
  2
DEFAULT_DATUM_PLANES
 70
0
 62
7
  6
CONTINUOUS
370
-3
390
F
  0
LAYER
  5
202
100
AcDbSymbolTableRecord
100
AcDbLayerTableRecord
  2
DIMENSIONS
 70
0
 62
7
  6
CONTINUOUS
370
-3
390
F
  0
ENDTAB
  0
TABLE
  2
STYLE
  5
3
100
AcDbSymbolTable
 70
1
  0
STYLE
  5
11
100
AcDbSymbolTableRecord
100
AcDbTextStyleTableRecord
  2
STANDARD
 70
0
 40
0.0
 41
0.8
 50
0.0
 71
0
 42
0.2
  3
txt
  4

  0
STYLE
  5
203
100
AcDbSymbolTableRecord
100
AcDbTextStyleTableRecord
  2
TEXTSTYLE_1
 70
0
 40
0.0
 41
0.8
 50
0.0
 71
0
 42
0.2
  3
gdt
  4

  0
ENDTAB
  0
TABLE
  2
VIEW
  5
6
100
AcDbSymbolTable
 70
0
  0
ENDTAB
  0
TABLE
  2
UCS
  5
7
100
AcDbSymbolTable
 70
0
  0
ENDTAB
  0
TABLE
  2
APPID
  5
9
100
AcDbSymbolTable
 70
1
  0
APPID
  5
204
100
AcDbSymbolTableRecord
100
AcDbRegAppTableRecord
  2
ACAD
 70
0
  0
ENDTAB
  0
TABLE
  2
BLOCK_RECORD
  5
1
100
AcDbSymbolTable
 70
0
  0
BLOCK_RECORD
  5
205
100
AcDbSymbolTableRecord
100
AcDbBlockTableRecord
  2
*Model_Space
  0
BLOCK_RECORD
  5
206
100
AcDbSymbolTableRecord
100
AcDbBlockTableRecord
  2
*Paper_Space
  0
BLOCK_RECORD
  5
207
100
AcDbSymbolTableRecord
100
AcDbBlockTableRecord
  2
_FILLED
  0
ENDTAB
  0
TABLE
  2
DIMSTYLE
  5
A
100
AcDbSymbolTable
 70
1
100
AcDbDimStyleTable
 71
0
  0
DIMSTYLE
105
208
100
AcDbSymbolTableRecord
100
AcDbDimStyleTableRecord
  2
STANDARD
 70
0
  3

  4

 40
1.0
 41
0.1
 42
0.0625
 43
0.38
 44
0.125
 45
0.0
 46
0.0
 47
0.001
 48
0.001
140
0.08
141
0.09
142
0.0
143
25.4
144
1.0
145
0.0
146
1.0
147
0.09
 71
1.0
 72
0.0
 73
1
 74
1
 75
0
 76
0
 77
0
 78
4
 79
1
170
1
171
2
172
0
173
0
174
0
175
0
176
0
177
0
178
0
270
2
179
3
271
3
272
3
273
2
274
2
275
0
280
0
281
0
282
0
283
1
284
4
285
0
286
0
287
3
288
0
340
11
278
46
341
207
342
207
343
207
344
207
  0
ENDTAB
  0
ENDSEC
  0
SECTION
  2
BLOCKS
  0
BLOCK
  5
20
100
AcDbEntity
  8
0
100
AcDbBlockBegin
  2
*Model_Space
 70
0
 10
0.0
 20
0.0
 30
0.0
  3
*Model_Space
  1

  0
ENDBLK
  5
21
100
AcDbEntity
  8
0
100
AcDbBlockEnd
  0
BLOCK
  5
1C
100
AcDbEntity
  8
0
100
AcDbBlockBegin
  2
*Paper_Space
 70
0
 10
0.0
 20
0.0
 30
0.0
  3
*Paper_Space
  1

  0
ENDBLK
  5
1D
100
AcDbEntity
  8
0
100
AcDbBlockEnd
  0
BLOCK
  5
209
100
AcDbEntity
  8
0
100
AcDbBlockBegin
  2
_FILLED
 70
64
 10
0.0
 20
0.0
  3
_FILLED
  1

  0
SOLID
  5
20A
100
AcDbEntity
  8
0
  6
BYBLOCK
 62
0
100
AcDbTrace
 10
0.0
 20
0.0
 11
-1.0
 21
0.2
 12
-1.0
 22
-0.2
 13
-1.0
 23
-0.2
  0
ENDBLK
  5
20B
100
AcDbEntity
  8
0
  6
BYBLOCK
 62
0
100
AcDbBlockEnd
  0
ENDSEC
  0
SECTION
  2
ENTITIES
  0
LINE
  5
20C
100
AcDbEntity
  8
0
100
AcDbLine
 62
7
  6
CONTINUOUS
 10
0.5473183383
 20
8.8573318604
 11
0.5473183383
 21
8.6286814185
  0
LINE
  5
20D
100
AcDbEntity
  8
0
100
AcDbLine
 62
7
  6
CONTINUOUS
 10
1.1723183383
 20
8.3323318604
 11
1.1723183383
 21
8.3173318604
  0
LINE
  5
20E
100
AcDbEntity
  8
0
100
AcDbLine
 62
7
  6
CONTINUOUS
 10
2.9223183383
 20
8.3173318604
 11
2.9223183383
 21
8.3323318604
  0
LINE
  5
20F
100
AcDbEntity
  8
0
100
AcDbLine
 62
7
  6
CONTINUOUS
 10
3.5473183383
 20
8.8573318604
 11
3.5473183383
 21
8.6286814185
  0
LINE
  5
210
100
AcDbEntity
  8
0
100
AcDbLine
 62
9
  6
CONTINUOUS
 10
3.6723183383
 20
7.3573318604
 11
3.6723183383
 21
6.1073318604
  0
LINE
  5
211
100
AcDbEntity
  8
0
100
AcDbLine
 62
7
  6
CONTINUOUS
 10
3.6723183383
 20
6.1073318604
 11
18.4223183383
 21
6.1073318604
  0
LINE
  5
212
100
AcDbEntity
  8
0
100
AcDbLine
 62
7
  6
CONTINUOUS
 10
3.6723183383
 20
7.3573318604
 11
18.4223183383
 21
7.3573318604
  0
LINE
  5
213
100
AcDbEntity
  8
0
100
AcDbLine
 62
7
  6
CONTINUOUS
 10
20.8623183383
 20
8.2573318604
 11
19.2323183383
 21
8.2573318604
  0
LINE
  5
214
100
AcDbEntity
  8
0
100
AcDbLine
 62
7
  6
CONTINUOUS
 10
2.8623183383
 20
8.2573318604
 11
1.2323183383
 21
8.2573318604
  0
LINE
  5
215
100
AcDbEntity
  8
0
100
AcDbLine
 62
9
  6
CONTINUOUS
 10
20.9223183383
 20
8.3173318604
 11
19.1723183383
 21
8.3173318604
  0
LINE
  5
216
100
AcDbEntity
  8
0
100
AcDbLine
 62
9
  6
CONTINUOUS
 10
2.9223183383
 20
8.3173318604
 11
1.1723183383
 21
8.3173318604
  0
LINE
  5
217
100
AcDbEntity
  8
0
100
AcDbLine
 62
7
  6
CONTINUOUS
 10
21.0921571039
 20
8.3323318604
 11
19.0024795727
 21
8.3323318604
  0
LINE
  5
218
100
AcDbEntity
  8
0
100
AcDbLine
 62
7
  6
CONTINUOUS
 10
3.0921571039
 20
8.3323318604
 11
1.0024795727
 21
8.3323318604
  0
LINE
  5
219
100
AcDbEntity
  8
0
100
AcDbLine
 62
7
  6
CONTINUOUS
 10
0.5473183383
 20
8.8573318604
 11
3.5473183383
 21
8.8573318604
  0
LINE
  5
21A
100
AcDbEntity
  8
0
100
AcDbLine
 62
7
  6
CONTINUOUS
 10
18.5473183383
 20
8.8573318604
 11
21.5473183383
 21
8.8573318604
  0
LINE
  5
21B
100
AcDbEntity
  8
0
100
AcDbLine
 62
9
  6
CONTINUOUS
 10
18.4223183383
 20
7.3573318604
 11
18.4223183383
 21
6.1073318604
  0
LINE
  5
21C
100
AcDbEntity
  8
0
100
AcDbLine
 62
7
  6
CONTINUOUS
 10
18.5473183383
 20
8.8573318604
 11
18.5473183383
 21
8.6286814185
  0
LINE
  5
21D
100
AcDbEntity
  8
0
100
AcDbLine
 62
7
  6
CONTINUOUS
 10
19.1723183383
 20
8.3323318604
 11
19.1723183383
 21
8.3173318604
  0
LINE
  5
21E
100
AcDbEntity
  8
0
100
AcDbLine
 62
7
  6
CONTINUOUS
 10
20.9223183383
 20
8.3173318604
 11
20.9223183383
 21
8.3323318604
  0
LINE
  5
21F
100
AcDbEntity
  8
0
100
AcDbLine
 62
7
  6
CONTINUOUS
 10
21.5473183383
 20
8.8573318604
 11
21.5473183383
 21
8.6286814185
  0
ARC
  5
220
100
AcDbEntity
  8
0
100
AcDbCircle
 62
7
  6
CONTINUOUS
 10
18.4223183383
 20
8.3573318604
 40
2.25
100
AcDbArc
 50
270.0
 51
357.4526818174
  0
ARC
  5
221
100
AcDbEntity
  8
0
100
AcDbCircle
 62
7
  6
CONTINUOUS
 10
3.6723183383
 20
8.3573318604
 40
2.25
100
AcDbArc
 50
182.5473181826
 51
270.0
  0
ARC
  5
222
100
AcDbEntity
  8
0
100
AcDbCircle
 62
7
  6
CONTINUOUS
 10
18.4223183383
 20
8.3573318604
 40
1.0
100
AcDbArc
 50
270.0
 51
354.2608295227
  0
ARC
  5
223
100
AcDbEntity
  8
0
100
AcDbCircle
 62
7
  6
CONTINUOUS
 10
3.6723183383
 20
8.3573318604
 40
1.0
100
AcDbArc
 50
185.7391704773
 51
270.0
  0
ARC
  5
224
100
AcDbEntity
  8
0
100
AcDbCircle
 62
7
  6
CONTINUOUS
 10
19.2323183383
 20
8.3173318604
 40
0.06
100
AcDbArc
 50
180.0
 51
270.0
  0
ARC
  5
225
100
AcDbEntity
  8
0
100
AcDbCircle
 62
7
  6
CONTINUOUS
 10
20.8623183383
 20
8.3173318604
 40
0.06
100
AcDbArc
 50
270.0
 51
360.0
  0
ARC
  5
226
100
AcDbEntity
  8
0
100
AcDbCircle
 62
7
  6
CONTINUOUS
 10
1.2323183383
 20
8.3173318604
 40
0.06
100
AcDbArc
 50
180.0
 51
270.0
  0
ARC
  5
227
100
AcDbEntity
  8
0
100
AcDbCircle
 62
7
  6
CONTINUOUS
 10
2.8623183383
 20
8.3173318604
 40
0.06
100
AcDbArc
 50
270.0
 51
360.0
  0
SPLINE
  5
228
100
AcDbEntity
  8
0
100
AcDbSpline
 62
7
  6
CONTINUOUS
 70
0
 71
3
 72
13
 73
9
 74
0
 42
0.0000001
 43
0.0000001
 44
0.0000000001
 40
0.0
 40
0.0
 40
0.0
 40
0.0
 40
0.2499694965
 40
0.4999294881
 40
0.6249470939
 40
0.7499630336
 40
0.8749891884
 40
1.0
 40
1.0
 40
1.0
 40
1.0
 10
3.5473183383
 20
8.6286814185
 30
0.0
 10
3.5050526386
 20
8.6117024779
 30
0.0
 10
3.4220483017
 20
8.5737968038
 30
0.0
 10
3.3233136268
 20
8.5166754097
 30
0.0
 10
3.2480601787
 20
8.4652604168
 30
0.0
 10
3.1936456337
 20
8.4238593208
 30
0.0
 10
3.1414677546
 20
8.3796777327
 30
0.0
 10
3.1082981014
 20
8.348405223
 30
0.0
 10
3.0921571039
 20
8.3323318604
 30
0.0
  0
SPLINE
  5
229
100
AcDbEntity
  8
0
100
AcDbSpline
 62
7
  6
CONTINUOUS
 70
0
 71
3
 72
13
 73
9
 74
0
 42
0.0000001
 43
0.0000001
 44
0.0000000001
 40
0.0
 40
0.0
 40
0.0
 40
0.0
 40
0.2499694973
 40
0.4999295243
 40
0.6249471049
 40
0.7499630296
 40
0.8749891851
 40
1.0
 40
1.0
 40
1.0
 40
1.0
 10
0.5473183383
 20
8.6286814185
 30
0.0
 10
0.5895840381
 20
8.6117024778
 30
0.0
 10
0.6725883805
 20
8.5737968001
 30
0.0
 10
0.771323058
 20
8.5166754062
 30
0.0
 10
0.846576504
 20
8.4652604118
 30
0.0
 10
0.9009910434
 20
8.4238593204
 30
0.0
 10
0.9531689209
 20
8.3796777335
 30
0.0
 10
0.9863385747
 20
8.3484052235
 30
0.0
 10
1.0024795727
 20
8.3323318604
 30
0.0
  0
SPLINE
  5
22A
100
AcDbEntity
  8
0
100
AcDbSpline
 62
7
  6
CONTINUOUS
 70
0
 71
3
 72
13
 73
9
 74
0
 42
0.0000001
 43
0.0000001
 44
0.0000000001
 40
0.0
 40
0.0
 40
0.0
 40
0.0
 40
0.2499694973
 40
0.4999295243
 40
0.6249471049
 40
0.7499630296
 40
0.8749891851
 40
1.0
 40
1.0
 40
1.0
 40
1.0
 10
18.5473183383
 20
8.6286814185
 30
0.0
 10
18.5895840381
 20
8.6117024778
 30
0.0
 10
18.6725883805
 20
8.5737968001
 30
0.0
 10
18.771323058
 20
8.5166754062
 30
0.0
 10
18.846576504
 20
8.4652604118
 30
0.0
 10
18.9009910434
 20
8.4238593204
 30
0.0
 10
18.9531689209
 20
8.3796777335
 30
0.0
 10
18.9863385747
 20
8.3484052235
 30
0.0
 10
19.0024795727
 20
8.3323318604
 30
0.0
  0
SPLINE
  5
22B
100
AcDbEntity
  8
0
100
AcDbSpline
 62
7
  6
CONTINUOUS
 70
0
 71
3
 72
13
 73
9
 74
0
 42
0.0000001
 43
0.0000001
 44
0.0000000001
 40
0.0
 40
0.0
 40
0.0
 40
0.0
 40
0.2499694965
 40
0.4999294881
 40
0.6249470939
 40
0.7499630336
 40
0.8749891884
 40
1.0
 40
1.0
 40
1.0
 40
1.0
 10
21.5473183383
 20
8.6286814185
 30
0.0
 10
21.5050526386
 20
8.6117024779
 30
0.0
 10
21.4220483017
 20
8.5737968038
 30
0.0
 10
21.3233136268
 20
8.5166754097
 30
0.0
 10
21.2480601787
 20
8.4652604168
 30
0.0
 10
21.1936456337
 20
8.4238593208
 30
0.0
 10
21.1414677546
 20
8.3796777327
 30
0.0
 10
21.1082981014
 20
8.348405223
 30
0.0
 10
21.0921571039
 20
8.3323318604
 30
0.0
  0
SPLINE
  5
22C
100
AcDbEntity
  8
0
100
AcDbSpline
 62
7
  6
CONTINUOUS
 70
0
 71
3
 72
37
 73
33
 74
0
 42
0.0000001
 43
0.0000001
 44
0.0000000001
 40
0.0
 40
0.0
 40
0.0
 40
0.0
 40
0.107068918
 40
0.2094786274
 40
0.3067647225
 40
0.3985167604
 40
0.4843469675
 40
0.56390235
 40
0.6012253878
 40
0.6368612422
 40
0.6707749751
 40
0.7029338776
 40
0.7333098744
 40
0.7618772751
 40
0.7886168796
 40
0.8135159927
 40
0.8365701753
 40
0.8577898692
 40
0.8772013714
 40
0.89485895
 40
0.910855117
 40
0.9253358723
 40
0.9385292622
 40
0.9447462629
 40
0.9507735224
 40
0.9566707482
 40
0.9625033388
 40
0.9683405265
 40
0.9742531428
 40
0.980311682
 40
0.9865835769
 40
1.0
 40
1.0
 40
1.0
 40
1.0
 10
20.7973183383
 20
8.6286814185
 30
0.0
 10
20.8245445184
 20
8.635972937
 30
0.0
 10
20.8781538944
 20
8.6489898819
 30
0.0
 10
20.9573760184
 20
8.66474813
 30
0.0
 10
21.0331371933
 20
8.6769552169
 30
0.0
 10
21.1049185689
 20
8.6861630061
 30
0.0
 10
21.1722879182
 20
8.6928381939
 30
0.0
 10
21.2255187493
 20
8.6966810863
 30
0.0
 10
21.2656147288
 20
8.698764193
 30
0.0
 10
21.29372903
 20
8.6998412232
 30
0.0
 10
21.3204967864
 20
8.7004842737
 30
0.0
 10
21.3458867913
 20
8.700707292
 30
0.0
 10
21.3698697349
 20
8.7005082854
 30
0.0
 10
21.3924186951
 20
8.6998899438
 30
0.0
 10
21.4135087181
 20
8.6988396603
 30
0.0
 10
21.4331169159
 20
8.6973399897
 30
0.0
 10
21.4512237428
 20
8.6953723015
 30
0.0
 10
21.4678110758
 20
8.6929011453
 30
0.0
 10
21.4828657697
 20
8.6898936575
 30
0.0
 10
21.4963776283
 20
8.6863036108
 30
0.0
 10
21.508340911
 20
8.6820743837
 30
0.0
 10
21.5187524478
 20
8.6771438704
 30
0.0
 10
21.5262769917
 20
8.672282716
 30
0.0
 10
21.5314135
 20
8.667974704
 30
0.0
 10
21.5347911768
 20
8.6645888429
 30
0.0
 10
21.537768145
 20
8.6609752682
 30
0.0
 10
21.5403433907
 20
8.6571247243
 30
0.0
 10
21.5425160591
 20
8.6530287382
 30
0.0
 10
21.5442857923
 20
8.6486792512
 30
0.0
 10
21.5456541313
 20
8.6440679954
 30
0.0
 10
21.5469769001
 20
8.6374129873
 30
0.0
 10
21.5473183383
 20
8.632213262
 30
0.0
 10
21.5473183383
 20
8.6286814185
 30
0.0
  0
SPLINE
  5
22D
100
AcDbEntity
  8
0
100
AcDbSpline
 62
7
  6
CONTINUOUS
 70
0
 71
3
 72
14
 73
10
 74
0
 42
0.0000001
 43
0.0000001
 44
0.0000000001
 40
0.0
 40
0.0
 40
0.0
 40
0.0
 40
0.223717016
 40
0.3417745258
 40
0.4641992672
 40
0.5911423386
 40
0.7227151617
 40
0.8590019051
 40
1.0
 40
1.0
 40
1.0
 40
1.0
 10
19.2973183383
 20
8.6286814185
 30
0.0
 10
19.319199269
 20
8.6111014411
 30
0.0
 10
19.3508404655
 20
8.5819470112
 30
0.0
 10
19.3901041976
 20
8.5389095984
 30
0.0
 10
19.4192424374
 20
8.5031545411
 30
0.0
 10
19.4474443677
 20
8.4645428067
 30
0.0
 10
19.4746225249
 20
8.4231071338
 30
0.0
 10
19.5006782402
 20
8.3788998507
 30
0.0
 10
19.5169610969
 20
8.3481410543
 30
0.0
 10
19.5248989555
 20
8.3323318604
 30
0.0
  0
SPLINE
  5
22E
100
AcDbEntity
  8
0
100
AcDbSpline
 62
7
  6
CONTINUOUS
 70
0
 71
3
 72
14
 73
10
 74
0
 42
0.0000001
 43
0.0000001
 44
0.0000000001
 40
0.0
 40
0.0
 40
0.0
 40
0.0
 40
0.1409980914
 40
0.2772848341
 40
0.4088576728
 40
0.5358007682
 40
0.6582255114
 40
0.7762829851
 40
1.0
 40
1.0
 40
1.0
 40
1.0
 10
20.5697377211
 20
8.3323318604
 30
0.0
 10
20.5776755795
 20
8.3481410539
 30
0.0
 10
20.5939584358
 20
8.3788998499
 30
0.0
 10
20.620014152
 20
8.4231071342
 30
0.0
 10
20.6471923116
 20
8.4645428114
 30
0.0
 10
20.6753942462
 20
8.503154549
 30
0.0
 10
20.7045324848
 20
8.5389096056
 30
0.0
 10
20.7437962145
 20
8.5819470147
 30
0.0
 10
20.7754374077
 20
8.6111014412
 30
0.0
 10
20.7973183383
 20
8.6286814185
 30
0.0
  0
SPLINE
  5
22F
100
AcDbEntity
  8
0
100
AcDbSpline
 62
7
  6
CONTINUOUS
 70
0
 71
3
 72
31
 73
27
 74
0
 42
0.0000001
 43
0.0000001
 44
0.0000000001
 40
0.0
 40
0.0
 40
0.0
 40
0.0
 40
0.0579781813
 40
0.1176544319
 40
0.1480841435
 40
0.1788769324
 40
0.2100054122
 40
0.241439585
 40
0.2731485459
 40
0.3051001533
 40
0.3695966579
 40
0.4346564872
 40
0.4673105376
 40
0.5000000001
 40
0.5326894625
 40
0.5653435128
 40
0.6304033421
 40
0.6948998468
 40
0.7268514542
 40
0.758560415
 40
0.7899945879
 40
0.8211230676
 40
0.8519158565
 40
0.8823455682
 40
0.9420218187
 40
1.0
 40
1.0
 40
1.0
 40
1.0
 10
19.2973183383
 20
8.6286814185
 30
0.0
 10
19.3255210303
 20
8.6362344593
 30
0.0
 10
19.3832764344
 20
8.64964055
 30
0.0
 10
19.4567431197
 20
8.6625899414
 30
0.0
 10
19.5170133933
 20
8.671221962
 30
0.0
 10
19.5631716433
 20
8.6769215994
 30
0.0
 10
19.6099245826
 20
8.6818681134
 30
0.0
 10
19.6572080678
 20
8.6861271913
 30
0.0
 10
19.7049599757
 20
8.6897501338
 30
0.0
 10
19.7693705332
 20
8.6938135291
 30
0.0
 10
19.8506245778
 20
8.6975237667
 30
0.0
 10
19.9322872369
 20
8.6996533577
 30
0.0
 10
19.9979508457
 20
8.7004960185
 30
0.0
 10
20.0473183384
 20
8.7007076009
 30
0.0
 10
20.096685831
 20
8.7004960185
 30
0.0
 10
20.1623494397
 20
8.6996533576
 30
0.0
 10
20.2440120988
 20
8.6975237667
 30
0.0
 10
20.3252661435
 20
8.6938135291
 30
0.0
 10
20.389676701
 20
8.6897501338
 30
0.0
 10
20.4374286089
 20
8.6861271913
 30
0.0
 10
20.4847120941
 20
8.6818681134
 30
0.0
 10
20.5314650333
 20
8.6769215994
 30
0.0
 10
20.5776232833
 20
8.671221962
 30
0.0
 10
20.6378935569
 20
8.6625899414
 30
0.0
 10
20.7113602421
 20
8.64964055
 30
0.0
 10
20.7691156462
 20
8.6362344593
 30
0.0
 10
20.7973183383
 20
8.6286814185
 30
0.0
  0
SPLINE
  5
230
100
AcDbEntity
  8
0
100
AcDbSpline
 62
7
  6
CONTINUOUS
 70
0
 71
3
 72
37
 73
33
 74
0
 42
0.0000001
 43
0.0000001
 44
0.0000000001
 40
0.0
 40
0.0
 40
0.0
 40
0.0
 40
0.0134164231
 40
0.019688318
 40
0.0257468572
 40
0.0316594735
 40
0.0374966612
 40
0.0433292518
 40
0.0492264776
 40
0.0552537371
 40
0.0614707378
 40
0.0746641277
 40
0.089144883
 40
0.10514105
 40
0.1227986287
 40
0.1422101308
 40
0.1634298247
 40
0.1864840073
 40
0.2113831205
 40
0.2381227249
 40
0.2666901257
 40
0.2970661225
 40
0.329225025
 40
0.3631387579
 40
0.3987746123
 40
0.4360976501
 40
0.5156530326
 40
0.6014832396
 40
0.6932352775
 40
0.7905213725
 40
0.892931082
 40
1.0
 40
1.0
 40
1.0
 40
1.0
 10
18.5473183383
 20
8.6286814185
 30
0.0
 10
18.5473183383
 20
8.632213262
 30
0.0
 10
18.5476597764
 20
8.6374129873
 30
0.0
 10
18.5489825453
 20
8.6440679954
 30
0.0
 10
18.5503508843
 20
8.6486792512
 30
0.0
 10
18.5521206175
 20
8.6530287382
 30
0.0
 10
18.5542932859
 20
8.6571247243
 30
0.0
 10
18.5568685316
 20
8.6609752682
 30
0.0
 10
18.5598454998
 20
8.6645888429
 30
0.0
 10
18.5632231765
 20
8.667974704
 30
0.0
 10
18.5683596849
 20
8.672282716
 30
0.0
 10
18.5758842288
 20
8.6771438704
 30
0.0
 10
18.5862957656
 20
8.6820743837
 30
0.0
 10
18.5982590483
 20
8.6863036108
 30
0.0
 10
18.6117709069
 20
8.6898936575
 30
0.0
 10
18.6268256008
 20
8.6929011453
 30
0.0
 10
18.6434129338
 20
8.6953723015
 30
0.0
 10
18.6615197608
 20
8.6973399897
 30
0.0
 10
18.6811279585
 20
8.6988396603
 30
0.0
 10
18.7022179815
 20
8.6998899438
 30
0.0
 10
18.7247669418
 20
8.7005082854
 30
0.0
 10
18.7487498854
 20
8.700707292
 30
0.0
 10
18.7741398902
 20
8.7004842737
 30
0.0
 10
18.8009076466
 20
8.6998412232
 30
0.0
 10
18.8290219479
 20
8.698764193
 30
0.0
 10
18.8691179273
 20
8.6966810863
 30
0.0
 10
18.9223487584
 20
8.6928381939
 30
0.0
 10
18.9897181076
 20
8.6861630061
 30
0.0
 10
19.0614994832
 20
8.6769552169
 30
0.0
 10
19.1372606581
 20
8.66474813
 30
0.0
 10
19.2164827821
 20
8.6489898819
 30
0.0
 10
19.2700921582
 20
8.635972937
 30
0.0
 10
19.2973183383
 20
8.6286814185
 30
0.0
  0
SPLINE
  5
231
100
AcDbEntity
  8
0
100
AcDbSpline
 62
7
  6
CONTINUOUS
 70
0
 71
3
 72
38
 73
34
 74
0
 42
0.0000001
 43
0.0000001
 44
0.0000000001
 40
0.0
 40
0.0
 40
0.0
 40
0.0
 40
0.0134167267
 40
0.0196885918
 40
0.0257470476
 40
0.0316595538
 40
0.0374964551
 40
0.0433287369
 40
0.049225859
 40
0.0552534523
 40
0.0614707247
 40
0.0746635354
 40
0.0891446861
 40
0.1051406151
 40
0.1227978967
 40
0.1422098552
 40
0.1634289385
 40
0.1864835579
 40
0.2113823614
 40
0.2381218722
 40
0.2666895008
 40
0.2970650229
 40
0.3631357042
 40
0.436093009
 40
0.4750660952
 40
0.5156501021
 40
0.5578028653
 40
0.6014820682
 40
0.6466417325
 40
0.693235978
 40
0.7905226926
 40
0.8929303019
 40
1.0
 40
1.0
 40
1.0
 40
1.0
 10
0.5473183383
 20
8.6286814185
 30
0.0
 10
0.5473183383
 20
8.6322133517
 30
0.0
 10
0.5476596495
 20
8.637413168
 30
0.0
 10
0.5489823462
 20
8.6440682644
 30
0.0
 10
0.5503507347
 20
8.648679466
 30
0.0
 10
0.5521206767
 20
8.6530287444
 30
0.0
 10
0.5542932832
 20
8.6571245589
 30
0.0
 10
0.5568684117
 20
8.6609749753
 30
0.0
 10
0.5598453455
 20
8.6645885674
 30
0.0
 10
0.5632230772
 20
8.6679745758
 30
0.0
 10
0.5683595317
 20
8.6722827063
 30
0.0
 10
0.5758843128
 20
8.6771435582
 30
0.0
 10
0.5862954746
 20
8.6820746472
 30
0.0
 10
0.5982589643
 20
8.6863034169
 30
0.0
 10
0.6117709068
 20
8.6898930197
 30
0.0
 10
0.6268252485
 20
8.6929020259
 30
0.0
 10
0.6434130411
 20
8.6953709233
 30
0.0
 10
0.6615195022
 20
8.6973410207
 30
0.0
 10
0.6811279233
 20
8.698839131
 30
0.0
 10
0.7022179215
 20
8.6998892973
 30
0.0
 10
0.7247668459
 20
8.7005095774
 30
0.0
 10
0.7576771102
 20
8.7007779889
 30
0.0
 10
0.8022731263
 20
8.6999895154
 30
0.0
 10
0.849088317
 20
8.6978464522
 30
0.0
 10
0.8891533259
 20
8.6952335533
 30
0.0
 10
0.9210961159
 20
8.692727674
 30
0.0
 10
0.9542358683
 20
8.689677402
 30
0.0
 10
0.9885284156
 20
8.6860442191
 30
0.0
 10
1.023925746
 20
8.6817740484
 30
0.0
 10
1.0732374901
 20
8.6750640109
 30
0.0
 10
1.1372607143
 20
8.6647476279
 30
0.0
 10
1.2164826488
 20
8.6489900954
 30
0.0
 10
1.2700918846
 20
8.6359730102
 30
0.0
 10
1.2973183383
 20
8.6286814185
 30
0.0
  0
SPLINE
  5
232
100
AcDbEntity
  8
0
100
AcDbSpline
 62
7
  6
CONTINUOUS
 70
0
 71
3
 72
29
 73
25
 74
0
 42
0.0000001
 43
0.0000001
 44
0.0000000001
 40
0.0
 40
0.0
 40
0.0
 40
0.0
 40
0.0579789707
 40
0.1176545071
 40
0.1788748962
 40
0.2100034408
 40
0.2414376801
 40
0.2731468481
 40
0.3050986238
 40
0.3372598557
 40
0.369596464
 40
0.4346566958
 40
0.5
 40
0.5653433042
 40
0.630403536
 40
0.6627401444
 40
0.6949013762
 40
0.7268531519
 40
0.7585623199
 40
0.7899965593
 40
0.8211251039
 40
0.882345493
 40
0.9420210293
 40
1.0
 40
1.0
 40
1.0
 40
1.0
 10
1.2973183383
 20
8.6286814185
 30
0.0
 10
1.3255212678
 20
8.6362345229
 30
0.0
 10
1.3832767714
 20
8.6496412003
 30
0.0
 10
1.4720169801
 20
8.6652803265
 30
0.0
 10
1.5479343156
 20
8.675307996
 30
0.0
 10
1.6099241306
 20
8.6818686066
 30
0.0
 10
1.6572078188
 20
8.6861270156
 30
0.0
 10
1.7049596504
 20
8.68974938
 30
0.0
 10
1.7531187534
 20
8.6927892437
 30
0.0
 10
1.801625325
 20
8.6952851488
 30
0.0
 10
1.8668143235
 20
8.6979474717
 30
0.0
 10
1.948743813
 20
8.7000804885
 30
0.0
 10
2.0473183383
 20
8.7009147817
 30
0.0
 10
2.1458928637
 20
8.7000804885
 30
0.0
 10
2.2278223531
 20
8.6979474717
 30
0.0
 10
2.2930113517
 20
8.6952851488
 30
0.0
 10
2.3415179232
 20
8.6927892437
 30
0.0
 10
2.3896770262
 20
8.68974938
 30
0.0
 10
2.4374288579
 20
8.6861270156
 30
0.0
 10
2.4847125461
 20
8.6818686066
 30
0.0
 10
2.546702361
 20
8.675307996
 30
0.0
 10
2.6226196965
 20
8.6652803265
 30
0.0
 10
2.7113599052
 20
8.6496412003
 30
0.0
 10
2.7691154088
 20
8.6362345229
 30
0.0
 10
2.7973183383
 20
8.6286814185
 30
0.0
  0
SPLINE
  5
233
100
AcDbEntity
  8
0
100
AcDbSpline
 62
7
  6
CONTINUOUS
 70
0
 71
3
 72
14
 73
10
 74
0
 42
0.0000001
 43
0.0000001
 44
0.0000000001
 40
0.0
 40
0.0
 40
0.0
 40
0.0
 40
0.1409980914
 40
0.2772848341
 40
0.4088576728
 40
0.5358007682
 40
0.6582255114
 40
0.7762829851
 40
1.0
 40
1.0
 40
1.0
 40
1.0
 10
2.5697377211
 20
8.3323318604
 30
0.0
 10
2.5776755795
 20
8.3481410539
 30
0.0
 10
2.5939584358
 20
8.3788998499
 30
0.0
 10
2.620014152
 20
8.4231071342
 30
0.0
 10
2.6471923116
 20
8.4645428114
 30
0.0
 10
2.6753942462
 20
8.503154549
 30
0.0
 10
2.7045324848
 20
8.5389096056
 30
0.0
 10
2.7437962145
 20
8.5819470147
 30
0.0
 10
2.7754374077
 20
8.6111014412
 30
0.0
 10
2.7973183383
 20
8.6286814185
 30
0.0
  0
SPLINE
  5
234
100
AcDbEntity
  8
0
100
AcDbSpline
 62
7
  6
CONTINUOUS
 70
0
 71
3
 72
14
 73
10
 74
0
 42
0.0000001
 43
0.0000001
 44
0.0000000001
 40
0.0
 40
0.0
 40
0.0
 40
0.0
 40
0.223717016
 40
0.3417745258
 40
0.4641992672
 40
0.5911423386
 40
0.7227151617
 40
0.8590019051
 40
1.0
 40
1.0
 40
1.0
 40
1.0
 10
1.2973183383
 20
8.6286814185
 30
0.0
 10
1.319199269
 20
8.6111014411
 30
0.0
 10
1.3508404655
 20
8.5819470112
 30
0.0
 10
1.3901041976
 20
8.5389095984
 30
0.0
 10
1.4192424374
 20
8.5031545411
 30
0.0
 10
1.4474443677
 20
8.4645428067
 30
0.0
 10
1.4746225249
 20
8.4231071338
 30
0.0
 10
1.5006782402
 20
8.3788998507
 30
0.0
 10
1.5169610969
 20
8.3481410543
 30
0.0
 10
1.5248989555
 20
8.3323318604
 30
0.0
  0
SPLINE
  5
235
100
AcDbEntity
  8
0
100
AcDbSpline
 62
7
  6
CONTINUOUS
 70
0
 71
3
 72
38
 73
34
 74
0
 42
0.0000001
 43
0.0000001
 44
0.0000000001
 40
0.0
 40
0.0
 40
0.0
 40
0.0
 40
0.1070696981
 40
0.2094773073
 40
0.306764022
 40
0.3533582675
 40
0.3985179318
 40
0.4421971347
 40
0.4843498979
 40
0.5249339048
 40
0.5639069911
 40
0.6368642959
 40
0.7029349772
 40
0.7333104993
 40
0.7618781279
 40
0.7886176387
 40
0.8135164421
 40
0.8365710616
 40
0.8577901448
 40
0.8772021033
 40
0.894859385
 40
0.910855314
 40
0.9253364647
 40
0.9385292753
 40
0.9447465477
 40
0.950774141
 40
0.9566712632
 40
0.9625035449
 40
0.9683404462
 40
0.9742529524
 40
0.9803114082
 40
0.9865832733
 40
1.0
 40
1.0
 40
1.0
 40
1.0
 10
2.7973183383
 20
8.6286814185
 30
0.0
 10
2.8245447919
 20
8.6359730102
 30
0.0
 10
2.8781540277
 20
8.6489900954
 30
0.0
 10
2.9573759623
 20
8.6647476279
 30
0.0
 10
3.0213991864
 20
8.6750640109
 30
0.0
 10
3.0707109305
 20
8.6817740484
 30
0.0
 10
3.106108261
 20
8.6860442191
 30
0.0
 10
3.1404008083
 20
8.689677402
 30
0.0
 10
3.1735405607
 20
8.692727674
 30
0.0
 10
3.2054833507
 20
8.6952335533
 30
0.0
 10
3.2455483597
 20
8.6978464522
 30
0.0
 10
3.2923635503
 20
8.6999895154
 30
0.0
 10
3.3369595664
 20
8.7007779889
 30
0.0
 10
3.3698698307
 20
8.7005095774
 30
0.0
 10
3.3924187551
 20
8.6998892973
 30
0.0
 10
3.4135087533
 20
8.698839131
 30
0.0
 10
3.4331171744
 20
8.6973410207
 30
0.0
 10
3.4512236355
 20
8.6953709232
 30
0.0
 10
3.4678114281
 20
8.6929020258
 30
0.0
 10
3.4828657698
 20
8.6898930197
 30
0.0
 10
3.4963777122
 20
8.6863034168
 30
0.0
 10
3.508341202
 20
8.6820746472
 30
0.0
 10
3.5187523637
 20
8.6771435582
 30
0.0
 10
3.5262771449
 20
8.6722827062
 30
0.0
 10
3.5314135994
 20
8.6679745758
 30
0.0
 10
3.534791331
 20
8.6645885674
 30
0.0
 10
3.5377682649
 20
8.6609749753
 30
0.0
 10
3.5403433934
 20
8.6571245589
 30
0.0
 10
3.5425159999
 20
8.6530287444
 30
0.0
 10
3.5442859419
 20
8.648679466
 30
0.0
 10
3.5456543304
 20
8.6440682643
 30
0.0
 10
3.5469770271
 20
8.637413168
 30
0.0
 10
3.5473183383
 20
8.6322133517
 30
0.0
 10
3.5473183383
 20
8.6286814185
 30
0.0
  0
ENDSEC
  0
SECTION
  2
OBJECTS
  0
DICTIONARY
  5
C
100
AcDbDictionary
280
0
281
1
  3
ACAD_GROUP
350
D
  3
ACAD_MLINESTYLE
350
17
  3
ACAD_LAYOUT
350
1A
  3
ACAD_PLOTSETTINGS
350
19
  3
ACAD_PLOTSTYLENAME
350
E
  0
DICTIONARY
  5
D
102
{ACAD_REACTORS
330
C
102
}
100
AcDbDictionary
280
0
281
1
  0
ACDBDICTIONARYWDFLT
  5
E
102
{ACAD_REACTORS
330
C
102
}
100
AcDbDictionary
281
1
  3
Normal
350
F
100
AcDbDictionaryWithDefault
340
F
  0
DICTIONARY
  5
17
102
{ACAD_REACTORS
330
C
102
}
100
AcDbDictionary
280
0
281
1
  3
Standard
350
18
  0
DICTIONARY
  5
19
102
{ACAD_REACTORS
330
C
102
}
100
AcDbDictionary
281
1
  0
DICTIONARY
  5
1A
102
{ACAD_REACTORS
330
C
102
}
100
AcDbDictionary
281
1
  3
Model
350
236
  3
Layout1
350
237
  0
ACDBPLACEHOLDER
  5
F
102
{ACAD_REACTORS
330
E
102
}
  0
MLINESTYLE
  5
18
102
{ACAD_REACTORS
330
17
102
}
100
AcDbMlineStyle
  2
STANDARD
 70
0
  3

 62
256
 51
90.0
 52
90.0
 71
2
 49
0.5
 62
256
  6
BYLAYER
 49
-0.5
 62
256
  6
BYLAYER
  0
LAYOUT
  5
236
102
{ACAD_REACTORS
330
1A
102
}
100
AcDbPlotSettings
  1

  2
none_device
  4
ANSI_C_(22.00_x_17.00_Inches)
  6

 40
0.0
 41
0.0
 42
0.0
 43
0.0
 44
558.8
 45
431.8
 46
0.0
 47
0.0
 48
0.0
 49
0.0
140
0.0
141
0.0
142
1.0
143
1.0
 70
1024
 72
0
 73
0
 74
0
  7

 75
0
147
1.0
148
0.0
149
0.0
100
AcDbLayout
  1
Model
 70
0
 71
0
 10
0.0
 20
0.0
 11
22.0
 21
17.0
 12
0.0
 22
0.0
 32
0.0
 14
0.0
 24
0.0
 34
0.0
 15
0.0
 25
0.0
 35
0.0
146
0.0
 13
0.0
 23
0.0
 33
0.0
 16
1.0
 26
0.0
 36
0.0
 17
0.0
 27
1.0
 37
0.0
 76
0
330
205
345
0
346
0
  0
LAYOUT
  5
237
102
{ACAD_REACTORS
330
1A
102
}
100
AcDbPlotSettings
  1

  2
none_device
  4
ANSI_C_(22.00_x_17.00_Inches)
  6

 40
0.0
 41
0.0
 42
0.0
 43
0.0
 44
558.8
 45
431.8
 46
0.0
 47
0.0
 48
0.0
 49
0.0
140
0.0
141
0.0
142
1.0
143
1.0
 70
0
 72
0
 73
0
 74
0
  7

 75
0
147
1.0
148
0.0
149
0.0
100
AcDbLayout
  1
Layout1
 70
0
 71
1
 10
0.0
 20
0.0
 11
22.0
 21
17.0
 12
0.0
 22
0.0
 32
0.0
 14
0.0
 24
0.0
 34
0.0
 15
0.0
 25
0.0
 35
0.0
146
0.0
 13
0.0
 23
0.0
 33
0.0
 16
1.0
 26
0.0
 36
0.0
 17
0.0
 27
1.0
 37
0.0
 76
0
330
206
345
0
346
0
  0
ENDSEC
  0
EOF
