999
DXF file: E:\BT Custom\CADOUTPUT\_FRONT.dxf
999
Pro/ENGINEER 2018400 by Parametric Technology Corporation
  0
SECTION
  2
HEADER
  9
$ACADVER
  1
AC1018
  9
$DWGCODEPAGE
  3
ANSI_1252
  9
$EXTMAX
 10
22.0
 20
17.0
 30
0.0
  9
$EXTMIN
 10
0.0
 20
0.0
 30
0.0
  9
$LIMMIN
 10
0.0
 20
0.0
  9
$LIMMAX
 10
22.0
 20
17.0
  9
$VIEWCTR
 10
11.0
 20
8.5
  9
$VIEWSIZE
 40
17.0
  9
$CLAYER
  8
0
  9
$LTSCALE
 40
1.21
  9
$CELTYPE
  6
BYLAYER
  9
$DIMSCALE
 40
1.0
  9
$DIMASZ
 40
0.1
  9
$DIMEXO
 40
0.0625
  9
$DIMDLI
 40
0.836
  9
$DIMEXE
 40
0.125
  9
$DIMCEN
 40
0.198
  9
$DIMLFAC
 40
1.0
  9
$DIMBLK
  1
_FILLED
  9
$DIMALT
 70
1
  9
$DIMALTD
 70
2
  9
$DIMALTTD
 70
2
  9
$DIMALTF
 40
25.4
  9
$DIMTXT
 40
0.08
  9
$DIMTOL
 70
1
  9
$DIMLIM
 70
0
  9
$DIMTFAC
 40
1.0
  9
$DIMTP
 40
0.001
  9
$DIMTM
 40
0.001
  9
$DIMGAP
 40
0.09
  9
$DIMDSEP
 70
46
  9
$AUNITS
 70
0
  9
$PDMODE
 70
3
  9
$PDSIZE
 40
0.06
  9
$HANDSEED
  5
232
  9
$TILEMODE
 70
1
  9
$MEASUREMENT
 70
0
  9
$INSUNITS
 70
1
  0
ENDSEC
  0
SECTION
  2
CLASSES
  0
CLASS
  1
ACDBDICTIONARYWDFLT
  2
AcDbDictionaryWithDefault
  3
AutoCAD 2000
 90
0
 91
1
280
0
281
0
  0
CLASS
  1
ACDBPLACEHOLDER
  2
AcDbPlaceHolder
  3
AutoCAD 2000
 90
0
 91
1
280
0
281
0
  0
CLASS
  1
LAYOUT
  2
AcDbLayout
  3
AutoCAD 2000
 90
0
 91
0
280
0
281
0
  0
ENDSEC
  0
SECTION
  2
TABLES
  0
TABLE
  2
VPORT
  5
8
100
AcDbSymbolTable
 70
2
  0
VPORT
  5
1F4
100
AcDbSymbolTableRecord
100
AcDbViewportTableRecord
  2
*ACTIVE
 70
0
 10
0.0
 20
0.0
 11
1.0
 21
1.0
 12
11.0
 22
8.5
 13
0.0
 23
0.0
 14
1.0
 24
1.0
 15
0.0
 25
0.0
 16
0.0
 26
0.0
 36
1.0
 17
0.0
 27
0.0
 37
0.0
 40
17.0
 41
1.2941176471
 42
50.0
 43
0.0
 44
0.0
 50
0.0
 51
0.0
 71
0
 72
100
 73
1
 74
1
 75
0
 76
0
 77
0
 78
0
  0
ENDTAB
  0
TABLE
  2
LTYPE
  5
5
100
AcDbSymbolTable
 70
6
  0
LTYPE
  5
14
100
AcDbSymbolTableRecord
100
AcDbLinetypeTableRecord
  2
BYBLOCK
 70
0
  3

 72
65
 73
0
 40
0.0
  0
LTYPE
  5
15
100
AcDbSymbolTableRecord
100
AcDbLinetypeTableRecord
  2
BYLAYER
 70
0
  3

 72
65
 73
0
 40
0.0
  0
LTYPE
  5
16
100
AcDbSymbolTableRecord
100
AcDbLinetypeTableRecord
  2
CONTINUOUS
 70
64
  3
Solid line
 72
65
 73
0
 40
0.0
  0
LTYPE
  5
1F5
100
AcDbSymbolTableRecord
100
AcDbLinetypeTableRecord
  2
CENTER
 70
64
  3
____ _ ____ _ ____ _ ____ _ ____ _ ____ _ ____
 72
65
 73
4
 40
0.6
 49
0.375
 74
0
 49
-0.075
 74
0
 49
0.075
 74
0
 49
-0.075
 74
0
  0
LTYPE
  5
1F6
100
AcDbSymbolTableRecord
100
AcDbLinetypeTableRecord
  2
HIDDEN
 70
64
  3
- - - - - - - - - - - - - - - - - - - -
 72
65
 73
2
 40
0.2
 49
0.1
 74
0
 49
-0.1
 74
0
  0
LTYPE
  5
1F7
100
AcDbSymbolTableRecord
100
AcDbLinetypeTableRecord
  2
PHANTOM
 70
64
  3
_____ _ _ _____ _ _ _____ _ _ _____
 72
65
 73
6
 40
0.8
 49
0.45
 74
0
 49
-0.05
 74
0
 49
0.1
 74
0
 49
-0.05
 74
0
 49
0.1
 74
0
 49
-0.05
 74
0
  0
LTYPE
  5
1F8
100
AcDbSymbolTableRecord
100
AcDbLinetypeTableRecord
  2
DOT
 70
64
  3
. . . . . . . . . . . . . . . . . . . .
 72
65
 73
2
 40
0.2
 49
0.1
 74
0
 49
-0.1
 74
0
  0
LTYPE
  5
1F9
100
AcDbSymbolTableRecord
100
AcDbLinetypeTableRecord
  2
DASHED
 70
64
  3
- - - - - - - - - - - - - - - - - - - -
 72
65
 73
2
 40
0.2
 49
0.1
 74
0
 49
-0.1
 74
0
  0
ENDTAB
  0
TABLE
  2
LAYER
  5
2
100
AcDbSymbolTable
 70
36
  0
LAYER
  5
10
100
AcDbSymbolTableRecord
100
AcDbLayerTableRecord
  2
0
 70
0
 62
7
  6
CONTINUOUS
370
-3
390
F
  0
LAYER
  5
1FA
100
AcDbSymbolTableRecord
100
AcDbLayerTableRecord
  2
DEFAULT_1
 70
0
 62
7
  6
CENTER
370
-3
390
F
  0
LAYER
  5
1FB
100
AcDbSymbolTableRecord
100
AcDbLayerTableRecord
  2
DEFAULT_2
 70
0
 62
8
  6
HIDDEN
370
-3
390
F
  0
LAYER
  5
1FC
100
AcDbSymbolTableRecord
100
AcDbLayerTableRecord
  2
DEFAULT_3
 70
0
 62
7
  6
PHANTOM
370
-3
390
F
  0
LAYER
  5
1FD
100
AcDbSymbolTableRecord
100
AcDbLayerTableRecord
  2
ALL_FEATURES
 70
0
 62
7
  6
CONTINUOUS
370
-3
390
F
  0
LAYER
  5
1FE
100
AcDbSymbolTableRecord
100
AcDbLayerTableRecord
  2
AXES_FEATURES
 70
0
 62
7
  6
CONTINUOUS
370
-3
390
F
  0
LAYER
  5
1FF
100
AcDbSymbolTableRecord
100
AcDbLayerTableRecord
  2
DEFAULT_COORDINATE_SYSTEM
 70
0
 62
7
  6
CONTINUOUS
370
-3
390
F
  0
LAYER
  5
200
100
AcDbSymbolTableRecord
100
AcDbLayerTableRecord
  2
DEFAULT_DATUM_AXES
 70
0
 62
7
  6
CONTINUOUS
370
-3
390
F
  0
LAYER
  5
201
100
AcDbSymbolTableRecord
100
AcDbLayerTableRecord
  2
DEFAULT_DATUM_PLANES
 70
0
 62
7
  6
CONTINUOUS
370
-3
390
F
  0
LAYER
  5
202
100
AcDbSymbolTableRecord
100
AcDbLayerTableRecord
  2
DIMENSIONS
 70
0
 62
7
  6
CONTINUOUS
370
-3
390
F
  0
ENDTAB
  0
TABLE
  2
STYLE
  5
3
100
AcDbSymbolTable
 70
1
  0
STYLE
  5
11
100
AcDbSymbolTableRecord
100
AcDbTextStyleTableRecord
  2
STANDARD
 70
0
 40
0.0
 41
0.8
 50
0.0
 71
0
 42
0.2
  3
txt
  4

  0
STYLE
  5
203
100
AcDbSymbolTableRecord
100
AcDbTextStyleTableRecord
  2
TEXTSTYLE_1
 70
0
 40
0.0
 41
0.8
 50
0.0
 71
0
 42
0.2
  3
gdt
  4

  0
ENDTAB
  0
TABLE
  2
VIEW
  5
6
100
AcDbSymbolTable
 70
0
  0
ENDTAB
  0
TABLE
  2
UCS
  5
7
100
AcDbSymbolTable
 70
0
  0
ENDTAB
  0
TABLE
  2
APPID
  5
9
100
AcDbSymbolTable
 70
1
  0
APPID
  5
204
100
AcDbSymbolTableRecord
100
AcDbRegAppTableRecord
  2
ACAD
 70
0
  0
ENDTAB
  0
TABLE
  2
BLOCK_RECORD
  5
1
100
AcDbSymbolTable
 70
0
  0
BLOCK_RECORD
  5
205
100
AcDbSymbolTableRecord
100
AcDbBlockTableRecord
  2
*Model_Space
  0
BLOCK_RECORD
  5
206
100
AcDbSymbolTableRecord
100
AcDbBlockTableRecord
  2
*Paper_Space
  0
BLOCK_RECORD
  5
207
100
AcDbSymbolTableRecord
100
AcDbBlockTableRecord
  2
_FILLED
  0
ENDTAB
  0
TABLE
  2
DIMSTYLE
  5
A
100
AcDbSymbolTable
 70
1
100
AcDbDimStyleTable
 71
0
  0
DIMSTYLE
105
208
100
AcDbSymbolTableRecord
100
AcDbDimStyleTableRecord
  2
STANDARD
 70
0
  3

  4

 40
1.0
 41
0.1
 42
0.0625
 43
0.38
 44
0.125
 45
0.0
 46
0.0
 47
0.001
 48
0.001
140
0.08
141
0.09
142
0.0
143
25.4
144
1.0
145
0.0
146
1.0
147
0.09
 71
1.0
 72
0.0
 73
1
 74
1
 75
0
 76
0
 77
0
 78
4
 79
1
170
1
171
2
172
0
173
0
174
0
175
0
176
0
177
0
178
0
270
2
179
3
271
3
272
3
273
2
274
2
275
0
280
0
281
0
282
0
283
1
284
4
285
0
286
0
287
3
288
0
340
11
278
46
341
207
342
207
343
207
344
207
  0
ENDTAB
  0
ENDSEC
  0
SECTION
  2
BLOCKS
  0
BLOCK
  5
20
100
AcDbEntity
  8
0
100
AcDbBlockBegin
  2
*Model_Space
 70
0
 10
0.0
 20
0.0
 30
0.0
  3
*Model_Space
  1

  0
ENDBLK
  5
21
100
AcDbEntity
  8
0
100
AcDbBlockEnd
  0
BLOCK
  5
1C
100
AcDbEntity
  8
0
100
AcDbBlockBegin
  2
*Paper_Space
 70
0
 10
0.0
 20
0.0
 30
0.0
  3
*Paper_Space
  1

  0
ENDBLK
  5
1D
100
AcDbEntity
  8
0
100
AcDbBlockEnd
  0
BLOCK
  5
209
100
AcDbEntity
  8
0
100
AcDbBlockBegin
  2
_FILLED
 70
64
 10
0.0
 20
0.0
  3
_FILLED
  1

  0
SOLID
  5
20A
100
AcDbEntity
  8
0
  6
BYBLOCK
 62
0
100
AcDbTrace
 10
0.0
 20
0.0
 11
-1.0
 21
0.2
 12
-1.0
 22
-0.2
 13
-1.0
 23
-0.2
  0
ENDBLK
  5
20B
100
AcDbEntity
  8
0
  6
BYBLOCK
 62
0
100
AcDbBlockEnd
  0
ENDSEC
  0
SECTION
  2
ENTITIES
  0
LINE
  5
20C
100
AcDbEntity
  8
0
100
AcDbLine
 62
7
  6
CONTINUOUS
 10
-1.58472704
 20
10.172526416
 11
-2.1071464228
 21
9.2676695021
  0
LINE
  5
20D
100
AcDbEntity
  8
0
100
AcDbLine
 62
7
  6
CONTINUOUS
 10
-2.1071464228
 20
9.2676695021
 11
-1.58472704
 21
8.3628125883
  0
LINE
  5
20E
100
AcDbEntity
  8
0
100
AcDbLine
 62
9
  6
CONTINUOUS
 10
0.5626923427
 20
9.8926695021
 11
0.5626923427
 21
8.6426695021
  0
LINE
  5
20F
100
AcDbEntity
  8
0
100
AcDbLine
 62
7
  6
CONTINUOUS
 10
-0.5398882745
 20
8.3628125883
 11
-0.3783128099
 21
8.6426695021
  0
LINE
  5
210
100
AcDbEntity
  8
0
100
AcDbLine
 62
7
  6
CONTINUOUS
 10
-0.3783128099
 20
9.8926695021
 11
-0.5398882745
 21
10.172526416
  0
LINE
  5
211
100
AcDbEntity
  8
0
100
AcDbLine
 62
7
  6
CONTINUOUS
 10
-1.58472704
 20
8.3628125883
 11
-0.5398882745
 21
8.3628125883
  0
LINE
  5
212
100
AcDbEntity
  8
0
100
AcDbLine
 62
7
  6
CONTINUOUS
 10
22.41527296
 20
8.3628125883
 11
23.4601117255
 21
8.3628125883
  0
LINE
  5
213
100
AcDbEntity
  8
0
100
AcDbLine
 62
7
  6
CONTINUOUS
 10
-1.0592278156
 20
8.6426695021
 11
22.9346125011
 21
8.6426695021
  0
LINE
  5
214
100
AcDbEntity
  8
0
100
AcDbLine
 62
7
  6
CONTINUOUS
 10
-1.0592278156
 20
9.8926695021
 11
22.9346125011
 21
9.8926695021
  0
LINE
  5
215
100
AcDbEntity
  8
0
100
AcDbLine
 62
7
  6
CONTINUOUS
 10
23.4601117255
 20
10.172526416
 11
22.41527296
 21
10.172526416
  0
LINE
  5
216
100
AcDbEntity
  8
0
100
AcDbLine
 62
7
  6
CONTINUOUS
 10
-0.5398882745
 20
10.172526416
 11
-1.58472704
 21
10.172526416
  0
LINE
  5
217
100
AcDbEntity
  8
0
100
AcDbLine
 62
7
  6
CONTINUOUS
 10
22.41527296
 20
10.172526416
 11
22.2536974954
 21
9.8926695021
  0
LINE
  5
218
100
AcDbEntity
  8
0
100
AcDbLine
 62
7
  6
CONTINUOUS
 10
22.2536974954
 20
8.6426695021
 11
22.41527296
 21
8.3628125883
  0
LINE
  5
219
100
AcDbEntity
  8
0
100
AcDbLine
 62
9
  6
CONTINUOUS
 10
21.3126923427
 20
9.8926695021
 11
21.3126923427
 21
8.6426695021
  0
LINE
  5
21A
100
AcDbEntity
  8
0
100
AcDbLine
 62
7
  6
CONTINUOUS
 10
23.4601117255
 20
8.3628125883
 11
23.9825311083
 21
9.2676695021
  0
LINE
  5
21B
100
AcDbEntity
  8
0
100
AcDbLine
 62
7
  6
CONTINUOUS
 10
23.9825311083
 20
9.2676695021
 11
23.4601117255
 21
10.172526416
  0
ARC
  5
21C
100
AcDbEntity
  8
0
100
AcDbCircle
 62
7
  6
CONTINUOUS
 10
22.9376923427
 20
9.2676695021
 40
1.5
100
AcDbArc
 50
204.6346312024
 51
155.3653686144
  0
ARC
  5
21D
100
AcDbEntity
  8
0
100
AcDbCircle
 62
7
  6
CONTINUOUS
 10
-1.0623076573
 20
9.2676695021
 40
1.5
100
AcDbArc
 50
24.6346311397
 51
335.3653685477
  0
ARC
  5
21E
100
AcDbEntity
  8
0
100
AcDbCircle
 62
7
  6
CONTINUOUS
 10
22.9376923427
 20
9.2676695021
 40
0.875
100
AcDbArc
 50
225.7334028339
 51
134.2665971598
  0
ARC
  5
21F
100
AcDbEntity
  8
0
100
AcDbCircle
 62
7
  6
CONTINUOUS
 10
-1.0623076573
 20
9.2676695021
 40
0.875
100
AcDbArc
 50
45.6430625804
 51
314.3569374186
  0
ARC
  5
220
100
AcDbEntity
  8
0
100
AcDbCircle
 62
9
  6
CONTINUOUS
 10
22.9376923427
 20
9.2676695021
 40
0.815
100
AcDbArc
 50
230.1691154926
 51
129.8308844891
  0
ARC
  5
221
100
AcDbEntity
  8
0
100
AcDbCircle
 62
9
  6
CONTINUOUS
 10
-1.0623076573
 20
9.2676695021
 40
0.815
100
AcDbArc
 50
50.1468107225
 51
309.8531892782
  0
SPLINE
  5
222
100
AcDbEntity
  8
0
100
AcDbSpline
 62
7
  6
CONTINUOUS
 70
0
 71
3
 72
27
 73
23
 74
0
 42
0.0000001
 43
0.0000001
 44
0.0000000001
 40
0.0
 40
0.0
 40
0.0
 40
0.0
 40
0.0624952164
 40
0.0937533314
 40
0.1250093488
 40
0.1875045559
 40
0.249999835
 40
0.2812568533
 40
0.3125139083
 40
0.3750092012
 40
0.4375044395
 40
0.4999997299
 40
0.562495029
 40
0.6249903061
 40
0.6874856599
 40
0.7187426925
 40
0.7499997314
 40
0.8124951243
 40
0.8749904527
 40
0.9062475183
 40
0.9375045997
 40
1.0
 40
1.0
 40
1.0
 40
1.0
 10
-1.6850843366
 20
9.2676695021
 30
0.0
 10
-1.6850843366
 20
9.2472099978
 30
0.0
 10
-1.6835724791
 20
9.2164893006
 30
0.0
 10
-1.6785520696
 20
9.1758613986
 30
0.0
 10
-1.6715416871
 20
9.1355257832
 30
0.0
 10
-1.6590722609
 20
9.0858273462
 30
0.0
 10
-1.6417823467
 20
9.0375930009
 30
0.0
 10
-1.6251663572
 20
9.0001768917
 30
0.0
 10
-1.606733923
 20
8.9636217657
 30
0.0
 10
-1.5803553211
 20
8.9196916159
 30
0.0
 10
-1.5436895405
 20
8.8703477524
 30
0.0
 10
-1.5023593768
 20
8.8248358048
 30
0.0
 10
-1.4567654675
 20
8.7835961594
 30
0.0
 10
-1.4073513594
 20
8.7470253519
 30
0.0
 10
-1.3633742326
 20
8.7207256839
 30
0.0
 10
-1.3267888329
 20
8.702353518
 30
0.0
 10
-1.2893472586
 20
8.6857950527
 30
0.0
 10
-1.2410900776
 20
8.6685702335
 30
0.0
 10
-1.1913790473
 20
8.6561518701
 30
0.0
 10
-1.1510381812
 20
8.649172248
 30
0.0
 10
-1.1104075836
 20
8.6441739482
 30
0.0
 10
-1.0796873801
 20
8.6426695054
 30
0.0
 10
-1.0592278156
 20
8.6426695022
 30
0.0
  0
SPLINE
  5
223
100
AcDbEntity
  8
0
100
AcDbSpline
 62
7
  6
CONTINUOUS
 70
0
 71
3
 72
27
 73
23
 74
0
 42
0.0000001
 43
0.0000001
 44
0.0000000001
 40
0.0
 40
0.0
 40
0.0
 40
0.0
 40
0.0624952223
 40
0.0937533412
 40
0.1250093592
 40
0.187504564
 40
0.2499998464
 40
0.2812568642
 40
0.3125139184
 40
0.375009213
 40
0.4375044518
 40
0.4999997419
 40
0.5624950433
 40
0.6249903196
 40
0.6874856756
 40
0.7187427082
 40
0.7499997467
 40
0.8124951408
 40
0.8749904695
 40
0.9062475336
 40
0.9375046107
 40
1.0
 40
1.0
 40
1.0
 40
1.0
 10
23.560469022
 20
9.2676695021
 30
0.0
 10
23.560469022
 20
9.2881290084
 30
0.0
 10
23.5589571642
 20
9.3188497088
 30
0.0
 10
23.5539367538
 20
9.3594776142
 30
0.0
 10
23.5469263707
 20
9.3998132301
 30
0.0
 10
23.5344569435
 20
9.4495116674
 30
0.0
 10
23.5171670284
 20
9.4977460126
 30
0.0
 10
23.5005510383
 20
9.5351621223
 30
0.0
 10
23.4821186031
 20
9.571717248
 30
0.0
 10
23.4557400004
 20
9.6156473978
 30
0.0
 10
23.4190742185
 20
9.664991261
 30
0.0
 10
23.3777440533
 20
9.7105032085
 30
0.0
 10
23.3321501429
 20
9.7517428532
 30
0.0
 10
23.282736033
 20
9.7883136603
 30
0.0
 10
23.2387589052
 20
9.8146133274
 30
0.0
 10
23.2021735046
 20
9.8329854929
 30
0.0
 10
23.1647319295
 20
9.8495439572
 30
0.0
 10
23.1164747478
 20
9.8667687755
 30
0.0
 10
23.0667637172
 20
9.8791871376
 30
0.0
 10
23.0264228527
 20
9.8861667583
 30
0.0
 10
22.9857922605
 20
9.8911650564
 30
0.0
 10
22.955072062
 20
9.8926694996
 30
0.0
 10
22.9346125011
 20
9.8926695021
 30
0.0
  0
SPLINE
  5
224
100
AcDbEntity
  8
0
100
AcDbSpline
 62
7
  6
CONTINUOUS
 70
0
 71
3
 72
27
 73
23
 74
0
 42
0.0000001
 43
0.0000001
 44
0.0000000001
 40
0.0
 40
0.0
 40
0.0
 40
0.0
 40
0.0624954003
 40
0.0937524817
 40
0.1250095473
 40
0.1875048757
 40
0.2500002686
 40
0.2812573075
 40
0.3125143401
 40
0.3750096939
 40
0.437504971
 40
0.5000002701
 40
0.5624955605
 40
0.6249907988
 40
0.6874860917
 40
0.7187431467
 40
0.750000165
 40
0.8124954441
 40
0.8749906512
 40
0.9062466686
 40
0.9375047836
 40
1.0
 40
1.0
 40
1.0
 40
1.0
 10
22.9346125011
 20
8.6426695022
 30
0.0
 10
22.9550720656
 20
8.6426695054
 30
0.0
 10
22.985792269
 20
8.6441739482
 30
0.0
 10
23.0264228667
 20
8.649172248
 30
0.0
 10
23.0667637328
 20
8.6561518701
 30
0.0
 10
23.1164747631
 20
8.6685702335
 30
0.0
 10
23.1647319441
 20
8.6857950527
 30
0.0
 10
23.2021735184
 20
8.702353518
 30
0.0
 10
23.2387589181
 20
8.7207256839
 30
0.0
 10
23.2827360448
 20
8.7470253519
 30
0.0
 10
23.332150153
 20
8.7835961594
 30
0.0
 10
23.3777440622
 20
8.8248358048
 30
0.0
 10
23.419074226
 20
8.8703477524
 30
0.0
 10
23.4557400065
 20
8.9196916159
 30
0.0
 10
23.4821186085
 20
8.9636217657
 30
0.0
 10
23.5005510426
 20
9.0001768917
 30
0.0
 10
23.5171670322
 20
9.0375930009
 30
0.0
 10
23.5344569464
 20
9.0858273462
 30
0.0
 10
23.5469263725
 20
9.1355257832
 30
0.0
 10
23.5539367551
 20
9.1758613986
 30
0.0
 10
23.5589571646
 20
9.2164893006
 30
0.0
 10
23.560469022
 20
9.2472099978
 30
0.0
 10
23.560469022
 20
9.2676695021
 30
0.0
  0
LINE
  5
225
100
AcDbEntity
  8
0
100
AcDbLine
 62
7
  6
CONTINUOUS
 10
22.1876923427
 20
10.5667076078
 11
22.41527296
 21
10.172526416
  0
LINE
  5
226
100
AcDbEntity
  8
0
100
AcDbLine
 62
7
  6
CONTINUOUS
 10
23.4601117255
 20
10.172526416
 11
23.6876923427
 21
10.5667076078
  0
LINE
  5
227
100
AcDbEntity
  8
0
100
AcDbLine
 62
7
  6
CONTINUOUS
 10
22.1876923427
 20
7.9686313965
 11
22.41527296
 21
8.3628125883
  0
LINE
  5
228
100
AcDbEntity
  8
0
100
AcDbLine
 62
7
  6
CONTINUOUS
 10
23.6876923427
 20
7.9686313965
 11
23.4601117255
 21
8.3628125883
  0
LINE
  5
229
100
AcDbEntity
  8
0
100
AcDbLine
 62
7
  6
CONTINUOUS
 10
24.4376923427
 20
9.2676695021
 11
23.9825311083
 21
9.2676695021
  0
SPLINE
  5
22A
100
AcDbEntity
  8
0
100
AcDbSpline
 62
7
  6
CONTINUOUS
 70
0
 71
3
 72
27
 73
23
 74
0
 42
0.0000001
 43
0.0000001
 44
0.0000000001
 40
0.0
 40
0.0
 40
0.0
 40
0.0
 40
0.0624953893
 40
0.0937524664
 40
0.1250095305
 40
0.1875048592
 40
0.2500002533
 40
0.2812572918
 40
0.3125143244
 40
0.3750096804
 40
0.4375049567
 40
0.5000002581
 40
0.5624955482
 40
0.624990787
 40
0.6874860816
 40
0.7187431358
 40
0.7500001536
 40
0.812495436
 40
0.8749906408
 40
0.9062466588
 40
0.9375047777
 40
1.0
 40
1.0
 40
1.0
 40
1.0
 10
-1.0592278156
 20
9.8926695021
 30
0.0
 10
-1.0796873765
 20
9.8926694996
 30
0.0
 10
-1.110407575
 20
9.8911650564
 30
0.0
 10
-1.1510381672
 20
9.8861667583
 30
0.0
 10
-1.1913790317
 20
9.8791871376
 30
0.0
 10
-1.2410900623
 20
9.8667687755
 30
0.0
 10
-1.2893472441
 20
9.8495439572
 30
0.0
 10
-1.3267888191
 20
9.8329854929
 30
0.0
 10
-1.3633742197
 20
9.8146133274
 30
0.0
 10
-1.4073513475
 20
9.7883136603
 30
0.0
 10
-1.4567654574
 20
9.7517428532
 30
0.0
 10
-1.5023593678
 20
9.7105032085
 30
0.0
 10
-1.543689533
 20
9.664991261
 30
0.0
 10
-1.5803553149
 20
9.6156473978
 30
0.0
 10
-1.6067339177
 20
9.571717248
 30
0.0
 10
-1.6251663528
 20
9.5351621223
 30
0.0
 10
-1.641782343
 20
9.4977460126
 30
0.0
 10
-1.6590722581
 20
9.4495116674
 30
0.0
 10
-1.6715416852
 20
9.3998132301
 30
0.0
 10
-1.6785520683
 20
9.3594776142
 30
0.0
 10
-1.6835724787
 20
9.3188497088
 30
0.0
 10
-1.6850843366
 20
9.2881290084
 30
0.0
 10
-1.6850843366
 20
9.2676695021
 30
0.0
  0
LINE
  5
22B
100
AcDbEntity
  8
0
100
AcDbLine
 62
7
  6
CONTINUOUS
 10
-1.8123076573
 20
10.5667076078
 11
-1.58472704
 21
10.172526416
  0
LINE
  5
22C
100
AcDbEntity
  8
0
100
AcDbLine
 62
7
  6
CONTINUOUS
 10
-0.5398882745
 20
10.172526416
 11
-0.3123076573
 21
10.5667076078
  0
LINE
  5
22D
100
AcDbEntity
  8
0
100
AcDbLine
 62
7
  6
CONTINUOUS
 10
-2.5623076573
 20
9.2676695021
 11
-2.1071464228
 21
9.2676695021
  0
LINE
  5
22E
100
AcDbEntity
  8
0
100
AcDbLine
 62
7
  6
CONTINUOUS
 10
-1.8123076573
 20
7.9686313965
 11
-1.58472704
 21
8.3628125883
  0
LINE
  5
22F
100
AcDbEntity
  8
0
100
AcDbLine
 62
7
  6
CONTINUOUS
 10
-0.3123076573
 20
7.9686313965
 11
-0.5398882745
 21
8.3628125883
  0
ENDSEC
  0
SECTION
  2
OBJECTS
  0
DICTIONARY
  5
C
100
AcDbDictionary
280
0
281
1
  3
ACAD_GROUP
350
D
  3
ACAD_MLINESTYLE
350
17
  3
ACAD_LAYOUT
350
1A
  3
ACAD_PLOTSETTINGS
350
19
  3
ACAD_PLOTSTYLENAME
350
E
  0
DICTIONARY
  5
D
102
{ACAD_REACTORS
330
C
102
}
100
AcDbDictionary
280
0
281
1
  0
ACDBDICTIONARYWDFLT
  5
E
102
{ACAD_REACTORS
330
C
102
}
100
AcDbDictionary
281
1
  3
Normal
350
F
100
AcDbDictionaryWithDefault
340
F
  0
DICTIONARY
  5
17
102
{ACAD_REACTORS
330
C
102
}
100
AcDbDictionary
280
0
281
1
  3
Standard
350
18
  0
DICTIONARY
  5
19
102
{ACAD_REACTORS
330
C
102
}
100
AcDbDictionary
281
1
  0
DICTIONARY
  5
1A
102
{ACAD_REACTORS
330
C
102
}
100
AcDbDictionary
281
1
  3
Model
350
230
  3
Layout1
350
231
  0
ACDBPLACEHOLDER
  5
F
102
{ACAD_REACTORS
330
E
102
}
  0
MLINESTYLE
  5
18
102
{ACAD_REACTORS
330
17
102
}
100
AcDbMlineStyle
  2
STANDARD
 70
0
  3

 62
256
 51
90.0
 52
90.0
 71
2
 49
0.5
 62
256
  6
BYLAYER
 49
-0.5
 62
256
  6
BYLAYER
  0
LAYOUT
  5
230
102
{ACAD_REACTORS
330
1A
102
}
100
AcDbPlotSettings
  1

  2
none_device
  4
ANSI_C_(22.00_x_17.00_Inches)
  6

 40
0.0
 41
0.0
 42
0.0
 43
0.0
 44
558.8
 45
431.8
 46
0.0
 47
0.0
 48
0.0
 49
0.0
140
0.0
141
0.0
142
1.0
143
1.0
 70
1024
 72
0
 73
0
 74
0
  7

 75
0
147
1.0
148
0.0
149
0.0
100
AcDbLayout
  1
Model
 70
0
 71
0
 10
0.0
 20
0.0
 11
22.0
 21
17.0
 12
0.0
 22
0.0
 32
0.0
 14
0.0
 24
0.0
 34
0.0
 15
0.0
 25
0.0
 35
0.0
146
0.0
 13
0.0
 23
0.0
 33
0.0
 16
1.0
 26
0.0
 36
0.0
 17
0.0
 27
1.0
 37
0.0
 76
0
330
205
345
0
346
0
  0
LAYOUT
  5
231
102
{ACAD_REACTORS
330
1A
102
}
100
AcDbPlotSettings
  1

  2
none_device
  4
ANSI_C_(22.00_x_17.00_Inches)
  6

 40
0.0
 41
0.0
 42
0.0
 43
0.0
 44
558.8
 45
431.8
 46
0.0
 47
0.0
 48
0.0
 49
0.0
140
0.0
141
0.0
142
1.0
143
1.0
 70
0
 72
0
 73
0
 74
0
  7

 75
0
147
1.0
148
0.0
149
0.0
100
AcDbLayout
  1
Layout1
 70
0
 71
1
 10
0.0
 20
0.0
 11
22.0
 21
17.0
 12
0.0
 22
0.0
 32
0.0
 14
0.0
 24
0.0
 34
0.0
 15
0.0
 25
0.0
 35
0.0
146
0.0
 13
0.0
 23
0.0
 33
0.0
 16
1.0
 26
0.0
 36
0.0
 17
0.0
 27
1.0
 37
0.0
 76
0
330
206
345
0
346
0
  0
ENDSEC
  0
EOF
