999
DXF file: E:\BT Custom\CADOUTPUT\_TOP.dxf
999
Pro/ENGINEER 2018400 by Parametric Technology Corporation
  0
SECTION
  2
HEADER
  9
$ACADVER
  1
AC1018
  9
$DWGCODEPAGE
  3
ANSI_1252
  9
$EXTMAX
 10
22.0
 20
17.0
 30
0.0
  9
$EXTMIN
 10
0.0
 20
0.0
 30
0.0
  9
$LIMMIN
 10
0.0
 20
0.0
  9
$LIMMAX
 10
22.0
 20
17.0
  9
$VIEWCTR
 10
11.0
 20
8.5
  9
$VIEWSIZE
 40
17.0
  9
$CLAYER
  8
0
  9
$LTSCALE
 40
1.21
  9
$CELTYPE
  6
BYLAYER
  9
$DIMSCALE
 40
1.0
  9
$DIMASZ
 40
0.1
  9
$DIMEXO
 40
0.0625
  9
$DIMDLI
 40
0.836
  9
$DIMEXE
 40
0.125
  9
$DIMCEN
 40
0.198
  9
$DIMLFAC
 40
1.0
  9
$DIMBLK
  1
_FILLED
  9
$DIMALT
 70
1
  9
$DIMALTD
 70
2
  9
$DIMALTTD
 70
2
  9
$DIMALTF
 40
25.4
  9
$DIMTXT
 40
0.08
  9
$DIMTOL
 70
1
  9
$DIMLIM
 70
0
  9
$DIMTFAC
 40
1.0
  9
$DIMTP
 40
0.001
  9
$DIMTM
 40
0.001
  9
$DIMGAP
 40
0.09
  9
$DIMDSEP
 70
46
  9
$AUNITS
 70
0
  9
$PDMODE
 70
3
  9
$PDSIZE
 40
0.06
  9
$HANDSEED
  5
238
  9
$TILEMODE
 70
1
  9
$MEASUREMENT
 70
0
  9
$INSUNITS
 70
1
  0
ENDSEC
  0
SECTION
  2
CLASSES
  0
CLASS
  1
ACDBDICTIONARYWDFLT
  2
AcDbDictionaryWithDefault
  3
AutoCAD 2000
 90
0
 91
1
280
0
281
0
  0
CLASS
  1
ACDBPLACEHOLDER
  2
AcDbPlaceHolder
  3
AutoCAD 2000
 90
0
 91
1
280
0
281
0
  0
CLASS
  1
LAYOUT
  2
AcDbLayout
  3
AutoCAD 2000
 90
0
 91
0
280
0
281
0
  0
ENDSEC
  0
SECTION
  2
TABLES
  0
TABLE
  2
VPORT
  5
8
100
AcDbSymbolTable
 70
2
  0
VPORT
  5
1F4
100
AcDbSymbolTableRecord
100
AcDbViewportTableRecord
  2
*ACTIVE
 70
0
 10
0.0
 20
0.0
 11
1.0
 21
1.0
 12
11.0
 22
8.5
 13
0.0
 23
0.0
 14
1.0
 24
1.0
 15
0.0
 25
0.0
 16
0.0
 26
0.0
 36
1.0
 17
0.0
 27
0.0
 37
0.0
 40
17.0
 41
1.2941176471
 42
50.0
 43
0.0
 44
0.0
 50
0.0
 51
0.0
 71
0
 72
100
 73
1
 74
1
 75
0
 76
0
 77
0
 78
0
  0
ENDTAB
  0
TABLE
  2
LTYPE
  5
5
100
AcDbSymbolTable
 70
6
  0
LTYPE
  5
14
100
AcDbSymbolTableRecord
100
AcDbLinetypeTableRecord
  2
BYBLOCK
 70
0
  3

 72
65
 73
0
 40
0.0
  0
LTYPE
  5
15
100
AcDbSymbolTableRecord
100
AcDbLinetypeTableRecord
  2
BYLAYER
 70
0
  3

 72
65
 73
0
 40
0.0
  0
LTYPE
  5
16
100
AcDbSymbolTableRecord
100
AcDbLinetypeTableRecord
  2
CONTINUOUS
 70
64
  3
Solid line
 72
65
 73
0
 40
0.0
  0
LTYPE
  5
1F5
100
AcDbSymbolTableRecord
100
AcDbLinetypeTableRecord
  2
CENTER
 70
64
  3
____ _ ____ _ ____ _ ____ _ ____ _ ____ _ ____
 72
65
 73
4
 40
0.6
 49
0.375
 74
0
 49
-0.075
 74
0
 49
0.075
 74
0
 49
-0.075
 74
0
  0
LTYPE
  5
1F6
100
AcDbSymbolTableRecord
100
AcDbLinetypeTableRecord
  2
HIDDEN
 70
64
  3
- - - - - - - - - - - - - - - - - - - -
 72
65
 73
2
 40
0.2
 49
0.1
 74
0
 49
-0.1
 74
0
  0
LTYPE
  5
1F7
100
AcDbSymbolTableRecord
100
AcDbLinetypeTableRecord
  2
PHANTOM
 70
64
  3
_____ _ _ _____ _ _ _____ _ _ _____
 72
65
 73
6
 40
0.8
 49
0.45
 74
0
 49
-0.05
 74
0
 49
0.1
 74
0
 49
-0.05
 74
0
 49
0.1
 74
0
 49
-0.05
 74
0
  0
LTYPE
  5
1F8
100
AcDbSymbolTableRecord
100
AcDbLinetypeTableRecord
  2
DOT
 70
64
  3
. . . . . . . . . . . . . . . . . . . .
 72
65
 73
2
 40
0.2
 49
0.1
 74
0
 49
-0.1
 74
0
  0
LTYPE
  5
1F9
100
AcDbSymbolTableRecord
100
AcDbLinetypeTableRecord
  2
DASHED
 70
64
  3
- - - - - - - - - - - - - - - - - - - -
 72
65
 73
2
 40
0.2
 49
0.1
 74
0
 49
-0.1
 74
0
  0
ENDTAB
  0
TABLE
  2
LAYER
  5
2
100
AcDbSymbolTable
 70
36
  0
LAYER
  5
10
100
AcDbSymbolTableRecord
100
AcDbLayerTableRecord
  2
0
 70
0
 62
7
  6
CONTINUOUS
370
-3
390
F
  0
LAYER
  5
1FA
100
AcDbSymbolTableRecord
100
AcDbLayerTableRecord
  2
DEFAULT_1
 70
0
 62
7
  6
CENTER
370
-3
390
F
  0
LAYER
  5
1FB
100
AcDbSymbolTableRecord
100
AcDbLayerTableRecord
  2
DEFAULT_2
 70
0
 62
8
  6
HIDDEN
370
-3
390
F
  0
LAYER
  5
1FC
100
AcDbSymbolTableRecord
100
AcDbLayerTableRecord
  2
DEFAULT_3
 70
0
 62
7
  6
PHANTOM
370
-3
390
F
  0
LAYER
  5
1FD
100
AcDbSymbolTableRecord
100
AcDbLayerTableRecord
  2
ALL_FEATURES
 70
0
 62
7
  6
CONTINUOUS
370
-3
390
F
  0
LAYER
  5
1FE
100
AcDbSymbolTableRecord
100
AcDbLayerTableRecord
  2
AXES_FEATURES
 70
0
 62
7
  6
CONTINUOUS
370
-3
390
F
  0
LAYER
  5
1FF
100
AcDbSymbolTableRecord
100
AcDbLayerTableRecord
  2
DEFAULT_COORDINATE_SYSTEM
 70
0
 62
7
  6
CONTINUOUS
370
-3
390
F
  0
LAYER
  5
200
100
AcDbSymbolTableRecord
100
AcDbLayerTableRecord
  2
DEFAULT_DATUM_AXES
 70
0
 62
7
  6
CONTINUOUS
370
-3
390
F
  0
LAYER
  5
201
100
AcDbSymbolTableRecord
100
AcDbLayerTableRecord
  2
DEFAULT_DATUM_PLANES
 70
0
 62
7
  6
CONTINUOUS
370
-3
390
F
  0
LAYER
  5
202
100
AcDbSymbolTableRecord
100
AcDbLayerTableRecord
  2
DIMENSIONS
 70
0
 62
7
  6
CONTINUOUS
370
-3
390
F
  0
ENDTAB
  0
TABLE
  2
STYLE
  5
3
100
AcDbSymbolTable
 70
1
  0
STYLE
  5
11
100
AcDbSymbolTableRecord
100
AcDbTextStyleTableRecord
  2
STANDARD
 70
0
 40
0.0
 41
0.8
 50
0.0
 71
0
 42
0.2
  3
txt
  4

  0
STYLE
  5
203
100
AcDbSymbolTableRecord
100
AcDbTextStyleTableRecord
  2
TEXTSTYLE_1
 70
0
 40
0.0
 41
0.8
 50
0.0
 71
0
 42
0.2
  3
gdt
  4

  0
ENDTAB
  0
TABLE
  2
VIEW
  5
6
100
AcDbSymbolTable
 70
0
  0
ENDTAB
  0
TABLE
  2
UCS
  5
7
100
AcDbSymbolTable
 70
0
  0
ENDTAB
  0
TABLE
  2
APPID
  5
9
100
AcDbSymbolTable
 70
1
  0
APPID
  5
204
100
AcDbSymbolTableRecord
100
AcDbRegAppTableRecord
  2
ACAD
 70
0
  0
ENDTAB
  0
TABLE
  2
BLOCK_RECORD
  5
1
100
AcDbSymbolTable
 70
0
  0
BLOCK_RECORD
  5
205
100
AcDbSymbolTableRecord
100
AcDbBlockTableRecord
  2
*Model_Space
  0
BLOCK_RECORD
  5
206
100
AcDbSymbolTableRecord
100
AcDbBlockTableRecord
  2
*Paper_Space
  0
BLOCK_RECORD
  5
207
100
AcDbSymbolTableRecord
100
AcDbBlockTableRecord
  2
_FILLED
  0
ENDTAB
  0
TABLE
  2
DIMSTYLE
  5
A
100
AcDbSymbolTable
 70
1
100
AcDbDimStyleTable
 71
0
  0
DIMSTYLE
105
208
100
AcDbSymbolTableRecord
100
AcDbDimStyleTableRecord
  2
STANDARD
 70
0
  3

  4

 40
1.0
 41
0.1
 42
0.0625
 43
0.38
 44
0.125
 45
0.0
 46
0.0
 47
0.001
 48
0.001
140
0.08
141
0.09
142
0.0
143
25.4
144
1.0
145
0.0
146
1.0
147
0.09
 71
1.0
 72
0.0
 73
1
 74
1
 75
0
 76
0
 77
0
 78
4
 79
1
170
1
171
2
172
0
173
0
174
0
175
0
176
0
177
0
178
0
270
2
179
3
271
3
272
3
273
2
274
2
275
0
280
0
281
0
282
0
283
1
284
4
285
0
286
0
287
3
288
0
340
11
278
46
341
207
342
207
343
207
344
207
  0
ENDTAB
  0
ENDSEC
  0
SECTION
  2
BLOCKS
  0
BLOCK
  5
20
100
AcDbEntity
  8
0
100
AcDbBlockBegin
  2
*Model_Space
 70
0
 10
0.0
 20
0.0
 30
0.0
  3
*Model_Space
  1

  0
ENDBLK
  5
21
100
AcDbEntity
  8
0
100
AcDbBlockEnd
  0
BLOCK
  5
1C
100
AcDbEntity
  8
0
100
AcDbBlockBegin
  2
*Paper_Space
 70
0
 10
0.0
 20
0.0
 30
0.0
  3
*Paper_Space
  1

  0
ENDBLK
  5
1D
100
AcDbEntity
  8
0
100
AcDbBlockEnd
  0
BLOCK
  5
209
100
AcDbEntity
  8
0
100
AcDbBlockBegin
  2
_FILLED
 70
64
 10
0.0
 20
0.0
  3
_FILLED
  1

  0
SOLID
  5
20A
100
AcDbEntity
  8
0
  6
BYBLOCK
 62
0
100
AcDbTrace
 10
0.0
 20
0.0
 11
-1.0
 21
0.2
 12
-1.0
 22
-0.2
 13
-1.0
 23
-0.2
  0
ENDBLK
  5
20B
100
AcDbEntity
  8
0
  6
BYBLOCK
 62
0
100
AcDbBlockEnd
  0
ENDSEC
  0
SECTION
  2
ENTITIES
  0
LINE
  5
20C
100
AcDbEntity
  8
0
100
AcDbLine
 62
7
  6
CONTINUOUS
 10
-6.4526816617
 20
8.8573318604
 11
-6.4526816617
 21
8.6286814185
  0
LINE
  5
20D
100
AcDbEntity
  8
0
100
AcDbLine
 62
7
  6
CONTINUOUS
 10
-5.8276816617
 20
8.3323318604
 11
-5.8276816617
 21
8.3173318604
  0
LINE
  5
20E
100
AcDbEntity
  8
0
100
AcDbLine
 62
7
  6
CONTINUOUS
 10
-4.0776816617
 20
8.3173318604
 11
-4.0776816617
 21
8.3323318604
  0
LINE
  5
20F
100
AcDbEntity
  8
0
100
AcDbLine
 62
7
  6
CONTINUOUS
 10
-3.4526816617
 20
8.8573318604
 11
-3.4526816617
 21
8.6286814185
  0
LINE
  5
210
100
AcDbEntity
  8
0
100
AcDbLine
 62
9
  6
CONTINUOUS
 10
-3.3276816617
 20
7.3573318604
 11
-3.3276816617
 21
6.1073318604
  0
LINE
  5
211
100
AcDbEntity
  8
0
100
AcDbLine
 62
7
  6
CONTINUOUS
 10
-3.3276816617
 20
6.1073318604
 11
25.4223183383
 21
6.1073318604
  0
LINE
  5
212
100
AcDbEntity
  8
0
100
AcDbLine
 62
7
  6
CONTINUOUS
 10
-3.3276816617
 20
7.3573318604
 11
25.4223183383
 21
7.3573318604
  0
LINE
  5
213
100
AcDbEntity
  8
0
100
AcDbLine
 62
7
  6
CONTINUOUS
 10
27.8623183383
 20
8.2573318604
 11
26.2323183383
 21
8.2573318604
  0
LINE
  5
214
100
AcDbEntity
  8
0
100
AcDbLine
 62
7
  6
CONTINUOUS
 10
-4.1376816617
 20
8.2573318604
 11
-5.7676816617
 21
8.2573318604
  0
LINE
  5
215
100
AcDbEntity
  8
0
100
AcDbLine
 62
9
  6
CONTINUOUS
 10
27.9223183383
 20
8.3173318604
 11
26.1723183383
 21
8.3173318604
  0
LINE
  5
216
100
AcDbEntity
  8
0
100
AcDbLine
 62
9
  6
CONTINUOUS
 10
-4.0776816617
 20
8.3173318604
 11
-5.8276816617
 21
8.3173318604
  0
LINE
  5
217
100
AcDbEntity
  8
0
100
AcDbLine
 62
7
  6
CONTINUOUS
 10
28.0921571039
 20
8.3323318604
 11
26.0024795727
 21
8.3323318604
  0
LINE
  5
218
100
AcDbEntity
  8
0
100
AcDbLine
 62
7
  6
CONTINUOUS
 10
-3.9078428961
 20
8.3323318604
 11
-5.9975204273
 21
8.3323318604
  0
LINE
  5
219
100
AcDbEntity
  8
0
100
AcDbLine
 62
7
  6
CONTINUOUS
 10
-6.4526816617
 20
8.8573318604
 11
-3.4526816617
 21
8.8573318604
  0
LINE
  5
21A
100
AcDbEntity
  8
0
100
AcDbLine
 62
7
  6
CONTINUOUS
 10
25.5473183383
 20
8.8573318604
 11
28.5473183383
 21
8.8573318604
  0
LINE
  5
21B
100
AcDbEntity
  8
0
100
AcDbLine
 62
9
  6
CONTINUOUS
 10
25.4223183383
 20
7.3573318604
 11
25.4223183383
 21
6.1073318604
  0
LINE
  5
21C
100
AcDbEntity
  8
0
100
AcDbLine
 62
7
  6
CONTINUOUS
 10
25.5473183383
 20
8.8573318604
 11
25.5473183383
 21
8.6286814185
  0
LINE
  5
21D
100
AcDbEntity
  8
0
100
AcDbLine
 62
7
  6
CONTINUOUS
 10
26.1723183383
 20
8.3323318604
 11
26.1723183383
 21
8.3173318604
  0
LINE
  5
21E
100
AcDbEntity
  8
0
100
AcDbLine
 62
7
  6
CONTINUOUS
 10
27.9223183383
 20
8.3173318604
 11
27.9223183383
 21
8.3323318604
  0
LINE
  5
21F
100
AcDbEntity
  8
0
100
AcDbLine
 62
7
  6
CONTINUOUS
 10
28.5473183383
 20
8.8573318604
 11
28.5473183383
 21
8.6286814185
  0
ARC
  5
220
100
AcDbEntity
  8
0
100
AcDbCircle
 62
7
  6
CONTINUOUS
 10
25.4223183383
 20
8.3573318604
 40
2.25
100
AcDbArc
 50
270.0
 51
357.4526818174
  0
ARC
  5
221
100
AcDbEntity
  8
0
100
AcDbCircle
 62
7
  6
CONTINUOUS
 10
-3.3276816617
 20
8.3573318604
 40
2.25
100
AcDbArc
 50
182.5473181826
 51
270.0
  0
ARC
  5
222
100
AcDbEntity
  8
0
100
AcDbCircle
 62
7
  6
CONTINUOUS
 10
25.4223183383
 20
8.3573318604
 40
1.0
100
AcDbArc
 50
270.0
 51
354.2608295227
  0
ARC
  5
223
100
AcDbEntity
  8
0
100
AcDbCircle
 62
7
  6
CONTINUOUS
 10
-3.3276816617
 20
8.3573318604
 40
1.0
100
AcDbArc
 50
185.7391704773
 51
270.0
  0
ARC
  5
224
100
AcDbEntity
  8
0
100
AcDbCircle
 62
7
  6
CONTINUOUS
 10
26.2323183383
 20
8.3173318604
 40
0.06
100
AcDbArc
 50
180.0
 51
270.0
  0
ARC
  5
225
100
AcDbEntity
  8
0
100
AcDbCircle
 62
7
  6
CONTINUOUS
 10
27.8623183383
 20
8.3173318604
 40
0.06
100
AcDbArc
 50
270.0
 51
360.0
  0
ARC
  5
226
100
AcDbEntity
  8
0
100
AcDbCircle
 62
7
  6
CONTINUOUS
 10
-5.7676816617
 20
8.3173318604
 40
0.06
100
AcDbArc
 50
180.0
 51
270.0
  0
ARC
  5
227
100
AcDbEntity
  8
0
100
AcDbCircle
 62
7
  6
CONTINUOUS
 10
-4.1376816617
 20
8.3173318604
 40
0.06
100
AcDbArc
 50
270.0
 51
360.0
  0
SPLINE
  5
228
100
AcDbEntity
  8
0
100
AcDbSpline
 62
7
  6
CONTINUOUS
 70
0
 71
3
 72
13
 73
9
 74
0
 42
0.0000001
 43
0.0000001
 44
0.0000000001
 40
0.0
 40
0.0
 40
0.0
 40
0.0
 40
0.2499696724
 40
0.4999299602
 40
0.6249486556
 40
0.7499647019
 40
0.8749853232
 40
1.0
 40
1.0
 40
1.0
 40
1.0
 10
-3.4526816617
 20
8.6286814185
 30
0.0
 10
-3.4949473921
 20
8.6117024655
 30
0.0
 10
-3.5779517005
 20
8.5737965626
 30
0.0
 10
-3.6766869415
 20
8.5166755458
 30
0.0
 10
-3.7519403054
 20
8.4652599239
 30
0.0
 10
-3.806354137
 20
8.4238592212
 30
0.0
 10
-3.8585322063
 20
8.3796782866
 30
0.0
 10
-3.8917013991
 20
8.3484057204
 30
0.0
 10
-3.9078428961
 20
8.3323318604
 30
0.0
  0
SPLINE
  5
229
100
AcDbEntity
  8
0
100
AcDbSpline
 62
7
  6
CONTINUOUS
 70
0
 71
3
 72
13
 73
9
 74
0
 42
0.0000001
 43
0.0000001
 44
0.0000000001
 40
0.0
 40
0.0
 40
0.0
 40
0.0
 40
0.2499696714
 40
0.4999299829
 40
0.6249486776
 40
0.7499647043
 40
0.8749853152
 40
1.0
 40
1.0
 40
1.0
 40
1.0
 10
-6.4526816617
 20
8.6286814185
 30
0.0
 10
-6.4104159315
 20
8.6117024656
 30
0.0
 10
-6.3274116194
 20
8.5737965609
 30
0.0
 10
-6.228676375
 20
8.5166755418
 30
0.0
 10
-6.1534230113
 20
8.4652599186
 30
0.0
 10
-6.0990091838
 20
8.4238592196
 30
0.0
 10
-6.0468311183
 20
8.3796782869
 30
0.0
 10
-6.0136619253
 20
8.3484057214
 30
0.0
 10
-5.9975204273
 20
8.3323318604
 30
0.0
  0
SPLINE
  5
22A
100
AcDbEntity
  8
0
100
AcDbSpline
 62
7
  6
CONTINUOUS
 70
0
 71
3
 72
13
 73
9
 74
0
 42
0.0000001
 43
0.0000001
 44
0.0000000001
 40
0.0
 40
0.0
 40
0.0
 40
0.0
 40
0.2499696714
 40
0.4999299829
 40
0.6249486776
 40
0.7499647043
 40
0.8749853152
 40
1.0
 40
1.0
 40
1.0
 40
1.0
 10
25.5473183383
 20
8.6286814185
 30
0.0
 10
25.5895840685
 20
8.6117024656
 30
0.0
 10
25.6725883806
 20
8.5737965609
 30
0.0
 10
25.771323625
 20
8.5166755418
 30
0.0
 10
25.8465769887
 20
8.4652599186
 30
0.0
 10
25.9009908162
 20
8.4238592196
 30
0.0
 10
25.9531688817
 20
8.3796782869
 30
0.0
 10
25.9863380747
 20
8.3484057214
 30
0.0
 10
26.0024795727
 20
8.3323318604
 30
0.0
  0
SPLINE
  5
22B
100
AcDbEntity
  8
0
100
AcDbSpline
 62
7
  6
CONTINUOUS
 70
0
 71
3
 72
13
 73
9
 74
0
 42
0.0000001
 43
0.0000001
 44
0.0000000001
 40
0.0
 40
0.0
 40
0.0
 40
0.0
 40
0.2499696724
 40
0.4999299602
 40
0.6249486556
 40
0.7499647019
 40
0.8749853232
 40
1.0
 40
1.0
 40
1.0
 40
1.0
 10
28.5473183383
 20
8.6286814185
 30
0.0
 10
28.5050526079
 20
8.6117024655
 30
0.0
 10
28.4220482995
 20
8.5737965626
 30
0.0
 10
28.3233130585
 20
8.5166755458
 30
0.0
 10
28.2480596946
 20
8.4652599239
 30
0.0
 10
28.193645863
 20
8.4238592212
 30
0.0
 10
28.1414677937
 20
8.3796782866
 30
0.0
 10
28.1082986009
 20
8.3484057204
 30
0.0
 10
28.0921571039
 20
8.3323318604
 30
0.0
  0
SPLINE
  5
22C
100
AcDbEntity
  8
0
100
AcDbSpline
 62
7
  6
CONTINUOUS
 70
0
 71
3
 72
38
 73
34
 74
0
 42
0.0000001
 43
0.0000001
 44
0.0000000001
 40
0.0
 40
0.0
 40
0.0
 40
0.0
 40
0.1070702666
 40
0.2094767825
 40
0.3067642147
 40
0.3533579188
 40
0.398517899
 40
0.4843478673
 40
0.5639031393
 40
0.601226394
 40
0.6368621109
 40
0.6707758173
 40
0.7029347831
 40
0.7333106739
 40
0.7618780454
 40
0.7886177721
 40
0.8135165281
 40
0.8365710574
 40
0.8577904017
 40
0.8772019682
 40
0.894859755
 40
0.9108551868
 40
0.925336765
 40
0.9385292646
 40
0.9447464494
 40
0.9507743748
 40
0.9566716064
 40
0.9625037255
 40
0.968340395
 40
0.974252773
 40
0.9803111651
 40
0.9865830088
 40
1.0
 40
1.0
 40
1.0
 40
1.0
 10
27.7973183383
 20
8.6286814185
 30
0.0
 10
27.8245449321
 20
8.6359730477
 30
0.0
 10
27.8781540104
 20
8.6489901276
 30
0.0
 10
27.9573760074
 20
8.6647476926
 30
0.0
 10
28.0213990418
 20
8.6750633032
 30
0.0
 10
28.0707108154
 20
8.6817746042
 30
0.0
 10
28.1171247372
 20
8.6873718126
 30
0.0
 10
28.1722877508
 20
8.6928379878
 30
0.0
 10
28.22551845
 20
8.696682056
 30
0.0
 10
28.265614639
 20
8.6987633254
 30
0.0
 10
28.293728983
 20
8.6998412829
 30
0.0
 10
28.3204967924
 20
8.7004842331
 30
0.0
 10
28.3458868466
 20
8.7007068223
 30
0.0
 10
28.3698698304
 20
8.7005082029
 30
0.0
 10
28.3924188673
 20
8.6998900756
 30
0.0
 10
28.4135088
 20
8.6988386776
 30
0.0
 10
28.4331172299
 20
8.6973408096
 30
0.0
 10
28.451223825
 20
8.6953713826
 30
0.0
 10
28.4678113405
 20
8.6929012458
 30
0.0
 10
28.4828660974
 20
8.6898937062
 30
0.0
 10
28.4963775586
 20
8.6863027263
 30
0.0
 10
28.5083414917
 20
8.6820749108
 30
0.0
 10
28.5187523542
 20
8.677143368
 30
0.0
 10
28.5262772031
 20
8.6722826522
 30
0.0
 10
28.5314136537
 20
8.667974537
 30
0.0
 10
28.5347914185
 20
8.664588431
 30
0.0
 10
28.5377683799
 20
8.6609747678
 30
0.0
 10
28.5403434359
 20
8.6571243928
 30
0.0
 10
28.542515951
 20
8.6530286917
 30
0.0
 10
28.5442859984
 20
8.6486795816
 30
0.0
 10
28.5456544799
 20
8.6440684618
 30
0.0
 10
28.5469771272
 20
8.6374133033
 30
0.0
 10
28.5473183383
 20
8.6322134208
 30
0.0
 10
28.5473183383
 20
8.6286814185
 30
0.0
  0
SPLINE
  5
22D
100
AcDbEntity
  8
0
100
AcDbSpline
 62
7
  6
CONTINUOUS
 70
0
 71
3
 72
14
 73
10
 74
0
 42
0.0000001
 43
0.0000001
 44
0.0000000001
 40
0.0
 40
0.0
 40
0.0
 40
0.0
 40
0.2237172292
 40
0.3417743409
 40
0.4641994662
 40
0.59114405
 40
0.7227170656
 40
0.8589973565
 40
1.0
 40
1.0
 40
1.0
 40
1.0
 10
26.2973183383
 20
8.6286814185
 30
0.0
 10
26.3191992899
 20
8.6111014243
 30
0.0
 10
26.35084051
 20
8.5819470379
 30
0.0
 10
26.3901040763
 20
8.5389094527
 30
0.0
 10
26.4192428006
 20
8.503154545
 30
0.0
 10
26.4474445504
 20
8.4645423417
 30
0.0
 10
26.4746223484
 20
8.4231071618
 30
0.0
 10
26.5006783001
 20
8.3789002619
 30
0.0
 10
26.5169608408
 20
8.3481415644
 30
0.0
 10
26.5248989555
 20
8.3323318604
 30
0.0
  0
SPLINE
  5
22E
100
AcDbEntity
  8
0
100
AcDbSpline
 62
7
  6
CONTINUOUS
 70
0
 71
3
 72
14
 73
10
 74
0
 42
0.0000001
 43
0.0000001
 44
0.0000000001
 40
0.0
 40
0.0
 40
0.0
 40
0.0
 40
0.141002635
 40
0.2772829366
 40
0.4088559729
 40
0.5358005564
 40
0.6582256703
 40
0.7762827699
 40
1.0
 40
1.0
 40
1.0
 40
1.0
 10
27.5697377211
 20
8.3323318604
 30
0.0
 10
27.5776758353
 20
8.3481415634
 30
0.0
 10
27.5939583757
 20
8.3789002614
 30
0.0
 10
27.6200143295
 20
8.4231071634
 30
0.0
 10
27.6471921294
 20
8.4645423467
 30
0.0
 10
27.6753938804
 20
8.5031545506
 30
0.0
 10
27.7045326031
 20
8.5389094558
 30
0.0
 10
27.7437961674
 20
8.5819470388
 30
0.0
 10
27.7754373866
 20
8.6111014242
 30
0.0
 10
27.7973183383
 20
8.6286814185
 30
0.0
  0
SPLINE
  5
22F
100
AcDbEntity
  8
0
100
AcDbSpline
 62
7
  6
CONTINUOUS
 70
0
 71
3
 72
23
 73
19
 74
0
 42
0.0000001
 43
0.0000001
 44
0.0000000001
 40
0.0
 40
0.0
 40
0.0
 40
0.0
 40
0.0579797098
 40
0.1176551064
 40
0.1788763199
 40
0.2414375695
 40
0.305097795
 40
0.3695952585
 40
0.4346560897
 40
0.5
 40
0.5653439103
 40
0.6304047416
 40
0.694902205
 40
0.7585624305
 40
0.8211236802
 40
0.8823448936
 40
0.9420202902
 40
1.0
 40
1.0
 40
1.0
 40
1.0
 10
26.2973183383
 20
8.6286814185
 30
0.0
 10
26.3255213939
 20
8.6362345567
 30
0.0
 10
26.3832766171
 20
8.649641227
 30
0.0
 10
26.4720171879
 20
8.6652804426
 30
0.0
 10
26.5636295221
 20
8.6773800923
 30
0.0
 10
26.6575943635
 20
8.6864926037
 30
0.0
 10
26.7534188389
 20
8.6930843265
 30
0.0
 10
26.8506240594
 20
8.697524694
 30
0.0
 10
26.9487435658
 20
8.7000810605
 30
0.0
 10
27.0473183383
 20
8.7009151436
 30
0.0
 10
27.1458931109
 20
8.7000810605
 30
0.0
 10
27.2440126173
 20
8.697524694
 30
0.0
 10
27.3412178377
 20
8.6930843265
 30
0.0
 10
27.4370423131
 20
8.6864926037
 30
0.0
 10
27.5310071545
 20
8.6773800923
 30
0.0
 10
27.6226194887
 20
8.6652804426
 30
0.0
 10
27.7113600594
 20
8.649641227
 30
0.0
 10
27.7691152826
 20
8.6362345567
 30
0.0
 10
27.7973183383
 20
8.6286814185
 30
0.0
  0
SPLINE
  5
230
100
AcDbEntity
  8
0
100
AcDbSpline
 62
7
  6
CONTINUOUS
 70
0
 71
3
 72
38
 73
34
 74
0
 42
0.0000001
 43
0.0000001
 44
0.0000000001
 40
0.0
 40
0.0
 40
0.0
 40
0.0
 40
0.0134169912
 40
0.0196888349
 40
0.025747227
 40
0.031659605
 40
0.0374962745
 40
0.0433283936
 40
0.0492256252
 40
0.0552535506
 40
0.0614707354
 40
0.074663235
 40
0.0891448132
 40
0.105140245
 40
0.1227980318
 40
0.1422095983
 40
0.1634289426
 40
0.1864834719
 40
0.2113822279
 40
0.2381219547
 40
0.2666893261
 40
0.2970652169
 40
0.3292241828
 40
0.3631378892
 40
0.3987736061
 40
0.4360968608
 40
0.5156521328
 40
0.601482101
 40
0.6466420812
 40
0.6932357852
 40
0.7905232174
 40
0.8929297333
 40
1.0
 40
1.0
 40
1.0
 40
1.0
 10
25.5473183383
 20
8.6286814185
 30
0.0
 10
25.5473183383
 20
8.6322134208
 30
0.0
 10
25.5476595494
 20
8.6374133033
 30
0.0
 10
25.5489821967
 20
8.6440684618
 30
0.0
 10
25.5503506781
 20
8.6486795816
 30
0.0
 10
25.5521207256
 20
8.6530286917
 30
0.0
 10
25.5542932407
 20
8.6571243928
 30
0.0
 10
25.5568682967
 20
8.6609747678
 30
0.0
 10
25.5598452581
 20
8.664588431
 30
0.0
 10
25.5632230229
 20
8.667974537
 30
0.0
 10
25.5683594735
 20
8.6722826522
 30
0.0
 10
25.5758843223
 20
8.677143368
 30
0.0
 10
25.5862951849
 20
8.6820749108
 30
0.0
 10
25.598259118
 20
8.6863027263
 30
0.0
 10
25.6117705792
 20
8.6898937062
 30
0.0
 10
25.6268253361
 20
8.6929012458
 30
0.0
 10
25.6434128516
 20
8.6953713826
 30
0.0
 10
25.6615194467
 20
8.6973408096
 30
0.0
 10
25.6811278766
 20
8.6988386776
 30
0.0
 10
25.7022178093
 20
8.6998900756
 30
0.0
 10
25.7247668462
 20
8.7005082029
 30
0.0
 10
25.7487498301
 20
8.7007068223
 30
0.0
 10
25.7741398842
 20
8.7004842331
 30
0.0
 10
25.8009076936
 20
8.6998412829
 30
0.0
 10
25.8290220376
 20
8.6987633254
 30
0.0
 10
25.8691182267
 20
8.696682056
 30
0.0
 10
25.9223489258
 20
8.6928379878
 30
0.0
 10
25.9775119394
 20
8.6873718126
 30
0.0
 10
26.0239258611
 20
8.6817746042
 30
0.0
 10
26.0732376347
 20
8.6750633032
 30
0.0
 10
26.1372606691
 20
8.6647476927
 30
0.0
 10
26.2164826661
 20
8.6489901276
 30
0.0
 10
26.2700917445
 20
8.6359730478
 30
0.0
 10
26.2973183383
 20
8.6286814185
 30
0.0
  0
SPLINE
  5
231
100
AcDbEntity
  8
0
100
AcDbSpline
 62
7
  6
CONTINUOUS
 70
0
 71
3
 72
38
 73
34
 74
0
 42
0.0000001
 43
0.0000001
 44
0.0000000001
 40
0.0
 40
0.0
 40
0.0
 40
0.0
 40
0.0134169912
 40
0.0196888349
 40
0.025747227
 40
0.031659605
 40
0.0374962745
 40
0.0433283936
 40
0.0492256252
 40
0.0552535506
 40
0.0614707354
 40
0.074663235
 40
0.0891448132
 40
0.105140245
 40
0.1227980318
 40
0.1422095983
 40
0.1634289426
 40
0.1864834719
 40
0.2113822279
 40
0.2381219547
 40
0.2666893261
 40
0.2970652169
 40
0.3292241828
 40
0.3631378892
 40
0.3987736061
 40
0.4360968608
 40
0.5156521328
 40
0.601482101
 40
0.6466420812
 40
0.6932357852
 40
0.7905232174
 40
0.8929297333
 40
1.0
 40
1.0
 40
1.0
 40
1.0
 10
-6.4526816617
 20
8.6286814185
 30
0.0
 10
-6.4526816617
 20
8.6322134208
 30
0.0
 10
-6.4523404506
 20
8.6374133033
 30
0.0
 10
-6.4510178033
 20
8.6440684618
 30
0.0
 10
-6.4496493219
 20
8.6486795816
 30
0.0
 10
-6.4478792744
 20
8.6530286917
 30
0.0
 10
-6.4457067593
 20
8.6571243928
 30
0.0
 10
-6.4431317033
 20
8.6609747678
 30
0.0
 10
-6.4401547419
 20
8.664588431
 30
0.0
 10
-6.4367769771
 20
8.667974537
 30
0.0
 10
-6.4316405265
 20
8.6722826522
 30
0.0
 10
-6.4241156777
 20
8.677143368
 30
0.0
 10
-6.4137048151
 20
8.6820749108
 30
0.0
 10
-6.401740882
 20
8.6863027263
 30
0.0
 10
-6.3882294208
 20
8.6898937062
 30
0.0
 10
-6.3731746639
 20
8.6929012458
 30
0.0
 10
-6.3565871484
 20
8.6953713826
 30
0.0
 10
-6.3384805533
 20
8.6973408096
 30
0.0
 10
-6.3188721234
 20
8.6988386776
 30
0.0
 10
-6.2977821907
 20
8.6998900756
 30
0.0
 10
-6.2752331538
 20
8.7005082029
 30
0.0
 10
-6.2512501699
 20
8.7007068223
 30
0.0
 10
-6.2258601158
 20
8.7004842331
 30
0.0
 10
-6.1990923064
 20
8.6998412829
 30
0.0
 10
-6.1709779624
 20
8.6987633254
 30
0.0
 10
-6.1308817733
 20
8.696682056
 30
0.0
 10
-6.0776510742
 20
8.6928379878
 30
0.0
 10
-6.0224880606
 20
8.6873718126
 30
0.0
 10
-5.9760741389
 20
8.6817746042
 30
0.0
 10
-5.9267623653
 20
8.6750633032
 30
0.0
 10
-5.8627393309
 20
8.6647476927
 30
0.0
 10
-5.7835173339
 20
8.6489901276
 30
0.0
 10
-5.7299082555
 20
8.6359730478
 30
0.0
 10
-5.7026816617
 20
8.6286814185
 30
0.0
  0
SPLINE
  5
232
100
AcDbEntity
  8
0
100
AcDbSpline
 62
7
  6
CONTINUOUS
 70
0
 71
3
 72
23
 73
19
 74
0
 42
0.0000001
 43
0.0000001
 44
0.0000000001
 40
0.0
 40
0.0
 40
0.0
 40
0.0
 40
0.0579797098
 40
0.1176551064
 40
0.1788763199
 40
0.2414375695
 40
0.305097795
 40
0.3695952585
 40
0.4346560897
 40
0.5
 40
0.5653439103
 40
0.6304047416
 40
0.694902205
 40
0.7585624305
 40
0.8211236802
 40
0.8823448936
 40
0.9420202902
 40
1.0
 40
1.0
 40
1.0
 40
1.0
 10
-5.7026816617
 20
8.6286814185
 30
0.0
 10
-5.6744786061
 20
8.6362345567
 30
0.0
 10
-5.6167233829
 20
8.649641227
 30
0.0
 10
-5.5279828121
 20
8.6652804426
 30
0.0
 10
-5.4363704779
 20
8.6773800923
 30
0.0
 10
-5.3424056365
 20
8.6864926037
 30
0.0
 10
-5.2465811611
 20
8.6930843265
 30
0.0
 10
-5.1493759406
 20
8.697524694
 30
0.0
 10
-5.0512564342
 20
8.7000810605
 30
0.0
 10
-4.9526816617
 20
8.7009151436
 30
0.0
 10
-4.8541068891
 20
8.7000810605
 30
0.0
 10
-4.7559873827
 20
8.697524694
 30
0.0
 10
-4.6587821623
 20
8.6930843265
 30
0.0
 10
-4.5629576869
 20
8.6864926037
 30
0.0
 10
-4.4689928455
 20
8.6773800923
 30
0.0
 10
-4.3773805113
 20
8.6652804426
 30
0.0
 10
-4.2886399406
 20
8.649641227
 30
0.0
 10
-4.2308847174
 20
8.6362345567
 30
0.0
 10
-4.2026816617
 20
8.6286814185
 30
0.0
  0
SPLINE
  5
233
100
AcDbEntity
  8
0
100
AcDbSpline
 62
7
  6
CONTINUOUS
 70
0
 71
3
 72
14
 73
10
 74
0
 42
0.0000001
 43
0.0000001
 44
0.0000000001
 40
0.0
 40
0.0
 40
0.0
 40
0.0
 40
0.141002635
 40
0.2772829366
 40
0.4088559729
 40
0.5358005564
 40
0.6582256703
 40
0.7762827699
 40
1.0
 40
1.0
 40
1.0
 40
1.0
 10
-4.4302622789
 20
8.3323318604
 30
0.0
 10
-4.4223241647
 20
8.3481415634
 30
0.0
 10
-4.4060416243
 20
8.3789002614
 30
0.0
 10
-4.3799856705
 20
8.4231071634
 30
0.0
 10
-4.3528078706
 20
8.4645423467
 30
0.0
 10
-4.3246061196
 20
8.5031545506
 30
0.0
 10
-4.2954673969
 20
8.5389094558
 30
0.0
 10
-4.2562038326
 20
8.5819470388
 30
0.0
 10
-4.2245626134
 20
8.6111014242
 30
0.0
 10
-4.2026816617
 20
8.6286814185
 30
0.0
  0
SPLINE
  5
234
100
AcDbEntity
  8
0
100
AcDbSpline
 62
7
  6
CONTINUOUS
 70
0
 71
3
 72
14
 73
10
 74
0
 42
0.0000001
 43
0.0000001
 44
0.0000000001
 40
0.0
 40
0.0
 40
0.0
 40
0.0
 40
0.2237172292
 40
0.3417743409
 40
0.4641994662
 40
0.59114405
 40
0.7227170656
 40
0.8589973565
 40
1.0
 40
1.0
 40
1.0
 40
1.0
 10
-5.7026816617
 20
8.6286814185
 30
0.0
 10
-5.6808007101
 20
8.6111014243
 30
0.0
 10
-5.64915949
 20
8.5819470379
 30
0.0
 10
-5.6098959237
 20
8.5389094527
 30
0.0
 10
-5.5807571994
 20
8.503154545
 30
0.0
 10
-5.5525554496
 20
8.4645423417
 30
0.0
 10
-5.5253776516
 20
8.4231071618
 30
0.0
 10
-5.4993216999
 20
8.3789002619
 30
0.0
 10
-5.4830391592
 20
8.3481415644
 30
0.0
 10
-5.4751010445
 20
8.3323318604
 30
0.0
  0
SPLINE
  5
235
100
AcDbEntity
  8
0
100
AcDbSpline
 62
7
  6
CONTINUOUS
 70
0
 71
3
 72
38
 73
34
 74
0
 42
0.0000001
 43
0.0000001
 44
0.0000000001
 40
0.0
 40
0.0
 40
0.0
 40
0.0
 40
0.1070702666
 40
0.2094767825
 40
0.3067642147
 40
0.3533579188
 40
0.398517899
 40
0.4843478673
 40
0.5639031393
 40
0.601226394
 40
0.6368621109
 40
0.6707758173
 40
0.7029347831
 40
0.7333106739
 40
0.7618780454
 40
0.7886177721
 40
0.8135165281
 40
0.8365710574
 40
0.8577904017
 40
0.8772019682
 40
0.894859755
 40
0.9108551868
 40
0.925336765
 40
0.9385292646
 40
0.9447464494
 40
0.9507743748
 40
0.9566716064
 40
0.9625037255
 40
0.968340395
 40
0.974252773
 40
0.9803111651
 40
0.9865830088
 40
1.0
 40
1.0
 40
1.0
 40
1.0
 10
-4.2026816617
 20
8.6286814185
 30
0.0
 10
-4.1754550679
 20
8.6359730477
 30
0.0
 10
-4.1218459896
 20
8.6489901276
 30
0.0
 10
-4.0426239926
 20
8.6647476926
 30
0.0
 10
-3.9786009582
 20
8.6750633032
 30
0.0
 10
-3.9292891846
 20
8.6817746042
 30
0.0
 10
-3.8828752628
 20
8.6873718126
 30
0.0
 10
-3.8277122492
 20
8.6928379878
 30
0.0
 10
-3.77448155
 20
8.696682056
 30
0.0
 10
-3.734385361
 20
8.6987633254
 30
0.0
 10
-3.706271017
 20
8.6998412829
 30
0.0
 10
-3.6795032076
 20
8.7004842331
 30
0.0
 10
-3.6541131534
 20
8.7007068223
 30
0.0
 10
-3.6301301696
 20
8.7005082029
 30
0.0
 10
-3.6075811327
 20
8.6998900756
 30
0.0
 10
-3.5864912
 20
8.6988386776
 30
0.0
 10
-3.5668827701
 20
8.6973408096
 30
0.0
 10
-3.548776175
 20
8.6953713826
 30
0.0
 10
-3.5321886595
 20
8.6929012458
 30
0.0
 10
-3.5171339026
 20
8.6898937062
 30
0.0
 10
-3.5036224414
 20
8.6863027263
 30
0.0
 10
-3.4916585083
 20
8.6820749108
 30
0.0
 10
-3.4812476458
 20
8.677143368
 30
0.0
 10
-3.4737227969
 20
8.6722826522
 30
0.0
 10
-3.4685863463
 20
8.667974537
 30
0.0
 10
-3.4652085815
 20
8.664588431
 30
0.0
 10
-3.4622316201
 20
8.6609747678
 30
0.0
 10
-3.4596565641
 20
8.6571243928
 30
0.0
 10
-3.457484049
 20
8.6530286917
 30
0.0
 10
-3.4557140016
 20
8.6486795816
 30
0.0
 10
-3.4543455201
 20
8.6440684618
 30
0.0
 10
-3.4530228728
 20
8.6374133033
 30
0.0
 10
-3.4526816617
 20
8.6322134208
 30
0.0
 10
-3.4526816617
 20
8.6286814185
 30
0.0
  0
ENDSEC
  0
SECTION
  2
OBJECTS
  0
DICTIONARY
  5
C
100
AcDbDictionary
280
0
281
1
  3
ACAD_GROUP
350
D
  3
ACAD_MLINESTYLE
350
17
  3
ACAD_LAYOUT
350
1A
  3
ACAD_PLOTSETTINGS
350
19
  3
ACAD_PLOTSTYLENAME
350
E
  0
DICTIONARY
  5
D
102
{ACAD_REACTORS
330
C
102
}
100
AcDbDictionary
280
0
281
1
  0
ACDBDICTIONARYWDFLT
  5
E
102
{ACAD_REACTORS
330
C
102
}
100
AcDbDictionary
281
1
  3
Normal
350
F
100
AcDbDictionaryWithDefault
340
F
  0
DICTIONARY
  5
17
102
{ACAD_REACTORS
330
C
102
}
100
AcDbDictionary
280
0
281
1
  3
Standard
350
18
  0
DICTIONARY
  5
19
102
{ACAD_REACTORS
330
C
102
}
100
AcDbDictionary
281
1
  0
DICTIONARY
  5
1A
102
{ACAD_REACTORS
330
C
102
}
100
AcDbDictionary
281
1
  3
Model
350
236
  3
Layout1
350
237
  0
ACDBPLACEHOLDER
  5
F
102
{ACAD_REACTORS
330
E
102
}
  0
MLINESTYLE
  5
18
102
{ACAD_REACTORS
330
17
102
}
100
AcDbMlineStyle
  2
STANDARD
 70
0
  3

 62
256
 51
90.0
 52
90.0
 71
2
 49
0.5
 62
256
  6
BYLAYER
 49
-0.5
 62
256
  6
BYLAYER
  0
LAYOUT
  5
236
102
{ACAD_REACTORS
330
1A
102
}
100
AcDbPlotSettings
  1

  2
none_device
  4
ANSI_C_(22.00_x_17.00_Inches)
  6

 40
0.0
 41
0.0
 42
0.0
 43
0.0
 44
558.8
 45
431.8
 46
0.0
 47
0.0
 48
0.0
 49
0.0
140
0.0
141
0.0
142
1.0
143
1.0
 70
1024
 72
0
 73
0
 74
0
  7

 75
0
147
1.0
148
0.0
149
0.0
100
AcDbLayout
  1
Model
 70
0
 71
0
 10
0.0
 20
0.0
 11
22.0
 21
17.0
 12
0.0
 22
0.0
 32
0.0
 14
0.0
 24
0.0
 34
0.0
 15
0.0
 25
0.0
 35
0.0
146
0.0
 13
0.0
 23
0.0
 33
0.0
 16
1.0
 26
0.0
 36
0.0
 17
0.0
 27
1.0
 37
0.0
 76
0
330
205
345
0
346
0
  0
LAYOUT
  5
237
102
{ACAD_REACTORS
330
1A
102
}
100
AcDbPlotSettings
  1

  2
none_device
  4
ANSI_C_(22.00_x_17.00_Inches)
  6

 40
0.0
 41
0.0
 42
0.0
 43
0.0
 44
558.8
 45
431.8
 46
0.0
 47
0.0
 48
0.0
 49
0.0
140
0.0
141
0.0
142
1.0
143
1.0
 70
0
 72
0
 73
0
 74
0
  7

 75
0
147
1.0
148
0.0
149
0.0
100
AcDbLayout
  1
Layout1
 70
0
 71
1
 10
0.0
 20
0.0
 11
22.0
 21
17.0
 12
0.0
 22
0.0
 32
0.0
 14
0.0
 24
0.0
 34
0.0
 15
0.0
 25
0.0
 35
0.0
146
0.0
 13
0.0
 23
0.0
 33
0.0
 16
1.0
 26
0.0
 36
0.0
 17
0.0
 27
1.0
 37
0.0
 76
0
330
206
345
0
346
0
  0
ENDSEC
  0
EOF
